999
DXF file: C:\Users\sesa63760\Dev\_Creo\CAD\MCADID0005241_3D-CAD\drw0001_2.dxf
999
Pro/ENGINEER 2019471 by Parametric Technology Corporation
  0
SECTION
  2
HEADER
  9
$ACADVER
  1
AC1024
  9
$DWGCODEPAGE
  3
ANSI_1252
  9
$EXTMAX
 10
58.6803808895
 20
82.9908244009
 30
0.0
  9
$EXTMIN
 10
0.0
 20
0.0
 30
0.0
  9
$LIMMIN
 10
0.0
 20
0.0
  9
$LIMMAX
 10
58.6803808895
 20
82.9908244009
  9
$VIEWCTR
 10
29.3401904448
 20
41.4954122004
  9
$VIEWSIZE
 40
82.9908244009
  9
$CLAYER
  8
0
  9
$LTSCALE
 40
5.4097722572
  9
$CELTYPE
  6
BYLAYER
  9
$DIMSCALE
 40
1.0
  9
$DIMASZ
 40
0.698575963
  9
$DIMEXO
 40
1.0
  9
$DIMDLI
 40
3.7376608323
  9
$DIMEXE
 40
1.0
  9
$DIMCEN
 40
0.8852354603
  9
$DIMLFAC
 40
1.0
  9
$DIMBLK
  1
_FILLED
  9
$DIMALT
 70
0
  9
$DIMALTF
 40
0.0393700787
  9
$DIMTXT
 40
0.9780063482
  9
$DIMTOL
 70
1
  9
$DIMLIM
 70
0
  9
$DIMTFAC
 40
1.0
  9
$DIMTP
 40
0.01
  9
$DIMTM
 40
0.01
  9
$DIMGAP
 40
0.625
  9
$DIMDSEP
 70
46
  9
$AUNITS
 70
0
  9
$PDMODE
 70
3
  9
$PDSIZE
 40
0.3125
  9
$HANDSEED
  5
283
  9
$TILEMODE
 70
1
  9
$MEASUREMENT
 70
1
  9
$INSUNITS
 70
4
  0
ENDSEC
  0
SECTION
  2
CLASSES
  0
CLASS
  1
ACDBDICTIONARYWDFLT
  2
AcDbDictionaryWithDefault
  3
AutoCAD 2000
 90
0
 91
1
280
0
281
0
  0
CLASS
  1
ACDBPLACEHOLDER
  2
AcDbPlaceHolder
  3
AutoCAD 2000
 90
0
 91
1
280
0
281
0
  0
CLASS
  1
LAYOUT
  2
AcDbLayout
  3
AutoCAD 2000
 90
0
 91
0
280
0
281
0
  0
ENDSEC
  0
SECTION
  2
TABLES
  0
TABLE
  2
VPORT
  5
8
100
AcDbSymbolTable
 70
2
  0
VPORT
  5
1F4
100
AcDbSymbolTableRecord
100
AcDbViewportTableRecord
  2
*ACTIVE
 70
0
 10
0.0
 20
0.0
 11
1.0
 21
1.0
 12
29.3401904448
 22
41.4954122004
 13
0.0
 23
0.0
 14
1.0
 24
1.0
 15
0.0
 25
0.0
 16
0.0
 26
0.0
 36
1.0
 17
0.0
 27
0.0
 37
0.0
 40
82.9908244009
 41
0.7070707071
 42
50.0
 43
0.0
 44
0.0
 50
0.0
 51
0.0
 71
0
 72
100
 73
1
 74
1
 75
0
 76
0
 77
0
 78
0
  0
ENDTAB
  0
TABLE
  2
LTYPE
  5
5
100
AcDbSymbolTable
 70
6
  0
LTYPE
  5
14
100
AcDbSymbolTableRecord
100
AcDbLinetypeTableRecord
  2
BYBLOCK
 70
0
  3

 72
65
 73
0
 40
0.0
  0
LTYPE
  5
15
100
AcDbSymbolTableRecord
100
AcDbLinetypeTableRecord
  2
BYLAYER
 70
0
  3

 72
65
 73
0
 40
0.0
  0
LTYPE
  5
16
100
AcDbSymbolTableRecord
100
AcDbLinetypeTableRecord
  2
CONTINUOUS
 70
64
  3
Solid line
 72
65
 73
0
 40
0.0
  0
LTYPE
  5
1F5
100
AcDbSymbolTableRecord
100
AcDbLinetypeTableRecord
  2
CENTER
 70
64
  3
____ _ ____ _ ____ _ ____ _ ____ _ ____ _ ____
 72
65
 73
4
 40
0.6
 49
0.375
 74
0
 49
-0.075
 74
0
 49
0.075
 74
0
 49
-0.075
 74
0
  0
LTYPE
  5
1F6
100
AcDbSymbolTableRecord
100
AcDbLinetypeTableRecord
  2
HIDDEN
 70
64
  3
- - - - - - - - - - - - - - - - - - - -
 72
65
 73
2
 40
0.2
 49
0.1
 74
0
 49
-0.1
 74
0
  0
LTYPE
  5
1F7
100
AcDbSymbolTableRecord
100
AcDbLinetypeTableRecord
  2
PHANTOM
 70
64
  3
_____ _ _ _____ _ _ _____ _ _ _____
 72
65
 73
6
 40
0.8
 49
0.45
 74
0
 49
-0.05
 74
0
 49
0.1
 74
0
 49
-0.05
 74
0
 49
0.1
 74
0
 49
-0.05
 74
0
  0
LTYPE
  5
1F8
100
AcDbSymbolTableRecord
100
AcDbLinetypeTableRecord
  2
DOT
 70
64
  3
. . . . . . . . . . . . . . . . . . . .
 72
65
 73
2
 40
0.2
 49
0.1
 74
0
 49
-0.1
 74
0
  0
LTYPE
  5
1F9
100
AcDbSymbolTableRecord
100
AcDbLinetypeTableRecord
  2
DASHED
 70
64
  3
- - - - - - - - - - - - - - - - - - - -
 72
65
 73
2
 40
0.2
 49
0.1
 74
0
 49
-0.1
 74
0
  0
ENDTAB
  0
TABLE
  2
LAYER
  5
2
100
AcDbSymbolTable
 70
36
  0
LAYER
  5
10
100
AcDbSymbolTableRecord
100
AcDbLayerTableRecord
  2
0
 70
0
 62
7
  6
CONTINUOUS
370
-3
390
F
  0
LAYER
  5
1FA
100
AcDbSymbolTableRecord
100
AcDbLayerTableRecord
  2
DEFAULT_1
 70
0
 62
7
  6
CENTER
370
-3
390
F
  0
LAYER
  5
1FB
100
AcDbSymbolTableRecord
100
AcDbLayerTableRecord
  2
DEFAULT_2
 70
0
 62
7
  6
HIDDEN
370
-3
390
F
  0
LAYER
  5
1FC
100
AcDbSymbolTableRecord
100
AcDbLayerTableRecord
  2
DEFAULT_3
 70
0
 62
7
  6
PHANTOM
370
-3
390
F
  0
LAYER
  5
1FD
100
AcDbSymbolTableRecord
100
AcDbLayerTableRecord
  2
00_COMPONENTS
 70
0
 62
7
  6
CONTINUOUS
370
-3
390
F
  0
LAYER
  5
1FE
100
AcDbSymbolTableRecord
100
AcDbLayerTableRecord
  2
00_COMPONENTS_1
 70
0
 62
7
  6
CONTINUOUS
370
-3
390
F
  0
LAYER
  5
1FF
100
AcDbSymbolTableRecord
100
AcDbLayerTableRecord
  2
00_COMPONENTS_2
 70
0
 62
7
  6
CONTINUOUS
370
-3
390
F
  0
LAYER
  5
200
100
AcDbSymbolTableRecord
100
AcDbLayerTableRecord
  2
00_COMPONENTS_3
 70
0
 62
7
  6
CONTINUOUS
370
-3
390
F
  0
LAYER
  5
201
100
AcDbSymbolTableRecord
100
AcDbLayerTableRecord
  2
00_COMPONENTS_5
 70
0
 62
7
  6
CONTINUOUS
370
-3
390
F
  0
LAYER
  5
202
100
AcDbSymbolTableRecord
100
AcDbLayerTableRecord
  2
01_1_DEFAULT_DATUMS
 70
0
 62
7
  6
CONTINUOUS
370
-3
390
F
  0
LAYER
  5
203
100
AcDbSymbolTableRecord
100
AcDbLayerTableRecord
  2
01_PLANES
 70
0
 62
7
  6
CONTINUOUS
370
-3
390
F
  0
LAYER
  5
204
100
AcDbSymbolTableRecord
100
AcDbLayerTableRecord
  2
02_COORD_SYS
 70
0
 62
7
  6
CONTINUOUS
370
-3
390
F
  0
LAYER
  5
205
100
AcDbSymbolTableRecord
100
AcDbLayerTableRecord
  2
03_AXES
 70
0
 62
7
  6
CONTINUOUS
370
-3
390
F
  0
LAYER
  5
206
100
AcDbSymbolTableRecord
100
AcDbLayerTableRecord
  2
04_POINTS
 70
0
 62
7
  6
CONTINUOUS
370
-3
390
F
  0
LAYER
  5
207
100
AcDbSymbolTableRecord
100
AcDbLayerTableRecord
  2
05_CURVES
 70
0
 62
7
  6
CONTINUOUS
370
-3
390
F
  0
LAYER
  5
208
100
AcDbSymbolTableRecord
100
AcDbLayerTableRecord
  2
06_SURFS
 70
0
 62
7
  6
CONTINUOUS
370
-3
390
F
  0
LAYER
  5
209
100
AcDbSymbolTableRecord
100
AcDbLayerTableRecord
  2
07_COSMETICS
 70
0
 62
7
  6
CONTINUOUS
370
-3
390
F
  0
LAYER
  5
20A
100
AcDbSymbolTableRecord
100
AcDbLayerTableRecord
  2
10_NOTES
 70
0
 62
7
  6
CONTINUOUS
370
-3
390
F
  0
LAYER
  5
20B
100
AcDbSymbolTableRecord
100
AcDbLayerTableRecord
  2
11_NOTES_PUB
 70
0
 62
7
  6
CONTINUOUS
370
-3
390
F
  0
LAYER
  5
20C
100
AcDbSymbolTableRecord
100
AcDbLayerTableRecord
  2
13_REF_GTOL
 70
0
 62
7
  6
CONTINUOUS
370
-3
390
F
  0
LAYER
  5
20D
100
AcDbSymbolTableRecord
100
AcDbLayerTableRecord
  2
16_MISC
 70
0
 62
7
  6
CONTINUOUS
370
-3
390
F
  0
LAYER
  5
20E
100
AcDbSymbolTableRecord
100
AcDbLayerTableRecord
  2
17_NO_PRINT
 70
0
 62
7
  6
CONTINUOUS
370
-3
390
F
  0
LAYER
  5
20F
100
AcDbSymbolTableRecord
100
AcDbLayerTableRecord
  2
18_DATUM_CAMS_JOINTS
 70
0
 62
7
  6
CONTINUOUS
370
-3
390
F
  0
LAYER
  5
210
100
AcDbSymbolTableRecord
100
AcDbLayerTableRecord
  2
19_DATUM_FUNCTIONAL
 70
0
 62
7
  6
CONTINUOUS
370
-3
390
F
  0
LAYER
  5
211
100
AcDbSymbolTableRecord
100
AcDbLayerTableRecord
  2
20_DATUM_KINEMATIC_SCHEME
 70
0
 62
7
  6
CONTINUOUS
370
-3
390
F
  0
LAYER
  5
212
100
AcDbSymbolTableRecord
100
AcDbLayerTableRecord
  2
INTF_BLANK
 70
0
 62
7
  6
CONTINUOUS
370
-3
390
F
  0
LAYER
  5
213
100
AcDbSymbolTableRecord
100
AcDbLayerTableRecord
  2
SHELL1
 70
0
 62
7
  6
CONTINUOUS
370
-3
390
F
  0
LAYER
  5
214
100
AcDbSymbolTableRecord
100
AcDbLayerTableRecord
  2
SHELL13
 70
0
 62
7
  6
CONTINUOUS
370
-3
390
F
  0
LAYER
  5
215
100
AcDbSymbolTableRecord
100
AcDbLayerTableRecord
  2
SHELL14
 70
0
 62
7
  6
CONTINUOUS
370
-3
390
F
  0
LAYER
  5
216
100
AcDbSymbolTableRecord
100
AcDbLayerTableRecord
  2
_BLACK_HOLE
 70
0
 62
7
  6
CONTINUOUS
370
-3
390
F
  0
LAYER
  5
217
100
AcDbSymbolTableRecord
100
AcDbLayerTableRecord
  2
black
 70
0
 62
7
  6
CONTINUOUS
370
-3
390
F
  0
ENDTAB
  0
TABLE
  2
STYLE
  5
3
100
AcDbSymbolTable
 70
1
  0
STYLE
  5
11
100
AcDbSymbolTableRecord
100
AcDbTextStyleTableRecord
  2
STANDARD
 70
0
 40
0.0
 41
1.0
 50
0.0
 71
0
 42
0.2
  3
ARIAL.TTF
  4

  0
STYLE
  5
218
100
AcDbSymbolTableRecord
100
AcDbTextStyleTableRecord
  2
TEXTSTYLE_1
 70
0
 40
0.0
 41
0.8
 50
0.0
 71
0
 42
0.2
  3
gdt
  4

  0
ENDTAB
  0
TABLE
  2
VIEW
  5
6
100
AcDbSymbolTable
 70
0
  0
ENDTAB
  0
TABLE
  2
UCS
  5
7
100
AcDbSymbolTable
 70
0
  0
ENDTAB
  0
TABLE
  2
APPID
  5
9
100
AcDbSymbolTable
 70
1
  0
APPID
  5
219
100
AcDbSymbolTableRecord
100
AcDbRegAppTableRecord
  2
ACAD
 70
0
  0
ENDTAB
  0
TABLE
  2
BLOCK_RECORD
  5
1
100
AcDbSymbolTable
 70
0
  0
BLOCK_RECORD
  5
21A
100
AcDbSymbolTableRecord
100
AcDbBlockTableRecord
  2
*Model_Space
  0
BLOCK_RECORD
  5
21B
100
AcDbSymbolTableRecord
100
AcDbBlockTableRecord
  2
*Paper_Space
  0
BLOCK_RECORD
  5
21C
100
AcDbSymbolTableRecord
100
AcDbBlockTableRecord
  2
_FILLED
  0
ENDTAB
  0
TABLE
  2
DIMSTYLE
  5
A
100
AcDbSymbolTable
 70
1
100
AcDbDimStyleTable
 71
0
  0
DIMSTYLE
105
21D
100
AcDbSymbolTableRecord
100
AcDbDimStyleTableRecord
  2
STANDARD
 70
0
  3

  4

 40
1.0
 41
0.698575963
 42
1.0
 43
0.38
 44
1.0
 45
0.0
 46
0.0
 47
0.01
 48
0.01
140
0.9780063482
141
0.09
142
0.0
143
25.4
144
1.0
145
0.0
146
1.0
147
0.625
 71
1
 72
0
 73
0
 74
0
 75
0
 76
0
 77
1
 78
8
 79
2
170
0
171
1
172
0
173
0
174
0
175
0
176
0
177
0
178
0
270
2
179
2
271
2
272
2
273
2
274
2
275
0
280
0
281
0
282
0
283
1
284
8
285
0
286
0
287
3
288
0
340
11
278
46
341
21C
342
21C
343
21C
344
21C
  0
ENDTAB
  0
ENDSEC
  0
SECTION
  2
BLOCKS
  0
BLOCK
  5
20
100
AcDbEntity
  8
0
100
AcDbBlockBegin
  2
*Model_Space
 70
0
 10
0.0
 20
0.0
 30
0.0
  3
*Model_Space
  1

  0
ENDBLK
  5
21
100
AcDbEntity
  8
0
100
AcDbBlockEnd
  0
BLOCK
  5
1C
100
AcDbEntity
  8
0
100
AcDbBlockBegin
  2
*Paper_Space
 70
0
 10
0.0
 20
0.0
 30
0.0
  3
*Paper_Space
  1

  0
ENDBLK
  5
1D
100
AcDbEntity
  8
0
100
AcDbBlockEnd
  0
BLOCK
  5
21E
100
AcDbEntity
  8
0
100
AcDbBlockBegin
  2
_FILLED
 70
64
 10
0.0
 20
0.0
  3
_FILLED
  1

  0
SOLID
  5
21F
100
AcDbEntity
  8
0
  6
BYBLOCK
 62
0
100
AcDbTrace
 10
0.0
 20
0.0
 11
-1.0
 21
0.25
 12
-1.0
 22
-0.25
 13
-1.0
 23
-0.25
  0
ENDBLK
  5
220
100
AcDbEntity
  8
0
  6
BYBLOCK
 62
0
100
AcDbBlockEnd
  0
ENDSEC
  0
SECTION
  2
ENTITIES
  0
LINE
  5
221
100
AcDbEntity
  8
00_COMPONENTS_3
100
AcDbLine
 62
7
  6
BYLAYER
 10
15.8755102665
 20
11.1932422658
 11
47.3675102745
 21
11.1932422658
  0
LINE
  5
222
100
AcDbEntity
  8
00_COMPONENTS_3
100
AcDbLine
 62
7
  6
BYLAYER
 10
15.8755102665
 20
11.1932422658
 11
15.6215102665
 21
11.4472422658
  0
LINE
  5
223
100
AcDbEntity
  8
00_COMPONENTS_3
100
AcDbLine
 62
7
  6
BYLAYER
 10
15.6215102665
 20
11.4472422658
 11
47.6215102745
 21
11.4472422658
  0
LINE
  5
224
100
AcDbEntity
  8
00_COMPONENTS_3
100
AcDbLine
 62
7
  6
BYLAYER
 10
15.2278102665
 20
17.5673450668
 11
14.1590102705
 21
18.1844170322
  0
LINE
  5
225
100
AcDbEntity
  8
00_COMPONENTS_1
100
AcDbLine
 62
7
  6
BYLAYER
 10
6.4339102705
 20
45.1772630102
 11
6.4339102705
 21
69.6894422658
  0
LINE
  5
226
100
AcDbEntity
  8
00_COMPONENTS_3
100
AcDbLine
 62
7
  6
BYLAYER
 10
47.6215102745
 20
16.8854366638
 11
15.6215102665
 21
16.8854366638
  0
LINE
  5
227
100
AcDbEntity
  8
00_COMPONENTS_3
100
AcDbLine
 62
7
  6
BYLAYER
 10
15.2278102665
 20
17.5673450668
 11
48.0152102745
 21
17.5673450668
  0
LINE
  5
228
100
AcDbEntity
  8
00_COMPONENTS_1
100
AcDbLine
 62
7
  6
BYLAYER
 10
7.7039102705
 20
63.2474307523
 11
7.7039102705
 21
64.6155975574
  0
LINE
  5
229
100
AcDbEntity
  8
00_COMPONENTS_1
100
AcDbLine
 62
7
  6
BYLAYER
 10
7.9579102705
 20
69.6894422658
 11
7.9579102705
 21
71.4928422658
  0
LINE
  5
22A
100
AcDbEntity
  8
00_COMPONENTS_1
100
AcDbLine
 62
7
  6
BYLAYER
 10
9.9936488014
 20
63.3549546439
 11
9.9936488014
 21
64.0015330846
  0
LINE
  5
22B
100
AcDbEntity
  8
00_COMPONENTS_5
100
AcDbLine
 62
7
  6
BYLAYER
 10
10.1839102705
 20
37.6092422658
 11
10.1839102705
 21
45.0514422658
  0
LINE
  5
22C
100
AcDbEntity
  8
00_COMPONENTS_5
100
AcDbLine
 62
7
  6
BYLAYER
 10
11.3269102705
 20
35.2089422658
 11
11.3269102705
 21
37.6092422658
  0
LINE
  5
22D
100
AcDbEntity
  8
00_COMPONENTS_1
100
AcDbLine
 62
7
  6
BYLAYER
 10
11.4123102705
 20
69.6894422658
 11
11.4123102705
 21
71.4928422658
  0
LINE
  5
22E
100
AcDbEntity
  8
00_COMPONENTS_5
100
AcDbLine
 62
7
  6
BYLAYER
 10
11.7777602705
 20
33.6214422658
 11
11.7777602705
 21
35.2089422658
  0
LINE
  5
22F
100
AcDbEntity
  8
00_COMPONENTS_1
100
AcDbLine
 62
7
  6
BYLAYER
 10
14.2063102705
 20
54.351164811
 11
11.49227467
 21
52.954164811
  0
LINE
  5
230
100
AcDbEntity
  8
00_COMPONENTS_3
100
AcDbLine
 62
7
  6
BYLAYER
 10
12.5715102705
 20
25.7474422658
 11
12.5715102705
 21
27.2714422658
  0
LINE
  5
231
100
AcDbEntity
  8
00_COMPONENTS_3
100
AcDbLine
 62
7
  6
BYLAYER
 10
13.2065102705
 20
24.4774422658
 11
13.2065102705
 21
25.7474422658
  0
LINE
  5
232
100
AcDbEntity
  8
00_COMPONENTS_3
100
AcDbLine
 62
7
  6
BYLAYER
 10
14.1590102705
 20
18.1844170322
 11
14.1590102705
 21
24.4774422658
  0
LINE
  5
233
100
AcDbEntity
  8
00_COMPONENTS_1
100
AcDbLine
 62
7
  6
BYLAYER
 10
14.2063102705
 20
69.6894422658
 11
14.2063102705
 21
66.6330808882
  0
LINE
  5
234
100
AcDbEntity
  8
00_COMPONENTS_1
100
AcDbLine
 62
7
  6
BYLAYER
 10
14.2063102705
 20
65.7412038689
 11
14.2063102705
 21
63.6187891279
  0
LINE
  5
235
100
AcDbEntity
  8
00_COMPONENTS_1
100
AcDbLine
 62
7
  6
BYLAYER
 10
14.2063102705
 20
61.1402384385
 11
14.2063102705
 21
54.351164811
  0
LINE
  5
236
100
AcDbEntity
  8
00_COMPONENTS_3
100
AcDbLine
 62
7
  6
BYLAYER
 10
13.2065102705
 20
24.4774422658
 11
50.0365102705
 21
24.4774422658
  0
LINE
  5
237
100
AcDbEntity
  8
00_COMPONENTS_3
100
AcDbLine
 62
7
  6
BYLAYER
 10
12.5715102705
 20
25.7474422658
 11
50.6715102705
 21
25.7474422658
  0
LINE
  5
238
100
AcDbEntity
  8
00_COMPONENTS_3
100
AcDbLine
 62
7
  6
BYLAYER
 10
15.6215102665
 20
11.4472422658
 11
15.6215102665
 21
16.8854366638
  0
LINE
  5
239
100
AcDbEntity
  8
00_COMPONENTS_5
100
AcDbLine
 62
7
  6
BYLAYER
 10
16.6355102705
 20
27.2714422658
 11
16.6355102705
 21
33.6214422658
  0
LINE
  5
23A
100
AcDbEntity
  8
00_COMPONENTS_3
100
AcDbLine
 62
7
  6
BYLAYER
 10
50.6715102705
 20
27.2714422658
 11
12.5715102705
 21
27.2714422658
  0
LINE
  5
23B
100
AcDbEntity
  8
00_COMPONENTS_1
100
AcDbLine
 62
7
  6
BYLAYER
 10
19.1339102705
 20
45.0514422658
 11
19.1339102705
 21
52.600338806
  0
LINE
  5
23C
100
AcDbEntity
  8
00_COMPONENTS_1
100
AcDbLine
 62
7
  6
BYLAYER
 10
19.1339102705
 20
54.704990816
 11
19.1339102705
 21
69.6894422658
  0
LINE
  5
23D
100
AcDbEntity
  8
00_COMPONENTS_1
100
AcDbLine
 62
7
  6
BYLAYER
 10
21.6739102705
 20
45.0514422658
 11
21.6739102705
 21
69.6894422658
  0
LINE
  5
23E
100
AcDbEntity
  8
00_COMPONENTS_1
100
AcDbLine
 62
7
  6
BYLAYER
 10
21.6993102705
 20
69.6894422658
 11
21.6993102705
 21
45.0514422658
  0
LINE
  5
23F
100
AcDbEntity
  8
00_COMPONENTS_5
100
AcDbLine
 62
7
  6
BYLAYER
 10
11.7777602705
 20
33.6214422658
 11
51.4652602705
 21
33.6214422658
  0
LINE
  5
240
100
AcDbEntity
  8
00_COMPONENTS_1
100
AcDbLine
 62
7
  6
BYLAYER
 10
8.7387576662
 20
66.0461973279
 11
9.4751326346
 21
64.6155975574
  0
LINE
  5
241
100
AcDbEntity
  8
00_COMPONENTS_3
100
AcDbLine
 62
7
  6
BYLAYER
 10
24.3883059375
 20
24.4774422658
 11
24.3883059375
 21
19.0150934715
  0
LINE
  5
242
100
AcDbEntity
  8
00_COMPONENTS_5
100
AcDbLine
 62
7
  6
BYLAYER
 10
11.3269102705
 20
35.2089422658
 11
51.9161102705
 21
35.2089422658
  0
LINE
  5
243
100
AcDbEntity
  8
00_COMPONENTS_1
100
AcDbLine
 62
7
  6
BYLAYER
 10
14.2063102705
 20
66.6330808882
 11
14.1024521158
 21
66.8956398225
  0
LINE
  5
244
100
AcDbEntity
  8
00_COMPONENTS_5
100
AcDbLine
 62
7
  6
BYLAYER
 10
25.7580700482
 20
42.5707089325
 11
25.7580700482
 21
37.6092422658
  0
LINE
  5
245
100
AcDbEntity
  8
00_COMPONENTS_5
100
AcDbLine
 62
7
  6
BYLAYER
 10
10.1839102705
 20
37.6092422658
 11
53.0591102705
 21
37.6092422658
  0
LINE
  5
246
100
AcDbEntity
  8
00_COMPONENTS_1
100
AcDbLine
 62
7
  6
BYLAYER
 10
14.2641180737
 20
66.3429841198
 11
14.1548154481
 21
66.5553328795
  0
LINE
  5
247
100
AcDbEntity
  8
00_COMPONENTS_1
100
AcDbLine
 62
7
  6
BYLAYER
 10
28.3160102705
 20
45.0514422658
 11
28.3160102705
 21
69.6894422658
  0
LINE
  5
248
100
AcDbEntity
  8
00_COMPONENTS_1
100
AcDbLine
 62
7
  6
BYLAYER
 10
31.6307102705
 20
69.6894422658
 11
31.6307102705
 21
45.0514422658
  0
LINE
  5
249
100
AcDbEntity
  8
00_COMPONENTS_5
100
AcDbLine
 62
7
  6
BYLAYER
 10
10.1839102705
 20
42.5707089325
 11
25.7580700482
 21
42.5707089325
  0
LINE
  5
24A
100
AcDbEntity
  8
00_COMPONENTS_5
100
AcDbLine
 62
7
  6
BYLAYER
 10
37.4849504927
 20
42.5707089325
 11
53.0591102705
 21
42.5707089325
  0
LINE
  5
24B
100
AcDbEntity
  8
00_COMPONENTS_1
100
AcDbLine
 62
7
  6
BYLAYER
 10
32.9515102705
 20
49.5218422658
 11
32.9515102705
 21
45.0514422658
  0
LINE
  5
24C
100
AcDbEntity
  8
00_COMPONENTS_1
100
AcDbLine
 62
7
  6
BYLAYER
 10
34.9327102705
 20
69.6894422658
 11
34.9327102705
 21
45.0514422658
  0
LINE
  5
24D
100
AcDbEntity
  8
00_COMPONENTS_5
100
AcDbLine
 62
7
  6
BYLAYER
 10
53.0591102705
 20
45.0514422658
 11
10.1839102705
 21
45.0514422658
  0
LINE
  5
24E
100
AcDbEntity
  8
00_COMPONENTS_1
100
AcDbLine
 62
7
  6
BYLAYER
 10
21.6739102705
 20
45.0768422658
 11
21.6993102705
 21
45.0768422658
  0
LINE
  5
24F
100
AcDbEntity
  8
00_COMPONENTS_1
100
AcDbLine
 62
7
  6
BYLAYER
 10
19.1339102705
 20
45.1772630102
 11
6.4339102705
 21
45.1772630102
  0
LINE
  5
250
100
AcDbEntity
  8
00_COMPONENTS_5
100
AcDbLine
 62
7
  6
BYLAYER
 10
37.4849504927
 20
37.6092422658
 11
37.4849504927
 21
42.5707089325
  0
LINE
  5
251
100
AcDbEntity
  8
00_COMPONENTS_3
100
AcDbLine
 62
7
  6
BYLAYER
 10
38.8547146034
 20
24.4774422658
 11
38.8547146034
 21
19.0150934715
  0
LINE
  5
252
100
AcDbEntity
  8
00_COMPONENTS_1
100
AcDbLine
 62
7
  6
BYLAYER
 10
31.6307102705
 20
49.5218422658
 11
34.9327102705
 21
49.5218422658
  0
LINE
  5
253
100
AcDbEntity
  8
00_COMPONENTS_1
100
AcDbLine
 62
7
  6
BYLAYER
 10
34.9327102705
 20
50.7918422658
 11
31.6307102705
 21
50.7918422658
  0
LINE
  5
254
100
AcDbEntity
  8
00_COMPONENTS_1
100
AcDbLine
 62
7
  6
BYLAYER
 10
21.6739102705
 20
52.600338806
 11
19.1339102705
 21
52.600338806
  0
LINE
  5
255
100
AcDbEntity
  8
00_COMPONENTS_1
100
AcDbLine
 62
7
  6
BYLAYER
 10
21.6739102705
 20
52.954164811
 11
11.49227467
 21
52.954164811
  0
LINE
  5
256
100
AcDbEntity
  8
00_COMPONENTS_1
100
AcDbLine
 62
7
  6
BYLAYER
 10
21.6739102705
 20
54.351164811
 11
14.2063102705
 21
54.351164811
  0
LINE
  5
257
100
AcDbEntity
  8
00_COMPONENTS_1
100
AcDbLine
 62
7
  6
BYLAYER
 10
10.29200921
 20
63.0501674316
 11
9.4856488014
 21
63.37936269
  0
LINE
  5
258
100
AcDbEntity
  8
00_COMPONENTS_1
100
AcDbLine
 62
7
  6
BYLAYER
 10
9.9936488014
 20
63.3549546439
 11
10.6464452771
 21
63.0884515987
  0
LINE
  5
259
100
AcDbEntity
  8
00_COMPONENTS_1
100
AcDbLine
 62
7
  6
BYLAYER
 10
19.1339102705
 20
54.704990816
 11
21.6739102705
 21
54.704990816
  0
LINE
  5
25A
100
AcDbEntity
  8
00_COMPONENTS_1
100
AcDbLine
 62
7
  6
BYLAYER
 10
9.9936488014
 20
64.0015330846
 11
11.7014215702
 21
63.3043377713
  0
LINE
  5
25B
100
AcDbEntity
  8
00_COMPONENTS_5
100
AcDbLine
 62
7
  6
BYLAYER
 10
46.6075102705
 20
33.6214422658
 11
46.6075102705
 21
27.2714422658
  0
LINE
  5
25C
100
AcDbEntity
  8
00_COMPONENTS_3
100
AcDbLine
 62
7
  6
BYLAYER
 10
47.6215102745
 20
16.8854366638
 11
47.6215102745
 21
11.4472422658
  0
LINE
  5
25D
100
AcDbEntity
  8
00_COMPONENTS_1
100
AcDbLine
 62
7
  6
BYLAYER
 10
11.49227467
 20
52.954164811
 11
6.4339102705
 21
51.6523147054
  0
LINE
  5
25E
100
AcDbEntity
  8
00_COMPONENTS_3
100
AcDbLine
 62
7
  6
BYLAYER
 10
49.0840102705
 20
24.4774422658
 11
49.0840102705
 21
18.1844170322
  0
LINE
  5
25F
100
AcDbEntity
  8
00_COMPONENTS_3
100
AcDbLine
 62
7
  6
BYLAYER
 10
50.0365102705
 20
25.7474422658
 11
50.0365102705
 21
24.4774422658
  0
LINE
  5
260
100
AcDbEntity
  8
00_COMPONENTS_1
100
AcDbLine
 62
7
  6
BYLAYER
 10
19.1339102705
 20
61.1402384385
 11
14.2063102705
 21
61.1402384385
  0
LINE
  5
261
100
AcDbEntity
  8
00_COMPONENTS_3
100
AcDbLine
 62
7
  6
BYLAYER
 10
50.6715102705
 20
27.2714422658
 11
50.6715102705
 21
25.7474422658
  0
LINE
  5
262
100
AcDbEntity
  8
00_COMPONENTS_5
100
AcDbLine
 62
7
  6
BYLAYER
 10
51.4652602705
 20
35.2089422658
 11
51.4652602705
 21
33.6214422658
  0
LINE
  5
263
100
AcDbEntity
  8
00_COMPONENTS_5
100
AcDbLine
 62
7
  6
BYLAYER
 10
51.9161102705
 20
37.6092422658
 11
51.9161102705
 21
35.2089422658
  0
LINE
  5
264
100
AcDbEntity
  8
00_COMPONENTS_1
100
AcDbLine
 62
7
  6
BYLAYER
 10
6.4339102705
 20
59.139888333
 11
14.2063102705
 21
61.1402384385
  0
LINE
  5
265
100
AcDbEntity
  8
00_COMPONENTS_1
100
AcDbLine
 62
7
  6
BYLAYER
 10
19.1339102705
 20
63.618789128
 11
14.2063102705
 21
63.618789128
  0
LINE
  5
266
100
AcDbEntity
  8
00_COMPONENTS_5
100
AcDbLine
 62
7
  6
BYLAYER
 10
53.0591102705
 20
45.0514422658
 11
53.0591102705
 21
37.6092422658
  0
LINE
  5
267
100
AcDbEntity
  8
00_COMPONENTS_1
100
AcDbLine
 62
7
  6
BYLAYER
 10
14.2063102705
 20
63.6187891279
 11
6.4339102705
 21
61.6184390224
  0
LINE
  5
268
100
AcDbEntity
  8
00_COMPONENTS_1
100
AcDbLine
 62
7
  6
BYLAYER
 10
7.7039102705
 20
64.6155975574
 11
9.4751326346
 21
64.6155975574
  0
LINE
  5
269
100
AcDbEntity
  8
00_COMPONENTS_1
100
AcDbLine
 62
7
  6
BYLAYER
 10
8.7387576662
 20
63.5137651018
 11
6.4339102705
 21
62.9205761599
  0
LINE
  5
26A
100
AcDbEntity
  8
00_COMPONENTS_1
100
AcDbLine
 62
7
  6
BYLAYER
 10
31.6307102705
 20
68.4194422658
 11
34.9327102705
 21
68.4194422658
  0
LINE
  5
26B
100
AcDbEntity
  8
00_COMPONENTS_3
100
AcDbLine
 62
7
  6
BYLAYER
 10
49.0840102705
 20
18.1844170322
 11
48.0152102745
 21
17.5673450668
  0
LINE
  5
26C
100
AcDbEntity
  8
00_COMPONENTS_1
100
AcDbLine
 62
7
  6
BYLAYER
 10
6.4339102705
 20
65.4530083861
 11
8.7387576662
 21
66.0461973279
  0
LINE
  5
26D
100
AcDbEntity
  8
00_COMPONENTS_1
100
AcDbLine
 62
7
  6
BYLAYER
 10
21.6993102705
 20
69.6640422658
 11
21.6739102705
 21
69.6640422658
  0
LINE
  5
26E
100
AcDbEntity
  8
00_COMPONENTS_1
100
AcDbLine
 62
7
  6
BYLAYER
 10
6.4339102705
 20
69.6894422658
 11
34.9327102705
 21
69.6894422658
  0
LINE
  5
26F
100
AcDbEntity
  8
00_COMPONENTS_1
100
AcDbLine
 62
7
  6
BYLAYER
 10
11.4123102705
 20
71.4928422658
 11
7.9579102705
 21
71.4928422658
  0
LINE
  5
270
100
AcDbEntity
  8
00_COMPONENTS_3
100
AcDbLine
 62
7
  6
BYLAYER
 10
47.6215102745
 20
11.4472422658
 11
47.3675102745
 21
11.1932422658
  0
ARC
  5
271
100
AcDbEntity
  8
00_COMPONENTS_1
100
AcDbCircle
 62
7
  6
BYLAYER
 10
11.2894166497
 20
61.7283050909
 40
2.0796641761
100
AcDbArc
 50
128.5403706278
 51
133.7507702357
  0
ARC
  5
272
100
AcDbEntity
  8
00_COMPONENTS_3
100
AcDbCircle
 62
7
  6
BYLAYER
 10
48.4089102745
 20
16.8854366638
 40
0.7874
100
AcDbArc
 50
120.0
 51
180.0
  0
ARC
  5
273
100
AcDbEntity
  8
00_COMPONENTS_3
100
AcDbCircle
 62
7
  6
BYLAYER
 10
14.8341102665
 20
16.8854366638
 40
0.7874
100
AcDbArc
 50
0.0
 51
60.0
  0
SPLINE
  5
274
100
AcDbEntity
  8
00_COMPONENTS_3
100
AcDbSpline
 62
7
  6
BYLAYER
 70
0
 71
3
 72
15
 73
11
 74
0
 42
0.0000001
 43
0.0000001
 44
0.0000000001
 40
0.0
 40
0.0
 40
0.0
 40
0.0
 40
0.1262643924
 40
0.2515123322
 40
0.3759716731
 40
0.5
 40
0.6240283269
 40
0.7484876678
 40
0.8737356076
 40
1.0
 40
1.0
 40
1.0
 40
1.0
 10
14.1590102705
 20
19.0150934715
 30
0.0
 10
14.5768600967
 20
18.8845322343
 30
0.0
 10
15.4172196069
 20
18.649083188
 30
0.0
 10
16.6948617568
 20
18.3848737178
 30
0.0
 10
17.9817275438
 20
18.2213903965
 30
0.0
 10
19.273658104
 20
18.1659806972
 30
0.0
 10
20.5655886642
 20
18.2213903965
 30
0.0
 10
21.8524544512
 20
18.3848737178
 30
0.0
 10
23.130096601
 20
18.649083188
 30
0.0
 10
23.9704561113
 20
18.8845322343
 30
0.0
 10
24.3883059375
 20
19.0150934715
 30
0.0
  0
SPLINE
  5
275
100
AcDbEntity
  8
00_COMPONENTS_3
100
AcDbSpline
 62
7
  6
BYLAYER
 70
0
 71
3
 72
15
 73
11
 74
0
 42
0.0000001
 43
0.0000001
 44
0.0000000001
 40
0.0
 40
0.0
 40
0.0
 40
0.0
 40
0.12500029
 40
0.2500023334
 40
0.3750011493
 40
0.5
 40
0.6249988507
 40
0.7499976666
 40
0.87499971
 40
1.0
 40
1.0
 40
1.0
 40
1.0
 10
24.3883059375
 20
19.0150934715
 30
0.0
 10
24.9818638225
 20
18.8839513782
 30
0.0
 10
26.1750042451
 20
18.6478301913
 30
0.0
 10
27.9803079215
 20
18.3842160828
 30
0.0
 10
29.7976455587
 20
18.2212367159
 30
0.0
 10
31.6215102705
 20
18.1660254794
 30
0.0
 10
33.4453749822
 20
18.2212367159
 30
0.0
 10
35.2627126194
 20
18.3842160828
 30
0.0
 10
37.0680162959
 20
18.6478301913
 30
0.0
 10
38.2611567184
 20
18.8839513782
 30
0.0
 10
38.8547146034
 20
19.0150934715
 30
0.0
  0
SPLINE
  5
276
100
AcDbEntity
  8
00_COMPONENTS_3
100
AcDbSpline
 62
7
  6
BYLAYER
 70
0
 71
3
 72
15
 73
11
 74
0
 42
0.0000001
 43
0.0000001
 44
0.0000000001
 40
0.0
 40
0.0
 40
0.0
 40
0.0
 40
0.1262643924
 40
0.2515123322
 40
0.3759716731
 40
0.5
 40
0.6240283269
 40
0.7484876678
 40
0.8737356076
 40
1.0
 40
1.0
 40
1.0
 40
1.0
 10
38.8547146034
 20
19.0150934715
 30
0.0
 10
39.2725644296
 20
18.8845322343
 30
0.0
 10
40.1129239399
 20
18.649083188
 30
0.0
 10
41.3905660897
 20
18.3848737178
 30
0.0
 10
42.6774318768
 20
18.2213903965
 30
0.0
 10
43.9693624369
 20
18.1659806972
 30
0.0
 10
45.2612929971
 20
18.2213903965
 30
0.0
 10
46.5481587841
 20
18.3848737178
 30
0.0
 10
47.825800934
 20
18.649083188
 30
0.0
 10
48.6661604443
 20
18.8845322343
 30
0.0
 10
49.0840102705
 20
19.0150934715
 30
0.0
  0
SPLINE
  5
277
100
AcDbEntity
  8
00_COMPONENTS_1
100
AcDbSpline
 62
7
  6
BYLAYER
 70
0
 71
3
 72
11
 73
7
 74
0
 42
0.0000001
 43
0.0000001
 44
0.0000000001
 40
0.0
 40
0.0
 40
0.0
 40
0.0
 40
0.2321786272
 40
0.4789529933
 40
0.7365927127
 40
1.0
 40
1.0
 40
1.0
 40
1.0
 10
9.9936488014
 20
64.0015330846
 30
0.0
 10
10.1164129215
 20
64.0995234949
 30
0.0
 10
10.391782185
 20
64.2748496858
 30
0.0
 10
10.8553233994
 20
64.46378282
 30
0.0
 10
11.3636224716
 20
64.5804414097
 30
0.0
 10
11.7167061081
 20
64.6066173013
 30
0.0
 10
11.8949102705
 20
64.6066173013
 30
0.0
  0
SPLINE
  5
278
100
AcDbEntity
  8
00_COMPONENTS_1
100
AcDbSpline
 62
7
  6
BYLAYER
 70
0
 71
3
 72
9
 73
5
 74
0
 42
0.0000001
 43
0.0000001
 44
0.0000000001
 40
0.0
 40
0.0
 40
0.0
 40
0.0
 40
0.2573487613
 40
1.0
 40
1.0
 40
1.0
 40
1.0
 10
11.8949102705
 20
64.6066173013
 30
0.0
 10
12.0189660366
 20
64.6066173013
 30
0.0
 10
12.500402851
 20
64.5817629936
 30
0.0
 10
12.9790291027
 20
64.4579045571
 30
0.0
 10
13.3029180272
 20
64.305398656
 30
0.0
  0
SPLINE
  5
279
100
AcDbEntity
  8
00_COMPONENTS_1
100
AcDbSpline
 62
7
  6
BYLAYER
 70
0
 71
3
 72
9
 73
5
 74
0
 42
0.0000001
 43
0.0000001
 44
0.0000000001
 40
0.0
 40
0.0
 40
0.0
 40
0.0
 40
0.2477717144
 40
1.0
 40
1.0
 40
1.0
 40
1.0
 10
9.407474767
 20
63.1739610056
 30
0.0
 10
9.4125689154
 20
63.1913938263
 30
0.0
 10
9.4345412631
 20
63.261333437
 30
0.0
 10
9.4621060415
 20
63.3295024561
 30
0.0
 10
9.4856488014
 20
63.37936269
 30
0.0
  0
SPLINE
  5
27A
100
AcDbEntity
  8
00_COMPONENTS_1
100
AcDbSpline
 62
7
  6
BYLAYER
 70
0
 71
3
 72
14
 73
10
 74
0
 42
0.0000001
 43
0.0000001
 44
0.0000000001
 40
0.0
 40
0.0
 40
0.0
 40
0.0
 40
0.132142359
 40
0.2663158809
 40
0.4002889432
 40
0.5319213427
 40
0.6591968977
 40
0.7804309731
 40
1.0
 40
1.0
 40
1.0
 40
1.0
 10
11.245713366
 20
63.1531811276
 30
0.0
 10
11.4206146884
 20
63.19819475
 30
0.0
 10
11.7678608443
 20
63.3105731822
 30
0.0
 10
12.2666472353
 20
63.5379995342
 30
0.0
 10
12.7360014519
 20
63.8201013217
 30
0.0
 10
13.1622713188
 20
64.148518539
 30
0.0
 10
13.5334619573
 20
64.514470601
 30
0.0
 10
13.9266760795
 20
65.0197792655
 30
0.0
 10
14.1338118649
 20
65.4500047062
 30
0.0
 10
14.2063102705
 20
65.7412038689
 30
0.0
  0
SPLINE
  5
27B
100
AcDbEntity
  8
00_COMPONENTS_1
100
AcDbSpline
 62
7
  6
BYLAYER
 70
0
 71
3
 72
13
 73
9
 74
0
 42
0.0000001
 43
0.0000001
 44
0.0000000001
 40
0.0
 40
0.0
 40
0.0
 40
0.0
 40
0.1056420789
 40
0.2162752006
 40
0.3325821657
 40
0.4549973815
 40
0.7173494177
 40
1.0
 40
1.0
 40
1.0
 40
1.0
 10
8.7387576662
 20
63.5137651017
 30
0.0
 10
8.8087177334
 20
63.4533394931
 30
0.0
 10
8.9629602895
 20
63.3419460678
 30
0.0
 10
9.2234573689
 20
63.209937139
 30
0.0
 10
9.513869074
 20
63.1114302031
 30
0.0
 10
9.9446627309
 20
63.0245462986
 30
0.0
 10
10.5332722981
 20
63.0108595675
 30
0.0
 10
11.0061838848
 20
63.091534426
 30
0.0
 10
11.245713366
 20
63.1531811276
 30
0.0
  0
SPLINE
  5
27C
100
AcDbEntity
  8
00_COMPONENTS_1
100
AcDbSpline
 62
7
  6
BYLAYER
 70
0
 71
3
 72
15
 73
11
 74
0
 42
0.0000001
 43
0.0000001
 44
0.0000000001
 40
0.0
 40
0.0
 40
0.0
 40
0.0
 40
0.104125605
 40
0.2112476426
 40
0.3239422654
 40
0.4438838908
 40
0.5718527346
 40
0.707766468
 40
0.8509438515
 40
1.0
 40
1.0
 40
1.0
 40
1.0
 10
14.1025426958
 20
66.8956864407
 30
0.0
 10
14.0518653107
 20
66.994170021
 30
0.0
 10
13.9248647164
 20
67.1824607037
 30
0.0
 10
13.6702843707
 20
67.41859113
 30
0.0
 10
13.3579460507
 20
67.6051091504
 30
0.0
 10
12.9961127452
 20
67.7381010994
 30
0.0
 10
12.5935928522
 20
67.8152549766
 30
0.0
 10
12.1597473075
 20
67.8353452641
 30
0.0
 10
11.7047736288
 20
67.7980690563
 30
0.0
 10
11.3992593286
 20
67.7367082075
 30
0.0
 10
11.245713366
 20
67.6971907248
 30
0.0
  0
SPLINE
  5
27D
100
AcDbEntity
  8
00_COMPONENTS_1
100
AcDbSpline
 62
7
  6
BYLAYER
 70
0
 71
3
 72
11
 73
7
 74
0
 42
0.0000001
 43
0.0000001
 44
0.0000000001
 40
0.0
 40
0.0
 40
0.0
 40
0.0
 40
0.2538815877
 40
0.510686144
 40
0.7619495882
 40
1.0
 40
1.0
 40
1.0
 40
1.0
 10
11.245713366
 20
67.6971907248
 30
0.0
 10
10.995313666
 20
67.6327464005
 30
0.0
 10
10.5021226223
 20
67.4589101246
 30
0.0
 10
9.8183879674
 20
67.0851642312
 30
0.0
 10
9.2166962701
 20
66.6156381709
 30
0.0
 10
8.8811185509
 20
66.2424343114
 30
0.0
 10
8.7387576662
 20
66.0461973279
 30
0.0
  0
ELLIPSE
  5
27E
100
AcDbEntity
  8
00_COMPONENTS_1
100
AcDbEllipse
 62
7
  6
BYLAYER
 10
11.315752468
 20
65.2891167665
 30
0.0
 11
3.4193096007
 21
0.0
 31
0.0
 40
0.6644630244
 41
0.5315947947
 42
0.5911452022
  0
ELLIPSE
  5
27F
100
AcDbEntity
  8
00_COMPONENTS_1
100
AcDbEllipse
 62
7
  6
BYLAYER
 10
10.8535102705
 20
66.1871423786
 30
0.0
 11
3.4193096007
 21
0.0
 31
0.0
 40
0.6644630244
 41
-0.1975579181
 42
0.1975579181
  0
ELLIPSE
  5
280
100
AcDbEntity
  8
00_COMPONENTS_1
100
AcDbEllipse
 62
7
  6
BYLAYER
 10
12.3141956146
 20
63.3493814443
 30
0.0
 11
3.4193096007
 21
0.0
 31
0.0
 40
0.6644630244
 41
7.3215210918
 42
8.8336327586
  0
ENDSEC
  0
SECTION
  2
OBJECTS
  0
DICTIONARY
  5
C
100
AcDbDictionary
280
0
281
1
  3
ACAD_GROUP
350
D
  3
ACAD_MLINESTYLE
350
17
  3
ACAD_LAYOUT
350
1A
  3
ACAD_PLOTSETTINGS
350
19
  3
ACAD_PLOTSTYLENAME
350
E
  0
DICTIONARY
  5
D
102
{ACAD_REACTORS
330
C
102
}
100
AcDbDictionary
280
0
281
1
  0
ACDBDICTIONARYWDFLT
  5
E
102
{ACAD_REACTORS
330
C
102
}
100
AcDbDictionary
281
1
  3
Normal
350
F
100
AcDbDictionaryWithDefault
340
F
  0
DICTIONARY
  5
17
102
{ACAD_REACTORS
330
C
102
}
100
AcDbDictionary
280
0
281
1
  3
Standard
350
18
  0
DICTIONARY
  5
19
102
{ACAD_REACTORS
330
C
102
}
100
AcDbDictionary
281
1
  0
DICTIONARY
  5
1A
102
{ACAD_REACTORS
330
C
102
}
100
AcDbDictionary
281
1
  3
Model
350
281
  3
Layout1
350
282
  0
ACDBPLACEHOLDER
  5
F
102
{ACAD_REACTORS
330
E
102
}
  0
MLINESTYLE
  5
18
102
{ACAD_REACTORS
330
17
102
}
100
AcDbMlineStyle
  2
STANDARD
 70
0
  3

 62
256
 51
90.0
 52
90.0
 71
2
 49
0.5
 62
256
  6
BYLAYER
 49
-0.5
 62
256
  6
BYLAYER
  0
LAYOUT
  5
281
102
{ACAD_REACTORS
330
1A
102
}
100
AcDbPlotSettings
  1

  2
none_device
  4

  6

 40
0.0
 41
0.0
 42
0.0
 43
0.0
 44
210.0
 45
297.0
 46
0.0
 47
0.0
 48
0.0
 49
0.0
140
0.0
141
0.0
142
1.0
143
1.0
 70
1024
 72
1
 73
0
 74
0
  7

 75
0
147
1.0
148
0.0
149
0.0
100
AcDbLayout
  1
Model
 70
0
 71
0
 10
0.0
 20
0.0
 11
210.0
 21
297.0
 12
0.0
 22
0.0
 32
0.0
 14
0.0
 24
0.0
 34
0.0
 15
0.0
 25
0.0
 35
0.0
146
0.0
 13
0.0
 23
0.0
 33
0.0
 16
1.0
 26
0.0
 36
0.0
 17
0.0
 27
1.0
 37
0.0
 76
0
330
21A
345
0
346
0
  0
LAYOUT
  5
282
102
{ACAD_REACTORS
330
1A
102
}
100
AcDbPlotSettings
  1

  2
none_device
  4

  6

 40
0.0
 41
0.0
 42
0.0
 43
0.0
 44
210.0
 45
297.0
 46
0.0
 47
0.0
 48
0.0
 49
0.0
140
0.0
141
0.0
142
1.0
143
1.0
 70
0
 72
1
 73
0
 74
0
  7

 75
0
147
1.0
148
0.0
149
0.0
100
AcDbLayout
  1
Layout1
 70
0
 71
1
 10
0.0
 20
0.0
 11
210.0
 21
297.0
 12
0.0
 22
0.0
 32
0.0
 14
0.0
 24
0.0
 34
0.0
 15
0.0
 25
0.0
 35
0.0
146
0.0
 13
0.0
 23
0.0
 33
0.0
 16
1.0
 26
0.0
 36
0.0
 17
0.0
 27
1.0
 37
0.0
 76
0
330
21B
345
0
346
0
  0
ENDSEC
  0
EOF
