999
DXF file: C:\Users\sesa63760\Dev\_Creo\CAD\MCADUE0001308_3D-CAD\drw0001_6.dxf
999
Pro/ENGINEER 2019471 by Parametric Technology Corporation
  0
SECTION
  2
HEADER
  9
$ACADVER
  1
AC1024
  9
$DWGCODEPAGE
  3
ANSI_1252
  9
$EXTMAX
 10
677.6267069522
 20
958.357771261
 30
0.0
  9
$EXTMIN
 10
0.0
 20
0.0
 30
0.0
  9
$LIMMIN
 10
0.0
 20
0.0
  9
$LIMMAX
 10
677.6267069522
 20
958.357771261
  9
$VIEWCTR
 10
338.8133534761
 20
479.1788856305
  9
$VIEWSIZE
 40
958.357771261
  9
$CLAYER
  8
0
  9
$LTSCALE
 40
62.4707287933
  9
$CELTYPE
  6
BYLAYER
  9
$DIMSCALE
 40
1.0
  9
$DIMASZ
 40
8.0669846066
  9
$DIMEXO
 40
1.0
  9
$DIMDLI
 40
43.161594439
  9
$DIMEXE
 40
1.0
  9
$DIMCEN
 40
10.2224828935
  9
$DIMLFAC
 40
1.0
  9
$DIMBLK
  1
_FILLED
  9
$DIMALT
 70
0
  9
$DIMALTF
 40
0.0393700787
  9
$DIMTXT
 40
11.2937784492
  9
$DIMTOL
 70
1
  9
$DIMLIM
 70
0
  9
$DIMTFAC
 40
1.0
  9
$DIMTP
 40
0.01
  9
$DIMTM
 40
0.01
  9
$DIMGAP
 40
0.625
  9
$DIMDSEP
 70
46
  9
$AUNITS
 70
0
  9
$PDMODE
 70
3
  9
$PDSIZE
 40
0.3125
  9
$HANDSEED
  5
315
  9
$TILEMODE
 70
1
  9
$MEASUREMENT
 70
1
  9
$INSUNITS
 70
4
  0
ENDSEC
  0
SECTION
  2
CLASSES
  0
CLASS
  1
ACDBDICTIONARYWDFLT
  2
AcDbDictionaryWithDefault
  3
AutoCAD 2000
 90
0
 91
1
280
0
281
0
  0
CLASS
  1
ACDBPLACEHOLDER
  2
AcDbPlaceHolder
  3
AutoCAD 2000
 90
0
 91
1
280
0
281
0
  0
CLASS
  1
LAYOUT
  2
AcDbLayout
  3
AutoCAD 2000
 90
0
 91
0
280
0
281
0
  0
ENDSEC
  0
SECTION
  2
TABLES
  0
TABLE
  2
VPORT
  5
8
100
AcDbSymbolTable
 70
2
  0
VPORT
  5
1F4
100
AcDbSymbolTableRecord
100
AcDbViewportTableRecord
  2
*ACTIVE
 70
0
 10
0.0
 20
0.0
 11
1.0
 21
1.0
 12
338.8133534761
 22
479.1788856305
 13
0.0
 23
0.0
 14
1.0
 24
1.0
 15
0.0
 25
0.0
 16
0.0
 26
0.0
 36
1.0
 17
0.0
 27
0.0
 37
0.0
 40
958.357771261
 41
0.7070707071
 42
50.0
 43
0.0
 44
0.0
 50
0.0
 51
0.0
 71
0
 72
100
 73
1
 74
1
 75
0
 76
0
 77
0
 78
0
  0
ENDTAB
  0
TABLE
  2
LTYPE
  5
5
100
AcDbSymbolTable
 70
6
  0
LTYPE
  5
14
100
AcDbSymbolTableRecord
100
AcDbLinetypeTableRecord
  2
BYBLOCK
 70
0
  3

 72
65
 73
0
 40
0.0
  0
LTYPE
  5
15
100
AcDbSymbolTableRecord
100
AcDbLinetypeTableRecord
  2
BYLAYER
 70
0
  3

 72
65
 73
0
 40
0.0
  0
LTYPE
  5
16
100
AcDbSymbolTableRecord
100
AcDbLinetypeTableRecord
  2
CONTINUOUS
 70
64
  3
Solid line
 72
65
 73
0
 40
0.0
  0
LTYPE
  5
1F5
100
AcDbSymbolTableRecord
100
AcDbLinetypeTableRecord
  2
CENTER
 70
64
  3
____ _ ____ _ ____ _ ____ _ ____ _ ____ _ ____
 72
65
 73
4
 40
0.6
 49
0.375
 74
0
 49
-0.075
 74
0
 49
0.075
 74
0
 49
-0.075
 74
0
  0
LTYPE
  5
1F6
100
AcDbSymbolTableRecord
100
AcDbLinetypeTableRecord
  2
HIDDEN
 70
64
  3
- - - - - - - - - - - - - - - - - - - -
 72
65
 73
2
 40
0.2
 49
0.1
 74
0
 49
-0.1
 74
0
  0
LTYPE
  5
1F7
100
AcDbSymbolTableRecord
100
AcDbLinetypeTableRecord
  2
PHANTOM
 70
64
  3
_____ _ _ _____ _ _ _____ _ _ _____
 72
65
 73
6
 40
0.8
 49
0.45
 74
0
 49
-0.05
 74
0
 49
0.1
 74
0
 49
-0.05
 74
0
 49
0.1
 74
0
 49
-0.05
 74
0
  0
LTYPE
  5
1F8
100
AcDbSymbolTableRecord
100
AcDbLinetypeTableRecord
  2
DOT
 70
64
  3
. . . . . . . . . . . . . . . . . . . .
 72
65
 73
2
 40
0.2
 49
0.1
 74
0
 49
-0.1
 74
0
  0
LTYPE
  5
1F9
100
AcDbSymbolTableRecord
100
AcDbLinetypeTableRecord
  2
DASHED
 70
64
  3
- - - - - - - - - - - - - - - - - - - -
 72
65
 73
2
 40
0.2
 49
0.1
 74
0
 49
-0.1
 74
0
  0
ENDTAB
  0
TABLE
  2
LAYER
  5
2
100
AcDbSymbolTable
 70
36
  0
LAYER
  5
10
100
AcDbSymbolTableRecord
100
AcDbLayerTableRecord
  2
0
 70
0
 62
7
  6
CONTINUOUS
370
-3
390
F
  0
LAYER
  5
1FA
100
AcDbSymbolTableRecord
100
AcDbLayerTableRecord
  2
DEFAULT_1
 70
0
 62
7
  6
CENTER
370
-3
390
F
  0
LAYER
  5
1FB
100
AcDbSymbolTableRecord
100
AcDbLayerTableRecord
  2
DEFAULT_2
 70
0
 62
8
  6
HIDDEN
370
-3
390
F
  0
LAYER
  5
1FC
100
AcDbSymbolTableRecord
100
AcDbLayerTableRecord
  2
DEFAULT_3
 70
0
 62
7
  6
PHANTOM
370
-3
390
F
  0
LAYER
  5
1FD
100
AcDbSymbolTableRecord
100
AcDbLayerTableRecord
  2
00_COMPONENTS
 70
0
 62
7
  6
CONTINUOUS
370
-3
390
F
  0
LAYER
  5
1FE
100
AcDbSymbolTableRecord
100
AcDbLayerTableRecord
  2
01_1_DEFAULT_DATUMS
 70
0
 62
7
  6
CONTINUOUS
370
-3
390
F
  0
LAYER
  5
1FF
100
AcDbSymbolTableRecord
100
AcDbLayerTableRecord
  2
01_PLANES
 70
0
 62
7
  6
CONTINUOUS
370
-3
390
F
  0
LAYER
  5
200
100
AcDbSymbolTableRecord
100
AcDbLayerTableRecord
  2
02_COORD_SYS
 70
0
 62
7
  6
CONTINUOUS
370
-3
390
F
  0
LAYER
  5
201
100
AcDbSymbolTableRecord
100
AcDbLayerTableRecord
  2
03_AXES
 70
0
 62
7
  6
CONTINUOUS
370
-3
390
F
  0
LAYER
  5
202
100
AcDbSymbolTableRecord
100
AcDbLayerTableRecord
  2
04_POINTS
 70
0
 62
7
  6
CONTINUOUS
370
-3
390
F
  0
LAYER
  5
203
100
AcDbSymbolTableRecord
100
AcDbLayerTableRecord
  2
05_CURVES
 70
0
 62
7
  6
CONTINUOUS
370
-3
390
F
  0
LAYER
  5
204
100
AcDbSymbolTableRecord
100
AcDbLayerTableRecord
  2
06_SURFS
 70
0
 62
7
  6
CONTINUOUS
370
-3
390
F
  0
LAYER
  5
205
100
AcDbSymbolTableRecord
100
AcDbLayerTableRecord
  2
07_COSMETICS
 70
0
 62
7
  6
CONTINUOUS
370
-3
390
F
  0
LAYER
  5
206
100
AcDbSymbolTableRecord
100
AcDbLayerTableRecord
  2
10_NOTES
 70
0
 62
7
  6
CONTINUOUS
370
-3
390
F
  0
LAYER
  5
207
100
AcDbSymbolTableRecord
100
AcDbLayerTableRecord
  2
11_NOTES_PUB
 70
0
 62
7
  6
CONTINUOUS
370
-3
390
F
  0
LAYER
  5
208
100
AcDbSymbolTableRecord
100
AcDbLayerTableRecord
  2
13_REF_GTOL
 70
0
 62
7
  6
CONTINUOUS
370
-3
390
F
  0
LAYER
  5
209
100
AcDbSymbolTableRecord
100
AcDbLayerTableRecord
  2
16_MISC
 70
0
 62
7
  6
CONTINUOUS
370
-3
390
F
  0
LAYER
  5
20A
100
AcDbSymbolTableRecord
100
AcDbLayerTableRecord
  2
17_NO_PRINT
 70
0
 62
7
  6
CONTINUOUS
370
-3
390
F
  0
LAYER
  5
20B
100
AcDbSymbolTableRecord
100
AcDbLayerTableRecord
  2
18_DATUM_CAMS_JOINTS
 70
0
 62
7
  6
CONTINUOUS
370
-3
390
F
  0
LAYER
  5
20C
100
AcDbSymbolTableRecord
100
AcDbLayerTableRecord
  2
19_DATUM_FUNCTIONAL
 70
0
 62
7
  6
CONTINUOUS
370
-3
390
F
  0
LAYER
  5
20D
100
AcDbSymbolTableRecord
100
AcDbLayerTableRecord
  2
20_DATUM_KINEMATIC_SCHEME
 70
0
 62
7
  6
CONTINUOUS
370
-3
390
F
  0
ENDTAB
  0
TABLE
  2
STYLE
  5
3
100
AcDbSymbolTable
 70
1
  0
STYLE
  5
11
100
AcDbSymbolTableRecord
100
AcDbTextStyleTableRecord
  2
STANDARD
 70
0
 40
0.0
 41
0.8
 50
0.0
 71
0
 42
0.2
  3
txt
  4

  0
STYLE
  5
20E
100
AcDbSymbolTableRecord
100
AcDbTextStyleTableRecord
  2
TEXTSTYLE_1
 70
0
 40
0.0
 41
0.8
 50
0.0
 71
0
 42
0.2
  3
gdt
  4

  0
ENDTAB
  0
TABLE
  2
VIEW
  5
6
100
AcDbSymbolTable
 70
0
  0
ENDTAB
  0
TABLE
  2
UCS
  5
7
100
AcDbSymbolTable
 70
0
  0
ENDTAB
  0
TABLE
  2
APPID
  5
9
100
AcDbSymbolTable
 70
1
  0
APPID
  5
20F
100
AcDbSymbolTableRecord
100
AcDbRegAppTableRecord
  2
ACAD
 70
0
  0
ENDTAB
  0
TABLE
  2
BLOCK_RECORD
  5
1
100
AcDbSymbolTable
 70
0
  0
BLOCK_RECORD
  5
210
100
AcDbSymbolTableRecord
100
AcDbBlockTableRecord
  2
*Model_Space
  0
BLOCK_RECORD
  5
211
100
AcDbSymbolTableRecord
100
AcDbBlockTableRecord
  2
*Paper_Space
  0
BLOCK_RECORD
  5
212
100
AcDbSymbolTableRecord
100
AcDbBlockTableRecord
  2
_FILLED
  0
ENDTAB
  0
TABLE
  2
DIMSTYLE
  5
A
100
AcDbSymbolTable
 70
1
100
AcDbDimStyleTable
 71
0
  0
DIMSTYLE
105
213
100
AcDbSymbolTableRecord
100
AcDbDimStyleTableRecord
  2
STANDARD
 70
0
  3

  4

 40
1.0
 41
8.0669846066
 42
1.0
 43
0.38
 44
1.0
 45
0.0
 46
0.0
 47
0.01
 48
0.01
140
11.2937784492
141
0.09
142
0.0
143
25.4
144
1.0
145
0.0
146
1.0
147
0.625
 71
1
 72
0
 73
0
 74
0
 75
0
 76
0
 77
1
 78
8
 79
2
170
0
171
1
172
0
173
0
174
0
175
0
176
0
177
0
178
0
270
2
179
2
271
2
272
2
273
2
274
2
275
0
280
0
281
0
282
0
283
1
284
8
285
0
286
0
287
3
288
0
340
11
278
46
341
212
342
212
343
212
344
212
  0
ENDTAB
  0
ENDSEC
  0
SECTION
  2
BLOCKS
  0
BLOCK
  5
20
100
AcDbEntity
  8
0
100
AcDbBlockBegin
  2
*Model_Space
 70
0
 10
0.0
 20
0.0
 30
0.0
  3
*Model_Space
  1

  0
ENDBLK
  5
21
100
AcDbEntity
  8
0
100
AcDbBlockEnd
  0
BLOCK
  5
1C
100
AcDbEntity
  8
0
100
AcDbBlockBegin
  2
*Paper_Space
 70
0
 10
0.0
 20
0.0
 30
0.0
  3
*Paper_Space
  1

  0
ENDBLK
  5
1D
100
AcDbEntity
  8
0
100
AcDbBlockEnd
  0
BLOCK
  5
214
100
AcDbEntity
  8
0
100
AcDbBlockBegin
  2
_FILLED
 70
64
 10
0.0
 20
0.0
  3
_FILLED
  1

  0
SOLID
  5
215
100
AcDbEntity
  8
0
  6
BYBLOCK
 62
0
100
AcDbTrace
 10
0.0
 20
0.0
 11
-1.0
 21
0.25
 12
-1.0
 22
-0.25
 13
-1.0
 23
-0.25
  0
ENDBLK
  5
216
100
AcDbEntity
  8
0
  6
BYBLOCK
 62
0
100
AcDbBlockEnd
  0
ENDSEC
  0
SECTION
  2
ENTITIES
  0
LINE
  5
217
100
AcDbEntity
  8
0
100
AcDbLine
 62
7
  6
CONTINUOUS
 10
224.4825656666
 20
79.1788856318
 11
496.1825656666
 21
79.1788856318
  0
LINE
  5
218
100
AcDbEntity
  8
0
100
AcDbLine
 62
7
  6
CONTINUOUS
 10
224.4825656666
 20
80.3788856305
 11
496.1825656666
 21
80.3788856305
  0
LINE
  5
219
100
AcDbEntity
  8
0
100
AcDbLine
 62
7
  6
CONTINUOUS
 10
213.3722690552
 20
80.4788856305
 11
198.2722690552
 21
80.4788856305
  0
LINE
  5
21A
100
AcDbEntity
  8
0
100
AcDbLine
 62
7
  6
CONTINUOUS
 10
213.3722690552
 20
81.9788856305
 11
198.2722690552
 21
81.9788856305
  0
LINE
  5
21B
100
AcDbEntity
  8
0
100
AcDbLine
 62
7
  6
CONTINUOUS
 10
195.6509825135
 20
82.3832608884
 11
198.2722690553
 21
81.9788856305
  0
LINE
  5
21C
100
AcDbEntity
  8
0
100
AcDbLine
 62
7
  6
CONTINUOUS
 10
499.2825656666
 20
94.6788856305
 11
499.0825656666
 21
94.6788856305
  0
LINE
  5
21D
100
AcDbEntity
  8
0
100
AcDbLine
 62
7
  6
CONTINUOUS
 10
499.2825656666
 20
107.6788856305
 11
499.0825656666
 21
107.6788856305
  0
LINE
  5
21E
100
AcDbEntity
  8
0
100
AcDbLine
 62
7
  6
CONTINUOUS
 10
219.5825374547
 20
858.8059890835
 11
219.2009476758
 21
858.4638726516
  0
LINE
  5
21F
100
AcDbEntity
  8
0
100
AcDbLine
 62
7
  6
CONTINUOUS
 10
219.2009476758
 20
98.7159459892
 11
215.0722690552
 21
97.9134121626
  0
LINE
  5
220
100
AcDbEntity
  8
0
100
AcDbLine
 62
7
  6
CONTINUOUS
 10
215.0722690552
 20
99.0913647827
 11
219.2009476758
 21
99.8938986093
  0
LINE
  5
221
100
AcDbEntity
  8
0
100
AcDbLine
 62
7
  6
CONTINUOUS
 10
219.2009476758
 20
99.8938986094
 11
219.5825374957
 21
99.5517822236
  0
LINE
  5
222
100
AcDbEntity
  8
0
100
AcDbLine
 62
7
  6
CONTINUOUS
 10
221.3825656666
 20
143.1788856305
 11
221.5825656666
 21
143.1788856305
  0
LINE
  5
223
100
AcDbEntity
  8
0
100
AcDbLine
 62
7
  6
CONTINUOUS
 10
221.3825656666
 20
153.1788856305
 11
221.5825656666
 21
153.1788856305
  0
LINE
  5
224
100
AcDbEntity
  8
0
100
AcDbLine
 62
7
  6
CONTINUOUS
 10
219.2009476758
 20
859.6418252718
 11
218.9719768814
 21
858.4638726516
  0
LINE
  5
225
100
AcDbEntity
  8
0
100
AcDbLine
 62
7
  6
CONTINUOUS
 10
219.2009476758
 20
98.7159459892
 11
218.9719768814
 21
99.8938986093
  0
LWPOLYLINE
  5
226
100
AcDbEntity
  8
0
100
AcDbPolyline
 62
7
  6
CONTINUOUS
 90
4
 70
0
 10
189.4055679991
 20
457.4205494707
 10
189.4247019605
 20
457.2386795522
 10
189.4586669698
 20
456.8165901907
 10
189.464049531
 20
456.6320601776
  0
LINE
  5
227
100
AcDbEntity
  8
0
100
AcDbLine
 62
7
  6
CONTINUOUS
 10
189.4457597348
 20
457.0815822502
 11
189.4137360325
 21
457.3916944286
  0
LWPOLYLINE
  5
228
100
AcDbEntity
  8
0
100
AcDbPolyline
 62
7
  6
CONTINUOUS
 90
3
 70
0
 10
189.0749319814
 20
457.5871051582
 10
189.161869823
 20
456.5879372007
 10
189.2730813512
 20
455.8301978474
  0
LWPOLYLINE
  5
229
100
AcDbEntity
  8
0
100
AcDbPolyline
 62
7
  6
CONTINUOUS
 90
4
 70
0
 10
189.0743363433
 20
456.1573210715
 10
189.1075126465
 20
455.7282293933
 10
189.2575901007
 20
454.7788631409
 10
189.3414814257
 20
454.417557232
  0
LINE
  5
22A
100
AcDbEntity
  8
0
100
AcDbLine
 62
7
  6
CONTINUOUS
 10
189.0842232758
 20
457.596203346
 11
189.0847547089
 21
457.5880211879
  0
LINE
  5
22B
100
AcDbEntity
  8
0
100
AcDbLine
 62
7
  6
CONTINUOUS
 10
189.0841405139
 20
456.158164599
 11
189.0835623035
 21
456.1675995646
  0
LWPOLYLINE
  5
22C
100
AcDbEntity
  8
0
100
AcDbPolyline
 62
7
  6
CONTINUOUS
 90
4
 70
0
 10
189.261500805
 20
459.6402094227
 10
189.3041030239
 20
458.6334588022
 10
189.3378699258
 20
458.1478747814
 10
189.4055709942
 20
457.4204599409
  0
LINE
  5
22D
100
AcDbEntity
  8
0
100
AcDbLine
 62
7
  6
CONTINUOUS
 10
189.2715937337
 20
459.6404543329
 11
189.2717733399
 21
459.6338220935
  0
LINE
  5
22E
100
AcDbEntity
  8
0
100
AcDbLine
 62
7
  6
CONTINUOUS
 10
189.481415508
 20
494.1324874725
 11
189.4814159675
 21
494.1313850851
  0
LINE
  5
22F
100
AcDbEntity
  8
0
100
AcDbLine
 62
7
  6
CONTINUOUS
 10
195.0722690552
 20
874.2788856305
 11
195.0722690552
 21
83.6788856305
  0
LINE
  5
230
100
AcDbEntity
  8
0
100
AcDbLine
 62
7
  6
CONTINUOUS
 10
195.6509825135
 20
82.3832608884
 11
195.6509825135
 21
875.5745103726
  0
LINE
  5
231
100
AcDbEntity
  8
0
100
AcDbLine
 62
7
  6
CONTINUOUS
 10
198.2722690552
 20
80.4788856309
 11
198.2722690552
 21
81.9788856324
  0
LINE
  5
232
100
AcDbEntity
  8
0
100
AcDbLine
 62
7
  6
CONTINUOUS
 10
198.2722690552
 20
875.9788856305
 11
198.2722690552
 21
877.4788856301
  0
LINE
  5
233
100
AcDbEntity
  8
0
100
AcDbLine
 62
7
  6
CONTINUOUS
 10
201.1188724573
 20
875.9788856305
 11
201.1188724573
 21
81.9788856305
  0
LINE
  5
234
100
AcDbEntity
  8
0
100
AcDbLine
 62
7
  6
CONTINUOUS
 10
202.3476005238
 20
81.9788856305
 11
202.3476005238
 21
80.4788856305
  0
LINE
  5
235
100
AcDbEntity
  8
0
100
AcDbLine
 62
7
  6
CONTINUOUS
 10
202.3476005238
 20
875.9788856305
 11
202.3476005238
 21
877.4788856305
  0
LINE
  5
236
100
AcDbEntity
  8
0
100
AcDbLine
 62
7
  6
CONTINUOUS
 10
203.7401589991
 20
80.4788856305
 11
203.7401589991
 21
877.4788856305
  0
LINE
  5
237
100
AcDbEntity
  8
0
100
AcDbLine
 62
7
  6
CONTINUOUS
 10
189.463123874
 20
454.6328718886
 11
189.463123813
 21
454.6325806939
  0
LINE
  5
238
100
AcDbEntity
  8
0
100
AcDbLine
 62
7
  6
CONTINUOUS
 10
189.4640490749
 20
456.6305267695
 11
189.4640493781
 21
456.6316935273
  0
LINE
  5
239
100
AcDbEntity
  8
0
100
AcDbLine
 62
7
  6
CONTINUOUS
 10
189.0909380424
 20
492.5957098933
 11
189.0864337788
 21
482.86951668
  0
LINE
  5
23A
100
AcDbEntity
  8
0
100
AcDbLine
 62
7
  6
CONTINUOUS
 10
189.0830180343
 20
475.4937959464
 11
189.0747295381
 21
457.5961946719
  0
LINE
  5
23B
100
AcDbEntity
  8
0
100
AcDbLine
 62
7
  6
CONTINUOUS
 10
189.0747253281
 20
457.587103962
 11
189.0740679483
 21
456.1676037626
  0
LINE
  5
23C
100
AcDbEntity
  8
0
100
AcDbLine
 62
7
  6
CONTINUOUS
 10
189.0835623035
 20
456.1675993657
 11
189.0841705144
 21
457.4809276181
  0
LINE
  5
23D
100
AcDbEntity
  8
0
100
AcDbLine
 62
7
  6
CONTINUOUS
 10
189.0842232699
 20
457.5961902753
 11
189.0925705293
 21
475.6206807985
  0
LINE
  5
23E
100
AcDbEntity
  8
0
100
AcDbLine
 62
7
  6
CONTINUOUS
 10
189.0958662985
 20
482.7426394588
 11
189.0997677398
 21
491.1671399496
  0
LINE
  5
23F
100
AcDbEntity
  8
0
100
AcDbLine
 62
7
  6
CONTINUOUS
 10
189.0998380406
 20
491.3258435177
 11
189.1004261219
 21
492.5957054993
  0
LINE
  5
240
100
AcDbEntity
  8
0
100
AcDbLine
 62
7
  6
CONTINUOUS
 10
192.9256178065
 20
459.1494405081
 11
192.9397244336
 21
489.6103085567
  0
LINE
  5
241
100
AcDbEntity
  8
0
100
AcDbLine
 62
7
  6
CONTINUOUS
 10
193.4797171922
 20
449.5800503103
 11
193.4810366905
 21
452.4292830627
  0
LINE
  5
242
100
AcDbEntity
  8
0
100
AcDbLine
 62
7
  6
CONTINUOUS
 10
193.5013673769
 20
496.3299512051
 11
193.5026868733
 21
499.1791799508
  0
LINE
  5
243
100
AcDbEntity
  8
0
100
AcDbLine
 62
7
  6
CONTINUOUS
 10
194.2220897611
 20
449.408559065
 11
194.2234183658
 21
452.277455503
  0
LINE
  5
244
100
AcDbEntity
  8
0
100
AcDbLine
 62
7
  6
CONTINUOUS
 10
194.2438893588
 20
496.4810917785
 11
194.2452179613
 21
499.3499835276
  0
LINE
  5
245
100
AcDbEntity
  8
0
100
AcDbLine
 62
7
  6
CONTINUOUS
 10
189.4804903498
 20
492.1326705105
 11
189.4804893796
 21
492.1313031531
  0
LWPOLYLINE
  5
246
100
AcDbEntity
  8
0
100
AcDbPolyline
 62
7
  6
CONTINUOUS
 90
3
 70
0
 10
189.2751644917
 20
489.1229243518
 10
189.105079033
 20
474.387653733
 10
189.2615107313
 20
459.6402177366
  0
LINE
  5
247
100
AcDbEntity
  8
0
100
AcDbLine
 62
7
  6
CONTINUOUS
 10
189.2854329062
 20
489.1293116014
 11
189.28526794
 21
489.1226732754
  0
LWPOLYLINE
  5
248
100
AcDbEntity
  8
0
100
AcDbPolyline
 62
7
  6
CONTINUOUS
 90
4
 70
0
 10
189.4804919147
 20
492.1307911092
 10
189.4750039182
 20
491.9477040862
 10
189.441008556
 20
491.5285786642
 10
189.4212789664
 20
491.3424766491
  0
LWPOLYLINE
  5
249
100
AcDbEntity
  8
0
100
AcDbPolyline
 62
7
  6
CONTINUOUS
 90
9
 70
0
 10
189.4814035849
 20
494.132487759
 10
189.4797205443
 20
494.0905407496
 10
189.4585564964
 20
493.9120854289
 10
189.4082275323
 20
493.6074992304
 10
189.371324286
 20
493.3994113788
 10
189.2811476795
 20
492.8778768187
 10
189.1851361036
 20
492.2286415709
 10
189.1087749289
 20
491.4784073205
 10
189.091647014
 20
491.1860125044
  0
LWPOLYLINE
  5
24A
100
AcDbEntity
  8
0
100
AcDbPolyline
 62
7
  6
CONTINUOUS
 90
4
 70
0
 10
189.4212827494
 20
491.3425671541
 10
189.3534825567
 20
490.6224444472
 10
189.3191578656
 20
490.1372372041
 10
189.2751544199
 20
489.1229326761
  0
LINE
  5
24B
100
AcDbEntity
  8
0
100
AcDbLine
 62
7
  6
CONTINUOUS
 10
189.0913342815
 20
491.1865687133
 11
189.0907698939
 21
491.1810670735
  0
LWPOLYLINE
  5
24C
100
AcDbEntity
  8
0
100
AcDbPolyline
 62
7
  6
CONTINUOUS
 90
3
 70
0
 10
189.2761662363
 20
493.9862496731
 10
189.1254429342
 20
493.0413461026
 10
189.0912130881
 20
492.6059786632
  0
LINE
  5
24D
100
AcDbEntity
  8
0
100
AcDbLine
 62
7
  6
CONTINUOUS
 10
189.3597445992
 20
494.3446592168
 11
189.2761662363
 21
493.9862496731
  0
LINE
  5
24E
100
AcDbEntity
  8
0
100
AcDbLine
 62
7
  6
CONTINUOUS
 10
189.473544306
 20
494.7569381126
 11
189.3597445992
 21
494.3446592168
  0
LINE
  5
24F
100
AcDbEntity
  8
0
100
AcDbLine
 62
7
  6
CONTINUOUS
 10
189.4750123627
 20
494.7620848303
 11
189.473544306
 21
494.7569381126
  0
LINE
  5
250
100
AcDbEntity
  8
0
100
AcDbLine
 62
7
  6
CONTINUOUS
 10
189.474437468
 20
494.7567613881
 11
189.4896338458
 21
494.8099639451
  0
LINE
  5
251
100
AcDbEntity
  8
0
100
AcDbLine
 62
7
  6
CONTINUOUS
 10
189.4829588815
 20
494.788029692
 11
189.492923962
 21
494.8207916622
  0
LINE
  5
252
100
AcDbEntity
  8
0
100
AcDbLine
 62
7
  6
CONTINUOUS
 10
189.4637280875
 20
453.9759967131
 11
189.4739842837
 21
453.9422158151
  0
LINE
  5
253
100
AcDbEntity
  8
0
100
AcDbLine
 62
7
  6
CONTINUOUS
 10
189.4555217128
 20
454.0062146873
 11
189.470163041
 21
453.9547337741
  0
LINE
  5
254
100
AcDbEntity
  8
0
100
AcDbLine
 62
7
  6
CONTINUOUS
 10
189.3414814257
 20
454.417557232
 11
189.4557405571
 21
454.0021531887
  0
LWPOLYLINE
  5
255
100
AcDbEntity
  8
0
100
AcDbPolyline
 62
7
  6
CONTINUOUS
 90
4
 70
0
 10
189.2730813512
 20
455.8301978474
 10
189.4248009983
 20
454.9523002154
 10
189.4544452807
 20
454.7457845696
 10
189.463113712
 20
454.6316203306
  0
LINE
  5
256
100
AcDbEntity
  8
0
100
AcDbLine
 62
7
  6
CONTINUOUS
 10
189.0842232758
 20
457.596203346
 11
189.0852053735
 21
457.5883961972
  0
LINE
  5
257
100
AcDbEntity
  8
0
100
AcDbLine
 62
7
  6
CONTINUOUS
 10
189.0749328691
 20
457.5870854205
 11
189.0750091516
 21
457.586467421
  0
LINE
  5
258
100
AcDbEntity
  8
0
100
AcDbLine
 62
7
  6
CONTINUOUS
 10
189.0846485027
 20
456.158562982
 11
189.0835623035
 21
456.1675995646
  0
LINE
  5
259
100
AcDbEntity
  8
0
100
AcDbLine
 62
7
  6
CONTINUOUS
 10
213.3722690552
 20
877.4788856305
 11
213.3722690552
 21
80.4788856305
  0
LINE
  5
25A
100
AcDbEntity
  8
0
100
AcDbLine
 62
7
  6
CONTINUOUS
 10
215.0722690552
 20
874.9984334788
 11
215.0722690552
 21
82.9593377822
  0
LINE
  5
25B
100
AcDbEntity
  8
0
100
AcDbLine
 62
7
  6
CONTINUOUS
 10
219.2009476758
 20
858.4638726517
 11
219.2009476758
 21
99.8938986093
  0
LINE
  5
25C
100
AcDbEntity
  8
0
100
AcDbLine
 62
7
  6
CONTINUOUS
 10
220.3825656666
 20
147.4288866313
 11
220.3825656666
 21
148.9288533419
  0
LINE
  5
25D
100
AcDbEntity
  8
0
100
AcDbLine
 62
7
  6
CONTINUOUS
 10
220.3825656666
 20
534.4288866313
 11
220.3825656666
 21
535.9288533419
  0
LINE
  5
25E
100
AcDbEntity
  8
0
100
AcDbLine
 62
7
  6
CONTINUOUS
 10
220.3825656666
 20
809.4288866313
 11
220.3825656666
 21
810.9288533419
  0
LINE
  5
25F
100
AcDbEntity
  8
0
100
AcDbLine
 62
7
  6
CONTINUOUS
 10
221.3825656666
 20
143.1788856305
 11
221.3825656666
 21
153.1788856274
  0
LINE
  5
260
100
AcDbEntity
  8
0
100
AcDbLine
 62
7
  6
CONTINUOUS
 10
221.3825656666
 20
530.1788856305
 11
221.3825656666
 21
540.1788856274
  0
LINE
  5
261
100
AcDbEntity
  8
0
100
AcDbLine
 62
7
  6
CONTINUOUS
 10
221.3825656666
 20
805.1788856305
 11
221.3825656666
 21
815.1788856274
  0
LINE
  5
262
100
AcDbEntity
  8
0
100
AcDbLine
 62
7
  6
CONTINUOUS
 10
221.5825656666
 20
876.2788856305
 11
221.5825656666
 21
82.0788856305
  0
LINE
  5
263
100
AcDbEntity
  8
0
100
AcDbLine
 62
7
  6
CONTINUOUS
 10
224.4825656666
 20
79.1788856318
 11
224.4825656666
 21
879.1788856292
  0
LINE
  5
264
100
AcDbEntity
  8
0
100
AcDbLine
 62
7
  6
CONTINUOUS
 10
194.2220897611
 20
449.408559065
 11
193.4797228068
 21
449.5800478119
  0
LINE
  5
265
100
AcDbEntity
  8
0
100
AcDbLine
 62
7
  6
CONTINUOUS
 10
194.2220897611
 20
449.408559065
 11
195.060691393
 21
449.378885609
  0
LINE
  5
266
100
AcDbEntity
  8
0
100
AcDbLine
 62
7
  6
CONTINUOUS
 10
189.0835623035
 20
456.1675993657
 11
189.0740679483
 21
456.1676037626
  0
LINE
  5
267
100
AcDbEntity
  8
0
100
AcDbLine
 62
7
  6
CONTINUOUS
 10
189.0842232699
 20
457.5961902753
 11
189.0747295381
 21
457.5961946719
  0
LINE
  5
268
100
AcDbEntity
  8
0
100
AcDbLine
 62
7
  6
CONTINUOUS
 10
195.0722690552
 20
499.3784813145
 11
194.2452179613
 21
499.3499835276
  0
LINE
  5
269
100
AcDbEntity
  8
0
100
AcDbLine
 62
7
  6
CONTINUOUS
 10
189.0910961011
 20
491.1671186044
 11
189.0902764447
 21
491.1671018312
  0
LINE
  5
26A
100
AcDbEntity
  8
0
100
AcDbLine
 62
7
  6
CONTINUOUS
 10
189.0910961011
 20
491.1671186044
 11
189.0997677398
 21
491.1671399496
  0
LINE
  5
26B
100
AcDbEntity
  8
0
100
AcDbLine
 62
7
  6
CONTINUOUS
 10
189.0909380424
 20
492.5957098933
 11
189.1004261219
 21
492.5957054993
  0
LINE
  5
26C
100
AcDbEntity
  8
0
100
AcDbLine
 62
7
  6
CONTINUOUS
 10
194.2452179613
 20
499.3499835276
 11
193.5026924904
 21
499.1791824441
  0
LINE
  5
26D
100
AcDbEntity
  8
0
100
AcDbLine
 62
7
  6
CONTINUOUS
 10
221.3825656666
 20
530.1788856305
 11
221.5825656666
 21
530.1788856305
  0
LINE
  5
26E
100
AcDbEntity
  8
0
100
AcDbLine
 62
7
  6
CONTINUOUS
 10
221.3825656666
 20
540.1788856305
 11
221.5825656666
 21
540.1788856305
  0
LINE
  5
26F
100
AcDbEntity
  8
0
100
AcDbLine
 62
7
  6
CONTINUOUS
 10
496.1825656666
 20
879.1788856292
 11
496.1825656666
 21
79.1788856318
  0
LINE
  5
270
100
AcDbEntity
  8
0
100
AcDbLine
 62
7
  6
CONTINUOUS
 10
499.0825656666
 20
82.0788856305
 11
499.0825656666
 21
876.2788856305
  0
LINE
  5
271
100
AcDbEntity
  8
0
100
AcDbLine
 62
7
  6
CONTINUOUS
 10
499.2825656666
 20
863.6788856305
 11
499.2825656666
 21
850.6788856305
  0
LINE
  5
272
100
AcDbEntity
  8
0
100
AcDbLine
 62
7
  6
CONTINUOUS
 10
499.2825656666
 20
107.6788856305
 11
499.2825656666
 21
94.6788856305
  0
LINE
  5
273
100
AcDbEntity
  8
0
100
AcDbLine
 62
7
  6
CONTINUOUS
 10
196.1250368259
 20
82.1753774372
 11
195.6509825135
 21
81.8434410342
  0
LINE
  5
274
100
AcDbEntity
  8
0
100
AcDbLine
 62
7
  6
CONTINUOUS
 10
196.1250368259
 20
875.7823938238
 11
195.6509825132
 21
876.114330227
  0
LINE
  5
275
100
AcDbEntity
  8
0
100
AcDbLine
 62
7
  6
CONTINUOUS
 10
221.3825656666
 20
805.1788856305
 11
221.5825656666
 21
805.1788856305
  0
LINE
  5
276
100
AcDbEntity
  8
0
100
AcDbLine
 62
7
  6
CONTINUOUS
 10
221.3825656666
 20
815.1788856305
 11
221.5825656666
 21
815.1788856305
  0
LINE
  5
277
100
AcDbEntity
  8
0
100
AcDbLine
 62
7
  6
CONTINUOUS
 10
499.2825656666
 20
850.6788856305
 11
499.0825656666
 21
850.6788856305
  0
LINE
  5
278
100
AcDbEntity
  8
0
100
AcDbLine
 62
7
  6
CONTINUOUS
 10
219.2009476758
 20
858.4638726517
 11
215.0722690552
 21
859.2664064782
  0
LINE
  5
279
100
AcDbEntity
  8
0
100
AcDbLine
 62
7
  6
CONTINUOUS
 10
215.0722690552
 20
860.4443590984
 11
219.2009476758
 21
859.6418252718
  0
LINE
  5
27A
100
AcDbEntity
  8
0
100
AcDbLine
 62
7
  6
CONTINUOUS
 10
198.2722690554
 20
875.9788856305
 11
195.6509825135
 21
875.5745103726
  0
LINE
  5
27B
100
AcDbEntity
  8
0
100
AcDbLine
 62
7
  6
CONTINUOUS
 10
499.2825656666
 20
863.6788856305
 11
499.0825656666
 21
863.6788856305
  0
LINE
  5
27C
100
AcDbEntity
  8
0
100
AcDbLine
 62
7
  6
CONTINUOUS
 10
198.2722690553
 20
875.9788856305
 11
213.3722690552
 21
875.9788856305
  0
LINE
  5
27D
100
AcDbEntity
  8
0
100
AcDbLine
 62
7
  6
CONTINUOUS
 10
198.2722690552
 20
877.4788856305
 11
213.3722690552
 21
877.4788856305
  0
LINE
  5
27E
100
AcDbEntity
  8
0
100
AcDbLine
 62
7
  6
CONTINUOUS
 10
224.4825656666
 20
877.9788856305
 11
496.1825656666
 21
877.9788856305
  0
LINE
  5
27F
100
AcDbEntity
  8
0
100
AcDbLine
 62
7
  6
CONTINUOUS
 10
224.4825656666
 20
879.1788856305
 11
496.1825656666
 21
879.1788856305
  0
ARC
  5
280
100
AcDbEntity
  8
0
100
AcDbCircle
 62
7
  6
CONTINUOUS
 10
152.9165831679
 20
24.6661405798
 40
100.2607268353
100
AcDbArc
 50
48.1605608374
 51
48.3233481584
  0
ARC
  5
281
100
AcDbEntity
  8
0
100
AcDbCircle
 62
7
  6
CONTINUOUS
 10
208.8605537461
 20
459.1234675829
 40
19.8612793116
100
AcDbArc
 50
188.1705624319
 51
189.1297786581
  0
ARC
  5
282
100
AcDbEntity
  8
0
100
AcDbCircle
 62
7
  6
CONTINUOUS
 10
205.2918005215
 20
458.6062616984
 40
16.2552463415
100
AcDbArc
 50
186.7924892395
 51
188.1537728148
  0
ARC
  5
283
100
AcDbEntity
  8
0
100
AcDbCircle
 62
7
  6
CONTINUOUS
 10
233.1013156666
 20
148.1788856305
 40
12.7408438324
100
AcDbArc
 50
156.8936731546
 51
176.6252870295
  0
ARC
  5
284
100
AcDbEntity
  8
0
100
AcDbCircle
 62
7
  6
CONTINUOUS
 10
233.1013156666
 20
148.1788856305
 40
12.7408438324
100
AcDbArc
 50
183.3747129705
 51
203.1063268454
  0
ARC
  5
285
100
AcDbEntity
  8
0
100
AcDbCircle
 62
7
  6
CONTINUOUS
 10
210.258913494
 20
91.7053997665
 40
10.2013941441
100
AcDbArc
 50
291.3768466117
 51
292.6175131606
  0
ARC
  5
286
100
AcDbEntity
  8
0
100
AcDbCircle
 62
7
  6
CONTINUOUS
 10
199.095398319
 20
456.8789618438
 40
10.0596157306
100
AcDbArc
 50
194.7092718099
 51
196.3497342858
  0
ARC
  5
287
100
AcDbEntity
  8
0
100
AcDbCircle
 62
7
  6
CONTINUOUS
 10
198.8824603545
 20
456.8241938091
 40
9.8397501155
100
AcDbArc
 50
193.3455221945
 51
194.7156474426
  0
ARC
  5
288
100
AcDbEntity
  8
0
100
AcDbCircle
 62
7
  6
CONTINUOUS
 10
198.7369016144
 20
456.7695851997
 40
9.6848275096
100
AcDbArc
 50
196.3258520436
 51
196.7651824652
  0
ARC
  5
289
100
AcDbEntity
  8
0
100
AcDbCircle
 62
7
  6
CONTINUOUS
 10
198.6692420799
 20
456.7742514086
 40
9.6207618043
100
AcDbArc
 50
191.3849081171
 51
193.3492259247
  0
ARC
  5
28A
100
AcDbEntity
  8
0
100
AcDbCircle
 62
7
  6
CONTINUOUS
 10
198.2446235259
 20
456.6910945294
 40
9.1880835752
100
AcDbArc
 50
188.6604853117
 51
191.3992426181
  0
ARC
  5
28B
100
AcDbEntity
  8
0
100
AcDbCircle
 62
7
  6
CONTINUOUS
 10
197.5546358206
 20
456.5959192587
 40
8.4916373912
100
AcDbArc
 50
182.9625133305
 51
188.7266604552
  0
ARC
  5
28C
100
AcDbEntity
  8
0
100
AcDbCircle
 62
7
  6
CONTINUOUS
 10
196.5047663172
 20
456.3782175991
 40
7.4408333333
100
AcDbArc
 50
199.106706298
 51
246.0118879643
  0
ARC
  5
28D
100
AcDbEntity
  8
0
100
AcDbCircle
 62
7
  6
CONTINUOUS
 10
183.792443226
 20
456.9345553479
 40
5.6398754843
100
AcDbArc
 50
4.9349271854
 51
5.6214463556
  0
ARC
  5
28E
100
AcDbEntity
  8
0
100
AcDbCircle
 62
7
  6
CONTINUOUS
 10
185.4460413985
 20
457.0786612642
 40
3.9800107446
100
AcDbArc
 50
4.5109989745
 51
4.9158938123
  0
ARC
  5
28F
100
AcDbEntity
  8
0
100
AcDbCircle
 62
7
  6
CONTINUOUS
 10
198.2722690552
 20
83.6788856305
 40
3.2
100
AcDbArc
 50
180.0
 51
269.9999999994
  0
ARC
  5
290
100
AcDbEntity
  8
0
100
AcDbCircle
 62
7
  6
CONTINUOUS
 10
224.4825656666
 20
82.0788856305
 40
2.9
100
AcDbArc
 50
180.0
 51
270.0
  0
ARC
  5
291
100
AcDbEntity
  8
0
100
AcDbCircle
 62
7
  6
CONTINUOUS
 10
219.5825656666
 20
96.7526916223
 40
2.0
100
AcDbArc
 50
0.0
 51
101.0
  0
ARC
  5
292
100
AcDbEntity
  8
0
100
AcDbCircle
 62
7
  6
CONTINUOUS
 10
213.3722690552
 20
82.1788856305
 40
1.7
100
AcDbArc
 50
270.0
 51
16.0240241905
  0
ARC
  5
293
100
AcDbEntity
  8
0
100
AcDbCircle
 62
7
  6
CONTINUOUS
 10
189.9418606521
 20
475.4929255415
 40
0.8588452238
100
AcDbArc
 50
171.4453688656
 51
179.9419729414
  0
ARC
  5
294
100
AcDbEntity
  8
0
100
AcDbCircle
 62
7
  6
CONTINUOUS
 10
189.2740679269
 20
456.1675111413
 40
0.2
100
AcDbArc
 50
179.9734659518
 51
182.9201205715
  0
ARC
  5
295
100
AcDbEntity
  8
0
100
AcDbCircle
 62
7
  6
CONTINUOUS
 10
189.2747295167
 20
457.5961020506
 40
0.2
100
AcDbArc
 50
179.9734659519
 51
182.5786603722
  0
ARC
  5
296
100
AcDbEntity
  8
0
100
AcDbCircle
 62
7
  6
CONTINUOUS
 10
137.0346443315
 20
496.9518555373
 40
52.69118361
100
AcDbArc
 50
353.9204374594
 51
354.1087265208
  0
ARC
  5
297
100
AcDbEntity
  8
0
100
AcDbCircle
 62
7
  6
CONTINUOUS
 10
152.9227294695
 20
933.6847141582
 40
100.2514739542
100
AcDbArc
 50
311.6766565513
 51
311.8394710009
  0
ARC
  5
298
100
AcDbEntity
  8
0
100
AcDbCircle
 62
7
  6
CONTINUOUS
 10
212.9075056479
 20
488.9398471817
 40
23.9519572684
100
AcDbArc
 50
169.7379063722
 51
170.120526046
  0
ARC
  5
299
100
AcDbEntity
  8
0
100
AcDbCircle
 62
7
  6
CONTINUOUS
 10
208.9725786853
 20
489.6427872531
 40
19.9549666005
100
AcDbArc
 50
171.4343356537
 51
172.3622374174
  0
ARC
  5
29A
100
AcDbEntity
  8
0
100
AcDbCircle
 62
7
  6
CONTINUOUS
 10
208.6383719611
 20
489.6851095616
 40
19.6182601332
100
AcDbArc
 50
170.2349109685
 51
170.7409555283
  0
ARC
  5
29B
100
AcDbEntity
  8
0
100
AcDbCircle
 62
7
  6
CONTINUOUS
 10
207.2133422513
 20
489.9148419523
 40
18.1748337757
100
AcDbArc
 50
170.7329301051
 51
171.4563859138
  0
ARC
  5
29C
100
AcDbEntity
  8
0
100
AcDbCircle
 62
7
  6
CONTINUOUS
 10
206.412528018
 20
489.9883842997
 40
17.3716952655
100
AcDbArc
 50
172.369742589
 51
172.6870961374
  0
ARC
  5
29D
100
AcDbEntity
  8
0
100
AcDbCircle
 62
7
  6
CONTINUOUS
 10
205.882434429
 20
488.8478760264
 40
16.5994118806
100
AcDbArc
 50
176.9778415468
 51
179.0285177117
  0
ARC
  5
29E
100
AcDbEntity
  8
0
100
AcDbCircle
 62
7
  6
CONTINUOUS
 10
204.5434240409
 20
490.2261322083
 40
15.4875326408
100
AcDbArc
 50
172.6793254677
 51
173.4550045382
  0
ARC
  5
29F
100
AcDbEntity
  8
0
100
AcDbCircle
 62
7
  6
CONTINUOUS
 10
233.1013156666
 20
535.1788856305
 40
12.7408438324
100
AcDbArc
 50
156.8936731546
 51
176.6252870295
  0
ARC
  5
2A0
100
AcDbEntity
  8
0
100
AcDbCircle
 62
7
  6
CONTINUOUS
 10
233.1013156666
 20
535.1788856305
 40
12.7408438324
100
AcDbArc
 50
183.3747129705
 51
203.1063268454
  0
ARC
  5
2A1
100
AcDbEntity
  8
0
100
AcDbCircle
 62
7
  6
CONTINUOUS
 10
199.052378367
 20
491.893355216
 40
9.997662499
100
AcDbArc
 50
163.6037386779
 51
165.2389063478
  0
ARC
  5
2A2
100
AcDbEntity
  8
0
100
AcDbCircle
 62
7
  6
CONTINUOUS
 10
199.0011726111
 20
491.9037933119
 40
9.9454876304
100
AcDbArc
 50
165.2218937672
 51
166.579567434
  0
ARC
  5
2A3
100
AcDbEntity
  8
0
100
AcDbCircle
 62
7
  6
CONTINUOUS
 10
198.6340293435
 20
491.9908504897
 40
9.5681643779
100
AcDbArc
 50
166.576381014
 51
168.5889118463
  0
ARC
  5
2A4
100
AcDbEntity
  8
0
100
AcDbCircle
 62
7
  6
CONTINUOUS
 10
198.4134348334
 20
492.0819220705
 40
9.3314746524
100
AcDbArc
 50
163.1421724703
 51
163.591014432
  0
ARC
  5
2A5
100
AcDbEntity
  8
0
100
AcDbCircle
 62
7
  6
CONTINUOUS
 10
198.256644518
 20
492.0647487755
 40
9.1836190668
100
AcDbArc
 50
168.5750181625
 51
171.3402234147
  0
ARC
  5
2A6
100
AcDbEntity
  8
0
100
AcDbCircle
 62
7
  6
CONTINUOUS
 10
197.5652812425
 20
492.1600501833
 40
8.4857939707
100
AcDbArc
 50
171.2735043979
 51
176.9858396401
  0
ARC
  5
2A7
100
AcDbEntity
  8
0
100
AcDbCircle
 62
7
  6
CONTINUOUS
 10
196.5214381508
 20
492.3782137386
 40
7.4408333333
100
AcDbArc
 50
113.9350439393
 51
160.8400198826
  0
ARC
  5
2A8
100
AcDbEntity
  8
0
100
AcDbCircle
 62
7
  6
CONTINUOUS
 10
195.9679399938
 20
492.232276776
 40
6.886874881
100
AcDbArc
 50
174.3271941627
 51
176.8871201682
  0
ARC
  5
2A9
100
AcDbEntity
  8
0
100
AcDbCircle
 62
7
  6
CONTINUOUS
 10
195.5387956017
 20
492.2761704219
 40
6.455493529
100
AcDbArc
 50
172.2702252948
 51
174.3383670853
  0
ARC
  5
2AA
100
AcDbEntity
  8
0
100
AcDbCircle
 62
7
  6
CONTINUOUS
 10
186.1487174564
 20
492.1964816411
 40
3.3429498212
100
AcDbArc
 50
358.0103282014
 51
359.2602740217
  0
ARC
  5
2AB
100
AcDbEntity
  8
0
100
AcDbCircle
 62
7
  6
CONTINUOUS
 10
188.486426014
 20
491.4236463172
 40
0.9444903669
100
AcDbArc
 50
355.3345746115
 51
356.827024295
  0
ARC
  5
2AC
100
AcDbEntity
  8
0
100
AcDbCircle
 62
7
  6
CONTINUOUS
 10
189.9452639446
 20
482.8695904586
 40
0.8588322988
100
AcDbArc
 50
180.0048838728
 51
188.5005061365
  0
ARC
  5
2AD
100
AcDbEntity
  8
0
100
AcDbCircle
 62
7
  6
CONTINUOUS
 10
189.2902764312
 20
491.1670263627
 40
0.2
100
AcDbArc
 50
175.974321227
 51
179.9734659519
  0
ARC
  5
2AE
100
AcDbEntity
  8
0
100
AcDbCircle
 62
7
  6
CONTINUOUS
 10
189.290938021
 20
492.595617272
 40
0.2
100
AcDbArc
 50
177.0296565068
 51
179.9734659518
  0
ARC
  5
2AF
100
AcDbEntity
  8
0
100
AcDbCircle
 62
7
  6
CONTINUOUS
 10
233.1013156666
 20
810.1788856305
 40
12.7408438324
100
AcDbArc
 50
156.8936731546
 51
176.6252870295
  0
ARC
  5
2B0
100
AcDbEntity
  8
0
100
AcDbCircle
 62
7
  6
CONTINUOUS
 10
233.1013156666
 20
810.1788856305
 40
12.7408438324
100
AcDbArc
 50
183.3747129705
 51
203.1063268454
  0
ARC
  5
2B1
100
AcDbEntity
  8
0
100
AcDbCircle
 62
7
  6
CONTINUOUS
 10
210.3832653049
 20
866.5626942973
 40
9.8670944788
100
AcDbArc
 50
67.1905111509
 51
68.6384786023
  0
ARC
  5
2B2
100
AcDbEntity
  8
0
100
AcDbCircle
 62
7
  6
CONTINUOUS
 10
198.2722690552
 20
874.2788856305
 40
3.2
100
AcDbArc
 50
90.0000000006
 51
180.0
  0
ARC
  5
2B3
100
AcDbEntity
  8
0
100
AcDbCircle
 62
7
  6
CONTINUOUS
 10
224.4825656666
 20
876.2788856305
 40
2.9
100
AcDbArc
 50
90.0
 51
170.6996059225
  0
ARC
  5
2B4
100
AcDbEntity
  8
0
100
AcDbCircle
 62
7
  6
CONTINUOUS
 10
219.5825656666
 20
861.6050796387
 40
2.0
100
AcDbArc
 50
258.9999999987
 51
360.0
  0
ARC
  5
2B5
100
AcDbEntity
  8
0
100
AcDbCircle
 62
7
  6
CONTINUOUS
 10
213.3722690552
 20
875.7788856305
 40
1.7
100
AcDbArc
 50
343.8165035881
 51
90.0
  0
ARC
  5
2B6
100
AcDbEntity
  8
0
100
AcDbCircle
 62
7
  6
CONTINUOUS
 10
405.8257392247
 20
465.3869128757
 40
216.6303757904
100
AcDbArc
 50
181.3158527289
 51
181.5200382018
  0
ARC
  5
2B7
100
AcDbEntity
  8
0
100
AcDbCircle
 62
7
  6
CONTINUOUS
 10
478.6575656666
 20
101.1788856305
 40
21.625
100
AcDbArc
 50
342.5076754749
 51
17.4923245251
  0
ARC
  5
2B8
100
AcDbEntity
  8
0
100
AcDbCircle
 62
7
  6
CONTINUOUS
 10
496.1825656666
 20
82.0788856305
 40
2.9
100
AcDbArc
 50
270.0000000001
 51
350.6996716776
  0
ARC
  5
2B9
100
AcDbEntity
  8
0
100
AcDbCircle
 62
7
  6
CONTINUOUS
 10
464.8035688818
 20
481.6382593544
 40
275.6199552623
100
AcDbArc
 50
178.4439506425
 51
178.6018274775
  0
ARC
  5
2BA
100
AcDbEntity
  8
0
100
AcDbCircle
 62
7
  6
CONTINUOUS
 10
478.6575656666
 20
857.1788856305
 40
21.625
100
AcDbArc
 50
342.5076754749
 51
17.4923245251
  0
ARC
  5
2BB
100
AcDbEntity
  8
0
100
AcDbCircle
 62
7
  6
CONTINUOUS
 10
496.1825656666
 20
876.2788856305
 40
2.9
100
AcDbArc
 50
0.0
 51
89.9999999999
  0
SPLINE
  5
2BC
100
AcDbEntity
  8
0
100
AcDbSpline
 62
7
  6
CONTINUOUS
 70
0
 71
3
 72
8
 73
4
 74
0
 42
0.0000001
 43
0.0000001
 44
0.0000000001
 40
0.0
 40
0.0
 40
0.0
 40
0.0
 40
1.0
 40
1.0
 40
1.0
 40
1.0
 10
189.4137357206
 20
457.3916943456
 30
0.0
 10
189.4095127311
 20
457.4007224312
 30
0.0
 10
189.4066743353
 20
457.4105543183
 30
0.0
 10
189.4055776511
 20
457.4204607431
 30
0.0
  0
SPLINE
  5
2BD
100
AcDbEntity
  8
0
100
AcDbSpline
 62
7
  6
CONTINUOUS
 70
0
 71
3
 72
8
 73
4
 74
0
 42
0.0000001
 43
0.0000001
 44
0.0000000001
 40
0.0
 40
0.0
 40
0.0
 40
0.0
 40
1.0
 40
1.0
 40
1.0
 40
1.0
 10
189.0750091516
 20
457.586467421
 30
0.0
 10
189.0752272316
 20
457.5890414053
 30
0.0
 10
189.0772987718
 20
457.5912861315
 30
0.0
 10
189.0792978784
 20
457.5929221408
 30
0.0
  0
SPLINE
  5
2BE
100
AcDbEntity
  8
0
100
AcDbSpline
 62
7
  6
CONTINUOUS
 70
0
 71
3
 72
9
 73
5
 74
0
 42
0.0000001
 43
0.0000001
 44
0.0000000001
 40
0.0
 40
0.0
 40
0.0
 40
0.0
 40
0.4681274752
 40
1.0
 40
1.0
 40
1.0
 40
1.0
 10
189.0792978784
 20
457.5929221408
 30
0.0
 10
189.0800088139
 20
457.5935039493
 30
0.0
 10
189.0815988301
 20
457.5946601907
 30
0.0
 10
189.0832787696
 20
457.5956781203
 30
0.0
 10
189.0841882968
 20
457.5961901509
 30
0.0
  0
SPLINE
  5
2BF
100
AcDbEntity
  8
0
100
AcDbSpline
 62
7
  6
CONTINUOUS
 70
0
 71
3
 72
8
 73
4
 74
0
 42
0.0000001
 43
0.0000001
 44
0.0000000001
 40
0.0
 40
0.0
 40
0.0
 40
0.0
 40
1.0
 40
1.0
 40
1.0
 40
1.0
 10
189.0743471876
 20
456.1570453344
 30
0.0
 10
189.0743216955
 20
456.1597460223
 30
0.0
 10
189.0763959604
 20
456.1622717355
 30
0.0
 10
189.0784382044
 20
456.1640391076
 30
0.0
  0
SPLINE
  5
2C0
100
AcDbEntity
  8
0
100
AcDbSpline
 62
7
  6
CONTINUOUS
 70
0
 71
3
 72
9
 73
5
 74
0
 42
0.0000001
 43
0.0000001
 44
0.0000000001
 40
0.0
 40
0.0
 40
0.0
 40
0.0
 40
0.4669406614
 40
1.0
 40
1.0
 40
1.0
 40
1.0
 10
189.0784382044
 20
456.1640391076
 30
0.0
 10
189.0791720599
 20
456.1646741912
 30
0.0
 10
189.0808291916
 20
456.1659360715
 30
0.0
 10
189.0825914806
 20
456.1670421801
 30
0.0
 10
189.0835493181
 20
456.1675989977
 30
0.0
  0
SPLINE
  5
2C1
100
AcDbEntity
  8
0
100
AcDbSpline
 62
7
  6
CONTINUOUS
 70
0
 71
3
 72
20
 73
16
 74
0
 42
0.0000001
 43
0.0000001
 44
0.0000000001
 40
0.0
 40
0.0
 40
0.0
 40
0.0
 40
0.229221559
 40
0.4401665876
 40
0.6139151811
 40
0.7319396536
 40
0.7672928826
 40
0.7892776219
 40
0.7973751348
 40
0.8053787209
 40
0.8259394177
 40
0.8560062364
 40
0.8957383211
 40
0.9441229306
 40
1.0
 40
1.0
 40
1.0
 40
1.0
 10
189.0847547089
 20
457.5880211879
 30
0.0
 10
189.0931767275
 20
457.458819496
 30
0.0
 10
189.1116346014
 20
457.2108779806
 30
0.0
 10
189.1610061577
 20
456.8668699659
 30
0.0
 10
189.2269286843
 20
456.5911733229
 30
0.0
 10
189.2899137505
 20
456.4149018363
 30
0.0
 10
189.3436889625
 20
456.3321693062
 30
0.0
 10
189.3737170902
 20
456.3070011201
 30
0.0
 10
189.3959910305
 20
456.3052729371
 30
0.0
 10
189.4153994601
 20
456.3144514601
 30
0.0
 10
189.4334657562
 20
456.3442479546
 30
0.0
 10
189.4474556924
 20
456.3930866486
 30
0.0
 10
189.4573742431
 20
456.459399577
 30
0.0
 10
189.462993766
 20
456.5405217268
 30
0.0
 10
189.4640442122
 20
456.5994433961
 30
0.0
 10
189.4640536603
 20
456.6310055813
 30
0.0
  0
SPLINE
  5
2C2
100
AcDbEntity
  8
0
100
AcDbSpline
 62
7
  6
CONTINUOUS
 70
0
 71
3
 72
9
 73
5
 74
0
 42
0.0000001
 43
0.0000001
 44
0.0000000001
 40
0.0
 40
0.0
 40
0.0
 40
0.0
 40
0.5825076186
 40
1.0
 40
1.0
 40
1.0
 40
1.0
 10
189.4131786018
 20
493.6238035565
 30
0.0
 10
189.4310490186
 20
493.7243482638
 30
0.0
 10
189.4610037913
 20
493.8969979727
 30
0.0
 10
189.4857219135
 20
494.0708377589
 30
0.0
 10
189.4906515421
 20
494.1438629056
 30
0.0
  0
SPLINE
  5
2C3
100
AcDbEntity
  8
0
100
AcDbSpline
 62
7
  6
CONTINUOUS
 70
0
 71
3
 72
18
 73
14
 74
0
 42
0.0000001
 43
0.0000001
 44
0.0000000001
 40
0.0
 40
0.0
 40
0.0
 40
0.0
 40
0.1648424457
 40
0.2835060405
 40
0.3253904888
 40
0.3564219215
 40
0.3793148897
 40
0.4010185581
 40
0.4297707292
 40
0.4698635188
 40
0.5896269654
 40
0.7657733119
 40
1.0
 40
1.0
 40
1.0
 40
1.0
 10
189.4906515421
 20
494.1438629056
 30
0.0
 10
189.4919257878
 20
494.1627389684
 30
0.0
 10
189.4933015508
 20
494.1952328638
 30
0.0
 10
189.4917501379
 20
494.2327336338
 30
0.0
 10
189.4868743213
 20
494.2542635186
 30
0.0
 10
189.4824581059
 20
494.2644155505
 30
0.0
 10
189.4756754625
 20
494.2707265149
 30
0.0
 10
189.4666043018
 20
494.2705987838
 30
0.0
 10
189.4575781501
 20
494.2649924316
 30
0.0
 10
189.4421935518
 20
494.2496945644
 30
0.0
 10
189.4211878597
 20
494.216956775
 30
0.0
 10
189.3936987929
 20
494.1627362309
 30
0.0
 10
189.3755168307
 20
494.1192096317
 30
0.0
 10
189.3656981947
 20
494.0941846208
 30
0.0
  0
SPLINE
  5
2C4
100
AcDbEntity
  8
0
100
AcDbSpline
 62
7
  6
CONTINUOUS
 70
0
 71
3
 72
9
 73
5
 74
0
 42
0.0000001
 43
0.0000001
 44
0.0000000001
 40
0.0
 40
0.0
 40
0.0
 40
0.0
 40
0.4159253316
 40
1.0
 40
1.0
 40
1.0
 40
1.0
 10
189.3656981947
 20
494.0941846208
 30
0.0
 10
189.3162136297
 20
493.9680620341
 30
0.0
 10
189.2265639999
 20
493.6537272504
 30
0.0
 10
189.1676119826
 20
493.3329601918
 30
0.0
 10
189.1419603164
 20
493.1444417138
 30
0.0
  0
SPLINE
  5
2C5
100
AcDbEntity
  8
0
100
AcDbSpline
 62
7
  6
CONTINUOUS
 70
0
 71
3
 72
9
 73
5
 74
0
 42
0.0000001
 43
0.0000001
 44
0.0000000001
 40
0.0
 40
0.0
 40
0.0
 40
0.0
 40
0.5320252877
 40
1.0
 40
1.0
 40
1.0
 40
1.0
 10
189.3387050485
 20
493.2069182262
 30
0.0
 10
189.3517772229
 20
493.2808738247
 30
0.0
 10
189.3781035966
 20
493.4195673387
 30
0.0
 10
189.4016786473
 20
493.5587517519
 30
0.0
 10
189.4131786018
 20
493.6238035565
 30
0.0
  0
LINE
  5
2C6
100
AcDbEntity
  8
0
100
AcDbLine
 62
7
  6
CONTINUOUS
 10
189.304352439
 20
493.0125439743
 11
189.3107354019
 21
493.0494324345
  0
SPLINE
  5
2C7
100
AcDbEntity
  8
0
100
AcDbSpline
 62
7
  6
CONTINUOUS
 70
0
 71
3
 72
9
 73
5
 74
0
 42
0.0000001
 43
0.0000001
 44
0.0000000001
 40
0.0
 40
0.0
 40
0.0
 40
0.0
 40
0.2536079827
 40
1.0
 40
1.0
 40
1.0
 40
1.0
 10
189.0910925127
 20
491.1865875009
 30
0.0
 10
189.0942581568
 20
491.2547885664
 30
0.0
 10
189.1092860348
 20
491.5235920245
 30
0.0
 10
189.1339778528
 20
491.7918199604
 30
0.0
 10
189.1568290914
 20
491.9914546044
 30
0.0
  0
LINE
  5
2C8
100
AcDbEntity
  8
0
100
AcDbLine
 62
7
  6
CONTINUOUS
 10
189.1004260727
 20
492.5955999909
 11
189.101001039
 21
492.6051505386
  0
SPLINE
  5
2C9
100
AcDbEntity
  8
0
100
AcDbSpline
 62
7
  6
CONTINUOUS
 70
0
 71
3
 72
23
 73
19
 74
0
 42
0.0000001
 43
0.0000001
 44
0.0000000001
 40
0.0
 40
0.0
 40
0.0
 40
0.0
 40
0.227167701
 40
0.4386692695
 40
0.6236085801
 40
0.7033152451
 40
0.7731935419
 40
0.8320218745
 40
0.8786589377
 40
0.9132795288
 40
0.9368210634
 40
0.9447077162
 40
0.9502788094
 40
0.9544119409
 40
0.9590562595
 40
0.965700174
 40
0.9747433
 40
1.0
 40
1.0
 40
1.0
 40
1.0
 10
189.101001039
 20
492.6051505386
 30
0.0
 10
189.109016574
 20
492.7372077345
 30
0.0
 10
189.1293966967
 20
492.9920022672
 30
0.0
 10
189.1802074198
 20
493.3518566201
 30
0.0
 10
189.2366794053
 20
493.6235775396
 30
0.0
 10
189.2860578715
 20
493.8120689478
 30
0.0
 10
189.3208601199
 20
493.9283875423
 30
0.0
 10
189.3540836339
 20
494.0249642099
 30
0.0
 10
189.3848561088
 20
494.1006498211
 30
0.0
 10
189.4123692073
 20
494.1550812548
 30
0.0
 10
189.4331422873
 20
494.1878383512
 30
0.0
 10
189.448069925
 20
494.2033668202
 30
0.0
 10
189.456776162
 20
494.2092775528
 30
0.0
 10
189.4659197481
 20
494.2091860448
 30
0.0
 10
189.4722602375
 20
494.2018747974
 30
0.0
 10
189.4763038935
 20
494.1907758456
 30
0.0
 10
189.4808213404
 20
494.1672421867
 30
0.0
 10
189.4813939288
 20
494.1471969816
 30
0.0
 10
189.4814155084
 20
494.132487744
 30
0.0
  0
SPLINE
  5
2CA
100
AcDbEntity
  8
0
100
AcDbSpline
 62
7
  6
CONTINUOUS
 70
0
 71
3
 72
11
 73
7
 74
0
 42
0.0000001
 43
0.0000001
 44
0.0000000001
 40
0.0
 40
0.0
 40
0.0
 40
0.0
 40
0.2492453876
 40
0.4991374345
 40
0.7494687785
 40
1.0
 40
1.0
 40
1.0
 40
1.0
 10
189.4294814158
 20
491.3713647765
 30
0.0
 10
189.5824195484
 20
491.8976635067
 30
0.0
 10
189.9893758789
 20
492.9255266695
 30
0.0
 10
190.8906377709
 20
494.3184060783
 30
0.0
 10
192.0639033673
 20
495.4971875225
 30
0.0
 10
193.0043985457
 20
496.0922335766
 30
0.0
 10
193.5013673769
 20
496.3299512051
 30
0.0
  0
SPLINE
  5
2CB
100
AcDbEntity
  8
0
100
AcDbSpline
 62
7
  6
CONTINUOUS
 70
0
 71
3
 72
10
 73
6
 74
0
 42
0.0000001
 43
0.0000001
 44
0.0000000001
 40
0.0
 40
0.0
 40
0.0
 40
0.0
 40
0.5878830206
 40
0.8242985374
 40
1.0
 40
1.0
 40
1.0
 40
1.0
 10
189.0743469709
 20
456.1570495644
 30
0.0
 10
189.090216453
 20
455.8601770104
 30
0.0
 10
189.1379886004
 20
455.4441005443
 30
0.0
 10
189.2523064042
 20
454.9512319876
 30
0.0
 10
189.3149687856
 20
454.75202864
 30
0.0
 10
189.3473089251
 20
454.6692696851
 30
0.0
  0
SPLINE
  5
2CC
100
AcDbEntity
  8
0
100
AcDbSpline
 62
7
  6
CONTINUOUS
 70
0
 71
3
 72
17
 73
13
 74
0
 42
0.0000001
 43
0.0000001
 44
0.0000000001
 40
0.0
 40
0.0
 40
0.0
 40
0.0
 40
0.4117184598
 40
0.5314009679
 40
0.571198578
 40
0.5996990462
 40
0.6213028956
 40
0.6442181615
 40
0.6752498453
 40
0.7170727638
 40
0.8354628178
 40
1.0
 40
1.0
 40
1.0
 40
1.0
 10
189.3473089251
 20
454.6692696851
 30
0.0
 10
189.3645136324
 20
454.6252425528
 30
0.0
 10
189.3882372975
 20
454.5688647025
 30
0.0
 10
189.4237457963
 20
454.5130845177
 30
0.0
 10
189.4391176798
 20
454.4978633448
 30
0.0
 10
189.4481273645
 20
454.4923432181
 30
0.0
 10
189.4571575096
 20
454.4923321663
 30
0.0
 10
189.4638943367
 20
454.4986629152
 30
0.0
 10
189.4683157125
 20
454.5088096235
 30
0.0
 10
189.4732100336
 20
454.5303039664
 30
0.0
 10
189.4748163549
 20
454.5677405095
 30
0.0
 10
189.4734772526
 20
454.6001814854
 30
0.0
 10
189.4722243318
 20
454.6190303799
 30
0.0
  0
SPLINE
  5
2CD
100
AcDbEntity
  8
0
100
AcDbSpline
 62
7
  6
CONTINUOUS
 70
0
 71
3
 72
9
 73
5
 74
0
 42
0.0000001
 43
0.0000001
 44
0.0000000001
 40
0.0
 40
0.0
 40
0.0
 40
0.0
 40
0.2308721385
 40
1.0
 40
1.0
 40
1.0
 40
1.0
 10
189.4722243318
 20
454.6190303799
 30
0.0
 10
189.4718591551
 20
454.6245240843
 30
0.0
 10
189.4701036077
 20
454.6483079809
 30
0.0
 10
189.4677437067
 20
454.6720443867
 30
0.0
 10
189.4657196611
 20
454.6902744937
 30
0.0
  0
SPLINE
  5
2CE
100
AcDbEntity
  8
0
100
AcDbSpline
 62
7
  6
CONTINUOUS
 70
0
 71
3
 72
11
 73
7
 74
0
 42
0.0000001
 43
0.0000001
 44
0.0000000001
 40
0.0
 40
0.0
 40
0.0
 40
0.0
 40
0.2505310944
 40
0.500862352
 40
0.7507540892
 40
1.0
 40
1.0
 40
1.0
 40
1.0
 10
193.4810366905
 20
452.4292830627
 30
0.0
 10
192.984284248
 20
452.6674628885
 30
0.0
 10
192.0443303697
 20
453.2633813154
 30
0.0
 10
190.8721531267
 20
454.443263711
 30
0.0
 10
189.9721747278
 20
455.8369914394
 30
0.0
 10
189.5661859873
 20
456.865247963
 30
0.0
 10
189.4137360325
 20
457.3916944286
 30
0.0
  0
LINE
  5
2CF
100
AcDbEntity
  8
0
100
AcDbLine
 62
7
  6
CONTINUOUS
 10
189.4612968483
 20
494.7154839775
 11
189.4620340946
 21
494.7179880787
  0
SPLINE
  5
2D0
100
AcDbEntity
  8
0
100
AcDbSpline
 62
7
  6
CONTINUOUS
 70
0
 71
3
 72
8
 73
4
 74
0
 42
0.0000001
 43
0.0000001
 44
0.0000000001
 40
0.0
 40
0.0
 40
0.0
 40
0.0
 40
1.0
 40
1.0
 40
1.0
 40
1.0
 10
189.1004270717
 20
492.5956926781
 30
0.0
 10
189.0973048031
 20
492.5975117414
 30
0.0
 10
189.094058805
 20
492.5996734419
 30
0.0
 10
189.092235721
 20
492.6027933645
 30
0.0
  0
SPLINE
  5
2D1
100
AcDbEntity
  8
0
100
AcDbSpline
 62
7
  6
CONTINUOUS
 70
0
 71
3
 72
9
 73
5
 74
0
 42
0.0000001
 43
0.0000001
 44
0.0000000001
 40
0.0
 40
0.0
 40
0.0
 40
0.0
 40
0.5233927499
 40
1.0
 40
1.0
 40
1.0
 40
1.0
 10
189.092235721
 20
492.6027933645
 30
0.0
 10
189.091915687
 20
492.6033410526
 30
0.0
 10
189.09140623
 20
492.6044553827
 30
0.0
 10
189.0912212378
 20
492.605674007
 30
0.0
 10
189.0912265076
 20
492.6062516176
 30
0.0
  0
SPLINE
  5
2D2
100
AcDbEntity
  8
0
100
AcDbSpline
 62
7
  6
CONTINUOUS
 70
0
 71
3
 72
8
 73
4
 74
0
 42
0.0000001
 43
0.0000001
 44
0.0000000001
 40
0.0
 40
0.0
 40
0.0
 40
0.0
 40
1.0
 40
1.0
 40
1.0
 40
1.0
 10
189.4212893711
 20
491.3425713786
 30
0.0
 10
189.4223971087
 20
491.352488398
 30
0.0
 10
189.4252469835
 20
491.3623290438
 30
0.0
 10
189.4294812717
 20
491.371364815
 30
0.0
  0
SPLINE
  5
2D3
100
AcDbEntity
  8
0
100
AcDbSpline
 62
7
  6
CONTINUOUS
 70
0
 71
3
 72
8
 73
4
 74
0
 42
0.0000001
 43
0.0000001
 44
0.0000000001
 40
0.0
 40
0.0
 40
0.0
 40
0.0
 40
1.0
 40
1.0
 40
1.0
 40
1.0
 10
193.4810435445
 20
452.4293099259
 30
0.0
 10
193.7160466253
 20
452.3367268877
 30
0.0
 10
193.9709600771
 20
452.2853769102
 30
0.0
 10
194.2234183711
 20
452.2774474249
 30
0.0
  0
SPLINE
  5
2D4
100
AcDbEntity
  8
0
100
AcDbSpline
 62
7
  6
CONTINUOUS
 70
0
 71
3
 72
9
 73
5
 74
0
 42
0.0000001
 43
0.0000001
 44
0.0000000001
 40
0.0
 40
0.0
 40
0.0
 40
0.0
 40
0.2576679587
 40
1.0
 40
1.0
 40
1.0
 40
1.0
 10
189.3788911825
 20
457.7511479734
 30
0.0
 10
189.3810094392
 20
457.7284478198
 30
0.0
 10
189.3893601431
 20
457.6403609223
 30
0.0
 10
189.398792065
 20
457.5523812531
 30
0.0
 10
189.405195444
 20
457.4870116972
 30
0.0
  0
SPLINE
  5
2D5
100
AcDbEntity
  8
0
100
AcDbSpline
 62
7
  6
CONTINUOUS
 70
0
 71
3
 72
10
 73
6
 74
0
 42
0.0000001
 43
0.0000001
 44
0.0000000001
 40
0.0
 40
0.0
 40
0.0
 40
0.0
 40
0.5175273181
 40
0.7648819898
 40
1.0
 40
1.0
 40
1.0
 40
1.0
 10
189.2717490166
 20
459.6338190875
 30
0.0
 10
189.2763622588
 20
459.3085031184
 30
0.0
 10
189.3023855919
 20
458.8281122364
 30
0.0
 10
189.34040224
 20
458.2006708852
 30
0.0
 10
189.3636871097
 20
457.8981731945
 30
0.0
 10
189.3788911825
 20
457.7511479734
 30
0.0
  0
SPLINE
  5
2D6
100
AcDbEntity
  8
0
100
AcDbSpline
 62
7
  6
CONTINUOUS
 70
0
 71
3
 72
12
 73
8
 74
0
 42
0.0000001
 43
0.0000001
 44
0.0000000001
 40
0.0
 40
0.0
 40
0.0
 40
0.0
 40
0.1086546902
 40
0.2252754083
 40
0.4726020502
 40
0.73139008
 40
1.0
 40
1.0
 40
1.0
 40
1.0
 10
189.4277869541
 20
491.3468242267
 30
0.0
 10
189.4230635566
 20
491.2880299822
 30
0.0
 10
189.4087883601
 20
491.1665393336
 30
0.0
 10
189.3845340479
 20
490.9111399873
 30
0.0
 10
189.355786869
 20
490.5742760763
 30
0.0
 10
189.3307233656
 20
490.1544467184
 30
0.0
 10
189.3130203611
 20
489.8686850488
 30
0.0
 10
189.3061086822
 20
489.7230328801
 30
0.0
  0
SPLINE
  5
2D7
100
AcDbEntity
  8
0
100
AcDbSpline
 62
7
  6
CONTINUOUS
 70
0
 71
3
 72
12
 73
8
 74
0
 42
0.0000001
 43
0.0000001
 44
0.0000000001
 40
0.0
 40
0.0
 40
0.0
 40
0.0
 40
0.3162430099
 40
0.5984383161
 40
0.8279238775
 40
0.920414068
 40
1.0
 40
1.0
 40
1.0
 40
1.0
 10
195.0716426217
 20
495.2819595863
 30
0.0
 10
194.8755475238
 20
495.3443262164
 30
0.0
 10
194.5062812206
 20
495.4715487082
 30
0.0
 10
194.0270625412
 20
495.7199558222
 30
0.0
 10
193.7102983434
 20
495.9625090227
 30
0.0
 10
193.5530215698
 20
496.1726896442
 30
0.0
 10
193.5093080386
 20
496.2787697178
 30
0.0
 10
193.501357188
 20
496.3299409017
 30
0.0
  0
SPLINE
  5
2D8
100
AcDbEntity
  8
0
100
AcDbSpline
 62
7
  6
CONTINUOUS
 70
0
 71
3
 72
13
 73
9
 74
0
 42
0.0000001
 43
0.0000001
 44
0.0000000001
 40
0.0
 40
0.0
 40
0.0
 40
0.0
 40
0.0668747752
 40
0.1557425196
 40
0.266147979
 40
0.3950621754
 40
0.6906954112
 40
1.0
 40
1.0
 40
1.0
 40
1.0
 10
189.285408556
 20
489.1293149261
 30
0.0
 10
189.3584536037
 20
489.1679143017
 30
0.0
 10
189.5381282981
 20
489.2391857956
 30
0.0
 10
189.8548831205
 20
489.3280763304
 30
0.0
 10
190.2525231522
 20
489.408871702
 30
0.0
 10
190.9062544433
 20
489.5070088375
 30
0.0
 10
191.8103269538
 20
489.585057412
 30
0.0
 10
192.5576184841
 20
489.608112524
 30
0.0
 10
192.939724511
 20
489.6102947513
 30
0.0
  0
SPLINE
  5
2D9
100
AcDbEntity
  8
0
100
AcDbSpline
 62
7
  6
CONTINUOUS
 70
0
 71
3
 72
9
 73
5
 74
0
 42
0.0000001
 43
0.0000001
 44
0.0000000001
 40
0.0
 40
0.0
 40
0.0
 40
0.0
 40
0.3794610191
 40
1.0
 40
1.0
 40
1.0
 40
1.0
 10
189.2854329454
 20
489.1293102744
 30
0.0
 10
189.2839540181
 20
489.128877383
 30
0.0
 10
189.2804260804
 20
489.1276609762
 30
0.0
 10
189.2753945712
 20
489.1254455234
 30
0.0
 10
189.2752883085
 20
489.1229277735
 30
0.0
  0
SPLINE
  5
2DA
100
AcDbEntity
  8
0
100
AcDbSpline
 62
7
  6
CONTINUOUS
 70
0
 71
3
 72
9
 73
5
 74
0
 42
0.0000001
 43
0.0000001
 44
0.0000000001
 40
0.0
 40
0.0
 40
0.0
 40
0.0
 40
0.4995601812
 40
1.0
 40
1.0
 40
1.0
 40
1.0
 10
189.2656743487
 20
488.3634667884
 30
0.0
 10
189.209922016
 20
486.0946662023
 30
0.0
 10
189.1293437778
 20
481.5522386222
 30
0.0
 10
189.1093336551
 20
477.0092253838
 30
0.0
 10
189.1073330232
 20
474.7357446024
 30
0.0
  0
LINE
  5
2DB
100
AcDbEntity
  8
0
100
AcDbLine
 62
7
  6
CONTINUOUS
 10
189.1073330232
 20
474.7357446024
 11
189.1070050248
 21
474.0122584157
  0
SPLINE
  5
2DC
100
AcDbEntity
  8
0
100
AcDbSpline
 62
7
  6
CONTINUOUS
 70
0
 71
3
 72
9
 73
5
 74
0
 42
0.0000001
 43
0.0000001
 44
0.0000000001
 40
0.0
 40
0.0
 40
0.0
 40
0.0
 40
0.5004365408
 40
1.0
 40
1.0
 40
1.0
 40
1.0
 10
189.1070050248
 20
474.0122584157
 30
0.0
 10
189.1069384331
 20
471.7434343198
 30
0.0
 10
189.1225988649
 20
467.2096782534
 30
0.0
 10
189.199315325
 20
462.6764666064
 30
0.0
 10
189.2524901918
 20
460.4122251006
 30
0.0
  0
SPLINE
  5
2DD
100
AcDbEntity
  8
0
100
AcDbSpline
 62
7
  6
CONTINUOUS
 70
0
 71
3
 72
11
 73
7
 74
0
 42
0.0000001
 43
0.0000001
 44
0.0000000001
 40
0.0
 40
0.0
 40
0.0
 40
0.0
 40
0.2658729927
 40
0.5223468889
 40
0.7673103118
 40
1.0
 40
1.0
 40
1.0
 40
1.0
 10
192.9256166825
 20
459.1494409405
 30
0.0
 10
192.9254063836
 20
458.6921731439
 30
0.0
 10
193.0045728163
 20
457.7909076681
 30
0.0
 10
193.3931223974
 20
456.5178335946
 30
0.0
 10
194.0609161444
 20
455.4276022609
 30
0.0
 10
194.7094269562
 20
454.8877343657
 30
0.0
 10
195.0631570263
 20
454.7005646826
 30
0.0
  0
SPLINE
  5
2DE
100
AcDbEntity
  8
0
100
AcDbSpline
 62
7
  6
CONTINUOUS
 70
0
 71
3
 72
11
 73
7
 74
0
 42
0.0000001
 43
0.0000001
 44
0.0000000001
 40
0.0
 40
0.0
 40
0.0
 40
0.0
 40
0.2327357083
 40
0.4777184115
 40
0.7341742186
 40
1.0
 40
1.0
 40
1.0
 40
1.0
 10
195.0720010871
 20
494.0522256264
 30
0.0
 10
194.7194386303
 20
493.864420794
 30
0.0
 10
194.073302435
 20
493.3244849818
 30
0.0
 10
193.4075552058
 20
492.2360768292
 30
0.0
 10
193.0195910453
 20
490.9658021801
 30
0.0
 10
192.9399361541
 20
490.0665665887
 30
0.0
 10
192.9397233045
 20
489.6103081255
 30
0.0
  0
SPLINE
  5
2DF
100
AcDbEntity
  8
0
100
AcDbSpline
 62
7
  6
CONTINUOUS
 70
0
 71
3
 72
9
 73
5
 74
0
 42
0.0000001
 43
0.0000001
 44
0.0000000001
 40
0.0
 40
0.0
 40
0.0
 40
0.0
 40
0.2730028909
 40
1.0
 40
1.0
 40
1.0
 40
1.0
 10
189.4475374294
 20
491.5435778703
 30
0.0
 10
189.4525447829
 20
491.5923282303
 30
0.0
 10
189.4703745527
 20
491.7709299209
 30
0.0
 10
189.4851810985
 20
491.949989698
 30
0.0
 10
189.4896518192
 20
492.0804166135
 30
0.0
  0
SPLINE
  5
2E0
100
AcDbEntity
  8
0
100
AcDbSpline
 62
7
  6
CONTINUOUS
 70
0
 71
3
 72
20
 73
16
 74
0
 42
0.0000001
 43
0.0000001
 44
0.0000000001
 40
0.0
 40
0.0
 40
0.0
 40
0.0
 40
0.0574407406
 40
0.1073305514
 40
0.148610336
 40
0.1803969879
 40
0.2025623916
 40
0.2109935619
 40
0.219040841
 40
0.239929987
 40
0.2738924523
 40
0.3883431118
 40
0.5596335052
 40
0.769613563
 40
1.0
 40
1.0
 40
1.0
 40
1.0
 10
189.4913886718
 20
492.153323172
 30
0.0
 10
189.4918091711
 20
492.1871022931
 30
0.0
 10
189.4915340085
 20
492.2502594013
 30
0.0
 10
189.4869119036
 20
492.3375279648
 30
0.0
 10
189.477671394
 20
492.4095103331
 30
0.0
 10
189.4637669183
 20
492.4635876332
 30
0.0
 10
189.4460498351
 20
492.4973361551
 30
0.0
 10
189.4264405727
 20
492.5101410207
 30
0.0
 10
189.4035714109
 20
492.5118378904
 30
0.0
 10
189.3713617355
 20
492.4882698652
 30
0.0
 10
189.3151555698
 20
492.4068155555
 30
0.0
 10
189.2469077794
 20
492.2286356744
 30
0.0
 10
189.1761792064
 20
491.9463813878
 30
0.0
 10
189.1208408445
 20
491.5901410673
 30
0.0
 10
189.0992160095
 20
491.3319668409
 30
0.0
 10
189.0916500368
 20
491.1966846202
 30
0.0
  0
LINE
  5
2E1
100
AcDbEntity
  8
0
100
AcDbLine
 62
7
  6
CONTINUOUS
 10
189.0916500368
 20
491.1966846202
 11
189.0910925127
 21
491.1865875009
  0
LINE
  5
2E2
100
AcDbEntity
  8
0
100
AcDbLine
 62
7
  6
CONTINUOUS
 10
189.0997677374
 20
491.1671347942
 11
189.1005836645
 21
491.1803351065
  0
SPLINE
  5
2E3
100
AcDbEntity
  8
0
100
AcDbSpline
 62
7
  6
CONTINUOUS
 70
0
 71
3
 72
20
 73
16
 74
0
 42
0.0000001
 43
0.0000001
 44
0.0000000001
 40
0.0
 40
0.0
 40
0.0
 40
0.0
 40
0.2293326971
 40
0.4402152653
 40
0.6138012831
 40
0.7314777761
 40
0.7668378726
 40
0.7887992384
 40
0.7968891777
 40
0.8049449462
 40
0.8257275164
 40
0.855902188
 40
0.895618329
 40
0.9440089495
 40
1.0
 40
1.0
 40
1.0
 40
1.0
 10
189.1005836645
 20
491.1803351065
 30
0.0
 10
189.1086246624
 20
491.3092581206
 30
0.0
 10
189.1277775318
 20
491.5564959408
 30
0.0
 10
189.1779576768
 20
491.8993076393
 30
0.0
 10
189.2438052822
 20
492.1738609695
 30
0.0
 10
189.3072443294
 20
492.3491666149
 30
0.0
 10
189.3607891947
 20
492.431344926
 30
0.0
 10
189.3907318867
 20
492.4565658607
 30
0.0
 10
189.4130117157
 20
492.4579915586
 30
0.0
 10
189.4323165669
 20
492.4483922716
 30
0.0
 10
189.4501597662
 20
492.4184107966
 30
0.0
 10
189.4641523062
 20
492.3695261163
 30
0.0
 10
189.4739901821
 20
492.3033400325
 30
0.0
 10
189.479522688
 20
492.2223814165
 30
0.0
 10
189.4805119728
 20
492.1635576438
 30
0.0
 10
189.4804964416
 20
492.1320202271
 30
0.0
  0
SPLINE
  5
2E4
100
AcDbEntity
  8
0
100
AcDbSpline
 62
7
  6
CONTINUOUS
 70
0
 71
3
 72
9
 73
5
 74
0
 42
0.0000001
 43
0.0000001
 44
0.0000000001
 40
0.0
 40
0.0
 40
0.0
 40
0.0
 40
0.376088952
 40
1.0
 40
1.0
 40
1.0
 40
1.0
 10
189.0913342815
 20
491.1865687133
 30
0.0
 10
189.0912026652
 20
491.184462546
 30
0.0
 10
189.0910008993
 20
491.1790528768
 30
0.0
 10
189.0917901104
 20
491.172554386
 30
0.0
 10
189.094422497
 20
491.1702464937
 30
0.0
  0
SPLINE
  5
2E5
100
AcDbEntity
  8
0
100
AcDbSpline
 62
7
  6
CONTINUOUS
 70
0
 71
3
 72
9
 73
5
 74
0
 42
0.0000001
 43
0.0000001
 44
0.0000000001
 40
0.0
 40
0.0
 40
0.0
 40
0.0
 40
0.4834542701
 40
1.0
 40
1.0
 40
1.0
 40
1.0
 10
189.094422497
 20
491.1702464937
 30
0.0
 10
189.0951858289
 20
491.1695772577
 30
0.0
 10
189.0968132864
 20
491.1682449605
 30
0.0
 10
189.0987646847
 20
491.1673359127
 30
0.0
 10
189.0998234012
 20
491.1671001621
 30
0.0
  0
SPLINE
  5
2E6
100
AcDbEntity
  8
0
100
AcDbSpline
 62
7
  6
CONTINUOUS
 70
0
 71
3
 72
8
 73
4
 74
0
 42
0.0000001
 43
0.0000001
 44
0.0000000001
 40
0.0
 40
0.0
 40
0.0
 40
0.0
 40
1.0
 40
1.0
 40
1.0
 40
1.0
 10
193.5013742725
 20
496.3299248442
 30
0.0
 10
193.7364630521
 20
496.4222896689
 30
0.0
 10
193.9914239634
 20
496.4734028703
 30
0.0
 10
194.2438893711
 20
496.4810978733
 30
0.0
  0
SPLINE
  5
2E7
100
AcDbEntity
  8
0
100
AcDbSpline
 62
7
  6
CONTINUOUS
 70
0
 71
3
 72
22
 73
18
 74
0
 42
0.0000001
 43
0.0000001
 44
0.0000000001
 40
0.0
 40
0.0
 40
0.0
 40
0.0
 40
0.0248648829
 40
0.0337255314
 40
0.0403235078
 40
0.0450901925
 40
0.0492548305
 40
0.0619933364
 40
0.0852309837
 40
0.1202995491
 40
0.1673067787
 40
0.2260213766
 40
0.2957271776
 40
0.3754786855
 40
0.5607029002
 40
0.7724230045
 40
1.0
 40
1.0
 40
1.0
 40
1.0
 10
189.4631199579
 20
454.6312800751
 30
0.0
 10
189.4631193857
 20
454.6168093676
 30
0.0
 10
189.4625786958
 20
454.5971104809
 30
0.0
 10
189.4581049413
 20
454.573953012
 30
0.0
 10
189.4539561583
 20
454.5629534147
 30
0.0
 10
189.4478365198
 20
454.5555394139
 30
0.0
 10
189.4342870799
 20
454.5540219452
 30
0.0
 10
189.4161594258
 20
454.5727018528
 30
0.0
 10
189.3942601785
 20
454.6061646433
 30
0.0
 10
189.3670707916
 20
454.6620083461
 30
0.0
 10
189.3364750371
 20
454.7377325871
 30
0.0
 10
189.3031082106
 20
454.8343798137
 30
0.0
 10
189.2682966101
 20
454.9504110311
 30
0.0
 10
189.2191582897
 20
455.1389391477
 30
0.0
 10
189.1628917923
 20
455.4108054413
 30
0.0
 10
189.1121264741
 20
455.7709572697
 30
0.0
 10
189.0922971497
 20
456.0259721805
 30
0.0
 10
189.0841405139
 20
456.158164599
 30
0.0
  0
SPLINE
  5
2E8
100
AcDbEntity
  8
0
100
AcDbSpline
 62
7
  6
CONTINUOUS
 70
0
 71
3
 72
13
 73
9
 74
0
 42
0.0000001
 43
0.0000001
 44
0.0000000001
 40
0.0
 40
0.0
 40
0.0
 40
0.0
 40
0.3093058709
 40
0.6049393357
 40
0.7338532627
 40
0.8442583064
 40
0.9331256013
 40
1.0
 40
1.0
 40
1.0
 40
1.0
 10
192.9256178966
 20
459.1494541768
 30
0.0
 10
192.5435124626
 20
459.151990393
 30
0.0
 10
191.7962407262
 20
459.1757379123
 30
0.0
 10
190.8922393746
 20
459.2546243723
 30
0.0
 10
190.2385998648
 20
459.3533673059
 30
0.0
 10
189.8410362646
 20
459.4345309642
 30
0.0
 10
189.5243654439
 20
459.5237146678
 30
0.0
 10
189.3447578436
 20
459.595152293
 30
0.0
 10
189.271748993
 20
459.6338191001
 30
0.0
  0
SPLINE
  5
2E9
100
AcDbEntity
  8
0
100
AcDbSpline
 62
7
  6
CONTINUOUS
 70
0
 71
3
 72
11
 73
7
 74
0
 42
0.0000001
 43
0.0000001
 44
0.0000000001
 40
0.0
 40
0.0
 40
0.0
 40
0.0
 40
0.1706847764
 40
0.4005785846
 40
0.6833657535
 40
1.0
 40
1.0
 40
1.0
 40
1.0
 10
193.4810266045
 20
452.4292933296
 30
0.0
 10
193.4987168279
 20
452.5393788159
 30
0.0
 10
193.6552485816
 20
452.7701030987
 30
0.0
 10
194.009443861
 20
453.0400590415
 30
0.0
 10
194.4940033306
 20
453.2911050693
 30
0.0
 10
194.8657203865
 20
453.4156262446
 30
0.0
 10
195.0625902274
 20
453.4790615367
 30
0.0
  0
SPLINE
  5
2EA
100
AcDbEntity
  8
0
100
AcDbSpline
 62
7
  6
CONTINUOUS
 70
0
 71
3
 72
13
 73
9
 74
0
 42
0.0000001
 43
0.0000001
 44
0.0000000001
 40
0.0
 40
0.0
 40
0.0
 40
0.0
 40
0.0791826442
 40
0.1652849021
 40
0.2648434897
 40
0.380943839
 40
0.6627068745
 40
1.0
 40
1.0
 40
1.0
 40
1.0
 10
194.2439079122
 20
496.4810920765
 30
0.0
 10
194.2439095081
 20
496.4545827381
 30
0.0
 10
194.2544569217
 20
496.3987808768
 30
0.0
 10
194.3010480265
 20
496.3216148044
 30
0.0
 10
194.3760385784
 20
496.2524768877
 30
0.0
 10
194.5191431187
 20
496.1658107287
 30
0.0
 10
194.7552989867
 20
496.088224846
 30
0.0
 10
194.9598995191
 20
496.0538640759
 30
0.0
 10
195.0719639241
 20
496.039978143
 30
0.0
  0
SPLINE
  5
2EB
100
AcDbEntity
  8
0
100
AcDbSpline
 62
7
  6
CONTINUOUS
 70
0
 71
3
 72
9
 73
5
 74
0
 42
0.0000001
 43
0.0000001
 44
0.0000000001
 40
0.0
 40
0.0
 40
0.0
 40
0.0
 40
0.3795131349
 40
1.0
 40
1.0
 40
1.0
 40
1.0
 10
189.2717469924
 20
459.6338188006
 30
0.0
 10
189.2702700455
 20
459.634253179
 30
0.0
 10
189.2667477534
 20
459.6354719561
 30
0.0
 10
189.2617248931
 20
459.6376975324
 30
0.0
 10
189.2616260543
 20
459.6402126023
 30
0.0
  0
SPLINE
  5
2EC
100
AcDbEntity
  8
0
100
AcDbSpline
 62
7
  6
CONTINUOUS
 70
0
 71
3
 72
13
 73
9
 74
0
 42
0.0000001
 43
0.0000001
 44
0.0000000001
 40
0.0
 40
0.0
 40
0.0
 40
0.0
 40
0.3374078029
 40
0.6194138669
 40
0.7355800505
 40
0.8351071732
 40
0.9210547707
 40
1.0
 40
1.0
 40
1.0
 40
1.0
 10
195.06223872
 20
452.7190540515
 30
0.0
 10
194.9489262684
 20
452.7054345001
 30
0.0
 10
194.7419598626
 20
452.6715286867
 30
0.0
 10
194.5028607352
 20
452.5942626386
 30
0.0
 10
194.3577250945
 20
452.5074373169
 30
0.0
 10
194.2816089659
 20
452.438025453
 30
0.0
 10
194.2342331277
 20
452.3603988625
 30
0.0
 10
194.2234637706
 20
452.3041583515
 30
0.0
 10
194.2234369002
 20
452.2774551819
 30
0.0
  0
SPLINE
  5
2ED
100
AcDbEntity
  8
0
100
AcDbSpline
 62
7
  6
CONTINUOUS
 70
0
 71
3
 72
9
 73
5
 74
0
 42
0.0000001
 43
0.0000001
 44
0.0000000001
 40
0.0
 40
0.0
 40
0.0
 40
0.0
 40
0.253698763
 40
1.0
 40
1.0
 40
1.0
 40
1.0
 10
189.0750096729
 20
457.586457299
 30
0.0
 10
189.0765537291
 20
457.5566675116
 30
0.0
 10
189.0833736257
 20
457.4392858796
 30
0.0
 10
189.0932153473
 20
457.3220713452
 30
0.0
 10
189.1025562367
 20
457.2348201936
 30
0.0
  0
SPLINE
  5
2EE
100
AcDbEntity
  8
0
100
AcDbSpline
 62
7
  6
CONTINUOUS
 70
0
 71
3
 72
20
 73
16
 74
0
 42
0.0000001
 43
0.0000001
 44
0.0000000001
 40
0.0
 40
0.0
 40
0.0
 40
0.0
 40
0.239138926
 40
0.3473918926
 40
0.445004332
 40
0.5296883292
 40
0.5995433271
 40
0.653600785
 40
0.6919788877
 40
0.7168566586
 40
0.7345970472
 40
0.7560806223
 40
0.786694058
 40
0.876613723
 40
1.0
 40
1.0
 40
1.0
 40
1.0
 10
189.1025562367
 20
457.2348201936
 30
0.0
 10
189.114865547
 20
457.1198416887
 30
0.0
 10
189.1377019031
 20
456.9532293604
 30
0.0
 10
189.1797610156
 20
456.7421356188
 30
0.0
 10
189.2135029915
 20
456.6057111822
 30
0.0
 10
189.2492036978
 20
456.4889900769
 30
0.0
 10
189.2853477167
 20
456.394875981
 30
0.0
 10
189.3203935575
 20
456.3240413064
 30
0.0
 10
189.3529381714
 20
456.278186145
 30
0.0
 10
189.3841221723
 20
456.25083244
 30
0.0
 10
189.4186069347
 20
456.2535518532
 30
0.0
 10
189.4397396507
 20
456.2830681193
 30
0.0
 10
189.4622552064
 20
456.3473457658
 30
0.0
 10
189.4747228996
 20
456.4663636386
 30
0.0
 10
189.475666958
 20
456.5691018342
 30
0.0
 10
189.474557399
 20
456.6287548997
 30
0.0
  0
SPLINE
  5
2EF
100
AcDbEntity
  8
0
100
AcDbSpline
 62
7
  6
CONTINUOUS
 70
0
 71
3
 72
9
 73
5
 74
0
 42
0.0000001
 43
0.0000001
 44
0.0000000001
 40
0.0
 40
0.0
 40
0.0
 40
0.0
 40
0.2244318098
 40
1.0
 40
1.0
 40
1.0
 40
1.0
 10
189.474557399
 20
456.6287548997
 30
0.0
 10
189.4739260418
 20
456.6626984651
 30
0.0
 10
189.4687310236
 20
456.8138968802
 30
0.0
 10
189.4566062317
 20
456.9647657775
 30
0.0
 10
189.4457597348
 20
457.0815822502
 30
0.0
  0
SPLINE
  5
2F0
100
AcDbEntity
  8
0
100
AcDbSpline
 62
7
  6
CONTINUOUS
 70
0
 71
3
 72
10
 73
6
 74
0
 42
0.0000001
 43
0.0000001
 44
0.0000000001
 40
0.0
 40
0.0
 40
0.0
 40
0.0
 40
0.179680455
 40
0.4129019267
 40
1.0
 40
1.0
 40
1.0
 40
1.0
 10
189.4657196611
 20
454.6902744937
 30
0.0
 10
189.4571293925
 20
454.767645043
 30
0.0
 10
189.4298578042
 20
454.9445435212
 30
0.0
 10
189.3544196369
 20
455.3711227427
 30
0.0
 10
189.2912052913
 20
455.7209111097
 30
0.0
 10
189.2508875875
 20
455.9720537663
 30
0.0
  0
SPLINE
  5
2F1
100
AcDbEntity
  8
0
100
AcDbSpline
 62
7
  6
CONTINUOUS
 70
0
 71
3
 72
9
 73
5
 74
0
 42
0.0000001
 43
0.0000001
 44
0.0000000001
 40
0.0
 40
0.0
 40
0.0
 40
0.0
 40
0.2435761263
 40
1.0
 40
1.0
 40
1.0
 40
1.0
 10
189.1506494151
 20
456.6836919124
 30
0.0
 10
189.1419873161
 20
456.7567428087
 30
0.0
 10
189.1086719598
 20
457.0569072868
 30
0.0
 10
189.0853489069
 20
457.3582430771
 30
0.0
 10
189.0750096729
 20
457.586457299
 30
0.0
  0
SPLINE
  5
2F2
100
AcDbEntity
  8
0
100
AcDbSpline
 62
7
  6
CONTINUOUS
 70
0
 71
3
 72
9
 73
5
 74
0
 42
0.0000001
 43
0.0000001
 44
0.0000000001
 40
0.0
 40
0.0
 40
0.0
 40
0.0
 40
0.2035251413
 40
1.0
 40
1.0
 40
1.0
 40
1.0
 10
215.0722688334
 20
82.9593324968
 30
0.0
 10
215.072275262
 20
82.9316617821
 30
0.0
 10
215.044651082
 20
82.7950718188
 30
0.0
 10
214.9314848593
 20
82.6967257367
 30
0.0
 10
214.8442518871
 20
82.6325667246
 30
0.0
  0
SPLINE
  5
2F3
100
AcDbEntity
  8
0
100
AcDbSpline
 62
7
  6
CONTINUOUS
 70
0
 71
3
 72
9
 73
5
 74
0
 42
0.0000001
 43
0.0000001
 44
0.0000000001
 40
0.0
 40
0.0
 40
0.0
 40
0.0
 40
0.2090768016
 40
1.0
 40
1.0
 40
1.0
 40
1.0
 10
214.8442518871
 20
82.6325667246
 30
0.0
 10
214.8023027813
 20
82.6017135608
 30
0.0
 10
214.5925805553
 20
82.4665795386
 30
0.0
 10
214.3639154733
 20
82.3644809917
 30
0.0
 10
214.1821401022
 20
82.2885672065
 30
0.0
  0
SPLINE
  5
2F4
100
AcDbEntity
  8
0
100
AcDbSpline
 62
7
  6
CONTINUOUS
 70
0
 71
3
 72
8
 73
4
 74
0
 42
0.0000001
 43
0.0000001
 44
0.0000000001
 40
0.0
 40
0.0
 40
0.0
 40
0.0
 40
1.0
 40
1.0
 40
1.0
 40
1.0
 10
213.9773268851
 20
82.2058290216
 30
0.0
 10
213.8290838482
 20
82.1476559226
 30
0.0
 10
213.6798245834
 20
82.0920848442
 30
0.0
 10
213.5304013685
 20
82.0370138875
 30
0.0
  0
LINE
  5
2F5
100
AcDbEntity
  8
0
100
AcDbLine
 62
7
  6
CONTINUOUS
 10
213.5304013685
 20
82.0370138875
 11
213.3722690552
 21
81.9788856305
  0
SPLINE
  5
2F6
100
AcDbEntity
  8
0
100
AcDbSpline
 62
7
  6
CONTINUOUS
 70
0
 71
3
 72
8
 73
4
 74
0
 42
0.0000001
 43
0.0000001
 44
0.0000000001
 40
0.0
 40
0.0
 40
0.0
 40
0.0
 40
1.0
 40
1.0
 40
1.0
 40
1.0
 10
195.6509825135
 20
875.5745103726
 30
0.0
 10
195.5341260027
 20
875.4394756501
 30
0.0
 10
195.4255959168
 20
875.295918886
 30
0.0
 10
195.3339771028
 20
875.1426354448
 30
0.0
  0
SPLINE
  5
2F7
100
AcDbEntity
  8
0
100
AcDbSpline
 62
7
  6
CONTINUOUS
 70
0
 71
3
 72
8
 73
4
 74
0
 42
0.0000001
 43
0.0000001
 44
0.0000000001
 40
0.0
 40
0.0
 40
0.0
 40
0.0
 40
1.0
 40
1.0
 40
1.0
 40
1.0
 10
195.3339771028
 20
875.1426354448
 30
0.0
 10
195.2528976472
 20
875.0069849443
 30
0.0
 10
195.1844762147
 20
874.8619227513
 30
0.0
 10
195.1383792751
 20
874.7107605584
 30
0.0
  0
SPLINE
  5
2F8
100
AcDbEntity
  8
0
100
AcDbSpline
 62
7
  6
CONTINUOUS
 70
0
 71
3
 72
8
 73
4
 74
0
 42
0.0000001
 43
0.0000001
 44
0.0000000001
 40
0.0
 40
0.0
 40
0.0
 40
0.0
 40
1.0
 40
1.0
 40
1.0
 40
1.0
 10
195.1383792751
 20
874.7107605584
 30
0.0
 10
195.095899103
 20
874.5714585566
 30
0.0
 10
195.0722690552
 20
874.4245208348
 30
0.0
 10
195.0722690552
 20
874.2788856305
 30
0.0
  0
SPLINE
  5
2F9
100
AcDbEntity
  8
0
100
AcDbSpline
 62
7
  6
CONTINUOUS
 70
0
 71
3
 72
9
 73
5
 74
0
 42
0.0000001
 43
0.0000001
 44
0.0000000001
 40
0.0
 40
0.0
 40
0.0
 40
0.0
 40
0.7303617963
 40
1.0
 40
1.0
 40
1.0
 40
1.0
 10
195.0722690552
 20
83.6788856305
 30
0.0
 10
195.0722690552
 20
83.4494942567
 30
0.0
 10
195.1556743149
 20
83.1326082257
 30
0.0
 10
195.3072808191
 20
82.8579653766
 30
0.0
 10
195.3517395603
 20
82.7858860393
 30
0.0
  0
SPLINE
  5
2FA
100
AcDbEntity
  8
0
100
AcDbSpline
 62
7
  6
CONTINUOUS
 70
0
 71
3
 72
8
 73
4
 74
0
 42
0.0000001
 43
0.0000001
 44
0.0000000001
 40
0.0
 40
0.0
 40
0.0
 40
0.0
 40
1.0
 40
1.0
 40
1.0
 40
1.0
 10
195.3517395603
 20
82.7858860393
 30
0.0
 10
195.4395238526
 20
82.6435645647
 30
0.0
 10
195.5415599241
 20
82.5097052678
 30
0.0
 10
195.6509825135
 20
82.3832608884
 30
0.0
  0
LINE
  5
2FB
100
AcDbEntity
  8
0
100
AcDbLine
 62
7
  6
CONTINUOUS
 10
213.3722690552
 20
875.9788856305
 11
213.5304166624
 21
875.9207517145
  0
SPLINE
  5
2FC
100
AcDbEntity
  8
0
100
AcDbSpline
 62
7
  6
CONTINUOUS
 70
0
 71
3
 72
8
 73
4
 74
0
 42
0.0000001
 43
0.0000001
 44
0.0000000001
 40
0.0
 40
0.0
 40
0.0
 40
0.0
 40
1.0
 40
1.0
 40
1.0
 40
1.0
 10
213.5304166624
 20
875.9207517145
 30
0.0
 10
213.6798487537
 20
875.8656774045
 30
0.0
 10
213.8291168482
 20
875.8101028307
 30
0.0
 10
213.9773685315
 20
875.7519257912
 30
0.0
  0
SPLINE
  5
2FD
100
AcDbEntity
  8
0
100
AcDbSpline
 62
7
  6
CONTINUOUS
 70
0
 71
3
 72
9
 73
5
 74
0
 42
0.0000001
 43
0.0000001
 44
0.0000000001
 40
0.0
 40
0.0
 40
0.0
 40
0.0
 40
0.2885992566
 40
1.0
 40
1.0
 40
1.0
 40
1.0
 10
214.2084245779
 20
875.6581717443
 30
0.0
 10
214.2727473323
 20
875.6310350076
 30
0.0
 10
214.4937548878
 20
875.5335986619
 30
0.0
 10
214.7121410322
 20
875.4236108193
 30
0.0
 10
214.8501650116
 20
875.3208290073
 30
0.0
  0
SPLINE
  5
2FE
100
AcDbEntity
  8
0
100
AcDbSpline
 62
7
  6
CONTINUOUS
 70
0
 71
3
 72
8
 73
4
 74
0
 42
0.0000001
 43
0.0000001
 44
0.0000000001
 40
0.0
 40
0.0
 40
0.0
 40
0.0
 40
1.0
 40
1.0
 40
1.0
 40
1.0
 10
214.8501650116
 20
875.3208290073
 30
0.0
 10
214.9022808392
 20
875.2820201046
 30
0.0
 10
214.952270461
 20
875.2389087036
 30
0.0
 10
214.9934004303
 20
875.1886044687
 30
0.0
  0
SPLINE
  5
2FF
100
AcDbEntity
  8
0
100
AcDbSpline
 62
7
  6
CONTINUOUS
 70
0
 71
3
 72
8
 73
4
 74
0
 42
0.0000001
 43
0.0000001
 44
0.0000000001
 40
0.0
 40
0.0
 40
0.0
 40
0.0
 40
1.0
 40
1.0
 40
1.0
 40
1.0
 10
214.9934004303
 20
875.1886044687
 30
0.0
 10
215.0368380567
 20
875.1354778411
 30
0.0
 10
215.0722832691
 20
875.067062416
 30
0.0
 10
215.0722688759
 20
874.9984383259
 30
0.0
  0
SPLINE
  5
300
100
AcDbEntity
  8
0
100
AcDbSpline
 62
7
  6
CONTINUOUS
 70
0
 71
3
 72
8
 73
4
 74
0
 42
0.0000001
 43
0.0000001
 44
0.0000000001
 40
0.0
 40
0.0
 40
0.0
 40
0.0
 40
1.0
 40
1.0
 40
1.0
 40
1.0
 10
219.7950453854
 20
99.3620885085
 30
0.0
 10
219.9833973285
 20
99.1932912992
 30
0.0
 10
220.1706638773
 20
99.0231432159
 30
0.0
 10
220.3526072035
 20
98.8474571937
 30
0.0
  0
SPLINE
  5
301
100
AcDbEntity
  8
0
100
AcDbSpline
 62
7
  6
CONTINUOUS
 70
0
 71
3
 72
9
 73
5
 74
0
 42
0.0000001
 43
0.0000001
 44
0.0000000001
 40
0.0
 40
0.0
 40
0.0
 40
0.0
 40
0.2642131711
 40
1.0
 40
1.0
 40
1.0
 40
1.0
 10
220.3526072035
 20
98.8474571937
 30
0.0
 10
220.4244571453
 20
98.7780782792
 30
0.0
 10
220.6929272563
 20
98.5121828575
 30
0.0
 10
220.9462967778
 20
98.2290839059
 30
0.0
 10
221.109601586
 20
98.0039248343
 30
0.0
  0
SPLINE
  5
302
100
AcDbEntity
  8
0
100
AcDbSpline
 62
7
  6
CONTINUOUS
 70
0
 71
3
 72
8
 73
4
 74
0
 42
0.0000001
 43
0.0000001
 44
0.0000000001
 40
0.0
 40
0.0
 40
0.0
 40
0.0
 40
1.0
 40
1.0
 40
1.0
 40
1.0
 10
221.109601586
 20
98.0039248343
 30
0.0
 10
221.1577942414
 20
97.9374784529
 30
0.0
 10
221.2039230679
 20
97.8694526011
 30
0.0
 10
221.2471872506
 20
97.7996968549
 30
0.0
  0
SPLINE
  5
303
100
AcDbEntity
  8
0
100
AcDbSpline
 62
7
  6
CONTINUOUS
 70
0
 71
3
 72
9
 73
5
 74
0
 42
0.0000001
 43
0.0000001
 44
0.0000000001
 40
0.0
 40
0.0
 40
0.0
 40
0.0
 40
0.2703303799
 40
1.0
 40
1.0
 40
1.0
 40
1.0
 10
221.2471872506
 20
97.7996968549
 30
0.0
 10
221.299759127
 20
97.7149341195
 30
0.0
 10
221.4787826822
 20
97.3930977487
 30
0.0
 10
221.5825656666
 20
97.0219137332
 30
0.0
 10
221.5825656666
 20
96.7526916223
 30
0.0
  0
SPLINE
  5
304
100
AcDbEntity
  8
0
100
AcDbSpline
 62
7
  6
CONTINUOUS
 70
0
 71
3
 72
8
 73
4
 74
0
 42
0.0000001
 43
0.0000001
 44
0.0000000001
 40
0.0
 40
0.0
 40
0.0
 40
0.0
 40
1.0
 40
1.0
 40
1.0
 40
1.0
 10
496.1825656666
 20
80.3788856305
 30
0.0
 10
496.5671161257
 20
80.5223963628
 30
0.0
 10
496.9519721485
 20
80.6654320562
 30
0.0
 10
497.3322014214
 20
80.8200285821
 30
0.0
  0
SPLINE
  5
305
100
AcDbEntity
  8
0
100
AcDbSpline
 62
7
  6
CONTINUOUS
 70
0
 71
3
 72
9
 73
5
 74
0
 42
0.0000001
 43
0.0000001
 44
0.0000000001
 40
0.0
 40
0.0
 40
0.0
 40
0.0
 40
0.2872295139
 40
1.0
 40
1.0
 40
1.0
 40
1.0
 10
497.3322014214
 20
80.8200285821
 30
0.0
 10
497.4617914068
 20
80.8727182694
 30
0.0
 10
497.9098223947
 20
81.0618883238
 30
0.0
 10
498.3542499496
 20
81.2726692116
 30
0.0
 10
498.6384435278
 20
81.4720309024
 30
0.0
  0
SPLINE
  5
306
100
AcDbEntity
  8
0
100
AcDbSpline
 62
7
  6
CONTINUOUS
 70
0
 71
3
 72
9
 73
5
 74
0
 42
0.0000001
 43
0.0000001
 44
0.0000000001
 40
0.0
 40
0.0
 40
0.0
 40
0.0
 40
0.3194900127
 40
1.0
 40
1.0
 40
1.0
 40
1.0
 10
498.6384435278
 20
81.4720309024
 30
0.0
 10
498.7051264446
 20
81.518808944
 30
0.0
 10
498.903607423
 20
81.6695221968
 30
0.0
 10
499.0825656666
 20
81.9053890088
 30
0.0
 10
499.0825656666
 20
82.0788856305
 30
0.0
  0
SPLINE
  5
307
100
AcDbEntity
  8
0
100
AcDbSpline
 62
7
  6
CONTINUOUS
 70
0
 71
3
 72
9
 73
5
 74
0
 42
0.0000001
 43
0.0000001
 44
0.0000000001
 40
0.0
 40
0.0
 40
0.0
 40
0.0
 40
0.3869337852
 40
1.0
 40
1.0
 40
1.0
 40
1.0
 10
499.0825656666
 20
876.2788856305
 30
0.0
 10
499.0825656666
 20
876.4384858355
 30
0.0
 10
498.8148192665
 20
876.8171382988
 30
0.0
 10
498.4570895248
 20
877.0107030793
 30
0.0
 10
498.2334539347
 20
877.1287385916
 30
0.0
  0
SPLINE
  5
308
100
AcDbEntity
  8
0
100
AcDbSpline
 62
7
  6
CONTINUOUS
 70
0
 71
3
 72
9
 73
5
 74
0
 42
0.0000001
 43
0.0000001
 44
0.0000000001
 40
0.0
 40
0.0
 40
0.0
 40
0.0
 40
0.2291140014
 40
1.0
 40
1.0
 40
1.0
 40
1.0
 10
498.2334539347
 20
877.1287385916
 30
0.0
 10
498.1666061871
 20
877.1640210265
 30
0.0
 10
497.871689488
 20
877.3120561635
 30
0.0
 10
497.5680105921
 20
877.4418623783
 30
0.0
 10
497.3324161331
 20
877.5376554396
 30
0.0
  0
SPLINE
  5
309
100
AcDbEntity
  8
0
100
AcDbSpline
 62
7
  6
CONTINUOUS
 70
0
 71
3
 72
8
 73
4
 74
0
 42
0.0000001
 43
0.0000001
 44
0.0000000001
 40
0.0
 40
0.0
 40
0.0
 40
0.0
 40
1.0
 40
1.0
 40
1.0
 40
1.0
 10
497.3324161331
 20
877.5376554396
 30
0.0
 10
496.9521171487
 20
877.6922855787
 30
0.0
 10
496.5671884887
 20
877.835347893
 30
0.0
 10
496.1825656666
 20
877.9788856305
 30
0.0
  0
SPLINE
  5
30A
100
AcDbEntity
  8
0
100
AcDbSpline
 62
7
  6
CONTINUOUS
 70
0
 71
3
 72
9
 73
5
 74
0
 42
0.0000001
 43
0.0000001
 44
0.0000000001
 40
0.0
 40
0.0
 40
0.0
 40
0.0
 40
0.2359319666
 40
1.0
 40
1.0
 40
1.0
 40
1.0
 10
221.5825656666
 20
861.6050796387
 30
0.0
 10
221.5825656666
 20
861.5179866296
 30
0.0
 10
221.550627171
 20
861.1485086302
 30
0.0
 10
221.3961504684
 20
860.7983617472
 30
0.0
 10
221.2475377965
 20
860.558638223
 30
0.0
  0
SPLINE
  5
30B
100
AcDbEntity
  8
0
100
AcDbSpline
 62
7
  6
CONTINUOUS
 70
0
 71
3
 72
8
 73
4
 74
0
 42
0.0000001
 43
0.0000001
 44
0.0000000001
 40
0.0
 40
0.0
 40
0.0
 40
0.0
 40
1.0
 40
1.0
 40
1.0
 40
1.0
 10
221.2475377965
 20
860.558638223
 30
0.0
 10
221.2040162686
 20
860.488434694
 30
0.0
 10
221.157592
 20
860.4199830845
 30
0.0
 10
221.1090807469
 20
860.3531301325
 30
0.0
  0
SPLINE
  5
30C
100
AcDbEntity
  8
0
100
AcDbSpline
 62
7
  6
CONTINUOUS
 70
0
 71
3
 72
9
 73
5
 74
0
 42
0.0000001
 43
0.0000001
 44
0.0000000001
 40
0.0
 40
0.0
 40
0.0
 40
0.0
 40
0.2297471254
 40
1.0
 40
1.0
 40
1.0
 40
1.0
 10
221.1090807469
 20
860.3531301325
 30
0.0
 10
221.0239981945
 20
860.2358785788
 30
0.0
 10
220.6249876923
 20
859.7462290708
 30
0.0
 10
220.1567567873
 20
859.3198417215
 30
0.0
 10
219.7950610982
 20
858.9956969432
 30
0.0
  0
SPLINE
  5
30D
100
AcDbEntity
  8
0
100
AcDbSpline
 62
7
  6
CONTINUOUS
 70
0
 71
3
 72
9
 73
5
 74
0
 42
0.0000001
 43
0.0000001
 44
0.0000000001
 40
0.0
 40
0.0
 40
0.0
 40
0.0
 40
0.3869336149
 40
1.0
 40
1.0
 40
1.0
 40
1.0
 10
221.5825656666
 20
82.0788856305
 30
0.0
 10
221.5825656666
 20
81.9192850128
 30
0.0
 10
221.8503134282
 20
81.5406316264
 30
0.0
 10
222.2080443545
 20
81.3470666388
 30
0.0
 10
222.4316807662
 20
81.2290308934
 30
0.0
  0
SPLINE
  5
30E
100
AcDbEntity
  8
0
100
AcDbSpline
 62
7
  6
CONTINUOUS
 70
0
 71
3
 72
9
 73
5
 74
0
 42
0.0000001
 43
0.0000001
 44
0.0000000001
 40
0.0
 40
0.0
 40
0.0
 40
0.0
 40
0.2291141129
 40
1.0
 40
1.0
 40
1.0
 40
1.0
 10
222.4316807662
 20
81.2290308934
 30
0.0
 10
222.4985283939
 20
81.1937485819
 30
0.0
 10
222.793444389
 20
81.0457139966
 30
0.0
 10
223.0971224894
 20
80.915908161
 30
0.0
 10
223.3327162943
 20
80.82011538
 30
0.0
  0
SPLINE
  5
30F
100
AcDbEntity
  8
0
100
AcDbSpline
 62
7
  6
CONTINUOUS
 70
0
 71
3
 72
8
 73
4
 74
0
 42
0.0000001
 43
0.0000001
 44
0.0000000001
 40
0.0
 40
0.0
 40
0.0
 40
0.0
 40
1.0
 40
1.0
 40
1.0
 40
1.0
 10
223.3327162943
 20
80.82011538
 30
0.0
 10
223.7130149225
 20
80.665485409
 30
0.0
 10
224.0979432129
 20
80.5224232305
 30
0.0
 10
224.4825656666
 20
80.3788856305
 30
0.0
  0
SPLINE
  5
310
100
AcDbEntity
  8
0
100
AcDbSpline
 62
7
  6
CONTINUOUS
 70
0
 71
3
 72
8
 73
4
 74
0
 42
0.0000001
 43
0.0000001
 44
0.0000000001
 40
0.0
 40
0.0
 40
0.0
 40
0.0
 40
1.0
 40
1.0
 40
1.0
 40
1.0
 10
224.4825656666
 20
877.9788856305
 30
0.0
 10
224.0980153069
 20
877.8353749353
 30
0.0
 10
223.7131593839
 20
877.6923392783
 30
0.0
 10
223.3329302077
 20
877.5377427959
 30
0.0
  0
SPLINE
  5
311
100
AcDbEntity
  8
0
100
AcDbSpline
 62
7
  6
CONTINUOUS
 70
0
 71
3
 72
9
 73
5
 74
0
 42
0.0000001
 43
0.0000001
 44
0.0000000001
 40
0.0
 40
0.0
 40
0.0
 40
0.0
 40
0.2872295178
 40
1.0
 40
1.0
 40
1.0
 40
1.0
 10
223.3329302077
 20
877.5377427959
 30
0.0
 10
223.2033401928
 20
877.4850530979
 30
0.0
 10
222.7553091094
 20
877.2958830063
 30
0.0
 10
222.3108814482
 20
877.0851020998
 30
0.0
 10
222.0266878061
 20
876.8857403758
 30
0.0
  0
SPLINE
  5
312
100
AcDbEntity
  8
0
100
AcDbSpline
 62
7
  6
CONTINUOUS
 70
0
 71
3
 72
9
 73
5
 74
0
 42
0.0000001
 43
0.0000001
 44
0.0000000001
 40
0.0
 40
0.0
 40
0.0
 40
0.0
 40
0.3194899919
 40
1.0
 40
1.0
 40
1.0
 40
1.0
 10
222.0266878061
 20
876.8857403758
 30
0.0
 10
221.9600048911
 20
876.8389623381
 30
0.0
 10
221.7615239099
 20
876.6882490795
 30
0.0
 10
221.5825656666
 20
876.4523822609
 30
0.0
 10
221.5825656666
 20
876.2788856305
 30
0.0
  0
ENDSEC
  0
SECTION
  2
OBJECTS
  0
DICTIONARY
  5
C
100
AcDbDictionary
280
0
281
1
  3
ACAD_GROUP
350
D
  3
ACAD_MLINESTYLE
350
17
  3
ACAD_LAYOUT
350
1A
  3
ACAD_PLOTSETTINGS
350
19
  3
ACAD_PLOTSTYLENAME
350
E
  0
DICTIONARY
  5
D
102
{ACAD_REACTORS
330
C
102
}
100
AcDbDictionary
280
0
281
1
  0
ACDBDICTIONARYWDFLT
  5
E
102
{ACAD_REACTORS
330
C
102
}
100
AcDbDictionary
281
1
  3
Normal
350
F
100
AcDbDictionaryWithDefault
340
F
  0
DICTIONARY
  5
17
102
{ACAD_REACTORS
330
C
102
}
100
AcDbDictionary
280
0
281
1
  3
Standard
350
18
  0
DICTIONARY
  5
19
102
{ACAD_REACTORS
330
C
102
}
100
AcDbDictionary
281
1
  0
DICTIONARY
  5
1A
102
{ACAD_REACTORS
330
C
102
}
100
AcDbDictionary
281
1
  3
Model
350
313
  3
Layout1
350
314
  0
ACDBPLACEHOLDER
  5
F
102
{ACAD_REACTORS
330
E
102
}
  0
MLINESTYLE
  5
18
102
{ACAD_REACTORS
330
17
102
}
100
AcDbMlineStyle
  2
STANDARD
 70
0
  3

 62
256
 51
90.0
 52
90.0
 71
2
 49
0.5
 62
256
  6
BYLAYER
 49
-0.5
 62
256
  6
BYLAYER
  0
LAYOUT
  5
313
102
{ACAD_REACTORS
330
1A
102
}
100
AcDbPlotSettings
  1

  2
none_device
  4

  6

 40
0.0
 41
0.0
 42
0.0
 43
0.0
 44
210.0
 45
297.0
 46
0.0
 47
0.0
 48
0.0
 49
0.0
140
0.0
141
0.0
142
1.0
143
1.0
 70
1024
 72
1
 73
0
 74
0
  7

 75
0
147
1.0
148
0.0
149
0.0
100
AcDbLayout
  1
Model
 70
0
 71
0
 10
0.0
 20
0.0
 11
210.0
 21
297.0
 12
0.0
 22
0.0
 32
0.0
 14
0.0
 24
0.0
 34
0.0
 15
0.0
 25
0.0
 35
0.0
146
0.0
 13
0.0
 23
0.0
 33
0.0
 16
1.0
 26
0.0
 36
0.0
 17
0.0
 27
1.0
 37
0.0
 76
0
330
210
345
0
346
0
  0
LAYOUT
  5
314
102
{ACAD_REACTORS
330
1A
102
}
100
AcDbPlotSettings
  1

  2
none_device
  4

  6

 40
0.0
 41
0.0
 42
0.0
 43
0.0
 44
210.0
 45
297.0
 46
0.0
 47
0.0
 48
0.0
 49
0.0
140
0.0
141
0.0
142
1.0
143
1.0
 70
0
 72
1
 73
0
 74
0
  7

 75
0
147
1.0
148
0.0
149
0.0
100
AcDbLayout
  1
Layout1
 70
0
 71
1
 10
0.0
 20
0.0
 11
210.0
 21
297.0
 12
0.0
 22
0.0
 32
0.0
 14
0.0
 24
0.0
 34
0.0
 15
0.0
 25
0.0
 35
0.0
146
0.0
 13
0.0
 23
0.0
 33
0.0
 16
1.0
 26
0.0
 36
0.0
 17
0.0
 27
1.0
 37
0.0
 76
0
330
211
345
0
346
0
  0
ENDSEC
  0
EOF
