999
DXF file: C:\Users\sesa63760\Dev\_Creo\CAD\MCADID0002111_3D-CAD\drw0001_2.dxf
999
Pro/ENGINEER 2019471 by Parametric Technology Corporation
  0
SECTION
  2
HEADER
  9
$ACADVER
  1
AC1024
  9
$DWGCODEPAGE
  3
ANSI_1252
  9
$EXTMAX
 10
37.8562647754
 20
53.5395744681
 30
0.0
  9
$EXTMIN
 10
0.0
 20
0.0
 30
0.0
  9
$LIMMIN
 10
0.0
 20
0.0
  9
$LIMMAX
 10
37.8562647754
 20
53.5395744681
  9
$VIEWCTR
 10
18.9281323877
 20
26.769787234
  9
$VIEWSIZE
 40
53.5395744681
  9
$CLAYER
  8
0
  9
$LTSCALE
 40
3.4899870764
  9
$CELTYPE
  6
BYLAYER
  9
$DIMSCALE
 40
1.0
  9
$DIMASZ
 40
0.4506698188
  9
$DIMEXO
 40
1.0
  9
$DIMDLI
 40
2.4112637983
  9
$DIMEXE
 40
1.0
  9
$DIMCEN
 40
0.5710887943
  9
$DIMLFAC
 40
1.0
  9
$DIMBLK
  1
_FILLED
  9
$DIMALT
 70
0
  9
$DIMALTF
 40
0.0393700787
  9
$DIMTXT
 40
0.6309377463
  9
$DIMTOL
 70
1
  9
$DIMLIM
 70
0
  9
$DIMTFAC
 40
1.0
  9
$DIMTP
 40
0.01
  9
$DIMTM
 40
0.01
  9
$DIMGAP
 40
0.625
  9
$DIMDSEP
 70
46
  9
$AUNITS
 70
0
  9
$PDMODE
 70
3
  9
$PDSIZE
 40
0.3125
  9
$HANDSEED
  5
395
  9
$TILEMODE
 70
1
  9
$MEASUREMENT
 70
1
  9
$INSUNITS
 70
4
  0
ENDSEC
  0
SECTION
  2
CLASSES
  0
CLASS
  1
ACDBDICTIONARYWDFLT
  2
AcDbDictionaryWithDefault
  3
AutoCAD 2000
 90
0
 91
1
280
0
281
0
  0
CLASS
  1
ACDBPLACEHOLDER
  2
AcDbPlaceHolder
  3
AutoCAD 2000
 90
0
 91
1
280
0
281
0
  0
CLASS
  1
LAYOUT
  2
AcDbLayout
  3
AutoCAD 2000
 90
0
 91
0
280
0
281
0
  0
ENDSEC
  0
SECTION
  2
TABLES
  0
TABLE
  2
VPORT
  5
8
100
AcDbSymbolTable
 70
2
  0
VPORT
  5
1F4
100
AcDbSymbolTableRecord
100
AcDbViewportTableRecord
  2
*ACTIVE
 70
0
 10
0.0
 20
0.0
 11
1.0
 21
1.0
 12
18.9281323877
 22
26.769787234
 13
0.0
 23
0.0
 14
1.0
 24
1.0
 15
0.0
 25
0.0
 16
0.0
 26
0.0
 36
1.0
 17
0.0
 27
0.0
 37
0.0
 40
53.5395744681
 41
0.7070707071
 42
50.0
 43
0.0
 44
0.0
 50
0.0
 51
0.0
 71
0
 72
100
 73
1
 74
1
 75
0
 76
0
 77
0
 78
0
  0
ENDTAB
  0
TABLE
  2
LTYPE
  5
5
100
AcDbSymbolTable
 70
6
  0
LTYPE
  5
14
100
AcDbSymbolTableRecord
100
AcDbLinetypeTableRecord
  2
BYBLOCK
 70
0
  3

 72
65
 73
0
 40
0.0
  0
LTYPE
  5
15
100
AcDbSymbolTableRecord
100
AcDbLinetypeTableRecord
  2
BYLAYER
 70
0
  3

 72
65
 73
0
 40
0.0
  0
LTYPE
  5
16
100
AcDbSymbolTableRecord
100
AcDbLinetypeTableRecord
  2
CONTINUOUS
 70
64
  3
Solid line
 72
65
 73
0
 40
0.0
  0
LTYPE
  5
1F5
100
AcDbSymbolTableRecord
100
AcDbLinetypeTableRecord
  2
CENTER
 70
64
  3
____ _ ____ _ ____ _ ____ _ ____ _ ____ _ ____
 72
65
 73
4
 40
0.6
 49
0.375
 74
0
 49
-0.075
 74
0
 49
0.075
 74
0
 49
-0.075
 74
0
  0
LTYPE
  5
1F6
100
AcDbSymbolTableRecord
100
AcDbLinetypeTableRecord
  2
HIDDEN
 70
64
  3
- - - - - - - - - - - - - - - - - - - -
 72
65
 73
2
 40
0.2
 49
0.1
 74
0
 49
-0.1
 74
0
  0
LTYPE
  5
1F7
100
AcDbSymbolTableRecord
100
AcDbLinetypeTableRecord
  2
PHANTOM
 70
64
  3
_____ _ _ _____ _ _ _____ _ _ _____
 72
65
 73
6
 40
0.8
 49
0.45
 74
0
 49
-0.05
 74
0
 49
0.1
 74
0
 49
-0.05
 74
0
 49
0.1
 74
0
 49
-0.05
 74
0
  0
LTYPE
  5
1F8
100
AcDbSymbolTableRecord
100
AcDbLinetypeTableRecord
  2
DOT
 70
64
  3
. . . . . . . . . . . . . . . . . . . .
 72
65
 73
2
 40
0.2
 49
0.1
 74
0
 49
-0.1
 74
0
  0
LTYPE
  5
1F9
100
AcDbSymbolTableRecord
100
AcDbLinetypeTableRecord
  2
DASHED
 70
64
  3
- - - - - - - - - - - - - - - - - - - -
 72
65
 73
2
 40
0.2
 49
0.1
 74
0
 49
-0.1
 74
0
  0
ENDTAB
  0
TABLE
  2
LAYER
  5
2
100
AcDbSymbolTable
 70
36
  0
LAYER
  5
10
100
AcDbSymbolTableRecord
100
AcDbLayerTableRecord
  2
0
 70
0
 62
7
  6
CONTINUOUS
370
-3
390
F
  0
LAYER
  5
1FA
100
AcDbSymbolTableRecord
100
AcDbLayerTableRecord
  2
DEFAULT_1
 70
0
 62
7
  6
CENTER
370
-3
390
F
  0
LAYER
  5
1FB
100
AcDbSymbolTableRecord
100
AcDbLayerTableRecord
  2
DEFAULT_2
 70
0
 62
8
  6
HIDDEN
370
-3
390
F
  0
LAYER
  5
1FC
100
AcDbSymbolTableRecord
100
AcDbLayerTableRecord
  2
DEFAULT_3
 70
0
 62
7
  6
PHANTOM
370
-3
390
F
  0
LAYER
  5
1FD
100
AcDbSymbolTableRecord
100
AcDbLayerTableRecord
  2
00_COMPONENTS
 70
0
 62
7
  6
CONTINUOUS
370
-3
390
F
  0
LAYER
  5
1FE
100
AcDbSymbolTableRecord
100
AcDbLayerTableRecord
  2
01_1_DEFAULT_DATUMS
 70
0
 62
7
  6
CONTINUOUS
370
-3
390
F
  0
LAYER
  5
1FF
100
AcDbSymbolTableRecord
100
AcDbLayerTableRecord
  2
01_PLANES
 70
0
 62
7
  6
CONTINUOUS
370
-3
390
F
  0
LAYER
  5
200
100
AcDbSymbolTableRecord
100
AcDbLayerTableRecord
  2
02_COORD_SYS
 70
0
 62
7
  6
CONTINUOUS
370
-3
390
F
  0
LAYER
  5
201
100
AcDbSymbolTableRecord
100
AcDbLayerTableRecord
  2
03_AXES
 70
0
 62
7
  6
CONTINUOUS
370
-3
390
F
  0
LAYER
  5
202
100
AcDbSymbolTableRecord
100
AcDbLayerTableRecord
  2
04_POINTS
 70
0
 62
7
  6
CONTINUOUS
370
-3
390
F
  0
LAYER
  5
203
100
AcDbSymbolTableRecord
100
AcDbLayerTableRecord
  2
05_CURVES
 70
0
 62
7
  6
CONTINUOUS
370
-3
390
F
  0
LAYER
  5
204
100
AcDbSymbolTableRecord
100
AcDbLayerTableRecord
  2
06_SURFS
 70
0
 62
7
  6
CONTINUOUS
370
-3
390
F
  0
LAYER
  5
205
100
AcDbSymbolTableRecord
100
AcDbLayerTableRecord
  2
07_COSMETICS
 70
0
 62
7
  6
CONTINUOUS
370
-3
390
F
  0
LAYER
  5
206
100
AcDbSymbolTableRecord
100
AcDbLayerTableRecord
  2
10_NOTES
 70
0
 62
7
  6
CONTINUOUS
370
-3
390
F
  0
LAYER
  5
207
100
AcDbSymbolTableRecord
100
AcDbLayerTableRecord
  2
11_NOTES_PUB
 70
0
 62
7
  6
CONTINUOUS
370
-3
390
F
  0
LAYER
  5
208
100
AcDbSymbolTableRecord
100
AcDbLayerTableRecord
  2
13_REF_GTOL
 70
0
 62
7
  6
CONTINUOUS
370
-3
390
F
  0
LAYER
  5
209
100
AcDbSymbolTableRecord
100
AcDbLayerTableRecord
  2
16_MISC
 70
0
 62
7
  6
CONTINUOUS
370
-3
390
F
  0
LAYER
  5
20A
100
AcDbSymbolTableRecord
100
AcDbLayerTableRecord
  2
17_NO_PRINT
 70
0
 62
7
  6
CONTINUOUS
370
-3
390
F
  0
LAYER
  5
20B
100
AcDbSymbolTableRecord
100
AcDbLayerTableRecord
  2
18_DATUM_CAMS_JOINTS
 70
0
 62
7
  6
CONTINUOUS
370
-3
390
F
  0
LAYER
  5
20C
100
AcDbSymbolTableRecord
100
AcDbLayerTableRecord
  2
19_DATUM_FUNCTIONAL
 70
0
 62
7
  6
CONTINUOUS
370
-3
390
F
  0
LAYER
  5
20D
100
AcDbSymbolTableRecord
100
AcDbLayerTableRecord
  2
20_DATUM_KINEMATIC_SCHEME
 70
0
 62
7
  6
CONTINUOUS
370
-3
390
F
  0
ENDTAB
  0
TABLE
  2
STYLE
  5
3
100
AcDbSymbolTable
 70
1
  0
STYLE
  5
11
100
AcDbSymbolTableRecord
100
AcDbTextStyleTableRecord
  2
STANDARD
 70
0
 40
0.0
 41
0.8
 50
0.0
 71
0
 42
0.2
  3
txt
  4

  0
STYLE
  5
20E
100
AcDbSymbolTableRecord
100
AcDbTextStyleTableRecord
  2
TEXTSTYLE_1
 70
0
 40
0.0
 41
0.8
 50
0.0
 71
0
 42
0.2
  3
gdt
  4

  0
ENDTAB
  0
TABLE
  2
VIEW
  5
6
100
AcDbSymbolTable
 70
0
  0
ENDTAB
  0
TABLE
  2
UCS
  5
7
100
AcDbSymbolTable
 70
0
  0
ENDTAB
  0
TABLE
  2
APPID
  5
9
100
AcDbSymbolTable
 70
1
  0
APPID
  5
20F
100
AcDbSymbolTableRecord
100
AcDbRegAppTableRecord
  2
ACAD
 70
0
  0
ENDTAB
  0
TABLE
  2
BLOCK_RECORD
  5
1
100
AcDbSymbolTable
 70
0
  0
BLOCK_RECORD
  5
210
100
AcDbSymbolTableRecord
100
AcDbBlockTableRecord
  2
*Model_Space
  0
BLOCK_RECORD
  5
211
100
AcDbSymbolTableRecord
100
AcDbBlockTableRecord
  2
*Paper_Space
  0
BLOCK_RECORD
  5
212
100
AcDbSymbolTableRecord
100
AcDbBlockTableRecord
  2
_FILLED
  0
ENDTAB
  0
TABLE
  2
DIMSTYLE
  5
A
100
AcDbSymbolTable
 70
1
100
AcDbDimStyleTable
 71
0
  0
DIMSTYLE
105
213
100
AcDbSymbolTableRecord
100
AcDbDimStyleTableRecord
  2
STANDARD
 70
0
  3

  4

 40
1.0
 41
0.4506698188
 42
1.0
 43
0.38
 44
1.0
 45
0.0
 46
0.0
 47
0.01
 48
0.01
140
0.6309377463
141
0.09
142
0.0
143
25.4
144
1.0
145
0.0
146
1.0
147
0.625
 71
1
 72
0
 73
0
 74
0
 75
0
 76
0
 77
1
 78
8
 79
2
170
0
171
1
172
0
173
0
174
0
175
0
176
0
177
0
178
0
270
2
179
2
271
2
272
2
273
2
274
2
275
0
280
0
281
0
282
0
283
1
284
8
285
0
286
0
287
3
288
0
340
11
278
46
341
212
342
212
343
212
344
212
  0
ENDTAB
  0
ENDSEC
  0
SECTION
  2
BLOCKS
  0
BLOCK
  5
20
100
AcDbEntity
  8
0
100
AcDbBlockBegin
  2
*Model_Space
 70
0
 10
0.0
 20
0.0
 30
0.0
  3
*Model_Space
  1

  0
ENDBLK
  5
21
100
AcDbEntity
  8
0
100
AcDbBlockEnd
  0
BLOCK
  5
1C
100
AcDbEntity
  8
0
100
AcDbBlockBegin
  2
*Paper_Space
 70
0
 10
0.0
 20
0.0
 30
0.0
  3
*Paper_Space
  1

  0
ENDBLK
  5
1D
100
AcDbEntity
  8
0
100
AcDbBlockEnd
  0
BLOCK
  5
214
100
AcDbEntity
  8
0
100
AcDbBlockBegin
  2
_FILLED
 70
64
 10
0.0
 20
0.0
  3
_FILLED
  1

  0
SOLID
  5
215
100
AcDbEntity
  8
0
  6
BYBLOCK
 62
0
100
AcDbTrace
 10
0.0
 20
0.0
 11
-1.0
 21
0.25
 12
-1.0
 22
-0.25
 13
-1.0
 23
-0.25
  0
ENDBLK
  5
216
100
AcDbEntity
  8
0
  6
BYBLOCK
 62
0
100
AcDbBlockEnd
  0
ENDSEC
  0
SECTION
  2
ENTITIES
  0
LINE
  5
217
100
AcDbEntity
  8
0
100
AcDbLine
 62
7
  6
CONTINUOUS
 10
33.8552600473
 20
3.5714893617
 11
31.3552600473
 21
3.5714893617
  0
LINE
  5
218
100
AcDbEntity
  8
0
100
AcDbLine
 62
7
  6
CONTINUOUS
 10
7.0252600473
 20
3.5714893617
 11
4.5252600473
 21
3.5714893617
  0
LINE
  5
219
100
AcDbEntity
  8
0
100
AcDbLine
 62
7
  6
CONTINUOUS
 10
6.6902600473
 20
6.4714893617
 11
11.6902600473
 21
6.4714893617
  0
LINE
  5
21A
100
AcDbEntity
  8
0
100
AcDbLine
 62
7
  6
CONTINUOUS
 10
12.5402600473
 20
44.1714893617
 11
17.0170311269
 21
46.2463511119
  0
LINE
  5
21B
100
AcDbEntity
  8
0
100
AcDbLine
 62
7
  6
CONTINUOUS
 10
16.6402600473
 20
47.2714893617
 11
17.8543405481
 21
47.8089914896
  0
LINE
  5
21C
100
AcDbEntity
  8
0
100
AcDbLine
 62
7
  6
CONTINUOUS
 10
26.3402600473
 20
7.9714893617
 11
32.6402600473
 21
7.9714893617
  0
LINE
  5
21D
100
AcDbEntity
  8
0
100
AcDbLine
 62
7
  6
CONTINUOUS
 10
9.8254253817
 20
8.1714893617
 11
6.6902600473
 21
8.1714893617
  0
LINE
  5
21E
100
AcDbEntity
  8
0
100
AcDbLine
 62
7
  6
CONTINUOUS
 10
28.1402600473
 20
8.2714893617
 11
27.2402600473
 21
8.2714893617
  0
LINE
  5
21F
100
AcDbEntity
  8
0
100
AcDbLine
 62
7
  6
CONTINUOUS
 10
26.9402600473
 20
9.2214893617
 11
27.2402600473
 21
9.2214893617
  0
LINE
  5
220
100
AcDbEntity
  8
0
100
AcDbLine
 62
7
  6
CONTINUOUS
 10
28.1402600473
 20
9.221489362
 11
28.4402600473
 21
9.221489362
  0
LINE
  5
221
100
AcDbEntity
  8
0
100
AcDbLine
 62
7
  6
CONTINUOUS
 10
5.7402600473
 20
9.9214893617
 11
10.3902600473
 21
9.9214893617
  0
LINE
  5
222
100
AcDbEntity
  8
0
100
AcDbLine
 62
7
  6
CONTINUOUS
 10
11.6342827339
 20
9.9214893617
 11
25.3402600473
 21
9.9214893617
  0
LINE
  5
223
100
AcDbEntity
  8
0
100
AcDbLine
 62
7
  6
CONTINUOUS
 10
12.0402600473
 20
9.9714893617
 11
11.6902600473
 21
9.9714893617
  0
LINE
  5
224
100
AcDbEntity
  8
0
100
AcDbLine
 62
7
  6
CONTINUOUS
 10
8.6902600473
 20
9.9714893617
 11
5.9402600473
 21
9.9714893617
  0
LINE
  5
225
100
AcDbEntity
  8
0
100
AcDbLine
 62
7
  6
CONTINUOUS
 10
15.3902600473
 20
10.1714893617
 11
22.9902600473
 21
10.1714893617
  0
LINE
  5
226
100
AcDbEntity
  8
0
100
AcDbLine
 62
7
  6
CONTINUOUS
 10
19.6902600473
 20
10.2572757993
 11
18.6902600473
 21
10.2572757993
  0
LINE
  5
227
100
AcDbEntity
  8
0
100
AcDbLine
 62
7
  6
CONTINUOUS
 10
4.2902600473
 20
19.4355909768
 11
6.2902600473
 21
15.9714893617
  0
LINE
  5
228
100
AcDbEntity
  8
0
100
AcDbLine
 62
7
  6
CONTINUOUS
 10
5.3402600473
 20
11.7875147655
 11
5.8402600473
 21
9.9214893617
  0
LINE
  5
229
100
AcDbEntity
  8
0
100
AcDbLine
 62
7
  6
CONTINUOUS
 10
5.4402600473
 20
11.8375147655
 11
5.9402600473
 21
9.9714893617
  0
LINE
  5
22A
100
AcDbEntity
  8
0
100
AcDbLine
 62
7
  6
CONTINUOUS
 10
4.2402600473
 20
11.4214893617
 11
4.2402600473
 21
41.6714893617
  0
LINE
  5
22B
100
AcDbEntity
  8
0
100
AcDbLine
 62
7
  6
CONTINUOUS
 10
4.2902600473
 20
19.4355909768
 11
4.2902600473
 21
32.0714893617
  0
LINE
  5
22C
100
AcDbEntity
  8
0
100
AcDbLine
 62
7
  6
CONTINUOUS
 10
4.5252600473
 20
3.5714893617
 11
4.5252600473
 21
10.5741671085
  0
LINE
  5
22D
100
AcDbEntity
  8
0
100
AcDbLine
 62
7
  6
CONTINUOUS
 10
4.7402600473
 20
39.9714893617
 11
4.7402600473
 21
42.5375147655
  0
LINE
  5
22E
100
AcDbEntity
  8
0
100
AcDbLine
 62
7
  6
CONTINUOUS
 10
23.4902600473
 20
10.6214893617
 11
25.3402600473
 21
10.6214893617
  0
LINE
  5
22F
100
AcDbEntity
  8
0
100
AcDbLine
 62
7
  6
CONTINUOUS
 10
25.3402600473
 20
11.1214893617
 11
22.9902600473
 21
11.1214893617
  0
LINE
  5
230
100
AcDbEntity
  8
0
100
AcDbLine
 62
7
  6
CONTINUOUS
 10
16.6902600473
 20
11.1714893617
 11
21.6902600473
 21
11.1714893617
  0
LINE
  5
231
100
AcDbEntity
  8
0
100
AcDbLine
 62
7
  6
CONTINUOUS
 10
22.9902600473
 20
11.6714893617
 11
21.6902600473
 21
11.6714893617
  0
LINE
  5
232
100
AcDbEntity
  8
0
100
AcDbLine
 62
7
  6
CONTINUOUS
 10
16.6902600473
 20
11.6714893617
 11
15.3902600473
 21
11.6714893617
  0
LINE
  5
233
100
AcDbEntity
  8
0
100
AcDbLine
 62
7
  6
CONTINUOUS
 10
15.3902600473
 20
11.9214893617
 11
14.9902600473
 21
11.9214893617
  0
LINE
  5
234
100
AcDbEntity
  8
0
100
AcDbLine
 62
7
  6
CONTINUOUS
 10
6.8676103165
 20
16.9714893617
 11
5.2902600473
 21
19.7035401693
  0
LINE
  5
235
100
AcDbEntity
  8
0
100
AcDbLine
 62
7
  6
CONTINUOUS
 10
5.0902600473
 20
15.9714893617
 11
5.0902600473
 21
18.0499503308
  0
LINE
  5
236
100
AcDbEntity
  8
0
100
AcDbLine
 62
7
  6
CONTINUOUS
 10
5.1602600473
 20
32.0714893617
 11
5.1602600473
 21
39.7714893617
  0
LINE
  5
237
100
AcDbEntity
  8
0
100
AcDbLine
 62
7
  6
CONTINUOUS
 10
5.2902600473
 20
19.7035401693
 11
5.2902600473
 21
25.9714893617
  0
LINE
  5
238
100
AcDbEntity
  8
0
100
AcDbLine
 62
7
  6
CONTINUOUS
 10
5.2902600473
 20
26.9714893617
 11
5.2902600473
 21
31.0714893617
  0
LINE
  5
239
100
AcDbEntity
  8
0
100
AcDbLine
 62
7
  6
CONTINUOUS
 10
5.3402600473
 20
11.7875147655
 11
5.3402600473
 21
13.9714893617
  0
LINE
  5
23A
100
AcDbEntity
  8
0
100
AcDbLine
 62
7
  6
CONTINUOUS
 10
5.4402600473
 20
11.8375147655
 11
5.4402600473
 21
13.9714893617
  0
LINE
  5
23B
100
AcDbEntity
  8
0
100
AcDbLine
 62
7
  6
CONTINUOUS
 10
5.9902600473
 20
32.0714893617
 11
5.9902600473
 21
38.2714893617
  0
LINE
  5
23C
100
AcDbEntity
  8
0
100
AcDbLine
 62
7
  6
CONTINUOUS
 10
6.1902600473
 20
7.6714893617
 11
6.1902600473
 21
6.9714893617
  0
LINE
  5
23D
100
AcDbEntity
  8
0
100
AcDbLine
 62
7
  6
CONTINUOUS
 10
27.1402600473
 20
12.9714893617
 11
11.2402600473
 21
12.9714893617
  0
LINE
  5
23E
100
AcDbEntity
  8
0
100
AcDbLine
 62
7
  6
CONTINUOUS
 10
34.1402600473
 20
13.5214893617
 11
33.0402600473
 21
13.5214893617
  0
LINE
  5
23F
100
AcDbEntity
  8
0
100
AcDbLine
 62
7
  6
CONTINUOUS
 10
4.2402600473
 20
13.5214893617
 11
5.3402600473
 21
13.5214893617
  0
LINE
  5
240
100
AcDbEntity
  8
0
100
AcDbLine
 62
7
  6
CONTINUOUS
 10
27.1402600473
 20
13.9714893617
 11
25.3402600473
 21
13.9714893617
  0
LINE
  5
241
100
AcDbEntity
  8
0
100
AcDbLine
 62
7
  6
CONTINUOUS
 10
23.1402600473
 20
13.9714893617
 11
21.6402600473
 21
13.9714893617
  0
LINE
  5
242
100
AcDbEntity
  8
0
100
AcDbLine
 62
7
  6
CONTINUOUS
 10
16.7402600473
 20
13.9714893617
 11
15.2402600473
 21
13.9714893617
  0
LINE
  5
243
100
AcDbEntity
  8
0
100
AcDbLine
 62
7
  6
CONTINUOUS
 10
13.0402600473
 20
13.9714893617
 11
11.2402600473
 21
13.9714893617
  0
LINE
  5
244
100
AcDbEntity
  8
0
100
AcDbLine
 62
7
  6
CONTINUOUS
 10
5.4402600473
 20
13.9714893617
 11
4.2402600473
 21
13.9714893617
  0
LINE
  5
245
100
AcDbEntity
  8
0
100
AcDbLine
 62
7
  6
CONTINUOUS
 10
32.9402600473
 20
13.9714893617
 11
34.1402600473
 21
13.9714893617
  0
LINE
  5
246
100
AcDbEntity
  8
0
100
AcDbLine
 62
7
  6
CONTINUOUS
 10
6.6402600473
 20
38.5714893617
 11
6.6402600473
 21
38.2714893617
  0
LINE
  5
247
100
AcDbEntity
  8
0
100
AcDbLine
 62
7
  6
CONTINUOUS
 10
6.9902600473
 20
31.0714893617
 11
6.9902600473
 21
37.2714893617
  0
LINE
  5
248
100
AcDbEntity
  8
0
100
AcDbLine
 62
7
  6
CONTINUOUS
 10
7.0252600473
 20
13.5042799663
 11
7.0252600473
 21
12.1383253152
  0
LINE
  5
249
100
AcDbEntity
  8
0
100
AcDbLine
 62
7
  6
CONTINUOUS
 10
7.0252600473
 20
9.9214893617
 11
7.0252600473
 21
8.1714893617
  0
LINE
  5
24A
100
AcDbEntity
  8
0
100
AcDbLine
 62
7
  6
CONTINUOUS
 10
7.0252600473
 20
6.4714893617
 11
7.0252600473
 21
3.5714893617
  0
LINE
  5
24B
100
AcDbEntity
  8
0
100
AcDbLine
 62
7
  6
CONTINUOUS
 10
16.971742241
 20
46.1907081502
 11
16.8191607382
 21
45.927770973
  0
LINE
  5
24C
100
AcDbEntity
  8
0
100
AcDbLine
 62
7
  6
CONTINUOUS
 10
16.8190355106
 20
45.9275551505
 11
16.8191607382
 21
45.927770973
  0
LINE
  5
24D
100
AcDbEntity
  8
0
100
AcDbLine
 62
7
  6
CONTINUOUS
 10
25.3402600473
 20
14.1714893617
 11
23.1402600473
 21
14.1714893617
  0
LINE
  5
24E
100
AcDbEntity
  8
0
100
AcDbLine
 62
7
  6
CONTINUOUS
 10
21.6402600473
 20
14.1714893617
 11
16.7402600473
 21
14.1714893617
  0
LINE
  5
24F
100
AcDbEntity
  8
0
100
AcDbLine
 62
7
  6
CONTINUOUS
 10
15.2402600473
 20
14.1714893617
 11
13.0402600473
 21
14.1714893617
  0
LINE
  5
250
100
AcDbEntity
  8
0
100
AcDbLine
 62
7
  6
CONTINUOUS
 10
21.5402600473
 20
14.2714893617
 11
21.3402600473
 21
14.2714893617
  0
LINE
  5
251
100
AcDbEntity
  8
0
100
AcDbLine
 62
7
  6
CONTINUOUS
 10
17.0402600473
 20
14.2714893617
 11
16.8402600473
 21
14.2714893617
  0
LINE
  5
252
100
AcDbEntity
  8
0
100
AcDbLine
 62
7
  6
CONTINUOUS
 10
16.5446984147
 20
45.2606975881
 11
16.8190355106
 21
45.9275551505
  0
LINE
  5
253
100
AcDbEntity
  8
0
100
AcDbLine
 62
7
  6
CONTINUOUS
 10
25.3402600473
 20
15.9714893617
 11
23.1402600473
 21
15.9714893617
  0
LINE
  5
254
100
AcDbEntity
  8
0
100
AcDbLine
 62
7
  6
CONTINUOUS
 10
21.6402600473
 20
15.9714893617
 11
16.7402600473
 21
15.9714893617
  0
LINE
  5
255
100
AcDbEntity
  8
0
100
AcDbLine
 62
7
  6
CONTINUOUS
 10
15.2402600473
 20
15.9714893617
 11
13.0402600473
 21
15.9714893617
  0
LINE
  5
256
100
AcDbEntity
  8
0
100
AcDbLine
 62
7
  6
CONTINUOUS
 10
11.2402600473
 20
15.9714893617
 11
4.2402600473
 21
15.9714893617
  0
LINE
  5
257
100
AcDbEntity
  8
0
100
AcDbLine
 62
7
  6
CONTINUOUS
 10
27.1402600473
 20
15.9714893617
 11
34.1402600473
 21
15.9714893617
  0
LINE
  5
258
100
AcDbEntity
  8
0
100
AcDbLine
 62
7
  6
CONTINUOUS
 10
4.2402600473
 20
16.2714893617
 11
5.0902600473
 21
16.2714893617
  0
LINE
  5
259
100
AcDbEntity
  8
0
100
AcDbLine
 62
7
  6
CONTINUOUS
 10
33.2902600473
 20
16.2714893617
 11
34.1402600473
 21
16.2714893617
  0
LINE
  5
25A
100
AcDbEntity
  8
0
100
AcDbLine
 62
7
  6
CONTINUOUS
 10
31.5129097781
 20
16.9714893617
 11
26.5599615338
 21
16.9714893617
  0
LINE
  5
25B
100
AcDbEntity
  8
0
100
AcDbLine
 62
7
  6
CONTINUOUS
 10
21.6402600473
 20
16.9714893617
 11
16.7402600473
 21
16.9714893617
  0
LINE
  5
25C
100
AcDbEntity
  8
0
100
AcDbLine
 62
7
  6
CONTINUOUS
 10
11.8205585608
 20
16.9714893617
 11
6.8676103165
 21
16.9714893617
  0
LINE
  5
25D
100
AcDbEntity
  8
0
100
AcDbLine
 62
7
  6
CONTINUOUS
 10
10.9902600473
 20
17.2586974411
 11
27.3902600473
 21
17.2586974411
  0
LINE
  5
25E
100
AcDbEntity
  8
0
100
AcDbLine
 62
7
  6
CONTINUOUS
 10
10.3902600473
 20
9.9214893617
 11
10.3902600473
 21
10.44995643
  0
LINE
  5
25F
100
AcDbEntity
  8
0
100
AcDbLine
 62
7
  6
CONTINUOUS
 10
10.5402600473
 20
39.9714893617
 11
10.5402600473
 21
43.1714893617
  0
LINE
  5
260
100
AcDbEntity
  8
0
100
AcDbLine
 62
7
  6
CONTINUOUS
 10
10.8902600473
 20
25.1714893617
 11
10.8902600473
 21
27.7714893617
  0
LINE
  5
261
100
AcDbEntity
  8
0
100
AcDbLine
 62
7
  6
CONTINUOUS
 10
10.9902600473
 20
37.2586974411
 11
10.9902600473
 21
17.2586974411
  0
LINE
  5
262
100
AcDbEntity
  8
0
100
AcDbLine
 62
7
  6
CONTINUOUS
 10
11.2402600473
 20
12.9714893617
 11
11.2402600473
 21
15.9714893617
  0
LINE
  5
263
100
AcDbEntity
  8
0
100
AcDbLine
 62
7
  6
CONTINUOUS
 10
11.2852600473
 20
38.6514893617
 11
11.2852600473
 21
41.4714893617
  0
LINE
  5
264
100
AcDbEntity
  8
0
100
AcDbLine
 62
7
  6
CONTINUOUS
 10
11.4852600393
 20
38.5714893615
 11
11.4852600446
 21
41.6714893615
  0
LINE
  5
265
100
AcDbEntity
  8
0
100
AcDbLine
 62
7
  6
CONTINUOUS
 10
11.4902600473
 20
37.2714893617
 11
11.4902600473
 21
37.2586974411
  0
LINE
  5
266
100
AcDbEntity
  8
0
100
AcDbLine
 62
7
  6
CONTINUOUS
 10
11.8205585608
 20
17.2586974411
 11
11.8205585608
 21
16.9714893617
  0
LINE
  5
267
100
AcDbEntity
  8
0
100
AcDbLine
 62
7
  6
CONTINUOUS
 10
11.8902600473
 20
38.2714893617
 11
11.8902600473
 21
41.6714893617
  0
LINE
  5
268
100
AcDbEntity
  8
0
100
AcDbLine
 62
7
  6
CONTINUOUS
 10
12.0902600473
 20
38.2714893617
 11
12.0902600473
 21
41.4714893617
  0
LINE
  5
269
100
AcDbEntity
  8
0
100
AcDbLine
 62
7
  6
CONTINUOUS
 10
12.1902600473
 20
6.9714893617
 11
12.1902600473
 21
8.812461748
  0
LINE
  5
26A
100
AcDbEntity
  8
0
100
AcDbLine
 62
7
  6
CONTINUOUS
 10
12.3302600473
 20
20.9214893617
 11
12.3302600473
 21
21.8214893617
  0
LINE
  5
26B
100
AcDbEntity
  8
0
100
AcDbLine
 62
7
  6
CONTINUOUS
 10
12.3302600473
 20
31.1214893617
 11
12.3302600473
 21
32.0214893617
  0
LINE
  5
26C
100
AcDbEntity
  8
0
100
AcDbLine
 62
7
  6
CONTINUOUS
 10
12.4402600473
 20
43.1714893617
 11
12.4402600473
 21
49.7714893617
  0
LINE
  5
26D
100
AcDbEntity
  8
0
100
AcDbLine
 62
7
  6
CONTINUOUS
 10
12.4902600473
 20
38.2714893617
 11
12.4902600473
 21
37.2586974411
  0
LINE
  5
26E
100
AcDbEntity
  8
0
100
AcDbLine
 62
7
  6
CONTINUOUS
 10
12.5402600473
 20
43.1714893617
 11
12.5402600473
 21
44.1714893617
  0
LINE
  5
26F
100
AcDbEntity
  8
0
100
AcDbLine
 62
7
  6
CONTINUOUS
 10
12.6302600473
 20
32.0214893617
 11
12.6302600473
 21
31.1214893617
  0
LINE
  5
270
100
AcDbEntity
  8
0
100
AcDbLine
 62
7
  6
CONTINUOUS
 10
12.6302600473
 20
20.9214893617
 11
12.6302600473
 21
21.8214893617
  0
LINE
  5
271
100
AcDbEntity
  8
0
100
AcDbLine
 62
7
  6
CONTINUOUS
 10
13.0402600473
 20
15.9714893617
 11
13.0402600473
 21
11.7035401693
  0
LINE
  5
272
100
AcDbEntity
  8
0
100
AcDbLine
 62
7
  6
CONTINUOUS
 10
10.3090100473
 20
9.9214893617
 11
10.1231087447
 21
8.4342789413
  0
LINE
  5
273
100
AcDbEntity
  8
0
100
AcDbLine
 62
7
  6
CONTINUOUS
 10
25.7347520319
 20
20.9414893617
 11
25.4402600331
 21
20.9414893617
  0
LINE
  5
274
100
AcDbEntity
  8
0
100
AcDbLine
 62
7
  6
CONTINUOUS
 10
25.7347520319
 20
20.9414893617
 11
26.0402600473
 21
20.9414893617
  0
LINE
  5
275
100
AcDbEntity
  8
0
100
AcDbLine
 62
7
  6
CONTINUOUS
 10
12.6302600473
 20
21.0714893617
 11
12.3302600473
 21
21.0714893617
  0
LINE
  5
276
100
AcDbEntity
  8
0
100
AcDbLine
 62
7
  6
CONTINUOUS
 10
28.1402600473
 20
8.2714893617
 11
28.4402600473
 21
7.9714893617
  0
LINE
  5
277
100
AcDbEntity
  8
0
100
AcDbLine
 62
7
  6
CONTINUOUS
 10
14.0902600473
 20
29.8586974411
 11
14.0902600473
 21
37.2586974411
  0
LINE
  5
278
100
AcDbEntity
  8
0
100
AcDbLine
 62
7
  6
CONTINUOUS
 10
14.9402600473
 20
47.2714893617
 11
14.9402600473
 21
45.2838241474
  0
LINE
  5
279
100
AcDbEntity
  8
0
100
AcDbLine
 62
7
  6
CONTINUOUS
 10
14.9402600473
 20
39.7196923739
 11
14.9402600473
 21
38.6252082752
  0
LINE
  5
27A
100
AcDbEntity
  8
0
100
AcDbLine
 62
7
  6
CONTINUOUS
 10
14.9902600473
 20
11.9214893617
 11
14.9902600473
 21
9.9214893617
  0
LINE
  5
27B
100
AcDbEntity
  8
0
100
AcDbLine
 62
7
  6
CONTINUOUS
 10
15.2402600473
 20
12.9714893617
 11
15.2402600473
 21
17.0131596994
  0
LINE
  5
27C
100
AcDbEntity
  8
0
100
AcDbLine
 62
7
  6
CONTINUOUS
 10
15.3902600473
 20
10.1714893617
 11
15.3902600473
 21
12.9714893617
  0
LINE
  5
27D
100
AcDbEntity
  8
0
100
AcDbLine
 62
7
  6
CONTINUOUS
 10
15.6902600473
 20
47.2714893617
 11
15.6902600473
 21
49.7714893617
  0
LINE
  5
27E
100
AcDbEntity
  8
0
100
AcDbLine
 62
7
  6
CONTINUOUS
 10
12.6302600473
 20
21.6714893617
 11
12.3302600473
 21
21.6714893617
  0
LINE
  5
27F
100
AcDbEntity
  8
0
100
AcDbLine
 62
7
  6
CONTINUOUS
 10
26.0402600473
 20
21.6885634804
 11
25.7402600473
 21
21.6885634804
  0
LINE
  5
280
100
AcDbEntity
  8
0
100
AcDbLine
 62
7
  6
CONTINUOUS
 10
26.0402600473
 20
21.8414893617
 11
25.7402600473
 21
21.8414893617
  0
LINE
  5
281
100
AcDbEntity
  8
0
100
AcDbLine
 62
7
  6
CONTINUOUS
 10
25.7331836016
 20
21.8414893617
 11
25.7402600473
 21
21.8414893617
  0
LINE
  5
282
100
AcDbEntity
  8
0
100
AcDbLine
 62
7
  6
CONTINUOUS
 10
4.2402600473
 20
22.2842099664
 11
4.2902600473
 21
22.2842099664
  0
LINE
  5
283
100
AcDbEntity
  8
0
100
AcDbLine
 62
7
  6
CONTINUOUS
 10
34.0902600473
 20
22.2842099664
 11
34.1402600473
 21
22.2842099664
  0
LINE
  5
284
100
AcDbEntity
  8
0
100
AcDbLine
 62
7
  6
CONTINUOUS
 10
26.0328977917
 20
22.7414893617
 11
25.4402600331
 21
22.7414893617
  0
LINE
  5
285
100
AcDbEntity
  8
0
100
AcDbLine
 62
7
  6
CONTINUOUS
 10
34.1402600473
 20
22.7691206069
 11
34.0902600473
 21
22.7691206069
  0
LINE
  5
286
100
AcDbEntity
  8
0
100
AcDbLine
 62
7
  6
CONTINUOUS
 10
4.2902600473
 20
22.7691206069
 11
4.2402600473
 21
22.7691206069
  0
LINE
  5
287
100
AcDbEntity
  8
0
100
AcDbLine
 62
7
  6
CONTINUOUS
 10
16.3361953242
 20
45.9308022171
 11
16.3361953242
 21
44.3414893617
  0
LINE
  5
288
100
AcDbEntity
  8
0
100
AcDbLine
 62
7
  6
CONTINUOUS
 10
16.6902600473
 20
38.5714893617
 11
16.6902600473
 21
37.2586974411
  0
LINE
  5
289
100
AcDbEntity
  8
0
100
AcDbLine
 62
7
  6
CONTINUOUS
 10
16.6902600473
 20
12.9714893617
 11
16.6902600473
 21
10.1714893617
  0
LINE
  5
28A
100
AcDbEntity
  8
0
100
AcDbLine
 62
7
  6
CONTINUOUS
 10
16.7402600473
 20
16.9714893617
 11
16.7402600473
 21
12.9714893617
  0
LINE
  5
28B
100
AcDbEntity
  8
0
100
AcDbLine
 62
7
  6
CONTINUOUS
 10
16.9902600473
 20
14.1714893617
 11
16.9902600473
 21
14.2714893617
  0
LINE
  5
28C
100
AcDbEntity
  8
0
100
AcDbLine
 62
7
  6
CONTINUOUS
 10
17.1402600473
 20
44.4076020972
 11
17.1402600473
 21
45.5717661592
  0
LINE
  5
28D
100
AcDbEntity
  8
0
100
AcDbLine
 62
7
  6
CONTINUOUS
 10
17.2306682531
 20
10.1714893617
 11
17.2306682531
 21
9.9214893617
  0
LINE
  5
28E
100
AcDbEntity
  8
0
100
AcDbLine
 62
7
  6
CONTINUOUS
 10
5.2902600473
 20
23.9714893617
 11
4.2902600473
 21
23.9714893617
  0
LINE
  5
28F
100
AcDbEntity
  8
0
100
AcDbLine
 62
7
  6
CONTINUOUS
 10
33.0902600473
 20
23.9714893617
 11
34.0902600473
 21
23.9714893617
  0
LINE
  5
290
100
AcDbEntity
  8
0
100
AcDbLine
 62
7
  6
CONTINUOUS
 10
34.1402600473
 20
24.2214893617
 11
34.0902600473
 21
24.2214893617
  0
LINE
  5
291
100
AcDbEntity
  8
0
100
AcDbLine
 62
7
  6
CONTINUOUS
 10
4.2902600473
 20
24.2214893617
 11
4.2402600473
 21
24.2214893617
  0
LINE
  5
292
100
AcDbEntity
  8
0
100
AcDbLine
 62
7
  6
CONTINUOUS
 10
25.3402600473
 20
9.7035401693
 11
26.3402600473
 21
7.9714893617
  0
LINE
  5
293
100
AcDbEntity
  8
0
100
AcDbLine
 62
7
  6
CONTINUOUS
 10
17.6902600473
 20
11.1714893617
 11
17.6902600473
 21
10.1714893617
  0
LINE
  5
294
100
AcDbEntity
  8
0
100
AcDbLine
 62
7
  6
CONTINUOUS
 10
18.5137692749
 20
42.3771601999
 11
18.5137692749
 21
44.4076020972
  0
LINE
  5
295
100
AcDbEntity
  8
0
100
AcDbLine
 62
7
  6
CONTINUOUS
 10
18.5137692749
 20
45.432847617
 11
18.5137692749
 21
47.3696856441
  0
LINE
  5
296
100
AcDbEntity
  8
0
100
AcDbLine
 62
7
  6
CONTINUOUS
 10
18.6902600473
 20
10.2572757993
 11
18.6902600473
 21
11.1714893617
  0
LINE
  5
297
100
AcDbEntity
  8
0
100
AcDbLine
 62
7
  6
CONTINUOUS
 10
27.4902600473
 20
25.1714893617
 11
27.3902600473
 21
25.1714893617
  0
LINE
  5
298
100
AcDbEntity
  8
0
100
AcDbLine
 62
7
  6
CONTINUOUS
 10
10.9902600473
 20
25.1714893617
 11
10.8902600473
 21
25.1714893617
  0
LINE
  5
299
100
AcDbEntity
  8
0
100
AcDbLine
 62
7
  6
CONTINUOUS
 10
26.0328977917
 20
25.5714893617
 11
25.4402600331
 21
25.5714893617
  0
LINE
  5
29A
100
AcDbEntity
  8
0
100
AcDbLine
 62
7
  6
CONTINUOUS
 10
5.2902600473
 20
25.9714893617
 11
8.2016295594
 21
25.9714893617
  0
LINE
  5
29B
100
AcDbEntity
  8
0
100
AcDbLine
 62
7
  6
CONTINUOUS
 10
30.1788905352
 20
25.9714893617
 11
33.0902600473
 21
25.9714893617
  0
LINE
  5
29C
100
AcDbEntity
  8
0
100
AcDbLine
 62
7
  6
CONTINUOUS
 10
26.0402600473
 20
26.0214893617
 11
25.7331836016
 21
26.0214893617
  0
LINE
  5
29D
100
AcDbEntity
  8
0
100
AcDbLine
 62
7
  6
CONTINUOUS
 10
26.0402600473
 20
26.7685634804
 11
25.7402600473
 21
26.7685634804
  0
LINE
  5
29E
100
AcDbEntity
  8
0
100
AcDbLine
 62
7
  6
CONTINUOUS
 10
19.6902600473
 20
10.2572757993
 11
19.6902600473
 21
11.1714893617
  0
LINE
  5
29F
100
AcDbEntity
  8
0
100
AcDbLine
 62
7
  6
CONTINUOUS
 10
19.8667508197
 20
42.3771601999
 11
19.8667508197
 21
44.4076020972
  0
LINE
  5
2A0
100
AcDbEntity
  8
0
100
AcDbLine
 62
7
  6
CONTINUOUS
 10
19.8667508197
 20
45.432847617
 11
19.8667508197
 21
47.3697467723
  0
LINE
  5
2A1
100
AcDbEntity
  8
0
100
AcDbLine
 62
7
  6
CONTINUOUS
 10
20.6902600473
 20
11.1714893617
 11
20.6902600473
 21
10.1714893617
  0
LINE
  5
2A2
100
AcDbEntity
  8
0
100
AcDbLine
 62
7
  6
CONTINUOUS
 10
21.1498518415
 20
9.9214893617
 11
21.1498518415
 21
10.1714893617
  0
LINE
  5
2A3
100
AcDbEntity
  8
0
100
AcDbLine
 62
7
  6
CONTINUOUS
 10
21.2402600473
 20
45.5717661592
 11
21.2402600473
 21
44.4076020972
  0
LINE
  5
2A4
100
AcDbEntity
  8
0
100
AcDbLine
 62
7
  6
CONTINUOUS
 10
13.0402600473
 20
11.929630933
 11
13.6417772916
 21
12.9714893617
  0
LINE
  5
2A5
100
AcDbEntity
  8
0
100
AcDbLine
 62
7
  6
CONTINUOUS
 10
26.0402600473
 20
26.9214893617
 11
25.7402600473
 21
26.9214893617
  0
LINE
  5
2A6
100
AcDbEntity
  8
0
100
AcDbLine
 62
7
  6
CONTINUOUS
 10
25.7331836016
 20
26.9214893617
 11
25.7402600473
 21
26.9214893617
  0
LINE
  5
2A7
100
AcDbEntity
  8
0
100
AcDbLine
 62
7
  6
CONTINUOUS
 10
33.0902600473
 20
26.9714893617
 11
30.1788905352
 21
26.9714893617
  0
LINE
  5
2A8
100
AcDbEntity
  8
0
100
AcDbLine
 62
7
  6
CONTINUOUS
 10
8.2016295594
 20
26.9714893617
 11
5.2902600473
 21
26.9714893617
  0
LINE
  5
2A9
100
AcDbEntity
  8
0
100
AcDbLine
 62
7
  6
CONTINUOUS
 10
26.0328977917
 20
27.3714893617
 11
25.4402600331
 21
27.3714893617
  0
LINE
  5
2AA
100
AcDbEntity
  8
0
100
AcDbLine
 62
7
  6
CONTINUOUS
 10
10.8902600473
 20
27.7714893617
 11
10.9902600473
 21
27.7714893617
  0
LINE
  5
2AB
100
AcDbEntity
  8
0
100
AcDbLine
 62
7
  6
CONTINUOUS
 10
27.3902600473
 20
27.7714893617
 11
27.4902600473
 21
27.7714893617
  0
LINE
  5
2AC
100
AcDbEntity
  8
0
100
AcDbLine
 62
7
  6
CONTINUOUS
 10
21.3902600473
 20
14.2714893617
 11
21.3902600473
 21
14.1714893617
  0
LINE
  5
2AD
100
AcDbEntity
  8
0
100
AcDbLine
 62
7
  6
CONTINUOUS
 10
21.6402600473
 20
12.9714893617
 11
21.6402600473
 21
16.9714893617
  0
LINE
  5
2AE
100
AcDbEntity
  8
0
100
AcDbLine
 62
7
  6
CONTINUOUS
 10
21.6902600473
 20
10.1714893617
 11
21.6902600473
 21
12.9714893617
  0
LINE
  5
2AF
100
AcDbEntity
  8
0
100
AcDbLine
 62
7
  6
CONTINUOUS
 10
21.6902600473
 20
37.2586974411
 11
21.6902600473
 21
38.5714893617
  0
LINE
  5
2B0
100
AcDbEntity
  8
0
100
AcDbLine
 62
7
  6
CONTINUOUS
 10
22.0361953242
 20
44.3414893617
 11
22.0361953242
 21
45.9345699945
  0
LINE
  5
2B1
100
AcDbEntity
  8
0
100
AcDbLine
 62
7
  6
CONTINUOUS
 10
22.6902600473
 20
49.7714893617
 11
22.6902600473
 21
47.2714893617
  0
LINE
  5
2B2
100
AcDbEntity
  8
0
100
AcDbLine
 62
7
  6
CONTINUOUS
 10
22.9902600473
 20
9.9214893617
 11
22.9902600473
 21
12.9714893617
  0
LINE
  5
2B3
100
AcDbEntity
  8
0
100
AcDbLine
 62
7
  6
CONTINUOUS
 10
12.0402600473
 20
9.9714893617
 11
13.0402600473
 21
11.7035401693
  0
LINE
  5
2B4
100
AcDbEntity
  8
0
100
AcDbLine
 62
7
  6
CONTINUOUS
 10
24.9902600473
 20
30.9386974411
 11
24.5902600473
 21
30.8386974411
  0
LINE
  5
2B5
100
AcDbEntity
  8
0
100
AcDbLine
 62
7
  6
CONTINUOUS
 10
24.5902600473
 20
29.8586974411
 11
14.0902600473
 21
29.8586974411
  0
LINE
  5
2B6
100
AcDbEntity
  8
0
100
AcDbLine
 62
7
  6
CONTINUOUS
 10
4.2402600473
 20
29.9747874227
 11
4.2902600473
 21
29.9747874227
  0
LINE
  5
2B7
100
AcDbEntity
  8
0
100
AcDbLine
 62
7
  6
CONTINUOUS
 10
34.0902600473
 20
29.9747874227
 11
34.1402600473
 21
29.9747874227
  0
LINE
  5
2B8
100
AcDbEntity
  8
0
100
AcDbLine
 62
7
  6
CONTINUOUS
 10
25.4402600331
 20
30.2014893617
 11
26.0328977917
 21
30.2014893617
  0
LINE
  5
2B9
100
AcDbEntity
  8
0
100
AcDbLine
 62
7
  6
CONTINUOUS
 10
34.1402600473
 20
30.3715906033
 11
34.0902600473
 21
30.3715906033
  0
LINE
  5
2BA
100
AcDbEntity
  8
0
100
AcDbLine
 62
7
  6
CONTINUOUS
 10
4.2902600473
 20
30.3715906033
 11
4.2402600473
 21
30.3715906033
  0
LINE
  5
2BB
100
AcDbEntity
  8
0
100
AcDbLine
 62
7
  6
CONTINUOUS
 10
23.1402600473
 20
17.0131596994
 11
23.1402600473
 21
12.9714893617
  0
LINE
  5
2BC
100
AcDbEntity
  8
0
100
AcDbLine
 62
7
  6
CONTINUOUS
 10
23.4402600473
 20
38.6232863495
 11
23.4402600473
 21
39.7177704482
  0
LINE
  5
2BD
100
AcDbEntity
  8
0
100
AcDbLine
 62
7
  6
CONTINUOUS
 10
23.4402600473
 20
45.2838241474
 11
23.4402600473
 21
47.2714893617
  0
LINE
  5
2BE
100
AcDbEntity
  8
0
100
AcDbLine
 62
7
  6
CONTINUOUS
 10
24.5902600473
 20
37.2586974411
 11
24.5902600473
 21
29.8586974411
  0
LINE
  5
2BF
100
AcDbEntity
  8
0
100
AcDbLine
 62
7
  6
CONTINUOUS
 10
24.5902600473
 20
30.6724462656
 11
14.0902600473
 21
30.6724462656
  0
LINE
  5
2C0
100
AcDbEntity
  8
0
100
AcDbLine
 62
7
  6
CONTINUOUS
 10
5.2902600473
 20
31.0714893617
 11
6.9902600473
 21
31.0714893617
  0
LINE
  5
2C1
100
AcDbEntity
  8
0
100
AcDbLine
 62
7
  6
CONTINUOUS
 10
31.3902600473
 20
31.0714893617
 11
33.0902600473
 21
31.0714893617
  0
LINE
  5
2C2
100
AcDbEntity
  8
0
100
AcDbLine
 62
7
  6
CONTINUOUS
 10
26.0402600473
 20
31.1014893617
 11
25.7331836016
 21
31.1014893617
  0
LINE
  5
2C3
100
AcDbEntity
  8
0
100
AcDbLine
 62
7
  6
CONTINUOUS
 10
12.3302600473
 20
31.2714893617
 11
12.6302600473
 21
31.2714893617
  0
LINE
  5
2C4
100
AcDbEntity
  8
0
100
AcDbLine
 62
7
  6
CONTINUOUS
 10
14.0902600473
 20
31.6586964094
 11
24.5902600473
 21
31.6586964094
  0
LINE
  5
2C5
100
AcDbEntity
  8
0
100
AcDbLine
 62
7
  6
CONTINUOUS
 10
26.0402600473
 20
31.8485634804
 11
25.7402600473
 21
31.8485634804
  0
LINE
  5
2C6
100
AcDbEntity
  8
0
100
AcDbLine
 62
7
  6
CONTINUOUS
 10
12.3302600473
 20
31.8714893617
 11
12.6302600473
 21
31.8714893617
  0
LINE
  5
2C7
100
AcDbEntity
  8
0
100
AcDbLine
 62
7
  6
CONTINUOUS
 10
26.0402600473
 20
32.0014893617
 11
25.7346963468
 21
32.0014893617
  0
LINE
  5
2C8
100
AcDbEntity
  8
0
100
AcDbLine
 62
7
  6
CONTINUOUS
 10
25.4402600331
 20
32.0014893617
 11
25.7346963468
 21
32.0014893617
  0
LINE
  5
2C9
100
AcDbEntity
  8
0
100
AcDbLine
 62
7
  6
CONTINUOUS
 10
4.2902600473
 20
32.0714893617
 11
5.9902600473
 21
32.0714893617
  0
LINE
  5
2CA
100
AcDbEntity
  8
0
100
AcDbLine
 62
7
  6
CONTINUOUS
 10
32.3902600473
 20
32.0714893617
 11
34.0902600473
 21
32.0714893617
  0
LINE
  5
2CB
100
AcDbEntity
  8
0
100
AcDbLine
 62
7
  6
CONTINUOUS
 10
24.5902600473
 20
30.4386974411
 11
24.9902600473
 21
30.3386974411
  0
LINE
  5
2CC
100
AcDbEntity
  8
0
100
AcDbLine
 62
7
  6
CONTINUOUS
 10
25.7284304447
 20
20.9414893617
 11
25.7262214809
 21
21.8414893617
  0
LINE
  5
2CD
100
AcDbEntity
  8
0
100
AcDbLine
 62
7
  6
CONTINUOUS
 10
26.0330201206
 20
21.8414893617
 11
26.034115242
 21
20.9414893617
  0
LINE
  5
2CE
100
AcDbEntity
  8
0
100
AcDbLine
 62
7
  6
CONTINUOUS
 10
26.0328977917
 20
22.7414893617
 11
26.0330201206
 21
21.8414893617
  0
LINE
  5
2CF
100
AcDbEntity
  8
0
100
AcDbLine
 62
7
  6
CONTINUOUS
 10
24.9902600473
 20
36.7786974411
 11
24.9902600473
 21
36.1786974411
  0
LINE
  5
2D0
100
AcDbEntity
  8
0
100
AcDbLine
 62
7
  6
CONTINUOUS
 10
24.9902600473
 20
30.9386974411
 11
24.9902600473
 21
30.3386974411
  0
LINE
  5
2D1
100
AcDbEntity
  8
0
100
AcDbLine
 62
7
  6
CONTINUOUS
 10
25.3402600473
 20
9.7035401693
 11
25.3402600473
 21
15.9714893617
  0
LINE
  5
2D2
100
AcDbEntity
  8
0
100
AcDbLine
 62
7
  6
CONTINUOUS
 10
25.4402600331
 20
32.0014893617
 11
25.4402600331
 21
30.2014893617
  0
LINE
  5
2D3
100
AcDbEntity
  8
0
100
AcDbLine
 62
7
  6
CONTINUOUS
 10
25.4402600331
 20
27.3714893617
 11
25.4402600331
 21
25.5714893617
  0
LINE
  5
2D4
100
AcDbEntity
  8
0
100
AcDbLine
 62
7
  6
CONTINUOUS
 10
25.4402600331
 20
22.7414893617
 11
25.4402600331
 21
20.9414893617
  0
LINE
  5
2D5
100
AcDbEntity
  8
0
100
AcDbLine
 62
7
  6
CONTINUOUS
 10
25.7262214809
 20
26.0214893617
 11
25.7262214809
 21
26.9214893617
  0
LINE
  5
2D6
100
AcDbEntity
  8
0
100
AcDbLine
 62
7
  6
CONTINUOUS
 10
25.7402600473
 20
32.0014893617
 11
25.7402600473
 21
31.1014893617
  0
LINE
  5
2D7
100
AcDbEntity
  8
0
100
AcDbLine
 62
7
  6
CONTINUOUS
 10
25.7402600473
 20
26.9214893617
 11
25.7402600473
 21
26.0214893617
  0
LINE
  5
2D8
100
AcDbEntity
  8
0
100
AcDbLine
 62
7
  6
CONTINUOUS
 10
25.7402600473
 20
21.8414893617
 11
25.7402600473
 21
20.9414893617
  0
LINE
  5
2D9
100
AcDbEntity
  8
0
100
AcDbLine
 62
7
  6
CONTINUOUS
 10
25.8902600473
 20
37.2586974411
 11
25.8902600473
 21
38.2714893617
  0
LINE
  5
2DA
100
AcDbEntity
  8
0
100
AcDbLine
 62
7
  6
CONTINUOUS
 10
25.9402600473
 20
49.7714893617
 11
25.9402600473
 21
44.1714893617
  0
LINE
  5
2DB
100
AcDbEntity
  8
0
100
AcDbLine
 62
7
  6
CONTINUOUS
 10
26.0330201206
 20
26.9214893617
 11
26.0330201206
 21
26.0214893617
  0
LINE
  5
2DC
100
AcDbEntity
  8
0
100
AcDbLine
 62
7
  6
CONTINUOUS
 10
26.0402600473
 20
20.9414893617
 11
26.0402600473
 21
21.8414893617
  0
LINE
  5
2DD
100
AcDbEntity
  8
0
100
AcDbLine
 62
7
  6
CONTINUOUS
 10
26.0402600473
 20
26.0214893617
 11
26.0402600473
 21
26.9214893617
  0
LINE
  5
2DE
100
AcDbEntity
  8
0
100
AcDbLine
 62
7
  6
CONTINUOUS
 10
26.0402600473
 20
31.1014893617
 11
26.0402600473
 21
32.0014893617
  0
LINE
  5
2DF
100
AcDbEntity
  8
0
100
AcDbLine
 62
7
  6
CONTINUOUS
 10
26.2902600473
 20
38.2714893617
 11
26.2902600473
 21
41.4714893617
  0
LINE
  5
2E0
100
AcDbEntity
  8
0
100
AcDbLine
 62
7
  6
CONTINUOUS
 10
26.4902600473
 20
41.6714893617
 11
26.4902600473
 21
38.2714893617
  0
LINE
  5
2E1
100
AcDbEntity
  8
0
100
AcDbLine
 62
7
  6
CONTINUOUS
 10
26.5599615338
 20
16.9714893617
 11
26.5599615338
 21
17.2586974411
  0
LINE
  5
2E2
100
AcDbEntity
  8
0
100
AcDbLine
 62
7
  6
CONTINUOUS
 10
26.0330201206
 20
31.1014893516
 11
26.0328977917
 21
30.2014893617
  0
LINE
  5
2E3
100
AcDbEntity
  8
0
100
AcDbLine
 62
7
  6
CONTINUOUS
 10
26.0341151278
 20
32.0014893617
 11
26.0330201206
 21
31.1014893516
  0
LINE
  5
2E4
100
AcDbEntity
  8
0
100
AcDbLine
 62
7
  6
CONTINUOUS
 10
25.7262214809
 20
31.1014893726
 11
25.7284292764
 21
32.0014893617
  0
LINE
  5
2E5
100
AcDbEntity
  8
0
100
AcDbLine
 62
7
  6
CONTINUOUS
 10
4.2402600473
 20
33.3712868785
 11
5.1602600473
 21
33.3712868785
  0
LINE
  5
2E6
100
AcDbEntity
  8
0
100
AcDbLine
 62
7
  6
CONTINUOUS
 10
33.2102600473
 20
33.3712868785
 11
34.1402600473
 21
33.3712868785
  0
LINE
  5
2E7
100
AcDbEntity
  8
0
100
AcDbLine
 62
7
  6
CONTINUOUS
 10
34.1402600473
 20
34.1648932398
 11
33.2102600473
 21
34.1648932398
  0
LINE
  5
2E8
100
AcDbEntity
  8
0
100
AcDbLine
 62
7
  6
CONTINUOUS
 10
5.1602600473
 20
34.1648932398
 11
4.2402600473
 21
34.1648932398
  0
LINE
  5
2E9
100
AcDbEntity
  8
0
100
AcDbLine
 62
7
  6
CONTINUOUS
 10
26.8652600473
 20
9.7214893617
 11
26.8652600473
 21
7.9714893617
  0
LINE
  5
2EA
100
AcDbEntity
  8
0
100
AcDbLine
 62
7
  6
CONTINUOUS
 10
26.8852600442
 20
41.6714893619
 11
26.885260038
 21
38.5714893619
  0
LINE
  5
2EB
100
AcDbEntity
  8
0
100
AcDbLine
 62
7
  6
CONTINUOUS
 10
26.8902600473
 20
37.2586974411
 11
26.8902600473
 21
37.2714893617
  0
LINE
  5
2EC
100
AcDbEntity
  8
0
100
AcDbLine
 62
7
  6
CONTINUOUS
 10
26.9402600473
 20
9.2214893617
 11
26.9402600473
 21
7.9714893617
  0
LINE
  5
2ED
100
AcDbEntity
  8
0
100
AcDbLine
 62
7
  6
CONTINUOUS
 10
27.0852600473
 20
38.6514893617
 11
27.0852600473
 21
41.4714893617
  0
LINE
  5
2EE
100
AcDbEntity
  8
0
100
AcDbLine
 62
7
  6
CONTINUOUS
 10
27.1402600473
 20
15.9714893617
 11
27.1402600473
 21
12.9714893617
  0
LINE
  5
2EF
100
AcDbEntity
  8
0
100
AcDbLine
 62
7
  6
CONTINUOUS
 10
27.2402600473
 20
8.2714893617
 11
27.2402600556
 21
9.2214808642
  0
LINE
  5
2F0
100
AcDbEntity
  8
0
100
AcDbLine
 62
7
  6
CONTINUOUS
 10
27.3902600473
 20
17.2586974411
 11
27.3902600473
 21
37.2586974411
  0
LINE
  5
2F1
100
AcDbEntity
  8
0
100
AcDbLine
 62
7
  6
CONTINUOUS
 10
27.4902600473
 20
27.7714893617
 11
27.4902600473
 21
25.1714893617
  0
LINE
  5
2F2
100
AcDbEntity
  8
0
100
AcDbLine
 62
7
  6
CONTINUOUS
 10
27.8402600473
 20
39.9714893617
 11
27.8402600473
 21
44.1714893617
  0
LINE
  5
2F3
100
AcDbEntity
  8
0
100
AcDbLine
 62
7
  6
CONTINUOUS
 10
28.1402600389
 20
9.2214891254
 11
28.1402600473
 21
8.2714893617
  0
LINE
  5
2F4
100
AcDbEntity
  8
0
100
AcDbLine
 62
7
  6
CONTINUOUS
 10
28.4402600473
 20
7.9714893617
 11
28.4402600473
 21
9.2214893619
  0
LINE
  5
2F5
100
AcDbEntity
  8
0
100
AcDbLine
 62
7
  6
CONTINUOUS
 10
28.5152600473
 20
9.7214893617
 11
28.5152600473
 21
7.9714893617
  0
LINE
  5
2F6
100
AcDbEntity
  8
0
100
AcDbLine
 62
7
  6
CONTINUOUS
 10
24.9902600473
 20
36.7786974411
 11
24.5902600473
 21
36.6786974411
  0
LINE
  5
2F7
100
AcDbEntity
  8
0
100
AcDbLine
 62
7
  6
CONTINUOUS
 10
14.0902600473
 20
35.8586981479
 11
24.5902600473
 21
35.8586981479
  0
LINE
  5
2F8
100
AcDbEntity
  8
0
100
AcDbLine
 62
7
  6
CONTINUOUS
 10
14.0902600473
 20
36.7586974397
 11
24.5902600473
 21
36.7586974397
  0
LINE
  5
2F9
100
AcDbEntity
  8
0
100
AcDbLine
 62
7
  6
CONTINUOUS
 10
10.9902600473
 20
37.2586974411
 11
27.3902600473
 21
37.2586974411
  0
LINE
  5
2FA
100
AcDbEntity
  8
0
100
AcDbLine
 62
7
  6
CONTINUOUS
 10
6.9902600473
 20
37.2714893617
 11
11.4902600473
 21
37.2714893617
  0
LINE
  5
2FB
100
AcDbEntity
  8
0
100
AcDbLine
 62
7
  6
CONTINUOUS
 10
26.8902600473
 20
37.2714893617
 11
31.3902600473
 21
37.2714893617
  0
LINE
  5
2FC
100
AcDbEntity
  8
0
100
AcDbLine
 62
7
  6
CONTINUOUS
 10
24.5902600473
 20
36.2786974411
 11
24.9902600473
 21
36.1786974411
  0
LINE
  5
2FD
100
AcDbEntity
  8
0
100
AcDbLine
 62
7
  6
CONTINUOUS
 10
21.5614843571
 20
45.9275555416
 11
21.8365591491
 21
45.2578558806
  0
LINE
  5
2FE
100
AcDbEntity
  8
0
100
AcDbLine
 62
7
  6
CONTINUOUS
 10
31.3552600473
 20
3.5714893617
 11
31.3552600473
 21
7.9714893617
  0
LINE
  5
2FF
100
AcDbEntity
  8
0
100
AcDbLine
 62
7
  6
CONTINUOUS
 10
31.3552600473
 20
9.7886987572
 11
31.3552600473
 21
11.1546534082
  0
LINE
  5
300
100
AcDbEntity
  8
0
100
AcDbLine
 62
7
  6
CONTINUOUS
 10
31.3902600473
 20
37.2714893617
 11
31.3902600473
 21
31.0714893617
  0
LINE
  5
301
100
AcDbEntity
  8
0
100
AcDbLine
 62
7
  6
CONTINUOUS
 10
31.7402600473
 20
38.2714893617
 11
31.7402600473
 21
38.5714893617
  0
LINE
  5
302
100
AcDbEntity
  8
0
100
AcDbLine
 62
7
  6
CONTINUOUS
 10
5.9902600473
 20
38.2714893617
 11
12.4902600473
 21
38.2714893617
  0
LINE
  5
303
100
AcDbEntity
  8
0
100
AcDbLine
 62
7
  6
CONTINUOUS
 10
25.8902600473
 20
38.2714893617
 11
32.3902600473
 21
38.2714893617
  0
LINE
  5
304
100
AcDbEntity
  8
0
100
AcDbLine
 62
7
  6
CONTINUOUS
 10
21.6902600473
 20
38.5714893617
 11
16.6902600473
 21
38.5714893617
  0
LINE
  5
305
100
AcDbEntity
  8
0
100
AcDbLine
 62
7
  6
CONTINUOUS
 10
5.1602600473
 20
38.5714893617
 11
11.8902600473
 21
38.5714893617
  0
LINE
  5
306
100
AcDbEntity
  8
0
100
AcDbLine
 62
7
  6
CONTINUOUS
 10
26.4902600473
 20
38.5714893617
 11
33.2102600473
 21
38.5714893617
  0
LINE
  5
307
100
AcDbEntity
  8
0
100
AcDbLine
 62
7
  6
CONTINUOUS
 10
21.5613593564
 20
45.927770973
 11
21.5614843571
 21
45.9275555416
  0
LINE
  5
308
100
AcDbEntity
  8
0
100
AcDbLine
 62
7
  6
CONTINUOUS
 10
21.4087778536
 20
46.1907081502
 11
21.5613593564
 21
45.927770973
  0
LINE
  5
309
100
AcDbEntity
  8
0
100
AcDbLine
 62
7
  6
CONTINUOUS
 10
32.3902600473
 20
38.2714893617
 11
32.3902600473
 21
32.0714893617
  0
LINE
  5
30A
100
AcDbEntity
  8
0
100
AcDbLine
 62
7
  6
CONTINUOUS
 10
32.9402600473
 20
13.9714893617
 11
32.9402600473
 21
9.8375147655
  0
LINE
  5
30B
100
AcDbEntity
  8
0
100
AcDbLine
 62
7
  6
CONTINUOUS
 10
33.0402600473
 20
9.8375147655
 11
33.0402600473
 21
13.9714893617
  0
LINE
  5
30C
100
AcDbEntity
  8
0
100
AcDbLine
 62
7
  6
CONTINUOUS
 10
33.0902600473
 20
31.0714893617
 11
33.0902600473
 21
26.9714893617
  0
LINE
  5
30D
100
AcDbEntity
  8
0
100
AcDbLine
 62
7
  6
CONTINUOUS
 10
33.0902600473
 20
25.9714893617
 11
33.0902600473
 21
19.7035401693
  0
LINE
  5
30E
100
AcDbEntity
  8
0
100
AcDbLine
 62
7
  6
CONTINUOUS
 10
33.2102600473
 20
32.0714893617
 11
33.2102600473
 21
39.7714893617
  0
LINE
  5
30F
100
AcDbEntity
  8
0
100
AcDbLine
 62
7
  6
CONTINUOUS
 10
33.2902600473
 20
15.9714893617
 11
33.2902600473
 21
18.0499503308
  0
LINE
  5
310
100
AcDbEntity
  8
0
100
AcDbLine
 62
7
  6
CONTINUOUS
 10
33.6402600473
 20
42.5375147655
 11
33.6402600473
 21
39.9714893617
  0
LINE
  5
311
100
AcDbEntity
  8
0
100
AcDbLine
 62
7
  6
CONTINUOUS
 10
33.8552600473
 20
8.6241671085
 11
33.8552600473
 21
3.5714893617
  0
LINE
  5
312
100
AcDbEntity
  8
0
100
AcDbLine
 62
7
  6
CONTINUOUS
 10
34.0902600473
 20
32.0714893617
 11
34.0902600473
 21
19.4355909768
  0
LINE
  5
313
100
AcDbEntity
  8
0
100
AcDbLine
 62
7
  6
CONTINUOUS
 10
33.2102600473
 20
39.7714893617
 11
27.0852600473
 21
39.7714893617
  0
LINE
  5
314
100
AcDbEntity
  8
0
100
AcDbLine
 62
7
  6
CONTINUOUS
 10
11.2852600473
 20
39.7714893617
 11
5.1602600473
 21
39.7714893617
  0
LINE
  5
315
100
AcDbEntity
  8
0
100
AcDbLine
 62
7
  6
CONTINUOUS
 10
33.6402600473
 20
39.9714893617
 11
27.8402600473
 21
39.9714893617
  0
LINE
  5
316
100
AcDbEntity
  8
0
100
AcDbLine
 62
7
  6
CONTINUOUS
 10
4.7402600473
 20
39.9714893617
 11
10.5402600473
 21
39.9714893617
  0
LINE
  5
317
100
AcDbEntity
  8
0
100
AcDbLine
 62
7
  6
CONTINUOUS
 10
26.2902600473
 20
41.4714893617
 11
23.1094436357
 21
41.4714893617
  0
LINE
  5
318
100
AcDbEntity
  8
0
100
AcDbLine
 62
7
  6
CONTINUOUS
 10
15.2710764588
 20
41.4714893617
 11
12.0902600473
 21
41.4714893617
  0
LINE
  5
319
100
AcDbEntity
  8
0
100
AcDbLine
 62
7
  6
CONTINUOUS
 10
34.1402600473
 20
9.4714893617
 11
34.1402600473
 21
41.6714893617
  0
LINE
  5
31A
100
AcDbEntity
  8
0
100
AcDbLine
 62
7
  6
CONTINUOUS
 10
33.0902600473
 20
19.7035401693
 11
31.5129097781
 21
16.9714893617
  0
LINE
  5
31B
100
AcDbEntity
  8
0
100
AcDbLine
 62
7
  6
CONTINUOUS
 10
32.0902600473
 20
15.9714893617
 11
34.0902600473
 21
19.4355909768
  0
LINE
  5
31C
100
AcDbEntity
  8
0
100
AcDbLine
 62
7
  6
CONTINUOUS
 10
11.4852600473
 20
41.6714893617
 11
16.4842482217
 21
41.6714893617
  0
LINE
  5
31D
100
AcDbEntity
  8
0
100
AcDbLine
 62
7
  6
CONTINUOUS
 10
21.8962718728
 20
41.6714893617
 11
26.8852600473
 21
41.6714893617
  0
LINE
  5
31E
100
AcDbEntity
  8
0
100
AcDbLine
 62
7
  6
CONTINUOUS
 10
10.5402600473
 20
41.8914893617
 11
17.7301733463
 21
41.8914893617
  0
LINE
  5
31F
100
AcDbEntity
  8
0
100
AcDbLine
 62
7
  6
CONTINUOUS
 10
20.6422173021
 20
41.8914893617
 11
27.8402600473
 21
41.8914893617
  0
LINE
  5
320
100
AcDbEntity
  8
0
100
AcDbLine
 62
7
  6
CONTINUOUS
 10
33.1402600473
 20
42.6714893617
 11
27.8402600473
 21
42.6714893617
  0
LINE
  5
321
100
AcDbEntity
  8
0
100
AcDbLine
 62
7
  6
CONTINUOUS
 10
5.2402600473
 20
42.6714893617
 11
10.5402600473
 21
42.6714893617
  0
LINE
  5
322
100
AcDbEntity
  8
0
100
AcDbLine
 62
7
  6
CONTINUOUS
 10
12.5402600473
 20
43.1714893617
 11
10.5402600473
 21
43.1714893617
  0
LINE
  5
323
100
AcDbEntity
  8
0
100
AcDbLine
 62
7
  6
CONTINUOUS
 10
32.4402600473
 20
7.9714893617
 11
32.9402600473
 21
9.8375147655
  0
LINE
  5
324
100
AcDbEntity
  8
0
100
AcDbLine
 62
7
  6
CONTINUOUS
 10
32.5402600473
 20
7.9714893617
 11
33.0402600473
 21
9.8375147655
  0
LINE
  5
325
100
AcDbEntity
  8
0
100
AcDbLine
 62
7
  6
CONTINUOUS
 10
25.8402600473
 20
44.1714893617
 11
27.8402600473
 21
44.1714893617
  0
LINE
  5
326
100
AcDbEntity
  8
0
100
AcDbLine
 62
7
  6
CONTINUOUS
 10
21.8748497342
 20
44.3414914776
 11
22.0361953237
 21
44.3414905174
  0
LINE
  5
327
100
AcDbEntity
  8
0
100
AcDbLine
 62
7
  6
CONTINUOUS
 10
21.2402600473
 20
44.4076020972
 11
19.8667508197
 21
44.4076020972
  0
LINE
  5
328
100
AcDbEntity
  8
0
100
AcDbLine
 62
7
  6
CONTINUOUS
 10
18.5137692749
 20
44.4076020972
 11
17.1402600473
 21
44.4076020972
  0
LINE
  5
329
100
AcDbEntity
  8
0
100
AcDbLine
 62
7
  6
CONTINUOUS
 10
27.2402600473
 20
8.2714893617
 11
26.9402600473
 21
7.9714893617
  0
LINE
  5
32A
100
AcDbEntity
  8
0
100
AcDbLine
 62
7
  6
CONTINUOUS
 10
17.1402600473
 20
45.432847617
 11
18.5137692749
 21
45.432847617
  0
LINE
  5
32B
100
AcDbEntity
  8
0
100
AcDbLine
 62
7
  6
CONTINUOUS
 10
19.8667508197
 20
45.432847617
 11
21.2402600473
 21
45.432847617
  0
LINE
  5
32C
100
AcDbEntity
  8
0
100
AcDbLine
 62
7
  6
CONTINUOUS
 10
17.1402600473
 20
45.5717661592
 11
18.5137692749
 21
45.5717661592
  0
LINE
  5
32D
100
AcDbEntity
  8
0
100
AcDbLine
 62
7
  6
CONTINUOUS
 10
19.8667508197
 20
45.5717661592
 11
21.2402600473
 21
45.5717661592
  0
LINE
  5
32E
100
AcDbEntity
  8
0
100
AcDbLine
 62
7
  6
CONTINUOUS
 10
20.5261795464
 20
47.8089914896
 11
21.7402600473
 21
47.2714893617
  0
LINE
  5
32F
100
AcDbEntity
  8
0
100
AcDbLine
 62
7
  6
CONTINUOUS
 10
21.3634891713
 20
46.2463510175
 11
25.8402600473
 21
44.1714893617
  0
LINE
  5
330
100
AcDbEntity
  8
0
100
AcDbLine
 62
7
  6
CONTINUOUS
 10
23.4402600473
 20
47.2714893617
 11
20.0872424052
 21
47.2714893617
  0
LINE
  5
331
100
AcDbEntity
  8
0
100
AcDbLine
 62
7
  6
CONTINUOUS
 10
18.2932752999
 20
47.2714893617
 11
14.9402600473
 21
47.2714893617
  0
LINE
  5
332
100
AcDbEntity
  8
0
100
AcDbLine
 62
7
  6
CONTINUOUS
 10
12.4402600473
 20
49.7714893617
 11
25.9402600473
 21
49.7714893617
  0
ARC
  5
333
100
AcDbEntity
  8
0
100
AcDbCircle
 62
7
  6
CONTINUOUS
 10
10.1902600473
 20
7.9714893617
 40
2.5
100
AcDbArc
 50
53.1301023542
 51
126.8698976458
  0
ARC
  5
334
100
AcDbEntity
  8
0
100
AcDbCircle
 62
7
  6
CONTINUOUS
 10
5.7402600473
 20
11.4214893617
 40
1.5
100
AcDbArc
 50
180.0
 51
270.0
  0
ARC
  5
335
100
AcDbEntity
  8
0
100
AcDbCircle
 62
7
  6
CONTINUOUS
 10
11.8205585608
 20
17.9714893617
 40
1.0
100
AcDbArc
 50
270.0
 51
312.5840830582
  0
ARC
  5
336
100
AcDbEntity
  8
0
100
AcDbCircle
 62
7
  6
CONTINUOUS
 10
10.7197228742
 20
17.9714893617
 40
1.0
100
AcDbArc
 50
270.0
 51
316.1662276188
  0
CIRCLE
  5
337
100
AcDbEntity
  8
0
100
AcDbCircle
 62
7
  6
CONTINUOUS
 10
7.6402600473
 20
12.8214893617
 40
0.95
  0
ARC
  5
338
100
AcDbEntity
  8
0
100
AcDbCircle
 62
7
  6
CONTINUOUS
 10
12.2603970564
 20
9.8111828255
 40
0.65
100
AcDbArc
 50
163.3452404855
 51
240.2793755922
  0
ARC
  5
339
100
AcDbEntity
  8
0
100
AcDbCircle
 62
7
  6
CONTINUOUS
 10
11.6902600473
 20
8.812461748
 40
0.5
100
AcDbArc
 50
0.0
 51
60.2793755864
  0
ARC
  5
33A
100
AcDbEntity
  8
0
100
AcDbCircle
 62
7
  6
CONTINUOUS
 10
11.6902600473
 20
6.9714893617
 40
0.5
100
AcDbArc
 50
270.0
 51
360.0
  0
ARC
  5
33B
100
AcDbEntity
  8
0
100
AcDbCircle
 62
7
  6
CONTINUOUS
 10
6.6902600473
 20
6.9714893617
 40
0.5
100
AcDbArc
 50
180.0
 51
270.0
  0
ARC
  5
33C
100
AcDbEntity
  8
0
100
AcDbCircle
 62
7
  6
CONTINUOUS
 10
6.6902600473
 20
7.6714893617
 40
0.5
100
AcDbArc
 50
90.0
 51
180.0
  0
ARC
  5
33D
100
AcDbEntity
  8
0
100
AcDbCircle
 62
7
  6
CONTINUOUS
 10
9.8254253817
 20
8.4714893617
 40
0.3
100
AcDbArc
 50
270.0
 51
352.8749836509
  0
ARC
  5
33E
100
AcDbEntity
  8
0
100
AcDbCircle
 62
7
  6
CONTINUOUS
 10
17.0402600473
 20
14.1214893617
 40
0.15
100
AcDbArc
 50
21.4295585499
 51
90.0
  0
ARC
  5
33F
100
AcDbEntity
  8
0
100
AcDbCircle
 62
7
  6
CONTINUOUS
 10
16.8402600473
 20
14.1214893617
 40
0.15
100
AcDbArc
 50
90.0
 51
132.4940471601
  0
ARC
  5
340
100
AcDbEntity
  8
0
100
AcDbCircle
 62
7
  6
CONTINUOUS
 10
19.1861953242
 20
44.3414893617
 40
2.85
100
AcDbArc
 50
180.0000003589
 51
360.0
  0
ARC
  5
341
100
AcDbEntity
  8
0
100
AcDbCircle
 62
7
  6
CONTINUOUS
 10
19.1101136153
 20
44.5932031274
 40
2.6508308144
100
AcDbArc
 50
165.4156066364
 51
179.997469319
  0
ARC
  5
342
100
AcDbEntity
  8
0
100
AcDbCircle
 62
7
  6
CONTINUOUS
 10
19.1852471632
 20
44.7927563689
 40
2.6191515905
100
AcDbArc
 50
104.6851960784
 51
104.8549149371
  0
ARC
  5
343
100
AcDbEntity
  8
0
100
AcDbCircle
 62
7
  6
CONTINUOUS
 10
19.1341916822
 20
44.9357150463
 40
2.5002386079
100
AcDbArc
 50
149.8709547539
 51
156.7956776684
  0
ARC
  5
344
100
AcDbEntity
  8
0
100
AcDbCircle
 62
7
  6
CONTINUOUS
 10
19.129600098
 20
44.9379285935
 40
2.4951463048
100
AcDbArc
 50
156.8008523069
 51
165.3885524594
  0
ARC
  5
345
100
AcDbEntity
  8
0
100
AcDbCircle
 62
7
  6
CONTINUOUS
 10
19.1152764273
 20
44.942020028
 40
2.4802537867
100
AcDbArc
 50
165.3965403548
 51
179.9974594406
  0
CIRCLE
  5
346
100
AcDbEntity
  8
0
100
AcDbCircle
 62
7
  6
CONTINUOUS
 10
15.8402600473
 20
33.5586974411
 40
1.45
  0
ARC
  5
347
100
AcDbEntity
  8
0
100
AcDbCircle
 62
7
  6
CONTINUOUS
 10
5.2402600473
 20
41.6714893617
 40
1.0
100
AcDbArc
 50
90.0
 51
180.0
  0
CIRCLE
  5
348
100
AcDbEntity
  8
0
100
AcDbCircle
 62
7
  6
CONTINUOUS
 10
14.1902600473
 20
39.1714893617
 40
0.95
  0
ARC
  5
349
100
AcDbEntity
  8
0
100
AcDbCircle
 62
7
  6
CONTINUOUS
 10
11.4852600473
 20
41.4714893617
 40
0.2
100
AcDbArc
 50
90.0
 51
180.0
  0
ARC
  5
34A
100
AcDbEntity
  8
0
100
AcDbCircle
 62
7
  6
CONTINUOUS
 10
19.1902600473
 20
26.4714893617
 40
11.0
100
AcDbArc
 50
2.6052512651
 51
41.3640420485
  0
ARC
  5
34B
100
AcDbEntity
  8
0
100
AcDbCircle
 62
7
  6
CONTINUOUS
 10
19.1902600473
 20
26.4714893617
 40
11.0
100
AcDbArc
 50
318.598214292
 51
357.3947487349
  0
ARC
  5
34C
100
AcDbEntity
  8
0
100
AcDbCircle
 62
7
  6
CONTINUOUS
 10
19.1902600473
 20
26.4714893617
 40
11.0
100
AcDbArc
 50
138.6359579515
 51
177.3947487349
  0
ARC
  5
34D
100
AcDbEntity
  8
0
100
AcDbCircle
 62
7
  6
CONTINUOUS
 10
19.1902600473
 20
26.4714893617
 40
11.0
100
AcDbArc
 50
182.6052512651
 51
221.394322147
  0
ARC
  5
34E
100
AcDbEntity
  8
0
100
AcDbCircle
 62
7
  6
CONTINUOUS
 10
19.1902600473
 20
26.4714893617
 40
10.75
100
AcDbArc
 50
320.4258238782
 51
39.6936742076
  0
ARC
  5
34F
100
AcDbEntity
  8
0
100
AcDbCircle
 62
7
  6
CONTINUOUS
 10
19.1902600473
 20
26.4714893617
 40
10.75
100
AcDbArc
 50
140.3063600247
 51
219.5742090713
  0
ARC
  5
350
100
AcDbEntity
  8
0
100
AcDbCircle
 62
7
  6
CONTINUOUS
 10
19.1902600473
 20
26.4714893617
 40
10.25
100
AcDbArc
 50
143.5665218373
 51
216.4221757585
  0
ARC
  5
351
100
AcDbEntity
  8
0
100
AcDbCircle
 62
7
  6
CONTINUOUS
 10
19.1902600473
 20
26.4714893617
 40
10.25
100
AcDbArc
 50
244.6578988351
 51
247.3335452197
  0
ARC
  5
352
100
AcDbEntity
  8
0
100
AcDbCircle
 62
7
  6
CONTINUOUS
 10
19.1902600473
 20
26.4714893617
 40
10.25
100
AcDbArc
 50
292.6664547803
 51
297.93586058
  0
ARC
  5
353
100
AcDbEntity
  8
0
100
AcDbCircle
 62
7
  6
CONTINUOUS
 10
19.1902600473
 20
26.4714893617
 40
10.25
100
AcDbArc
 50
326.7750803964
 51
36.4483728545
  0
ARC
  5
354
100
AcDbEntity
  8
0
100
AcDbCircle
 62
7
  6
CONTINUOUS
 10
32.6402600473
 20
9.4714893617
 40
1.5
100
AcDbArc
 50
270.0
 51
360.0
  0
ARC
  5
355
100
AcDbEntity
  8
0
100
AcDbCircle
 62
7
  6
CONTINUOUS
 10
27.6607972203
 20
17.9714893617
 40
1.0
100
AcDbArc
 50
223.2414941608
 51
270.0
  0
ARC
  5
356
100
AcDbEntity
  8
0
100
AcDbCircle
 62
7
  6
CONTINUOUS
 10
26.5599615338
 20
17.9714893617
 40
1.0
100
AcDbArc
 50
227.4162579743
 51
270.0
  0
CIRCLE
  5
357
100
AcDbEntity
  8
0
100
AcDbCircle
 62
7
  6
CONTINUOUS
 10
30.7402600473
 20
10.4714893617
 40
0.95
  0
ARC
  5
358
100
AcDbEntity
  8
0
100
AcDbCircle
 62
7
  6
CONTINUOUS
 10
27.6902600473
 20
9.7214893617
 40
0.825
100
AcDbArc
 50
0.0
 51
180.0
  0
ARC
  5
359
100
AcDbEntity
  8
0
100
AcDbCircle
 62
7
  6
CONTINUOUS
 10
27.6902600473
 20
9.2214893617
 40
0.75
100
AcDbArc
 50
0.0
 51
180.0
  0
ARC
  5
35A
100
AcDbEntity
  8
0
100
AcDbCircle
 62
7
  6
CONTINUOUS
 10
23.4902600473
 20
11.1214893617
 40
0.5
100
AcDbArc
 50
180.0
 51
270.0
  0
ARC
  5
35B
100
AcDbEntity
  8
0
100
AcDbCircle
 62
7
  6
CONTINUOUS
 10
27.6902600473
 20
9.2214893617
 40
0.449999975
100
AcDbArc
 50
359.9999699099
 51
180.001081933
  0
ARC
  5
35C
100
AcDbEntity
  8
0
100
AcDbCircle
 62
7
  6
CONTINUOUS
 10
21.5402600473
 20
14.1214893617
 40
0.15
100
AcDbArc
 50
47.5059528399
 51
90.0
  0
ARC
  5
35D
100
AcDbEntity
  8
0
100
AcDbCircle
 62
7
  6
CONTINUOUS
 10
21.3402600473
 20
14.1214893617
 40
0.15
100
AcDbArc
 50
90.0
 51
158.5704414501
  0
ARC
  5
35E
100
AcDbEntity
  8
0
100
AcDbCircle
 62
7
  6
CONTINUOUS
 10
19.1902600473
 20
47.2714893617
 40
7.0
100
AcDbArc
 50
277.8544476766
 51
304.04773237
  0
ARC
  5
35F
100
AcDbEntity
  8
0
100
AcDbCircle
 62
7
  6
CONTINUOUS
 10
19.1902600473
 20
47.2714893617
 40
7.0
100
AcDbArc
 50
235.95226763
 51
262.1455523234
  0
ARC
  5
360
100
AcDbEntity
  8
0
100
AcDbCircle
 62
7
  6
CONTINUOUS
 10
19.1902600473
 20
44.7914893617
 40
3.3
100
AcDbArc
 50
66.1198957728
 51
113.8801042273
  0
ARC
  5
361
100
AcDbEntity
  8
0
100
AcDbCircle
 62
7
  6
CONTINUOUS
 10
19.1902600473
 20
43.4714893617
 40
3.25
100
AcDbArc
 50
213.6312774479
 51
326.3687225521
  0
ARC
  5
362
100
AcDbEntity
  8
0
100
AcDbCircle
 62
7
  6
CONTINUOUS
 10
19.270425424
 20
44.5932046392
 40
2.6508118695
100
AcDbArc
 50
0.0024980232
 51
14.5210083275
  0
ARC
  5
363
100
AcDbEntity
  8
0
100
AcDbCircle
 62
7
  6
CONTINUOUS
 10
19.1902600505
 20
44.7725837985
 40
2.6399329931
100
AcDbArc
 50
75.3208994734
 51
104.6794495289
  0
ARC
  5
364
100
AcDbEntity
  8
0
100
AcDbCircle
 62
7
  6
CONTINUOUS
 10
19.1902600473
 20
44.9289213932
 40
2.6399070254
100
AcDbArc
 50
255.15202337
 51
284.84797663
  0
ARC
  5
365
100
AcDbEntity
  8
0
100
AcDbCircle
 62
7
  6
CONTINUOUS
 10
19.19527253
 20
44.7927548497
 40
2.6191531619
100
AcDbArc
 50
75.1450850969
 51
75.3151554906
  0
ARC
  5
366
100
AcDbEntity
  8
0
100
AcDbCircle
 62
7
  6
CONTINUOUS
 10
19.2462455128
 20
44.935670115
 40
2.5003328424
100
AcDbArc
 50
23.2053844943
 51
30.1289822245
  0
ARC
  5
367
100
AcDbEntity
  8
0
100
AcDbCircle
 62
7
  6
CONTINUOUS
 10
19.2546014349
 20
44.9391949295
 40
2.4912640525
100
AcDbArc
 50
14.5033352713
 51
23.2065992525
  0
ARC
  5
368
100
AcDbEntity
  8
0
100
AcDbCircle
 62
7
  6
CONTINUOUS
 10
19.2652720865
 20
44.9420222958
 40
2.4802253674
100
AcDbArc
 50
0.0024881997
 51
14.5018349129
  0
CIRCLE
  5
369
100
AcDbEntity
  8
0
100
AcDbCircle
 62
7
  6
CONTINUOUS
 10
19.3402600473
 20
33.5586974411
 40
1.45
  0
CIRCLE
  5
36A
100
AcDbEntity
  8
0
100
AcDbCircle
 62
7
  6
CONTINUOUS
 10
22.8402600473
 20
33.5586974411
 40
1.45
  0
ARC
  5
36B
100
AcDbEntity
  8
0
100
AcDbCircle
 62
7
  6
CONTINUOUS
 10
33.1402600473
 20
41.6714893617
 40
1.0
100
AcDbArc
 50
0.0
 51
90.0
  0
CIRCLE
  5
36C
100
AcDbEntity
  8
0
100
AcDbCircle
 62
7
  6
CONTINUOUS
 10
24.1902600473
 20
39.1714893617
 40
0.95
  0
ARC
  5
36D
100
AcDbEntity
  8
0
100
AcDbCircle
 62
7
  6
CONTINUOUS
 10
26.8852600473
 20
41.4714893617
 40
0.2
100
AcDbArc
 50
0.0
 51
90.0
  0
SPLINE
  5
36E
100
AcDbEntity
  8
0
100
AcDbSpline
 62
7
  6
CONTINUOUS
 70
0
 71
3
 72
11
 73
7
 74
0
 42
0.0000001
 43
0.0000001
 44
0.0000000001
 40
0.0
 40
0.0
 40
0.0
 40
0.0
 40
0.2507777996
 40
0.5010768174
 40
0.7508166256
 40
1.0
 40
1.0
 40
1.0
 40
1.0
 10
19.8667508195
 20
47.3697795047
 30
0.0
 10
20.0271698687
 20
47.326349733
 30
0.0
 10
20.3401483964
 20
47.2082404212
 30
0.0
 10
20.7655649639
 20
46.9443515684
 30
0.0
 10
21.1311287297
 20
46.6038450461
 30
0.0
 10
21.3258938221
 20
46.3335386562
 30
0.0
 10
21.4087778536
 20
46.1907081502
 30
0.0
  0
SPLINE
  5
36F
100
AcDbEntity
  8
0
100
AcDbSpline
 62
7
  6
CONTINUOUS
 70
0
 71
3
 72
11
 73
7
 74
0
 42
0.0000001
 43
0.0000001
 44
0.0000000001
 40
0.0
 40
0.0
 40
0.0
 40
0.0
 40
0.2491833663
 40
0.4989231975
 40
0.7492222273
 40
1.0
 40
1.0
 40
1.0
 40
1.0
 10
16.971742241
 20
46.1907081502
 30
0.0
 10
17.0546262698
 20
46.3335386516
 30
0.0
 10
17.2493913692
 20
46.6038450479
 30
0.0
 10
17.6149551461
 20
46.9443515855
 30
0.0
 10
18.0403717254
 20
47.2082404301
 30
0.0
 10
18.353350243
 20
47.3263497377
 30
0.0
 10
18.5137692751
 20
47.3697795047
 30
0.0
  0
SPLINE
  5
370
100
AcDbEntity
  8
0
100
AcDbSpline
 62
7
  6
CONTINUOUS
 70
0
 71
3
 72
35
 73
31
 74
0
 42
0.0000001
 43
0.0000001
 44
0.0000000001
 40
0.0
 40
0.0
 40
0.0
 40
0.0
 40
0.0620429643
 40
0.1241443117
 40
0.1552738978
 40
0.1864375967
 40
0.2176378742
 40
0.2488772645
 40
0.2801572684
 40
0.3114764503
 40
0.3428328921
 40
0.3742225161
 40
0.4056406674
 40
0.437080969
 40
0.4685366915
 40
0.5000001828
 40
0.5314636722
 40
0.5629193827
 40
0.5943596689
 40
0.6257777963
 40
0.6571673936
 40
0.6885238029
 40
0.7198429508
 40
0.751122919
 40
0.7823622743
 40
0.8135625168
 40
0.8447261831
 40
0.8758557429
 40
0.9379570474
 40
1.0
 40
1.0
 40
1.0
 40
1.0
 10
21.9219983581
 20
44.5902933106
 30
0.0
 10
21.9219983581
 20
44.4141811319
 30
0.0
 10
21.8867362417
 20
44.060846174
 30
0.0
 10
21.7560027543
 20
43.6367578021
 30
0.0
 10
21.6029498798
 20
43.3180084772
 30
0.0
 10
21.4648069524
 20
43.09088449
 30
0.0
 10
21.3047509893
 20
42.8782708694
 30
0.0
 10
21.1243550121
 20
42.6821664231
 30
0.0
 10
20.9253593867
 20
42.5044614066
 30
0.0
 10
20.7096781033
 20
42.3468667386
 30
0.0
 10
20.479406835
 20
42.2108689788
 30
0.0
 10
20.2367424838
 20
42.0978054035
 30
0.0
 10
19.9840431362
 20
42.0087014101
 30
0.0
 10
19.7237140968
 20
41.9444749719
 30
0.0
 10
19.4582742139
 20
41.9056581605
 30
0.0
 10
19.1902584876
 20
41.8927093112
 30
0.0
 10
18.9222428026
 20
41.9056584248
 30
0.0
 10
18.6568030622
 20
41.9444756008
 30
0.0
 10
18.3964741969
 20
42.0087021496
 30
0.0
 10
18.1437751742
 20
42.0978064906
 30
0.0
 10
17.9011110637
 20
42.2108700246
 30
0.0
 10
17.6708402361
 20
42.3468680075
 30
0.0
 10
17.4551591953
 20
42.5044625121
 30
0.0
 10
17.2561640189
 20
42.6821675862
 30
0.0
 10
17.0757682466
 20
42.8782718079
 30
0.0
 10
16.915712638
 20
43.0908853318
 30
0.0
 10
16.7775698382
 20
43.3180090805
 30
0.0
 10
16.6245172422
 20
43.6367582214
 30
0.0
 10
16.4937838136
 20
44.0608463555
 30
0.0
 10
16.4585217365
 20
44.4141811651
 30
0.0
 10
16.4585217365
 20
44.5902933106
 30
0.0
  0
SPLINE
  5
371
100
AcDbEntity
  8
0
100
AcDbSpline
 62
7
  6
CONTINUOUS
 70
0
 71
3
 72
11
 73
7
 74
0
 42
0.0000001
 43
0.0000001
 44
0.0000000001
 40
0.0
 40
0.0
 40
0.0
 40
0.0
 40
0.2503613551
 40
0.5003959871
 40
0.7503128514
 40
1.0
 40
1.0
 40
1.0
 40
1.0
 10
21.5614804994
 20
45.9275529516
 30
0.0
 10
21.6201085015
 20
45.8264842752
 30
0.0
 10
21.7242257849
 20
45.6165683363
 30
0.0
 10
21.8377235259
 20
45.2842738424
 30
0.0
 10
21.9065776196
 20
44.9402694701
 30
0.0
 10
21.9219983581
 20
44.7068209488
 30
0.0
 10
21.9219983581
 20
44.5902933106
 30
0.0
  0
SPLINE
  5
372
100
AcDbEntity
  8
0
100
AcDbSpline
 62
7
  6
CONTINUOUS
 70
0
 71
3
 72
11
 73
7
 74
0
 42
0.0000001
 43
0.0000001
 44
0.0000000001
 40
0.0
 40
0.0
 40
0.0
 40
0.0
 40
0.2496870323
 40
0.4996038883
 40
0.7496385636
 40
1.0
 40
1.0
 40
1.0
 40
1.0
 10
16.4585217365
 20
44.5902933106
 30
0.0
 10
16.4585217365
 20
44.7068208568
 30
0.0
 10
16.4739424559
 20
44.9402692446
 30
0.0
 10
16.5427964861
 20
45.2842734717
 30
0.0
 10
16.6562941141
 20
45.6165679452
 30
0.0
 10
16.7604114114
 20
45.8264838574
 30
0.0
 10
16.8190393886
 20
45.9275525484
 30
0.0
  0
SPLINE
  5
373
100
AcDbEntity
  8
0
100
AcDbSpline
 62
7
  6
CONTINUOUS
 70
0
 71
3
 72
15
 73
11
 74
0
 42
0.0000001
 43
0.0000001
 44
0.0000000001
 40
0.0
 40
0.0
 40
0.0
 40
0.0
 40
0.1259137965
 40
0.2516133051
 40
0.3770069119
 40
0.5020977782
 40
0.6268883654
 40
0.7514131668
 40
0.8757666856
 40
1.0
 40
1.0
 40
1.0
 40
1.0
 10
19.8667508197
 20
42.5155032658
 30
0.0
 10
20.0002625464
 20
42.5516011069
 30
0.0
 10
20.2617444293
 20
42.6453705306
 30
0.0
 10
20.6255607589
 20
42.8467487331
 30
0.0
 10
20.9515327909
 20
43.1036616263
 30
0.0
 10
21.2309296315
 20
43.4092146111
 30
0.0
 10
21.4563231862
 20
43.7554005844
 30
0.0
 10
21.621786629
 20
44.1330672238
 30
0.0
 10
21.7228243696
 20
44.5320842368
 30
0.0
 10
21.7454974515
 20
44.805670285
 30
0.0
 10
21.7454974515
 20
44.9421300053
 30
0.0
  0
SPLINE
  5
374
100
AcDbEntity
  8
0
100
AcDbSpline
 62
7
  6
CONTINUOUS
 70
0
 71
3
 72
15
 73
11
 74
0
 42
0.0000001
 43
0.0000001
 44
0.0000000001
 40
0.0
 40
0.0
 40
0.0
 40
0.0
 40
0.1259003308
 40
0.2515792619
 40
0.376954195
 40
0.5020337939
 40
0.6268244559
 40
0.7513617331
 40
0.8757375615
 40
1.0
 40
1.0
 40
1.0
 40
1.0
 10
19.8667508197
 20
42.8698053433
 30
0.0
 10
19.9801155909
 20
42.9048911837
 30
0.0
 10
20.2015528717
 20
42.9928759677
 30
0.0
 10
20.5084098818
 20
43.1747440683
 30
0.0
 10
20.7824176746
 20
43.4020623026
 30
0.0
 10
21.0166431097
 20
43.6690645822
 30
0.0
 10
21.2052026665
 20
43.9691382866
 30
0.0
 10
21.3434141886
 20
44.2947893613
 30
0.0
 10
21.4277281969
 20
44.6377649221
 30
0.0
 10
21.4466390395
 20
44.8725578804
 30
0.0
 10
21.4466390395
 20
44.9896841282
 30
0.0
  0
SPLINE
  5
375
100
AcDbEntity
  8
0
100
AcDbSpline
 62
7
  6
CONTINUOUS
 70
0
 71
3
 72
15
 73
11
 74
0
 42
0.0000001
 43
0.0000001
 44
0.0000000001
 40
0.0
 40
0.0
 40
0.0
 40
0.0
 40
0.1242333144
 40
0.2485868332
 40
0.3731116346
 40
0.4979022218
 40
0.6229930881
 40
0.7483866949
 40
0.8740862035
 40
1.0
 40
1.0
 40
1.0
 40
1.0
 10
16.635022643
 20
44.9421300053
 30
0.0
 10
16.635022643
 20
44.805670285
 30
0.0
 10
16.657695725
 20
44.5320842368
 30
0.0
 10
16.7587334656
 20
44.1330672238
 30
0.0
 10
16.9241969084
 20
43.7554005844
 30
0.0
 10
17.149590463
 20
43.4092146111
 30
0.0
 10
17.4289873036
 20
43.1036616263
 30
0.0
 10
17.7549593357
 20
42.8467487331
 30
0.0
 10
18.1187756653
 20
42.6453705306
 30
0.0
 10
18.3802575481
 20
42.5516011069
 30
0.0
 10
18.5137692749
 20
42.5155032658
 30
0.0
  0
SPLINE
  5
376
100
AcDbEntity
  8
0
100
AcDbSpline
 62
7
  6
CONTINUOUS
 70
0
 71
3
 72
15
 73
11
 74
0
 42
0.0000001
 43
0.0000001
 44
0.0000000001
 40
0.0
 40
0.0
 40
0.0
 40
0.0
 40
0.1242624385
 40
0.2486382669
 40
0.3731755441
 40
0.4979662061
 40
0.623045805
 40
0.7484207381
 40
0.8740996692
 40
1.0
 40
1.0
 40
1.0
 40
1.0
 10
21.4466390395
 20
44.9896841282
 30
0.0
 10
21.4466390395
 20
45.106810376
 30
0.0
 10
21.4277281969
 20
45.3416033343
 30
0.0
 10
21.3434141886
 20
45.684578895
 30
0.0
 10
21.2052026665
 20
46.0102299697
 30
0.0
 10
21.0166431097
 20
46.3103036742
 30
0.0
 10
20.7824176746
 20
46.5773059538
 30
0.0
 10
20.5084098818
 20
46.804624188
 30
0.0
 10
20.2015528717
 20
46.9864922887
 30
0.0
 10
19.9801155909
 20
47.0744770727
 30
0.0
 10
19.8667508197
 20
47.109562913
 30
0.0
  0
SPLINE
  5
377
100
AcDbEntity
  8
0
100
AcDbSpline
 62
7
  6
CONTINUOUS
 70
0
 71
3
 72
35
 73
31
 74
0
 42
0.0000001
 43
0.0000001
 44
0.0000000001
 40
0.0
 40
0.0
 40
0.0
 40
0.0
 40
0.0619755826
 40
0.1240200357
 40
0.1551279398
 40
0.1862756709
 40
0.2174662659
 40
0.248702584
 40
0.279986219
 40
0.3113155729
 40
0.3426883025
 40
0.3740996884
 40
0.405544221
 40
0.4370145302
 40
0.4685027439
 40
0.5
 40
0.5314972561
 40
0.5629854698
 40
0.594455779
 40
0.6259003116
 40
0.6573116975
 40
0.6886844271
 40
0.720013781
 40
0.751297416
 40
0.7825337341
 40
0.8137243291
 40
0.8448720602
 40
0.8759799643
 40
0.9380244174
 40
1.0
 40
1.0
 40
1.0
 40
1.0
 10
21.921237291
 20
44.5933202112
 30
0.0
 10
21.921237291
 20
44.4175466277
 30
0.0
 10
21.8860167552
 20
44.0648599577
 30
0.0
 10
21.7554364855
 20
43.6415463425
 30
0.0
 10
21.6025514505
 20
43.3233425066
 30
0.0
 10
21.4645325942
 20
43.0965607129
 30
0.0
 10
21.3045970745
 20
42.8842373634
 30
0.0
 10
21.1243103213
 20
42.6883708274
 30
0.0
 10
20.9254047295
 20
42.510854776
 30
0.0
 10
20.7097896772
 20
42.3534040599
 30
0.0
 10
20.4795572948
 20
42.21751201
 30
0.0
 10
20.2369043711
 20
42.1045222134
 30
0.0
 10
19.9841907431
 20
42.0154671299
 30
0.0
 10
19.7238259993
 20
41.9512707548
 30
0.0
 10
19.4583349899
 20
41.9124697388
 30
0.0
 10
19.1902600473
 20
41.8995258501
 30
0.0
 10
18.9221851046
 20
41.9124697388
 30
0.0
 10
18.6566940952
 20
41.9512707548
 30
0.0
 10
18.3963293514
 20
42.0154671299
 30
0.0
 10
18.1436157235
 20
42.1045222134
 30
0.0
 10
17.9009627998
 20
42.21751201
 30
0.0
 10
17.6707304173
 20
42.3534040599
 30
0.0
 10
17.4551153651
 20
42.510854776
 30
0.0
 10
17.2562097733
 20
42.6883708274
 30
0.0
 10
17.07592302
 20
42.8842373634
 30
0.0
 10
16.9159875004
 20
43.0965607129
 30
0.0
 10
16.7779686441
 20
43.3233425066
 30
0.0
 10
16.6250836091
 20
43.6415463425
 30
0.0
 10
16.4945033393
 20
44.0648599577
 30
0.0
 10
16.4592828035
 20
44.4175466277
 30
0.0
 10
16.4592828035
 20
44.5933202112
 30
0.0
  0
SPLINE
  5
378
100
AcDbEntity
  8
0
100
AcDbSpline
 62
7
  6
CONTINUOUS
 70
0
 71
3
 72
15
 73
11
 74
0
 42
0.0000001
 43
0.0000001
 44
0.0000000001
 40
0.0
 40
0.0
 40
0.0
 40
0.0
 40
0.1259003308
 40
0.2515792619
 40
0.376954195
 40
0.5020337939
 40
0.6268244559
 40
0.7513617331
 40
0.8757375615
 40
1.0
 40
1.0
 40
1.0
 40
1.0
 10
18.5137692749
 20
47.109562913
 30
0.0
 10
18.4004045036
 20
47.0744770727
 30
0.0
 10
18.1789672228
 20
46.9864922887
 30
0.0
 10
17.8721102128
 20
46.804624188
 30
0.0
 10
17.5981024199
 20
46.5773059538
 30
0.0
 10
17.3638769849
 20
46.3103036742
 30
0.0
 10
17.1753174281
 20
46.0102299697
 30
0.0
 10
17.037105906
 20
45.684578895
 30
0.0
 10
16.9527918977
 20
45.3416033343
 30
0.0
 10
16.9338810551
 20
45.106810376
 30
0.0
 10
16.9338810551
 20
44.9896841282
 30
0.0
  0
SPLINE
  5
379
100
AcDbEntity
  8
0
100
AcDbSpline
 62
7
  6
CONTINUOUS
 70
0
 71
3
 72
15
 73
11
 74
0
 42
0.0000001
 43
0.0000001
 44
0.0000000001
 40
0.0
 40
0.0
 40
0.0
 40
0.0
 40
0.1242624385
 40
0.2486382669
 40
0.3731755441
 40
0.4979662061
 40
0.623045805
 40
0.7484207381
 40
0.8740996692
 40
1.0
 40
1.0
 40
1.0
 40
1.0
 10
16.9338810551
 20
44.9896841282
 30
0.0
 10
16.9338810551
 20
44.8725578804
 30
0.0
 10
16.9527918977
 20
44.6377649221
 30
0.0
 10
17.037105906
 20
44.2947893613
 30
0.0
 10
17.1753174281
 20
43.9691382866
 30
0.0
 10
17.3638769849
 20
43.6690645822
 30
0.0
 10
17.5981024199
 20
43.4020623026
 30
0.0
 10
17.8721102128
 20
43.1747440683
 30
0.0
 10
18.1789672228
 20
42.9928759677
 30
0.0
 10
18.4004045036
 20
42.9048911837
 30
0.0
 10
18.5137692749
 20
42.8698053433
 30
0.0
  0
SPLINE
  5
37A
100
AcDbEntity
  8
0
100
AcDbSpline
 62
7
  6
CONTINUOUS
 70
0
 71
3
 72
15
 73
11
 74
0
 42
0.0000001
 43
0.0000001
 44
0.0000000001
 40
0.0
 40
0.0
 40
0.0
 40
0.0
 40
0.0672766526
 40
0.1460716881
 40
0.2430714388
 40
0.3606512915
 40
0.4986085388
 40
0.6544142409
 40
0.8239864264
 40
1.0
 40
1.0
 40
1.0
 40
1.0
 10
27.0852600473
 20
38.6514893617
 30
0.0
 10
27.0852600473
 20
38.6463366269
 30
0.0
 10
27.0823124971
 20
38.6350754802
 30
0.0
 10
27.0706299214
 20
38.6201624297
 30
0.0
 10
27.0524268596
 20
38.6066931764
 30
0.0
 10
27.028077535
 20
38.5947843591
 30
0.0
 10
26.9981102529
 20
38.5848309127
 30
0.0
 10
26.963383124
 20
38.5772517962
 30
0.0
 10
26.9252208973
 20
38.5725761507
 30
0.0
 10
26.8987409595
 20
38.5714893616
 30
0.0
 10
26.885260038
 20
38.5714893617
 30
0.0
  0
SPLINE
  5
37B
100
AcDbEntity
  8
0
100
AcDbSpline
 62
7
  6
CONTINUOUS
 70
0
 71
3
 72
15
 73
11
 74
0
 42
0.0000001
 43
0.0000001
 44
0.0000000001
 40
0.0
 40
0.0
 40
0.0
 40
0.0
 40
0.1760142826
 40
0.3456007211
 40
0.5014131751
 40
0.6393813701
 40
0.7569630558
 40
0.8539566368
 40
0.9327331537
 40
1.0
 40
1.0
 40
1.0
 40
1.0
 10
11.4852600393
 20
38.5714893617
 30
0.0
 10
11.4717791844
 20
38.5714893618
 30
0.0
 10
11.4452983761
 20
38.5725781345
 30
0.0
 10
11.4071351075
 20
38.577256054
 30
0.0
 10
11.3724064204
 20
38.5848378883
 30
0.0
 10
11.3424382563
 20
38.5947925757
 30
0.0
 10
11.3180889955
 20
38.6067017601
 30
0.0
 10
11.2998855382
 20
38.6201667895
 30
0.0
 10
11.2882036731
 20
38.6350778418
 30
0.0
 10
11.2852600473
 20
38.6463374241
 30
0.0
 10
11.2852600473
 20
38.6514893617
 30
0.0
  0
SPLINE
  5
37C
100
AcDbEntity
  8
0
100
AcDbSpline
 62
7
  6
CONTINUOUS
 70
0
 71
3
 72
9
 73
5
 74
0
 42
0.0000001
 43
0.0000001
 44
0.0000000001
 40
0.0
 40
0.0
 40
0.0
 40
0.0
 40
0.7498959804
 40
1.0
 40
1.0
 40
1.0
 40
1.0
 10
21.9119630994
 20
45.9921482556
 30
0.0
 10
21.8623484547
 20
45.883217854
 30
0.0
 10
21.8016093673
 20
45.7353630453
 30
0.0
 10
21.7490893979
 20
45.5846211239
 30
0.0
 10
21.7364850824
 20
45.5467418861
 30
0.0
  0
SPLINE
  5
37D
100
AcDbEntity
  8
0
100
AcDbSpline
 62
7
  6
CONTINUOUS
 70
0
 71
3
 72
9
 73
5
 74
0
 42
0.0000001
 43
0.0000001
 44
0.0000000001
 40
0.0
 40
0.0
 40
0.0
 40
0.0
 40
0.2501098276
 40
1.0
 40
1.0
 40
1.0
 40
1.0
 10
16.6409086028
 20
45.5287766336
 30
0.0
 10
16.6280271103
 20
45.5678871555
 30
0.0
 10
16.5742449891
 20
45.7235041308
 30
0.0
 10
16.511653467
 20
45.8760496463
 30
0.0
 10
16.4603762759
 20
45.9883567144
 30
0.0
  0
SPLINE
  5
37E
100
AcDbEntity
  8
0
100
AcDbSpline
 62
7
  6
CONTINUOUS
 70
0
 71
3
 72
23
 73
19
 74
0
 42
0.0000001
 43
0.0000001
 44
0.0000000001
 40
0.0
 40
0.0
 40
0.0
 40
0.0
 40
0.2379647549
 40
0.4456328612
 40
0.6212972767
 40
0.6966463393
 40
0.7634163851
 40
0.8214196765
 40
0.8706757778
 40
0.9114833204
 40
0.9441607251
 40
0.9690266861
 40
0.9786301745
 40
0.9864007208
 40
0.9923786803
 40
0.9966051163
 40
0.999123669
 40
1.0
 40
1.0
 40
1.0
 40
1.0
 10
16.5022492379
 20
44.340628714
 30
0.0
 10
16.4890761925
 20
44.3406228654
 30
0.0
 10
16.4644072304
 20
44.3406217185
 30
0.0
 10
16.4300140035
 20
44.3406569474
 30
0.0
 10
16.4046227677
 20
44.3407162781
 30
0.0
 10
16.3870312966
 20
44.3407826425
 30
0.0
 10
16.3759532451
 20
44.3408370466
 30
0.0
 10
16.3663196021
 20
44.3408981905
 30
0.0
 10
16.3581234949
 20
44.3409658764
 30
0.0
 10
16.3513287738
 20
44.3410386856
 30
0.0
 10
16.345886261
 20
44.3411171178
 30
0.0
 10
16.3421668271
 20
44.341188143
 30
0.0
 10
16.3398339244
 20
44.3412531441
 30
0.0
 10
16.3385326307
 20
44.3412930172
 30
0.0
 10
16.3375622369
 20
44.3413469258
 30
0.0
 10
16.3368062944
 20
44.3413681331
 30
0.0
 10
16.3364786553
 20
44.3414472918
 30
0.0
 10
16.3361958643
 20
44.3414407675
 30
0.0
 10
16.3361953247
 20
44.3414892756
 30
0.0
  0
LINE
  5
37F
100
AcDbEntity
  8
0
100
AcDbLine
 62
7
  6
CONTINUOUS
 10
25.7402600473
 20
20.9414893617
 11
25.7347520319
 21
20.9414893617
  0
LINE
  5
380
100
AcDbEntity
  8
0
100
AcDbLine
 62
7
  6
CONTINUOUS
 10
26.0371879068
 20
20.9414893617
 11
26.0402600473
 21
20.9414893617
  0
SPLINE
  5
381
100
AcDbEntity
  8
0
100
AcDbSpline
 62
7
  6
CONTINUOUS
 70
0
 71
3
 72
10
 73
6
 74
0
 42
0.0000001
 43
0.0000001
 44
0.0000000001
 40
0.0
 40
0.0
 40
0.0
 40
0.0
 40
0.3333269194
 40
0.6666730806
 40
1.0
 40
1.0
 40
1.0
 40
1.0
 10
25.7252503911
 20
22.7414893617
 30
0.0
 10
25.7256393053
 20
22.6414877692
 30
0.0
 10
25.726771888
 20
22.4414775715
 30
0.0
 10
25.7316621048
 20
22.1415011519
 30
0.0
 10
25.7327946874
 20
21.9414909542
 30
0.0
 10
25.7331836016
 20
21.8414893617
 30
0.0
  0
LINE
  5
382
100
AcDbEntity
  8
0
100
AcDbLine
 62
7
  6
CONTINUOUS
 10
25.7262214809
 20
21.8414893617
 11
25.7252503911
 21
22.7414893617
  0
LINE
  5
383
100
AcDbEntity
  8
0
100
AcDbLine
 62
7
  6
CONTINUOUS
 10
25.7402600473
 20
26.0214893617
 11
25.7331836016
 21
26.0214893617
  0
SPLINE
  5
384
100
AcDbEntity
  8
0
100
AcDbSpline
 62
7
  6
CONTINUOUS
 70
0
 71
3
 72
10
 73
6
 74
0
 42
0.0000001
 43
0.0000001
 44
0.0000000001
 40
0.0
 40
0.0
 40
0.0
 40
0.0
 40
0.333307685
 40
0.666692315
 40
1.0
 40
1.0
 40
1.0
 40
1.0
 10
25.7331836016
 20
26.0214893617
 30
0.0
 10
25.732794669
 20
25.971486177
 30
0.0
 10
25.731661716
 20
25.8714657893
 30
0.0
 10
25.7267722767
 20
25.7215129341
 30
0.0
 10
25.7256393237
 20
25.6214925464
 30
0.0
 10
25.7252503911
 20
25.5714893617
 30
0.0
  0
LINE
  5
385
100
AcDbEntity
  8
0
100
AcDbLine
 62
7
  6
CONTINUOUS
 10
26.0328977917
 20
25.5714893617
 11
26.0330201213
 21
26.0214893617
  0
LINE
  5
386
100
AcDbEntity
  8
0
100
AcDbLine
 62
7
  6
CONTINUOUS
 10
26.0328977917
 20
27.3714893617
 11
26.0330201216
 21
26.9214893617
  0
SPLINE
  5
387
100
AcDbEntity
  8
0
100
AcDbSpline
 62
7
  6
CONTINUOUS
 70
0
 71
3
 72
10
 73
6
 74
0
 42
0.0000001
 43
0.0000001
 44
0.0000000001
 40
0.0
 40
0.0
 40
0.0
 40
0.0
 40
0.333307685
 40
0.666692315
 40
1.0
 40
1.0
 40
1.0
 40
1.0
 10
25.7252503911
 20
27.3714893617
 30
0.0
 10
25.7256393237
 20
27.321486177
 30
0.0
 10
25.7267722767
 20
27.2214657893
 30
0.0
 10
25.731661716
 20
27.0715129341
 30
0.0
 10
25.732794669
 20
26.9714925464
 30
0.0
 10
25.7331836016
 20
26.9214893617
 30
0.0
  0
LINE
  5
388
100
AcDbEntity
  8
0
100
AcDbLine
 62
7
  6
CONTINUOUS
 10
25.7262214809
 20
26.9214893617
 11
25.7252503911
 21
27.3714893617
  0
LINE
  5
389
100
AcDbEntity
  8
0
100
AcDbLine
 62
7
  6
CONTINUOUS
 10
25.7252503911
 20
25.5714893617
 11
25.7262214809
 21
26.0214893617
  0
LINE
  5
38A
100
AcDbEntity
  8
0
100
AcDbLine
 62
7
  6
CONTINUOUS
 10
25.7402600473
 20
31.1014893617
 11
25.7331836016
 21
31.1014893617
  0
SPLINE
  5
38B
100
AcDbEntity
  8
0
100
AcDbSpline
 62
7
  6
CONTINUOUS
 70
0
 71
3
 72
10
 73
6
 74
0
 42
0.0000001
 43
0.0000001
 44
0.0000000001
 40
0.0
 40
0.0
 40
0.0
 40
0.0
 40
0.3333269194
 40
0.6666730806
 40
1.0
 40
1.0
 40
1.0
 40
1.0
 10
25.7331836016
 20
31.1014893617
 30
0.0
 10
25.7327946874
 20
31.0014877692
 30
0.0
 10
25.7316621048
 20
30.8014775715
 30
0.0
 10
25.726771888
 20
30.5015011519
 30
0.0
 10
25.7256393053
 20
30.3014909542
 30
0.0
 10
25.7252503911
 20
30.2014893617
 30
0.0
  0
LINE
  5
38C
100
AcDbEntity
  8
0
100
AcDbLine
 62
7
  6
CONTINUOUS
 10
25.7346963468
 20
32.0014893617
 11
25.7402600473
 21
32.0014893617
  0
LINE
  5
38D
100
AcDbEntity
  8
0
100
AcDbLine
 62
7
  6
CONTINUOUS
 10
26.0402600473
 20
32.0014893617
 11
26.0371878462
 21
32.0014893617
  0
LINE
  5
38E
100
AcDbEntity
  8
0
100
AcDbLine
 62
7
  6
CONTINUOUS
 10
25.7252503911
 20
30.2014893617
 11
25.7262214809
 21
31.1014893726
  0
ELLIPSE
  5
38F
100
AcDbEntity
  8
0
100
AcDbEllipse
 62
7
  6
CONTINUOUS
 10
20.1902600473
 20
11.6714893617
 30
0.0
 11
0.0
 21
1.5
 31
0.0
 40
1.0
 41
-3.481429563
 42
-3.1415926536
  0
ELLIPSE
  5
390
100
AcDbEntity
  8
0
100
AcDbEllipse
 62
7
  6
CONTINUOUS
 10
18.1902600473
 20
11.6714893617
 30
0.0
 11
0.0
 21
1.5
 31
0.0
 40
1.0
 41
-3.1415926536
 42
-2.8017557441
  0
ELLIPSE
  5
391
100
AcDbEntity
  8
0
100
AcDbEllipse
 62
7
  6
CONTINUOUS
 10
4.7402600473
 20
38.9714893617
 30
0.0
 11
0.0
 21
-1.0
 31
0.0
 40
0.5
 41
3.1415926534
 42
4.7123889804
  0
ELLIPSE
  5
392
100
AcDbEntity
  8
0
100
AcDbEllipse
 62
7
  6
CONTINUOUS
 10
33.6402600473
 20
38.9714893617
 30
0.0
 11
0.0
 21
1.0
 31
0.0
 40
0.5
 41
-1.5707963268
 42
0.0
  0
ENDSEC
  0
SECTION
  2
OBJECTS
  0
DICTIONARY
  5
C
100
AcDbDictionary
280
0
281
1
  3
ACAD_GROUP
350
D
  3
ACAD_MLINESTYLE
350
17
  3
ACAD_LAYOUT
350
1A
  3
ACAD_PLOTSETTINGS
350
19
  3
ACAD_PLOTSTYLENAME
350
E
  0
DICTIONARY
  5
D
102
{ACAD_REACTORS
330
C
102
}
100
AcDbDictionary
280
0
281
1
  0
ACDBDICTIONARYWDFLT
  5
E
102
{ACAD_REACTORS
330
C
102
}
100
AcDbDictionary
281
1
  3
Normal
350
F
100
AcDbDictionaryWithDefault
340
F
  0
DICTIONARY
  5
17
102
{ACAD_REACTORS
330
C
102
}
100
AcDbDictionary
280
0
281
1
  3
Standard
350
18
  0
DICTIONARY
  5
19
102
{ACAD_REACTORS
330
C
102
}
100
AcDbDictionary
281
1
  0
DICTIONARY
  5
1A
102
{ACAD_REACTORS
330
C
102
}
100
AcDbDictionary
281
1
  3
Model
350
393
  3
Layout1
350
394
  0
ACDBPLACEHOLDER
  5
F
102
{ACAD_REACTORS
330
E
102
}
  0
MLINESTYLE
  5
18
102
{ACAD_REACTORS
330
17
102
}
100
AcDbMlineStyle
  2
STANDARD
 70
0
  3

 62
256
 51
90.0
 52
90.0
 71
2
 49
0.5
 62
256
  6
BYLAYER
 49
-0.5
 62
256
  6
BYLAYER
  0
LAYOUT
  5
393
102
{ACAD_REACTORS
330
1A
102
}
100
AcDbPlotSettings
  1

  2
none_device
  4

  6

 40
0.0
 41
0.0
 42
0.0
 43
0.0
 44
210.0
 45
297.0
 46
0.0
 47
0.0
 48
0.0
 49
0.0
140
0.0
141
0.0
142
1.0
143
1.0
 70
1024
 72
1
 73
0
 74
0
  7

 75
0
147
1.0
148
0.0
149
0.0
100
AcDbLayout
  1
Model
 70
0
 71
0
 10
0.0
 20
0.0
 11
210.0
 21
297.0
 12
0.0
 22
0.0
 32
0.0
 14
0.0
 24
0.0
 34
0.0
 15
0.0
 25
0.0
 35
0.0
146
0.0
 13
0.0
 23
0.0
 33
0.0
 16
1.0
 26
0.0
 36
0.0
 17
0.0
 27
1.0
 37
0.0
 76
0
330
210
345
0
346
0
  0
LAYOUT
  5
394
102
{ACAD_REACTORS
330
1A
102
}
100
AcDbPlotSettings
  1

  2
none_device
  4

  6

 40
0.0
 41
0.0
 42
0.0
 43
0.0
 44
210.0
 45
297.0
 46
0.0
 47
0.0
 48
0.0
 49
0.0
140
0.0
141
0.0
142
1.0
143
1.0
 70
0
 72
1
 73
0
 74
0
  7

 75
0
147
1.0
148
0.0
149
0.0
100
AcDbLayout
  1
Layout1
 70
0
 71
1
 10
0.0
 20
0.0
 11
210.0
 21
297.0
 12
0.0
 22
0.0
 32
0.0
 14
0.0
 24
0.0
 34
0.0
 15
0.0
 25
0.0
 35
0.0
146
0.0
 13
0.0
 23
0.0
 33
0.0
 16
1.0
 26
0.0
 36
0.0
 17
0.0
 27
1.0
 37
0.0
 76
0
330
211
345
0
346
0
  0
ENDSEC
  0
EOF
