999
DXF file: C:\Users\sesa63760\Dev\_Creo\CAD\MCADDE0000233_3D-CAD\drw0001_2.dxf
999
Pro/ENGINEER 2019471 by Parametric Technology Corporation
  0
SECTION
  2
HEADER
  9
$ACADVER
  1
AC1024
  9
$DWGCODEPAGE
  3
ANSI_1252
  9
$EXTMAX
 10
121.3167765895
 20
171.5765840337
 30
0.0
  9
$EXTMIN
 10
0.0
 20
0.0
 30
0.0
  9
$LIMMIN
 10
0.0
 20
0.0
  9
$LIMMAX
 10
121.3167765895
 20
171.5765840337
  9
$VIEWCTR
 10
60.6583882947
 20
85.7882920168
  9
$VIEWSIZE
 40
171.5765840337
  9
$CLAYER
  8
0
  9
$LTSCALE
 40
11.1842514037
  9
$CELTYPE
  6
BYLAYER
  9
$DIMSCALE
 40
1.0
  9
$DIMASZ
 40
1.4442473404
  9
$DIMEXO
 40
1.0
  9
$DIMDLI
 40
7.7273009698
  9
$DIMEXE
 40
1.0
  9
$DIMCEN
 40
1.8301502297
  9
$DIMLFAC
 40
1.0
  9
$DIMBLK
  1
_FILLED
  9
$DIMALT
 70
0
  9
$DIMALTF
 40
0.0393700787
  9
$DIMTXT
 40
2.0219462765
  9
$DIMTOL
 70
1
  9
$DIMLIM
 70
0
  9
$DIMTFAC
 40
1.0
  9
$DIMTP
 40
0.01
  9
$DIMTM
 40
0.01
  9
$DIMGAP
 40
0.625
  9
$DIMDSEP
 70
46
  9
$AUNITS
 70
0
  9
$PDMODE
 70
3
  9
$PDSIZE
 40
0.3125
  9
$HANDSEED
  5
3FD
  9
$TILEMODE
 70
1
  9
$MEASUREMENT
 70
1
  9
$INSUNITS
 70
4
  0
ENDSEC
  0
SECTION
  2
CLASSES
  0
CLASS
  1
ACDBDICTIONARYWDFLT
  2
AcDbDictionaryWithDefault
  3
AutoCAD 2000
 90
0
 91
1
280
0
281
0
  0
CLASS
  1
ACDBPLACEHOLDER
  2
AcDbPlaceHolder
  3
AutoCAD 2000
 90
0
 91
1
280
0
281
0
  0
CLASS
  1
LAYOUT
  2
AcDbLayout
  3
AutoCAD 2000
 90
0
 91
0
280
0
281
0
  0
ENDSEC
  0
SECTION
  2
TABLES
  0
TABLE
  2
VPORT
  5
8
100
AcDbSymbolTable
 70
2
  0
VPORT
  5
1F4
100
AcDbSymbolTableRecord
100
AcDbViewportTableRecord
  2
*ACTIVE
 70
0
 10
0.0
 20
0.0
 11
1.0
 21
1.0
 12
60.6583882947
 22
85.7882920168
 13
0.0
 23
0.0
 14
1.0
 24
1.0
 15
0.0
 25
0.0
 16
0.0
 26
0.0
 36
1.0
 17
0.0
 27
0.0
 37
0.0
 40
171.5765840337
 41
0.7070707071
 42
50.0
 43
0.0
 44
0.0
 50
0.0
 51
0.0
 71
0
 72
100
 73
1
 74
1
 75
0
 76
0
 77
0
 78
0
  0
ENDTAB
  0
TABLE
  2
LTYPE
  5
5
100
AcDbSymbolTable
 70
6
  0
LTYPE
  5
14
100
AcDbSymbolTableRecord
100
AcDbLinetypeTableRecord
  2
BYBLOCK
 70
0
  3

 72
65
 73
0
 40
0.0
  0
LTYPE
  5
15
100
AcDbSymbolTableRecord
100
AcDbLinetypeTableRecord
  2
BYLAYER
 70
0
  3

 72
65
 73
0
 40
0.0
  0
LTYPE
  5
16
100
AcDbSymbolTableRecord
100
AcDbLinetypeTableRecord
  2
CONTINUOUS
 70
64
  3
Solid line
 72
65
 73
0
 40
0.0
  0
LTYPE
  5
1F5
100
AcDbSymbolTableRecord
100
AcDbLinetypeTableRecord
  2
CENTER
 70
64
  3
____ _ ____ _ ____ _ ____ _ ____ _ ____ _ ____
 72
65
 73
4
 40
0.6
 49
0.375
 74
0
 49
-0.075
 74
0
 49
0.075
 74
0
 49
-0.075
 74
0
  0
LTYPE
  5
1F6
100
AcDbSymbolTableRecord
100
AcDbLinetypeTableRecord
  2
HIDDEN
 70
64
  3
- - - - - - - - - - - - - - - - - - - -
 72
65
 73
2
 40
0.2
 49
0.1
 74
0
 49
-0.1
 74
0
  0
LTYPE
  5
1F7
100
AcDbSymbolTableRecord
100
AcDbLinetypeTableRecord
  2
PHANTOM
 70
64
  3
_____ _ _ _____ _ _ _____ _ _ _____
 72
65
 73
6
 40
0.8
 49
0.45
 74
0
 49
-0.05
 74
0
 49
0.1
 74
0
 49
-0.05
 74
0
 49
0.1
 74
0
 49
-0.05
 74
0
  0
LTYPE
  5
1F8
100
AcDbSymbolTableRecord
100
AcDbLinetypeTableRecord
  2
DOT
 70
64
  3
. . . . . . . . . . . . . . . . . . . .
 72
65
 73
2
 40
0.2
 49
0.1
 74
0
 49
-0.1
 74
0
  0
LTYPE
  5
1F9
100
AcDbSymbolTableRecord
100
AcDbLinetypeTableRecord
  2
DASHED
 70
64
  3
- - - - - - - - - - - - - - - - - - - -
 72
65
 73
2
 40
0.2
 49
0.1
 74
0
 49
-0.1
 74
0
  0
ENDTAB
  0
TABLE
  2
LAYER
  5
2
100
AcDbSymbolTable
 70
36
  0
LAYER
  5
10
100
AcDbSymbolTableRecord
100
AcDbLayerTableRecord
  2
0
 70
0
 62
7
  6
CONTINUOUS
370
-3
390
F
  0
LAYER
  5
1FA
100
AcDbSymbolTableRecord
100
AcDbLayerTableRecord
  2
DEFAULT_1
 70
0
 62
7
  6
CENTER
370
-3
390
F
  0
LAYER
  5
1FB
100
AcDbSymbolTableRecord
100
AcDbLayerTableRecord
  2
DEFAULT_2
 70
0
 62
7
  6
HIDDEN
370
-3
390
F
  0
LAYER
  5
1FC
100
AcDbSymbolTableRecord
100
AcDbLayerTableRecord
  2
DEFAULT_3
 70
0
 62
7
  6
PHANTOM
370
-3
390
F
  0
LAYER
  5
1FD
100
AcDbSymbolTableRecord
100
AcDbLayerTableRecord
  2
00_COMPONENTS
 70
0
 62
7
  6
CONTINUOUS
370
-3
390
F
  0
LAYER
  5
1FE
100
AcDbSymbolTableRecord
100
AcDbLayerTableRecord
  2
01_1_DEFAULT_DATUMS
 70
0
 62
7
  6
CONTINUOUS
370
-3
390
F
  0
LAYER
  5
1FF
100
AcDbSymbolTableRecord
100
AcDbLayerTableRecord
  2
01_PLANES
 70
0
 62
7
  6
CONTINUOUS
370
-3
390
F
  0
LAYER
  5
200
100
AcDbSymbolTableRecord
100
AcDbLayerTableRecord
  2
02_COORD_SYS
 70
0
 62
7
  6
CONTINUOUS
370
-3
390
F
  0
LAYER
  5
201
100
AcDbSymbolTableRecord
100
AcDbLayerTableRecord
  2
03_AXES
 70
0
 62
7
  6
CONTINUOUS
370
-3
390
F
  0
LAYER
  5
202
100
AcDbSymbolTableRecord
100
AcDbLayerTableRecord
  2
04_POINTS
 70
0
 62
7
  6
CONTINUOUS
370
-3
390
F
  0
LAYER
  5
203
100
AcDbSymbolTableRecord
100
AcDbLayerTableRecord
  2
05_CURVES
 70
0
 62
7
  6
CONTINUOUS
370
-3
390
F
  0
LAYER
  5
204
100
AcDbSymbolTableRecord
100
AcDbLayerTableRecord
  2
06_SURFS
 70
0
 62
7
  6
CONTINUOUS
370
-3
390
F
  0
LAYER
  5
205
100
AcDbSymbolTableRecord
100
AcDbLayerTableRecord
  2
07_COSMETICS
 70
0
 62
7
  6
CONTINUOUS
370
-3
390
F
  0
LAYER
  5
206
100
AcDbSymbolTableRecord
100
AcDbLayerTableRecord
  2
10_NOTES
 70
0
 62
7
  6
CONTINUOUS
370
-3
390
F
  0
LAYER
  5
207
100
AcDbSymbolTableRecord
100
AcDbLayerTableRecord
  2
11_NOTES_PUB
 70
0
 62
7
  6
CONTINUOUS
370
-3
390
F
  0
LAYER
  5
208
100
AcDbSymbolTableRecord
100
AcDbLayerTableRecord
  2
13_REF_GTOL
 70
0
 62
7
  6
CONTINUOUS
370
-3
390
F
  0
LAYER
  5
209
100
AcDbSymbolTableRecord
100
AcDbLayerTableRecord
  2
16_MISC
 70
0
 62
7
  6
CONTINUOUS
370
-3
390
F
  0
LAYER
  5
20A
100
AcDbSymbolTableRecord
100
AcDbLayerTableRecord
  2
17_NO_PRINT
 70
0
 62
7
  6
CONTINUOUS
370
-3
390
F
  0
LAYER
  5
20B
100
AcDbSymbolTableRecord
100
AcDbLayerTableRecord
  2
18_DATUM_CAMS_JOINTS
 70
0
 62
7
  6
CONTINUOUS
370
-3
390
F
  0
LAYER
  5
20C
100
AcDbSymbolTableRecord
100
AcDbLayerTableRecord
  2
19_DATUM_FUNCTIONAL
 70
0
 62
7
  6
CONTINUOUS
370
-3
390
F
  0
LAYER
  5
20D
100
AcDbSymbolTableRecord
100
AcDbLayerTableRecord
  2
20_DATUM_KINEMATIC_SCHEME
 70
0
 62
7
  6
CONTINUOUS
370
-3
390
F
  0
ENDTAB
  0
TABLE
  2
STYLE
  5
3
100
AcDbSymbolTable
 70
1
  0
STYLE
  5
11
100
AcDbSymbolTableRecord
100
AcDbTextStyleTableRecord
  2
STANDARD
 70
0
 40
0.0
 41
1.0
 50
0.0
 71
0
 42
0.2
  3
ARIAL.TTF
  4

  0
STYLE
  5
20E
100
AcDbSymbolTableRecord
100
AcDbTextStyleTableRecord
  2
TEXTSTYLE_1
 70
0
 40
0.0
 41
0.8
 50
0.0
 71
0
 42
0.2
  3
gdt
  4

  0
ENDTAB
  0
TABLE
  2
VIEW
  5
6
100
AcDbSymbolTable
 70
0
  0
ENDTAB
  0
TABLE
  2
UCS
  5
7
100
AcDbSymbolTable
 70
0
  0
ENDTAB
  0
TABLE
  2
APPID
  5
9
100
AcDbSymbolTable
 70
1
  0
APPID
  5
20F
100
AcDbSymbolTableRecord
100
AcDbRegAppTableRecord
  2
ACAD
 70
0
  0
ENDTAB
  0
TABLE
  2
BLOCK_RECORD
  5
1
100
AcDbSymbolTable
 70
0
  0
BLOCK_RECORD
  5
210
100
AcDbSymbolTableRecord
100
AcDbBlockTableRecord
  2
*Model_Space
  0
BLOCK_RECORD
  5
211
100
AcDbSymbolTableRecord
100
AcDbBlockTableRecord
  2
*Paper_Space
  0
BLOCK_RECORD
  5
212
100
AcDbSymbolTableRecord
100
AcDbBlockTableRecord
  2
_FILLED
  0
ENDTAB
  0
TABLE
  2
DIMSTYLE
  5
A
100
AcDbSymbolTable
 70
1
100
AcDbDimStyleTable
 71
0
  0
DIMSTYLE
105
213
100
AcDbSymbolTableRecord
100
AcDbDimStyleTableRecord
  2
STANDARD
 70
0
  3

  4

 40
1.0
 41
1.4442473404
 42
1.0
 43
0.38
 44
1.0
 45
0.0
 46
0.0
 47
0.01
 48
0.01
140
2.0219462765
141
0.09
142
0.0
143
25.4
144
1.0
145
0.0
146
1.0
147
0.625
 71
1
 72
0
 73
0
 74
0
 75
0
 76
0
 77
1
 78
8
 79
2
170
0
171
1
172
0
173
0
174
0
175
0
176
0
177
0
178
0
270
2
179
2
271
2
272
2
273
2
274
2
275
0
280
0
281
0
282
0
283
1
284
8
285
0
286
0
287
3
288
0
340
11
278
46
341
212
342
212
343
212
344
212
  0
ENDTAB
  0
ENDSEC
  0
SECTION
  2
BLOCKS
  0
BLOCK
  5
20
100
AcDbEntity
  8
0
100
AcDbBlockBegin
  2
*Model_Space
 70
0
 10
0.0
 20
0.0
 30
0.0
  3
*Model_Space
  1

  0
ENDBLK
  5
21
100
AcDbEntity
  8
0
100
AcDbBlockEnd
  0
BLOCK
  5
1C
100
AcDbEntity
  8
0
100
AcDbBlockBegin
  2
*Paper_Space
 70
0
 10
0.0
 20
0.0
 30
0.0
  3
*Paper_Space
  1

  0
ENDBLK
  5
1D
100
AcDbEntity
  8
0
100
AcDbBlockEnd
  0
BLOCK
  5
214
100
AcDbEntity
  8
0
100
AcDbBlockBegin
  2
_FILLED
 70
64
 10
0.0
 20
0.0
  3
_FILLED
  1

  0
SOLID
  5
215
100
AcDbEntity
  8
0
  6
BYBLOCK
 62
0
100
AcDbTrace
 10
0.0
 20
0.0
 11
-1.0
 21
0.25
 12
-1.0
 22
-0.25
 13
-1.0
 23
-0.25
  0
ENDBLK
  5
216
100
AcDbEntity
  8
0
  6
BYBLOCK
 62
0
100
AcDbBlockEnd
  0
ENDSEC
  0
SECTION
  2
ENTITIES
  0
LINE
  5
217
100
AcDbEntity
  8
0
100
AcDbLine
 62
7
  6
BYLAYER
 10
25.0819513815
 20
133.3364593187
 11
22.2946009026
 21
130.5491088399
  0
LINE
  5
218
100
AcDbEntity
  8
0
100
AcDbLine
 62
7
  6
BYLAYER
 10
22.7921860133
 20
130.0567444568
 11
25.5743157645
 21
132.8388742081
  0
LINE
  5
219
100
AcDbEntity
  8
0
100
AcDbLine
 62
7
  6
BYLAYER
 10
109.4984205299
 20
36.1114505859
 11
109.6952700228
 21
36.1526400622
  0
LINE
  5
21A
100
AcDbEntity
  8
0
100
AcDbLine
 62
7
  6
BYLAYER
 10
13.4984205299
 20
36.1114505859
 11
13.301571037
 21
36.1526400622
  0
LINE
  5
21B
100
AcDbEntity
  8
0
100
AcDbLine
 62
7
  6
BYLAYER
 10
23.5299396616
 20
39.8832407036
 11
24.7484205299
 21
39.0713328129
  0
LINE
  5
21C
100
AcDbEntity
  8
0
100
AcDbLine
 62
7
  6
BYLAYER
 10
32.7019513815
 20
133.3364593187
 11
29.9146009026
 21
130.5491088399
  0
LINE
  5
21D
100
AcDbEntity
  8
0
100
AcDbLine
 62
7
  6
BYLAYER
 10
30.4121860133
 20
130.0567444568
 11
33.1943157645
 21
132.8388742081
  0
LINE
  5
21E
100
AcDbEntity
  8
0
100
AcDbLine
 62
7
  6
BYLAYER
 10
23.647857165
 20
42.5187973385
 11
24.7484205299
 21
41.4182339735
  0
LINE
  5
21F
100
AcDbEntity
  8
0
100
AcDbLine
 62
7
  6
BYLAYER
 10
16.913996816
 20
46.2108936126
 11
16.8637115686
 21
46.3618720337
  0
LINE
  5
220
100
AcDbEntity
  8
0
100
AcDbLine
 62
7
  6
BYLAYER
 10
13.301571037
 20
132.0721766898
 11
13.301571037
 21
36.1526400622
  0
LINE
  5
221
100
AcDbEntity
  8
0
100
AcDbLine
 62
7
  6
BYLAYER
 10
40.3219513815
 20
133.3364593187
 11
37.5346009026
 21
130.5491088399
  0
LINE
  5
222
100
AcDbEntity
  8
0
100
AcDbLine
 62
7
  6
BYLAYER
 10
38.0321860133
 20
130.0567444568
 11
40.8143157645
 21
132.8388742081
  0
LINE
  5
223
100
AcDbEntity
  8
0
100
AcDbLine
 62
7
  6
BYLAYER
 10
96.1480177961
 20
34.0518049522
 11
78.1480177961
 21
34.0518049522
  0
LINE
  5
224
100
AcDbEntity
  8
0
100
AcDbLine
 62
7
  6
BYLAYER
 10
64.2484205299
 20
34.1902802718
 11
63.0984205299
 21
34.1902802718
  0
LINE
  5
225
100
AcDbEntity
  8
0
100
AcDbLine
 62
7
  6
BYLAYER
 10
59.8984205299
 20
34.1902802718
 11
58.7484205299
 21
34.1902802718
  0
LINE
  5
226
100
AcDbEntity
  8
0
100
AcDbLine
 62
7
  6
BYLAYER
 10
78.1480177961
 20
36.0169153774
 11
96.1480177961
 21
36.0169153774
  0
LINE
  5
227
100
AcDbEntity
  8
0
100
AcDbLine
 62
7
  6
BYLAYER
 10
109.4984205299
 20
36.1114505859
 11
96.1480177961
 21
36.1114505859
  0
LINE
  5
228
100
AcDbEntity
  8
0
100
AcDbLine
 62
7
  6
BYLAYER
 10
78.1480177961
 20
36.1114505859
 11
13.4984205299
 21
36.1114505859
  0
LINE
  5
229
100
AcDbEntity
  8
0
100
AcDbLine
 62
7
  6
BYLAYER
 10
13.4984205299
 20
36.1118720337
 11
78.1480177961
 21
36.1118720337
  0
LINE
  5
22A
100
AcDbEntity
  8
0
100
AcDbLine
 62
7
  6
BYLAYER
 10
96.1480177961
 20
36.1118720337
 11
109.4984205299
 21
36.1118720337
  0
LINE
  5
22B
100
AcDbEntity
  8
0
100
AcDbLine
 62
7
  6
BYLAYER
 10
109.6952700228
 20
36.1526400622
 11
96.1480177961
 21
36.1526400622
  0
LINE
  5
22C
100
AcDbEntity
  8
0
100
AcDbLine
 62
7
  6
BYLAYER
 10
78.1480177961
 20
36.1526400622
 11
13.301571037
 21
36.1526400622
  0
LINE
  5
22D
100
AcDbEntity
  8
0
100
AcDbLine
 62
7
  6
BYLAYER
 10
24.5236318712
 20
41.8117115804
 11
24.2881281352
 21
42.5187973385
  0
LINE
  5
22E
100
AcDbEntity
  8
0
100
AcDbLine
 62
7
  6
BYLAYER
 10
16.2484205299
 20
38.8618720338
 11
16.2484205299
 21
129.3618720337
  0
LINE
  5
22F
100
AcDbEntity
  8
0
100
AcDbLine
 62
7
  6
BYLAYER
 10
16.8637115686
 20
54.4666875923
 11
16.8637115686
 21
46.3618720337
  0
LINE
  5
230
100
AcDbEntity
  8
0
100
AcDbLine
 62
7
  6
BYLAYER
 10
16.8637115686
 20
40.3618720338
 11
16.8637115686
 21
39.8832407036
  0
LINE
  5
231
100
AcDbEntity
  8
0
100
AcDbLine
 62
7
  6
BYLAYER
 10
16.9248042959
 20
128.6854882678
 11
16.9248042959
 21
121.6854882678
  0
LINE
  5
232
100
AcDbEntity
  8
0
100
AcDbLine
 62
7
  6
BYLAYER
 10
16.9553506595
 20
43.0094242918
 11
16.9553506595
 21
43.7143197757
  0
LINE
  5
233
100
AcDbEntity
  8
0
100
AcDbLine
 62
7
  6
BYLAYER
 10
16.9710602179
 20
59.3697332006
 11
16.9710602179
 21
54.7889954349
  0
LINE
  5
234
100
AcDbEntity
  8
0
100
AcDbLine
 62
7
  6
BYLAYER
 10
17.2459774905
 20
67.7697332006
 11
17.2459774905
 21
60.1951557243
  0
LINE
  5
235
100
AcDbEntity
  8
0
100
AcDbLine
 62
7
  6
BYLAYER
 10
17.321907023
 20
72.2618720337
 11
17.321907023
 21
67.9977070405
  0
LINE
  5
236
100
AcDbEntity
  8
0
100
AcDbLine
 62
7
  6
BYLAYER
 10
17.5950787891
 20
121.0152137745
 11
17.5950787891
 21
73.0820537795
  0
LINE
  5
237
100
AcDbEntity
  8
0
100
AcDbLine
 62
7
  6
BYLAYER
 10
18.2784205299
 20
121.6854882678
 11
18.2784205299
 21
129.2197507786
  0
LINE
  5
238
100
AcDbEntity
  8
0
100
AcDbLine
 62
7
  6
BYLAYER
 10
18.4984205299
 20
40.3618720338
 11
18.4984205299
 21
46.3618720337
  0
LINE
  5
239
100
AcDbEntity
  8
0
100
AcDbLine
 62
7
  6
BYLAYER
 10
47.9419513815
 20
133.3364593187
 11
45.1546009026
 21
130.5491088399
  0
LINE
  5
23A
100
AcDbEntity
  8
0
100
AcDbLine
 62
7
  6
BYLAYER
 10
96.1480177961
 20
38.5518058716
 11
78.1480177961
 21
38.5518058716
  0
LINE
  5
23B
100
AcDbEntity
  8
0
100
AcDbLine
 62
7
  6
BYLAYER
 10
106.7484205299
 20
38.8618720338
 11
16.2484205299
 21
38.8618720338
  0
LINE
  5
23C
100
AcDbEntity
  8
0
100
AcDbLine
 62
7
  6
BYLAYER
 10
16.457881309
 20
39.0713328129
 11
106.5389597508
 21
39.0713328129
  0
LINE
  5
23D
100
AcDbEntity
  8
0
100
AcDbLine
 62
7
  6
BYLAYER
 10
16.8637115686
 20
39.8832407036
 11
23.5299396616
 21
39.8832407036
  0
LINE
  5
23E
100
AcDbEntity
  8
0
100
AcDbLine
 62
7
  6
BYLAYER
 10
103.4669013982
 20
39.8832407036
 11
106.1331294912
 21
39.8832407036
  0
LINE
  5
23F
100
AcDbEntity
  8
0
100
AcDbLine
 62
7
  6
BYLAYER
 10
18.4984205299
 20
40.3618720338
 11
16.8637115686
 21
40.3618720338
  0
LINE
  5
240
100
AcDbEntity
  8
0
100
AcDbLine
 62
7
  6
BYLAYER
 10
104.4984205299
 20
40.3618720337
 11
106.1331294912
 21
40.3618720337
  0
LINE
  5
241
100
AcDbEntity
  8
0
100
AcDbLine
 62
7
  6
BYLAYER
 10
106.0828442438
 20
40.5128504549
 11
104.4984205299
 21
40.5128504549
  0
LINE
  5
242
100
AcDbEntity
  8
0
100
AcDbLine
 62
7
  6
BYLAYER
 10
18.4984205299
 20
40.5128504549
 11
16.913996816
 21
40.5128504549
  0
LINE
  5
243
100
AcDbEntity
  8
0
100
AcDbLine
 62
7
  6
BYLAYER
 10
24.7484205299
 20
41.4182339735
 11
102.2484205299
 21
41.4182339735
  0
LINE
  5
244
100
AcDbEntity
  8
0
100
AcDbLine
 62
7
  6
BYLAYER
 10
92.5212091886
 20
41.8117115804
 11
83.9536318712
 21
41.8117115804
  0
LINE
  5
245
100
AcDbEntity
  8
0
100
AcDbLine
 62
7
  6
BYLAYER
 10
72.7112091886
 20
41.8117115804
 11
64.1436318712
 21
41.8117115804
  0
LINE
  5
246
100
AcDbEntity
  8
0
100
AcDbLine
 62
7
  6
BYLAYER
 10
52.9012091886
 20
41.8117115804
 11
44.3336318712
 21
41.8117115804
  0
LINE
  5
247
100
AcDbEntity
  8
0
100
AcDbLine
 62
7
  6
BYLAYER
 10
33.0912091886
 20
41.8117115804
 11
24.5236318712
 21
41.8117115804
  0
LINE
  5
248
100
AcDbEntity
  8
0
100
AcDbLine
 62
7
  6
BYLAYER
 10
82.6214457081
 20
42.2257330367
 11
74.0433953517
 21
42.2257330367
  0
LINE
  5
249
100
AcDbEntity
  8
0
100
AcDbLine
 62
7
  6
BYLAYER
 10
62.8114457081
 20
42.2257330367
 11
54.2333953517
 21
42.2257330367
  0
LINE
  5
24A
100
AcDbEntity
  8
0
100
AcDbLine
 62
7
  6
BYLAYER
 10
43.0014457081
 20
42.2257330367
 11
34.4233953517
 21
42.2257330367
  0
LINE
  5
24B
100
AcDbEntity
  8
0
100
AcDbLine
 62
7
  6
BYLAYER
 10
93.8533953517
 20
42.2257330367
 11
102.4314457081
 21
42.2257330367
  0
LINE
  5
24C
100
AcDbEntity
  8
0
100
AcDbLine
 62
7
  6
BYLAYER
 10
23.647857165
 20
42.5187973385
 11
24.2881281352
 21
42.5187973385
  0
LINE
  5
24D
100
AcDbEntity
  8
0
100
AcDbLine
 62
7
  6
BYLAYER
 10
33.3267129246
 20
42.5187973385
 11
34.3257866287
 21
42.5187973385
  0
LINE
  5
24E
100
AcDbEntity
  8
0
100
AcDbLine
 62
7
  6
BYLAYER
 10
43.0990544311
 20
42.5187973385
 11
44.0981281352
 21
42.5187973385
  0
LINE
  5
24F
100
AcDbEntity
  8
0
100
AcDbLine
 62
7
  6
BYLAYER
 10
53.1367129246
 20
42.5187973385
 11
54.1357866287
 21
42.5187973385
  0
LINE
  5
250
100
AcDbEntity
  8
0
100
AcDbLine
 62
7
  6
BYLAYER
 10
62.9090544311
 20
42.5187973385
 11
63.9081281352
 21
42.5187973385
  0
LINE
  5
251
100
AcDbEntity
  8
0
100
AcDbLine
 62
7
  6
BYLAYER
 10
72.9467129246
 20
42.5187973385
 11
73.9457866287
 21
42.5187973385
  0
LINE
  5
252
100
AcDbEntity
  8
0
100
AcDbLine
 62
7
  6
BYLAYER
 10
82.7190544311
 20
42.5187973385
 11
83.7181281352
 21
42.5187973385
  0
LINE
  5
253
100
AcDbEntity
  8
0
100
AcDbLine
 62
7
  6
BYLAYER
 10
92.7567129246
 20
42.5187973385
 11
93.7557866287
 21
42.5187973385
  0
LINE
  5
254
100
AcDbEntity
  8
0
100
AcDbLine
 62
7
  6
BYLAYER
 10
102.5290544311
 20
42.5187973385
 11
103.3489838948
 21
42.5187973385
  0
LINE
  5
255
100
AcDbEntity
  8
0
100
AcDbLine
 62
7
  6
BYLAYER
 10
20.2184205299
 20
127.2326396914
 11
20.2184205299
 21
137.0526396914
  0
LINE
  5
256
100
AcDbEntity
  8
0
100
AcDbLine
 62
7
  6
BYLAYER
 10
20.9284202302
 20
139.8526396914
 11
20.9284202302
 21
137.0526396914
  0
LINE
  5
257
100
AcDbEntity
  8
0
100
AcDbLine
 62
7
  6
BYLAYER
 10
22.3784205299
 20
72.9326396914
 11
22.3784205299
 21
63.0326396914
  0
LINE
  5
258
100
AcDbEntity
  8
0
100
AcDbLine
 62
7
  6
BYLAYER
 10
22.6384205299
 20
59.8326396914
 11
22.6384205299
 21
49.9326396914
  0
LINE
  5
259
100
AcDbEntity
  8
0
100
AcDbLine
 62
7
  6
BYLAYER
 10
45.6521860133
 20
130.0567444568
 11
48.4343157645
 21
132.8388742081
  0
LINE
  5
25A
100
AcDbEntity
  8
0
100
AcDbLine
 62
7
  6
BYLAYER
 10
16.9553506595
 20
43.0094242918
 11
18.4984205299
 21
43.0094242918
  0
LINE
  5
25B
100
AcDbEntity
  8
0
100
AcDbLine
 62
7
  6
BYLAYER
 10
104.4984205299
 20
43.0094242918
 11
106.0414904003
 21
43.0094242918
  0
LINE
  5
25C
100
AcDbEntity
  8
0
100
AcDbLine
 62
7
  6
BYLAYER
 10
106.0414904003
 20
43.7143197757
 11
104.4984205299
 21
43.7143197757
  0
LINE
  5
25D
100
AcDbEntity
  8
0
100
AcDbLine
 62
7
  6
BYLAYER
 10
18.4984205299
 20
43.7143197757
 11
16.9553506595
 21
43.7143197757
  0
LINE
  5
25E
100
AcDbEntity
  8
0
100
AcDbLine
 62
7
  6
BYLAYER
 10
16.913996816
 20
46.2108936126
 11
18.4984205299
 21
46.2108936126
  0
LINE
  5
25F
100
AcDbEntity
  8
0
100
AcDbLine
 62
7
  6
BYLAYER
 10
104.4984205299
 20
46.2108936126
 11
106.0828442438
 21
46.2108936126
  0
LINE
  5
260
100
AcDbEntity
  8
0
100
AcDbLine
 62
7
  6
BYLAYER
 10
18.4984205299
 20
46.3618720337
 11
16.8637115686
 21
46.3618720337
  0
LINE
  5
261
100
AcDbEntity
  8
0
100
AcDbLine
 62
7
  6
BYLAYER
 10
104.4984205299
 20
46.3618720337
 11
106.1331294912
 21
46.3618720337
  0
LINE
  5
262
100
AcDbEntity
  8
0
100
AcDbLine
 62
7
  6
BYLAYER
 10
100.0424205299
 20
47.3421066651
 11
98.6424205299
 21
47.3421066651
  0
LINE
  5
263
100
AcDbEntity
  8
0
100
AcDbLine
 62
7
  6
BYLAYER
 10
97.6424205299
 20
47.3421066651
 11
96.2424205299
 21
47.3421066651
  0
LINE
  5
264
100
AcDbEntity
  8
0
100
AcDbLine
 62
7
  6
BYLAYER
 10
90.1374205299
 20
47.3421066651
 11
88.7374205299
 21
47.3421066651
  0
LINE
  5
265
100
AcDbEntity
  8
0
100
AcDbLine
 62
7
  6
BYLAYER
 10
87.7374205299
 20
47.3421066651
 11
86.3374205299
 21
47.3421066651
  0
LINE
  5
266
100
AcDbEntity
  8
0
100
AcDbLine
 62
7
  6
BYLAYER
 10
80.2324205299
 20
47.3421066651
 11
78.8324205299
 21
47.3421066651
  0
LINE
  5
267
100
AcDbEntity
  8
0
100
AcDbLine
 62
7
  6
BYLAYER
 10
77.8324205299
 20
47.3421066651
 11
76.4324205299
 21
47.3421066651
  0
LINE
  5
268
100
AcDbEntity
  8
0
100
AcDbLine
 62
7
  6
BYLAYER
 10
70.3274205299
 20
47.3421066651
 11
68.9274205299
 21
47.3421066651
  0
LINE
  5
269
100
AcDbEntity
  8
0
100
AcDbLine
 62
7
  6
BYLAYER
 10
67.9274205299
 20
47.3421066651
 11
66.5274205299
 21
47.3421066651
  0
LINE
  5
26A
100
AcDbEntity
  8
0
100
AcDbLine
 62
7
  6
BYLAYER
 10
60.4224205299
 20
47.3421066651
 11
59.0224205299
 21
47.3421066651
  0
LINE
  5
26B
100
AcDbEntity
  8
0
100
AcDbLine
 62
7
  6
BYLAYER
 10
58.0224205299
 20
47.3421066651
 11
56.6224205299
 21
47.3421066651
  0
LINE
  5
26C
100
AcDbEntity
  8
0
100
AcDbLine
 62
7
  6
BYLAYER
 10
50.5174205299
 20
47.3421066651
 11
49.1174205299
 21
47.3421066651
  0
LINE
  5
26D
100
AcDbEntity
  8
0
100
AcDbLine
 62
7
  6
BYLAYER
 10
48.1174205299
 20
47.3421066651
 11
46.7174205299
 21
47.3421066651
  0
LINE
  5
26E
100
AcDbEntity
  8
0
100
AcDbLine
 62
7
  6
BYLAYER
 10
40.6124205299
 20
47.3421066651
 11
39.2124205299
 21
47.3421066651
  0
LINE
  5
26F
100
AcDbEntity
  8
0
100
AcDbLine
 62
7
  6
BYLAYER
 10
38.2124205299
 20
47.3421066651
 11
36.8124205299
 21
47.3421066651
  0
LINE
  5
270
100
AcDbEntity
  8
0
100
AcDbLine
 62
7
  6
BYLAYER
 10
30.7074205299
 20
47.3421066651
 11
29.3074205299
 21
47.3421066651
  0
LINE
  5
271
100
AcDbEntity
  8
0
100
AcDbLine
 62
7
  6
BYLAYER
 10
28.3074205299
 20
47.3421066651
 11
26.9074205299
 21
47.3421066651
  0
LINE
  5
272
100
AcDbEntity
  8
0
100
AcDbLine
 62
7
  6
BYLAYER
 10
34.4233953517
 20
42.2257330367
 11
34.3257866287
 21
42.5187973385
  0
LINE
  5
273
100
AcDbEntity
  8
0
100
AcDbLine
 62
7
  6
BYLAYER
 10
23.5299396616
 20
49.9326396914
 11
23.5299396616
 21
39.8832407036
  0
LINE
  5
274
100
AcDbEntity
  8
0
100
AcDbLine
 62
7
  6
BYLAYER
 10
23.647857165
 20
49.9326396914
 11
23.647857165
 21
42.5187973385
  0
LINE
  5
275
100
AcDbEntity
  8
0
100
AcDbLine
 62
7
  6
BYLAYER
 10
24.2881281352
 20
49.9326396914
 11
24.2881281352
 21
42.5187973385
  0
LINE
  5
276
100
AcDbEntity
  8
0
100
AcDbLine
 62
7
  6
BYLAYER
 10
24.5236318712
 20
49.9326396914
 11
24.5236318712
 21
41.8117115804
  0
LINE
  5
277
100
AcDbEntity
  8
0
100
AcDbLine
 62
7
  6
BYLAYER
 10
24.7484205299
 20
41.4182339735
 11
24.7484205299
 21
39.0713328129
  0
LINE
  5
278
100
AcDbEntity
  8
0
100
AcDbLine
 62
7
  6
BYLAYER
 10
26.9074205299
 20
47.3421066651
 11
26.9074205299
 21
48.3421066651
  0
LINE
  5
279
100
AcDbEntity
  8
0
100
AcDbLine
 62
7
  6
BYLAYER
 10
26.9284205299
 20
139.8526396914
 11
26.9284205299
 21
137.0526396914
  0
LINE
  5
27A
100
AcDbEntity
  8
0
100
AcDbLine
 62
7
  6
BYLAYER
 10
27.5184205299
 20
121.881207906
 11
27.5184205299
 21
126.8857859999
  0
LINE
  5
27B
100
AcDbEntity
  8
0
100
AcDbLine
 62
7
  6
BYLAYER
 10
28.1003391385
 20
126.0152137745
 11
28.0972789925
 21
121.0152137745
  0
LINE
  5
27C
100
AcDbEntity
  8
0
100
AcDbLine
 62
7
  6
BYLAYER
 10
17.5950787891
 20
73.0820537795
 11
17.321907023
 21
72.2618720337
  0
LINE
  5
27D
100
AcDbEntity
  8
0
100
AcDbLine
 62
7
  6
BYLAYER
 10
17.321907023
 20
67.9977070405
 11
17.2459774905
 21
67.7697332006
  0
LINE
  5
27E
100
AcDbEntity
  8
0
100
AcDbLine
 62
7
  6
BYLAYER
 10
17.2459774905
 20
60.1951557243
 11
16.9710602179
 21
59.3697332006
  0
LINE
  5
27F
100
AcDbEntity
  8
0
100
AcDbLine
 62
7
  6
BYLAYER
 10
26.9074205299
 20
48.3421066651
 11
28.3074205299
 21
48.3421066651
  0
LINE
  5
280
100
AcDbEntity
  8
0
100
AcDbLine
 62
7
  6
BYLAYER
 10
29.3074205299
 20
48.3421066651
 11
30.7074205299
 21
48.3421066651
  0
LINE
  5
281
100
AcDbEntity
  8
0
100
AcDbLine
 62
7
  6
BYLAYER
 10
36.8124205299
 20
48.3421066651
 11
38.2124205299
 21
48.3421066651
  0
LINE
  5
282
100
AcDbEntity
  8
0
100
AcDbLine
 62
7
  6
BYLAYER
 10
39.2124205299
 20
48.3421066651
 11
40.6124205299
 21
48.3421066651
  0
LINE
  5
283
100
AcDbEntity
  8
0
100
AcDbLine
 62
7
  6
BYLAYER
 10
46.7174205299
 20
48.3421066651
 11
48.1174205299
 21
48.3421066651
  0
LINE
  5
284
100
AcDbEntity
  8
0
100
AcDbLine
 62
7
  6
BYLAYER
 10
49.1174205299
 20
48.3421066651
 11
50.5174205299
 21
48.3421066651
  0
LINE
  5
285
100
AcDbEntity
  8
0
100
AcDbLine
 62
7
  6
BYLAYER
 10
56.6224205299
 20
48.3421066651
 11
58.0224205299
 21
48.3421066651
  0
LINE
  5
286
100
AcDbEntity
  8
0
100
AcDbLine
 62
7
  6
BYLAYER
 10
59.0224205299
 20
48.3421066651
 11
60.4224205299
 21
48.3421066651
  0
LINE
  5
287
100
AcDbEntity
  8
0
100
AcDbLine
 62
7
  6
BYLAYER
 10
66.5274205299
 20
48.3421066651
 11
67.9274205299
 21
48.3421066651
  0
LINE
  5
288
100
AcDbEntity
  8
0
100
AcDbLine
 62
7
  6
BYLAYER
 10
68.9274205299
 20
48.3421066651
 11
70.3274205299
 21
48.3421066651
  0
LINE
  5
289
100
AcDbEntity
  8
0
100
AcDbLine
 62
7
  6
BYLAYER
 10
76.4324205299
 20
48.3421066651
 11
77.8324205299
 21
48.3421066651
  0
LINE
  5
28A
100
AcDbEntity
  8
0
100
AcDbLine
 62
7
  6
BYLAYER
 10
78.8324205299
 20
48.3421066651
 11
80.2324205299
 21
48.3421066651
  0
LINE
  5
28B
100
AcDbEntity
  8
0
100
AcDbLine
 62
7
  6
BYLAYER
 10
86.3374205299
 20
48.3421066651
 11
87.7374205299
 21
48.3421066651
  0
LINE
  5
28C
100
AcDbEntity
  8
0
100
AcDbLine
 62
7
  6
BYLAYER
 10
88.7374205299
 20
48.3421066651
 11
90.1374205299
 21
48.3421066651
  0
LINE
  5
28D
100
AcDbEntity
  8
0
100
AcDbLine
 62
7
  6
BYLAYER
 10
96.2424205299
 20
48.3421066651
 11
97.6424205299
 21
48.3421066651
  0
LINE
  5
28E
100
AcDbEntity
  8
0
100
AcDbLine
 62
7
  6
BYLAYER
 10
98.6424205299
 20
48.3421066651
 11
100.0424205299
 21
48.3421066651
  0
LINE
  5
28F
100
AcDbEntity
  8
0
100
AcDbLine
 62
7
  6
BYLAYER
 10
22.6384205299
 20
49.9326396914
 11
63.2784205299
 21
49.9326396914
  0
LINE
  5
290
100
AcDbEntity
  8
0
100
AcDbLine
 62
7
  6
BYLAYER
 10
74.9584205299
 20
49.9326396914
 11
100.3584205299
 21
49.9326396914
  0
LINE
  5
291
100
AcDbEntity
  8
0
100
AcDbLine
 62
7
  6
BYLAYER
 10
22.6384205299
 20
50.2326396914
 11
63.2784205299
 21
50.2326396914
  0
LINE
  5
292
100
AcDbEntity
  8
0
100
AcDbLine
 62
7
  6
BYLAYER
 10
74.9584205299
 20
50.2326396914
 11
100.3584205299
 21
50.2326396914
  0
LINE
  5
293
100
AcDbEntity
  8
0
100
AcDbLine
 62
7
  6
BYLAYER
 10
22.6384205299
 20
50.7126396914
 11
63.2784205299
 21
50.7126396914
  0
LINE
  5
294
100
AcDbEntity
  8
0
100
AcDbLine
 62
7
  6
BYLAYER
 10
74.9584205299
 20
50.7126396914
 11
100.3584205299
 21
50.7126396914
  0
LINE
  5
295
100
AcDbEntity
  8
0
100
AcDbLine
 62
7
  6
BYLAYER
 10
22.6384205299
 20
50.7453853986
 11
63.2784205299
 21
50.7453853986
  0
LINE
  5
296
100
AcDbEntity
  8
0
100
AcDbLine
 62
7
  6
BYLAYER
 10
74.9584205299
 20
50.7453853986
 11
100.3584205299
 21
50.7453853986
  0
LINE
  5
297
100
AcDbEntity
  8
0
100
AcDbLine
 62
7
  6
BYLAYER
 10
28.3074205299
 20
44.251755011
 11
28.3074205299
 21
47.3421066651
  0
LINE
  5
298
100
AcDbEntity
  8
0
100
AcDbLine
 62
7
  6
BYLAYER
 10
28.3074205299
 20
48.3421066651
 11
28.3074205299
 21
49.9326396914
  0
LINE
  5
299
100
AcDbEntity
  8
0
100
AcDbLine
 62
7
  6
BYLAYER
 10
28.5484205299
 20
139.8526396914
 11
28.5484205299
 21
137.0526396914
  0
LINE
  5
29A
100
AcDbEntity
  8
0
100
AcDbLine
 62
7
  6
BYLAYER
 10
29.3074205299
 20
49.9326396914
 11
29.3074205299
 21
48.3421066651
  0
LINE
  5
29B
100
AcDbEntity
  8
0
100
AcDbLine
 62
7
  6
BYLAYER
 10
29.3074205299
 20
47.3421066651
 11
29.3074205299
 21
44.251755011
  0
LINE
  5
29C
100
AcDbEntity
  8
0
100
AcDbLine
 62
7
  6
BYLAYER
 10
30.7074205299
 20
48.3421066651
 11
30.7074205299
 21
47.3421066651
  0
LINE
  5
29D
100
AcDbEntity
  8
0
100
AcDbLine
 62
7
  6
BYLAYER
 10
16.9710602179
 20
54.7889954349
 11
16.8637115686
 21
54.4666875923
  0
LINE
  5
29E
100
AcDbEntity
  8
0
100
AcDbLine
 62
7
  6
BYLAYER
 10
72.7112091886
 20
53.6416843308
 11
64.1436318712
 21
53.6416843308
  0
LINE
  5
29F
100
AcDbEntity
  8
0
100
AcDbLine
 62
7
  6
BYLAYER
 10
102.4314457081
 20
54.0557057872
 11
100.3584205299
 21
54.0557057872
  0
LINE
  5
2A0
100
AcDbEntity
  8
0
100
AcDbLine
 62
7
  6
BYLAYER
 10
74.9584205299
 20
54.0557057872
 11
74.0433953517
 21
54.0557057872
  0
LINE
  5
2A1
100
AcDbEntity
  8
0
100
AcDbLine
 62
7
  6
BYLAYER
 10
63.2784205299
 20
54.3487700889
 11
63.9081281352
 21
54.3487700889
  0
LINE
  5
2A2
100
AcDbEntity
  8
0
100
AcDbLine
 62
7
  6
BYLAYER
 10
72.9467129246
 20
54.3487700889
 11
73.9457866287
 21
54.3487700889
  0
LINE
  5
2A3
100
AcDbEntity
  8
0
100
AcDbLine
 62
7
  6
BYLAYER
 10
102.5290544311
 20
54.3487700889
 11
103.3489838948
 21
54.3487700889
  0
LINE
  5
2A4
100
AcDbEntity
  8
0
100
AcDbLine
 62
7
  6
BYLAYER
 10
16.8637115686
 20
54.4666875923
 11
22.6384205299
 21
54.4666875923
  0
LINE
  5
2A5
100
AcDbEntity
  8
0
100
AcDbLine
 62
7
  6
BYLAYER
 10
103.4669013982
 20
54.4666875923
 11
106.1331294912
 21
54.4666875923
  0
LINE
  5
2A6
100
AcDbEntity
  8
0
100
AcDbLine
 62
7
  6
BYLAYER
 10
16.9710602179
 20
54.7889954349
 11
22.6384205299
 21
54.7889954349
  0
LINE
  5
2A7
100
AcDbEntity
  8
0
100
AcDbLine
 62
7
  6
BYLAYER
 10
63.2784205299
 20
54.7889954349
 11
74.9584205299
 21
54.7889954349
  0
LINE
  5
2A8
100
AcDbEntity
  8
0
100
AcDbLine
 62
7
  6
BYLAYER
 10
100.3584205299
 20
54.7889954349
 11
106.0257808419
 21
54.7889954349
  0
LINE
  5
2A9
100
AcDbEntity
  8
0
100
AcDbLine
 62
7
  6
BYLAYER
 10
44.3336318712
 20
41.8117115804
 11
44.0981281352
 21
42.5187973385
  0
LINE
  5
2AA
100
AcDbEntity
  8
0
100
AcDbLine
 62
7
  6
BYLAYER
 10
33.0912091886
 20
49.9326396914
 11
33.0912091886
 21
41.8117115804
  0
LINE
  5
2AB
100
AcDbEntity
  8
0
100
AcDbLine
 62
7
  6
BYLAYER
 10
33.3267129246
 20
49.9326396914
 11
33.3267129246
 21
42.5187973385
  0
LINE
  5
2AC
100
AcDbEntity
  8
0
100
AcDbLine
 62
7
  6
BYLAYER
 10
34.3257866287
 20
49.9326396914
 11
34.3257866287
 21
42.5187973385
  0
LINE
  5
2AD
100
AcDbEntity
  8
0
100
AcDbLine
 62
7
  6
BYLAYER
 10
34.4233953517
 20
49.9326396914
 11
34.4233953517
 21
42.2257330367
  0
LINE
  5
2AE
100
AcDbEntity
  8
0
100
AcDbLine
 62
7
  6
BYLAYER
 10
34.5484205299
 20
139.8526396914
 11
34.5484205299
 21
137.0526396914
  0
LINE
  5
2AF
100
AcDbEntity
  8
0
100
AcDbLine
 62
7
  6
BYLAYER
 10
36.1684205299
 20
139.8526396914
 11
36.1684205299
 21
137.0526396914
  0
LINE
  5
2B0
100
AcDbEntity
  8
0
100
AcDbLine
 62
7
  6
BYLAYER
 10
36.8124205299
 20
47.3421066651
 11
36.8124205299
 21
48.3421066651
  0
LINE
  5
2B1
100
AcDbEntity
  8
0
100
AcDbLine
 62
7
  6
BYLAYER
 10
16.8637115686
 20
40.3618720338
 11
16.913996816
 21
40.5128504549
  0
LINE
  5
2B2
100
AcDbEntity
  8
0
100
AcDbLine
 62
7
  6
BYLAYER
 10
22.6384205299
 20
58.9626396914
 11
63.2784205299
 21
58.9626396914
  0
LINE
  5
2B3
100
AcDbEntity
  8
0
100
AcDbLine
 62
7
  6
BYLAYER
 10
74.9584205299
 20
58.9626396914
 11
100.3584205299
 21
58.9626396914
  0
LINE
  5
2B4
100
AcDbEntity
  8
0
100
AcDbLine
 62
7
  6
BYLAYER
 10
22.6384205299
 20
59.3326396914
 11
63.2784205299
 21
59.3326396914
  0
LINE
  5
2B5
100
AcDbEntity
  8
0
100
AcDbLine
 62
7
  6
BYLAYER
 10
74.9584205299
 20
59.3326396914
 11
100.3584205299
 21
59.3326396914
  0
LINE
  5
2B6
100
AcDbEntity
  8
0
100
AcDbLine
 62
7
  6
BYLAYER
 10
16.9710602179
 20
59.3697332006
 11
22.6384205299
 21
59.3697332006
  0
LINE
  5
2B7
100
AcDbEntity
  8
0
100
AcDbLine
 62
7
  6
BYLAYER
 10
63.2784205299
 20
59.3697332006
 11
74.9584205299
 21
59.3697332006
  0
LINE
  5
2B8
100
AcDbEntity
  8
0
100
AcDbLine
 62
7
  6
BYLAYER
 10
100.3584205299
 20
59.3697332006
 11
106.0257808419
 21
59.3697332006
  0
LINE
  5
2B9
100
AcDbEntity
  8
0
100
AcDbLine
 62
7
  6
BYLAYER
 10
17.2459774905
 20
60.1951557243
 11
105.7508635692
 21
60.1951557243
  0
LINE
  5
2BA
100
AcDbEntity
  8
0
100
AcDbLine
 62
7
  6
BYLAYER
 10
38.2124205299
 20
44.251755011
 11
38.2124205299
 21
47.3421066651
  0
LINE
  5
2BB
100
AcDbEntity
  8
0
100
AcDbLine
 62
7
  6
BYLAYER
 10
38.2124205299
 20
48.3421066651
 11
38.2124205299
 21
49.9326396914
  0
LINE
  5
2BC
100
AcDbEntity
  8
0
100
AcDbLine
 62
7
  6
BYLAYER
 10
39.2124205299
 20
49.9326396914
 11
39.2124205299
 21
48.3421066651
  0
LINE
  5
2BD
100
AcDbEntity
  8
0
100
AcDbLine
 62
7
  6
BYLAYER
 10
39.2124205299
 20
47.3421066651
 11
39.2124205299
 21
44.251755011
  0
LINE
  5
2BE
100
AcDbEntity
  8
0
100
AcDbLine
 62
7
  6
BYLAYER
 10
40.6124205299
 20
48.3421066651
 11
40.6124205299
 21
47.3421066651
  0
LINE
  5
2BF
100
AcDbEntity
  8
0
100
AcDbLine
 62
7
  6
BYLAYER
 10
42.1684205299
 20
139.8526396914
 11
42.1684205299
 21
137.0526396914
  0
LINE
  5
2C0
100
AcDbEntity
  8
0
100
AcDbLine
 62
7
  6
BYLAYER
 10
42.6984205299
 20
63.0326396914
 11
42.6984205299
 21
72.4326396914
  0
LINE
  5
2C1
100
AcDbEntity
  8
0
100
AcDbLine
 62
7
  6
BYLAYER
 10
16.8637115686
 20
39.8832407036
 11
16.457881309
 21
39.0713328129
  0
LINE
  5
2C2
100
AcDbEntity
  8
0
100
AcDbLine
 62
7
  6
BYLAYER
 10
65.3154213178
 20
126.0152137745
 11
65.9784205299
 21
126.9381991412
  0
LINE
  5
2C3
100
AcDbEntity
  8
0
100
AcDbLine
 62
7
  6
BYLAYER
 10
22.3784205299
 20
63.0326396914
 11
42.6984205299
 21
63.0326396914
  0
LINE
  5
2C4
100
AcDbEntity
  8
0
100
AcDbLine
 62
7
  6
BYLAYER
 10
22.3784205299
 20
63.3326396914
 11
42.6984205299
 21
63.3326396914
  0
LINE
  5
2C5
100
AcDbEntity
  8
0
100
AcDbLine
 62
7
  6
BYLAYER
 10
22.3784205299
 20
63.8126396914
 11
42.6984205299
 21
63.8126396914
  0
LINE
  5
2C6
100
AcDbEntity
  8
0
100
AcDbLine
 62
7
  6
BYLAYER
 10
22.3784205299
 20
63.8453853986
 11
42.6984205299
 21
63.8453853986
  0
LINE
  5
2C7
100
AcDbEntity
  8
0
100
AcDbLine
 62
7
  6
BYLAYER
 10
54.2333953517
 20
42.2257330367
 11
54.1357866287
 21
42.5187973385
  0
LINE
  5
2C8
100
AcDbEntity
  8
0
100
AcDbLine
 62
7
  6
BYLAYER
 10
43.0014457081
 20
49.9326396914
 11
43.0014457081
 21
42.2257330367
  0
LINE
  5
2C9
100
AcDbEntity
  8
0
100
AcDbLine
 62
7
  6
BYLAYER
 10
43.0990544311
 20
49.9326396914
 11
43.0990544311
 21
42.5187973385
  0
LINE
  5
2CA
100
AcDbEntity
  8
0
100
AcDbLine
 62
7
  6
BYLAYER
 10
43.7884205299
 20
139.8526396914
 11
43.7884205299
 21
137.0526396914
  0
LINE
  5
2CB
100
AcDbEntity
  8
0
100
AcDbLine
 62
7
  6
BYLAYER
 10
44.0981281352
 20
49.9326396914
 11
44.0981281352
 21
42.5187973385
  0
LINE
  5
2CC
100
AcDbEntity
  8
0
100
AcDbLine
 62
7
  6
BYLAYER
 10
44.3336318712
 20
49.9326396914
 11
44.3336318712
 21
41.8117115804
  0
LINE
  5
2CD
100
AcDbEntity
  8
0
100
AcDbLine
 62
7
  6
BYLAYER
 10
46.7174205299
 20
47.3421066651
 11
46.7174205299
 21
48.3421066651
  0
LINE
  5
2CE
100
AcDbEntity
  8
0
100
AcDbLine
 62
7
  6
BYLAYER
 10
47.2384205299
 20
67.7697332006
 11
47.2384205299
 21
72.2618720337
  0
LINE
  5
2CF
100
AcDbEntity
  8
0
100
AcDbLine
 62
7
  6
BYLAYER
 10
65.318709856
 20
121.0152137745
 11
65.9784205299
 21
121.9336210473
  0
LINE
  5
2D0
100
AcDbEntity
  8
0
100
AcDbLine
 62
7
  6
BYLAYER
 10
26.0546550465
 20
70.108534926
 11
23.2725252953
 21
67.3264051748
  0
LINE
  5
2D1
100
AcDbEntity
  8
0
100
AcDbLine
 62
7
  6
BYLAYER
 10
17.2459774905
 20
67.7697332006
 11
22.3784205299
 21
67.7697332006
  0
LINE
  5
2D2
100
AcDbEntity
  8
0
100
AcDbLine
 62
7
  6
BYLAYER
 10
42.6984205299
 20
67.7697332006
 11
47.2384205299
 21
67.7697332006
  0
LINE
  5
2D3
100
AcDbEntity
  8
0
100
AcDbLine
 62
7
  6
BYLAYER
 10
17.321907023
 20
67.9977070405
 11
22.3784205299
 21
67.9977070405
  0
LINE
  5
2D4
100
AcDbEntity
  8
0
100
AcDbLine
 62
7
  6
BYLAYER
 10
42.6984205299
 20
67.9977070405
 11
47.2384205299
 21
67.9977070405
  0
LINE
  5
2D5
100
AcDbEntity
  8
0
100
AcDbLine
 62
7
  6
BYLAYER
 10
48.1174205299
 20
44.251755011
 11
48.1174205299
 21
47.3421066651
  0
LINE
  5
2D6
100
AcDbEntity
  8
0
100
AcDbLine
 62
7
  6
BYLAYER
 10
48.1174205299
 20
48.3421066651
 11
48.1174205299
 21
49.9326396914
  0
LINE
  5
2D7
100
AcDbEntity
  8
0
100
AcDbLine
 62
7
  6
BYLAYER
 10
49.1174205299
 20
49.9326396914
 11
49.1174205299
 21
48.3421066651
  0
LINE
  5
2D8
100
AcDbEntity
  8
0
100
AcDbLine
 62
7
  6
BYLAYER
 10
49.1174205299
 20
47.3421066651
 11
49.1174205299
 21
44.251755011
  0
LINE
  5
2D9
100
AcDbEntity
  8
0
100
AcDbLine
 62
7
  6
BYLAYER
 10
49.7884205299
 20
139.8526396914
 11
49.7884205299
 21
137.0526396914
  0
LINE
  5
2DA
100
AcDbEntity
  8
0
100
AcDbLine
 62
7
  6
BYLAYER
 10
50.4984205299
 20
127.2326396914
 11
50.4984205299
 21
137.0526396914
  0
LINE
  5
2DB
100
AcDbEntity
  8
0
100
AcDbLine
 62
7
  6
BYLAYER
 10
50.5174205299
 20
48.3421066651
 11
50.5174205299
 21
47.3421066651
  0
LINE
  5
2DC
100
AcDbEntity
  8
0
100
AcDbLine
 62
7
  6
BYLAYER
 10
33.0912091886
 20
41.8117115804
 11
33.3267129246
 21
42.5187973385
  0
LINE
  5
2DD
100
AcDbEntity
  8
0
100
AcDbLine
 62
7
  6
BYLAYER
 10
23.7648896783
 20
66.8288200641
 11
26.5522401572
 21
69.616170543
  0
LINE
  5
2DE
100
AcDbEntity
  8
0
100
AcDbLine
 62
7
  6
BYLAYER
 10
31.1346550465
 20
70.108534926
 11
28.3525252953
 21
67.3264051748
  0
LINE
  5
2DF
100
AcDbEntity
  8
0
100
AcDbLine
 62
7
  6
BYLAYER
 10
28.8448896783
 20
66.8288200641
 11
31.6322401572
 21
69.616170543
  0
LINE
  5
2E0
100
AcDbEntity
  8
0
100
AcDbLine
 62
7
  6
BYLAYER
 10
68.7984205299
 20
71.8811043761
 11
84.9984205299
 21
71.8811043761
  0
LINE
  5
2E1
100
AcDbEntity
  8
0
100
AcDbLine
 62
7
  6
BYLAYER
 10
85.2384205299
 20
71.8811043761
 11
101.4384205299
 21
71.8811043761
  0
LINE
  5
2E2
100
AcDbEntity
  8
0
100
AcDbLine
 62
7
  6
BYLAYER
 10
105.7508635693
 20
72.0338981939
 11
102.0769683221
 21
72.0338981939
  0
LINE
  5
2E3
100
AcDbEntity
  8
0
100
AcDbLine
 62
7
  6
BYLAYER
 10
68.1698727377
 20
72.0338981939
 11
47.2384205299
 21
72.0338981939
  0
LINE
  5
2E4
100
AcDbEntity
  8
0
100
AcDbLine
 62
7
  6
BYLAYER
 10
22.3784205299
 20
72.0626396914
 11
42.6984205299
 21
72.0626396914
  0
LINE
  5
2E5
100
AcDbEntity
  8
0
100
AcDbLine
 62
7
  6
BYLAYER
 10
17.321907023
 20
72.2618720337
 11
22.3784205299
 21
72.2618720337
  0
LINE
  5
2E6
100
AcDbEntity
  8
0
100
AcDbLine
 62
7
  6
BYLAYER
 10
42.6984205299
 20
72.2618720337
 11
47.2384205299
 21
72.2618720337
  0
LINE
  5
2E7
100
AcDbEntity
  8
0
100
AcDbLine
 62
7
  6
BYLAYER
 10
22.3784205299
 20
72.4326396914
 11
42.6984205299
 21
72.4326396914
  0
LINE
  5
2E8
100
AcDbEntity
  8
0
100
AcDbLine
 62
7
  6
BYLAYER
 10
68.4360624779
 20
72.8331168279
 11
101.8107785819
 21
72.8331168279
  0
LINE
  5
2E9
100
AcDbEntity
  8
0
100
AcDbLine
 62
7
  6
BYLAYER
 10
17.5950787891
 20
73.0820537795
 11
105.4017622707
 21
73.0820537795
  0
LINE
  5
2EA
100
AcDbEntity
  8
0
100
AcDbLine
 62
7
  6
BYLAYER
 10
64.1436318712
 20
41.8117115804
 11
63.9081281352
 21
42.5187973385
  0
LINE
  5
2EB
100
AcDbEntity
  8
0
100
AcDbLine
 62
7
  6
BYLAYER
 10
52.9012091886
 20
49.9326396914
 11
52.9012091886
 21
41.8117115804
  0
LINE
  5
2EC
100
AcDbEntity
  8
0
100
AcDbLine
 62
7
  6
BYLAYER
 10
53.1367129246
 20
49.9326396914
 11
53.1367129246
 21
42.5187973385
  0
LINE
  5
2ED
100
AcDbEntity
  8
0
100
AcDbLine
 62
7
  6
BYLAYER
 10
54.1357866287
 20
49.9326396914
 11
54.1357866287
 21
42.5187973385
  0
LINE
  5
2EE
100
AcDbEntity
  8
0
100
AcDbLine
 62
7
  6
BYLAYER
 10
54.2333953517
 20
49.9326396914
 11
54.2333953517
 21
42.2257330367
  0
LINE
  5
2EF
100
AcDbEntity
  8
0
100
AcDbLine
 62
7
  6
BYLAYER
 10
55.7484205303
 20
36.1114505859
 11
55.7484205303
 21
31.8549912461
  0
LINE
  5
2F0
100
AcDbEntity
  8
0
100
AcDbLine
 62
7
  6
BYLAYER
 10
56.6224205299
 20
47.3421066651
 11
56.6224205299
 21
48.3421066651
  0
LINE
  5
2F1
100
AcDbEntity
  8
0
100
AcDbLine
 62
7
  6
BYLAYER
 10
36.2146550465
 20
70.108534926
 11
33.4325252953
 21
67.3264051748
  0
LINE
  5
2F2
100
AcDbEntity
  8
0
100
AcDbLine
 62
7
  6
BYLAYER
 10
33.9248896783
 20
66.8288200641
 11
36.7122401572
 21
69.616170543
  0
LINE
  5
2F3
100
AcDbEntity
  8
0
100
AcDbLine
 62
7
  6
BYLAYER
 10
26.3146550465
 20
57.008534926
 11
23.5325252953
 21
54.2264051748
  0
LINE
  5
2F4
100
AcDbEntity
  8
0
100
AcDbLine
 62
7
  6
BYLAYER
 10
16.9248042959
 20
121.6854882678
 11
17.5950787891
 21
121.0152137745
  0
LINE
  5
2F5
100
AcDbEntity
  8
0
100
AcDbLine
 62
7
  6
BYLAYER
 10
28.0972789925
 20
121.0152137745
 11
27.5184205299
 21
121.881207906
  0
LINE
  5
2F6
100
AcDbEntity
  8
0
100
AcDbLine
 62
7
  6
BYLAYER
 10
27.5184205299
 20
126.8857859999
 11
28.1003391385
 21
126.0152137745
  0
LINE
  5
2F7
100
AcDbEntity
  8
0
100
AcDbLine
 62
7
  6
BYLAYER
 10
64.1436318712
 20
53.6416843308
 11
63.9081281352
 21
54.3487700889
  0
LINE
  5
2F8
100
AcDbEntity
  8
0
100
AcDbLine
 62
7
  6
BYLAYER
 10
58.0224205299
 20
44.251755011
 11
58.0224205299
 21
47.3421066651
  0
LINE
  5
2F9
100
AcDbEntity
  8
0
100
AcDbLine
 62
7
  6
BYLAYER
 10
58.0224205299
 20
48.3421066651
 11
58.0224205299
 21
49.9326396914
  0
LINE
  5
2FA
100
AcDbEntity
  8
0
100
AcDbLine
 62
7
  6
BYLAYER
 10
59.0224205299
 20
49.9326396914
 11
59.0224205299
 21
48.3421066651
  0
LINE
  5
2FB
100
AcDbEntity
  8
0
100
AcDbLine
 62
7
  6
BYLAYER
 10
59.0224205299
 20
47.3421066651
 11
59.0224205299
 21
44.251755011
  0
LINE
  5
2FC
100
AcDbEntity
  8
0
100
AcDbLine
 62
7
  6
BYLAYER
 10
60.4224205299
 20
48.3421066651
 11
60.4224205299
 21
47.3421066651
  0
LINE
  5
2FD
100
AcDbEntity
  8
0
100
AcDbLine
 62
7
  6
BYLAYER
 10
43.0014457081
 20
42.2257330367
 11
43.0990544311
 21
42.5187973385
  0
LINE
  5
2FE
100
AcDbEntity
  8
0
100
AcDbLine
 62
7
  6
BYLAYER
 10
24.0248896783
 20
53.7288200641
 11
26.8122401572
 21
56.516170543
  0
LINE
  5
2FF
100
AcDbEntity
  8
0
100
AcDbLine
 62
7
  6
BYLAYER
 10
41.2946550465
 20
70.108534926
 11
38.5125252953
 21
67.3264051748
  0
LINE
  5
300
100
AcDbEntity
  8
0
100
AcDbLine
 62
7
  6
BYLAYER
 10
39.0048896783
 20
66.8288200641
 11
41.7922401572
 21
69.616170543
  0
LINE
  5
301
100
AcDbEntity
  8
0
100
AcDbLine
 62
7
  6
BYLAYER
 10
31.3946550465
 20
57.008534926
 11
28.6125252953
 21
54.2264051748
  0
LINE
  5
302
100
AcDbEntity
  8
0
100
AcDbLine
 62
7
  6
BYLAYER
 10
29.1048896783
 20
53.7288200641
 11
31.8922401572
 21
56.516170543
  0
LINE
  5
303
100
AcDbEntity
  8
0
100
AcDbLine
 62
7
  6
BYLAYER
 10
91.9619513815
 20
115.0564593187
 11
89.1746009026
 21
112.2691088399
  0
LINE
  5
304
100
AcDbEntity
  8
0
100
AcDbLine
 62
7
  6
BYLAYER
 10
16.9248042959
 20
128.6854882678
 11
16.2484205299
 21
129.3618720337
  0
LINE
  5
305
100
AcDbEntity
  8
0
100
AcDbLine
 62
7
  6
BYLAYER
 10
106.5389597508
 20
39.0713328129
 11
106.7484205299
 21
38.8618720338
  0
LINE
  5
306
100
AcDbEntity
  8
0
100
AcDbLine
 62
7
  6
BYLAYER
 10
74.0433953517
 20
42.2257330367
 11
73.9457866287
 21
42.5187973385
  0
LINE
  5
307
100
AcDbEntity
  8
0
100
AcDbLine
 62
7
  6
BYLAYER
 10
65.318709856
 20
121.0152137745
 11
65.3154213178
 21
126.0152137745
  0
LINE
  5
308
100
AcDbEntity
  8
0
100
AcDbLine
 62
7
  6
BYLAYER
 10
62.2784205299
 20
129.2197507786
 11
62.2784205299
 21
126.9381991412
  0
LINE
  5
309
100
AcDbEntity
  8
0
100
AcDbLine
 62
7
  6
BYLAYER
 10
62.8114457081
 20
49.9326396914
 11
62.8114457081
 21
42.2257330367
  0
LINE
  5
30A
100
AcDbEntity
  8
0
100
AcDbLine
 62
7
  6
BYLAYER
 10
62.9090544311
 20
49.9326396914
 11
62.9090544311
 21
42.5187973385
  0
LINE
  5
30B
100
AcDbEntity
  8
0
100
AcDbLine
 62
7
  6
BYLAYER
 10
63.2784205299
 20
49.9326396914
 11
63.2784205299
 21
59.8326396914
  0
LINE
  5
30C
100
AcDbEntity
  8
0
100
AcDbLine
 62
7
  6
BYLAYER
 10
63.9081281352
 20
54.3487700889
 11
63.9081281352
 21
42.5187973385
  0
LINE
  5
30D
100
AcDbEntity
  8
0
100
AcDbLine
 62
7
  6
BYLAYER
 10
64.1436318712
 20
53.6416843308
 11
64.1436318712
 21
41.8117115804
  0
LINE
  5
30E
100
AcDbEntity
  8
0
100
AcDbLine
 62
7
  6
BYLAYER
 10
65.9784205299
 20
121.9336210473
 11
65.9784205299
 21
126.9381991412
  0
LINE
  5
30F
100
AcDbEntity
  8
0
100
AcDbLine
 62
7
  6
BYLAYER
 10
66.5274205299
 20
47.3421066651
 11
66.5274205299
 21
48.3421066651
  0
LINE
  5
310
100
AcDbEntity
  8
0
100
AcDbLine
 62
7
  6
BYLAYER
 10
106.7484205299
 20
129.3618720337
 11
106.6062992747
 21
129.2197507786
  0
LINE
  5
311
100
AcDbEntity
  8
0
100
AcDbLine
 62
7
  6
BYLAYER
 10
16.2484205299
 20
38.8618720338
 11
16.457881309
 21
39.0713328129
  0
LINE
  5
312
100
AcDbEntity
  8
0
100
AcDbLine
 62
7
  6
BYLAYER
 10
89.6721860133
 20
111.7767444568
 11
92.4543157645
 21
114.5588742081
  0
LINE
  5
313
100
AcDbEntity
  8
0
100
AcDbLine
 62
7
  6
BYLAYER
 10
105.690798518
 20
126.3042500218
 11
106.5707689609
 21
127.1842204648
  0
LINE
  5
314
100
AcDbEntity
  8
0
100
AcDbLine
 62
7
  6
BYLAYER
 10
36.4746550465
 20
57.008534926
 11
33.6925252953
 21
54.2264051748
  0
LINE
  5
315
100
AcDbEntity
  8
0
100
AcDbLine
 62
7
  6
BYLAYER
 10
34.1848896783
 20
53.7288200641
 11
36.9722401572
 21
56.516170543
  0
LINE
  5
316
100
AcDbEntity
  8
0
100
AcDbLine
 62
7
  6
BYLAYER
 10
74.0433953517
 20
54.0557057872
 11
73.9457866287
 21
54.3487700889
  0
LINE
  5
317
100
AcDbEntity
  8
0
100
AcDbLine
 62
7
  6
BYLAYER
 10
67.2484205303
 20
31.8549912463
 11
67.2484205303
 21
36.1114505859
  0
LINE
  5
318
100
AcDbEntity
  8
0
100
AcDbLine
 62
7
  6
BYLAYER
 10
67.9274205299
 20
44.251755011
 11
67.9274205299
 21
47.3421066651
  0
LINE
  5
319
100
AcDbEntity
  8
0
100
AcDbLine
 62
7
  6
BYLAYER
 10
67.9274205299
 20
48.3421066651
 11
67.9274205299
 21
51.4324583191
  0
LINE
  5
31A
100
AcDbEntity
  8
0
100
AcDbLine
 62
7
  6
BYLAYER
 10
68.7984205299
 20
71.8811043761
 11
68.7984205299
 21
72.8331168279
  0
LINE
  5
31B
100
AcDbEntity
  8
0
100
AcDbLine
 62
7
  6
BYLAYER
 10
68.9274205299
 20
51.4324583191
 11
68.9274205299
 21
48.3421066651
  0
LINE
  5
31C
100
AcDbEntity
  8
0
100
AcDbLine
 62
7
  6
BYLAYER
 10
68.9274205299
 20
47.3421066651
 11
68.9274205299
 21
44.251755011
  0
LINE
  5
31D
100
AcDbEntity
  8
0
100
AcDbLine
 62
7
  6
BYLAYER
 10
70.3274205299
 20
48.3421066651
 11
70.3274205299
 21
47.3421066651
  0
LINE
  5
31E
100
AcDbEntity
  8
0
100
AcDbLine
 62
7
  6
BYLAYER
 10
71.2984205299
 20
122.2626549924
 11
71.2984205299
 21
126.7626240227
  0
LINE
  5
31F
100
AcDbEntity
  8
0
100
AcDbLine
 62
7
  6
BYLAYER
 10
52.9012091886
 20
41.8117115804
 11
53.1367129246
 21
42.5187973385
  0
LINE
  5
320
100
AcDbEntity
  8
0
100
AcDbLine
 62
7
  6
BYLAYER
 10
99.5819513815
 20
115.0564593187
 11
96.7946009026
 21
112.2691088399
  0
LINE
  5
321
100
AcDbEntity
  8
0
100
AcDbLine
 62
7
  6
BYLAYER
 10
41.5546550465
 20
57.008534926
 11
38.7725252953
 21
54.2264051748
  0
LINE
  5
322
100
AcDbEntity
  8
0
100
AcDbLine
 62
7
  6
BYLAYER
 10
97.2921860133
 20
111.7767444568
 11
100.0743157645
 21
114.5588742081
  0
LINE
  5
323
100
AcDbEntity
  8
0
100
AcDbLine
 62
7
  6
BYLAYER
 10
39.2648896783
 20
53.7288200641
 11
42.0522401572
 21
56.516170543
  0
LINE
  5
324
100
AcDbEntity
  8
0
100
AcDbLine
 62
7
  6
BYLAYER
 10
46.6346550465
 20
57.008534926
 11
43.8525252953
 21
54.2264051748
  0
LINE
  5
325
100
AcDbEntity
  8
0
100
AcDbLine
 62
7
  6
BYLAYER
 10
44.3448896783
 20
53.7288200641
 11
47.1322401572
 21
56.516170543
  0
LINE
  5
326
100
AcDbEntity
  8
0
100
AcDbLine
 62
7
  6
BYLAYER
 10
83.9536318712
 20
41.8117115804
 11
83.7181281352
 21
42.5187973385
  0
LINE
  5
327
100
AcDbEntity
  8
0
100
AcDbLine
 62
7
  6
BYLAYER
 10
72.7112091886
 20
53.6416843308
 11
72.7112091886
 21
41.8117115804
  0
LINE
  5
328
100
AcDbEntity
  8
0
100
AcDbLine
 62
7
  6
BYLAYER
 10
72.9467129246
 20
54.3487700889
 11
72.9467129246
 21
42.5187973385
  0
LINE
  5
329
100
AcDbEntity
  8
0
100
AcDbLine
 62
7
  6
BYLAYER
 10
73.2984205299
 20
122.2626549924
 11
73.2984205299
 21
126.7626240227
  0
LINE
  5
32A
100
AcDbEntity
  8
0
100
AcDbLine
 62
7
  6
BYLAYER
 10
73.9457866287
 20
54.3487700889
 11
73.9457866287
 21
42.5187973385
  0
LINE
  5
32B
100
AcDbEntity
  8
0
100
AcDbLine
 62
7
  6
BYLAYER
 10
74.0433953517
 20
54.0557057872
 11
74.0433953517
 21
42.2257330367
  0
LINE
  5
32C
100
AcDbEntity
  8
0
100
AcDbLine
 62
7
  6
BYLAYER
 10
74.9584205299
 20
59.8326396914
 11
74.9584205299
 21
49.9326396914
  0
LINE
  5
32D
100
AcDbEntity
  8
0
100
AcDbLine
 62
7
  6
BYLAYER
 10
76.4324205299
 20
47.3421066651
 11
76.4324205299
 21
48.3421066651
  0
LINE
  5
32E
100
AcDbEntity
  8
0
100
AcDbLine
 62
7
  6
BYLAYER
 10
68.4360624779
 20
72.8331168279
 11
68.1698727377
 21
72.0338981939
  0
LINE
  5
32F
100
AcDbEntity
  8
0
100
AcDbLine
 62
7
  6
BYLAYER
 10
62.8114457081
 20
42.2257330367
 11
62.9090544311
 21
42.5187973385
  0
LINE
  5
330
100
AcDbEntity
  8
0
100
AcDbLine
 62
7
  6
BYLAYER
 10
51.7146550465
 20
57.008534926
 11
48.9325252953
 21
54.2264051748
  0
LINE
  5
331
100
AcDbEntity
  8
0
100
AcDbLine
 62
7
  6
BYLAYER
 10
49.4248896783
 20
53.7288200641
 11
52.2122401572
 21
56.516170543
  0
LINE
  5
332
100
AcDbEntity
  8
0
100
AcDbLine
 62
7
  6
BYLAYER
 10
77.8324205299
 20
44.251755011
 11
77.8324205299
 21
47.3421066651
  0
LINE
  5
333
100
AcDbEntity
  8
0
100
AcDbLine
 62
7
  6
BYLAYER
 10
77.8324205299
 20
48.3421066651
 11
77.8324205299
 21
49.9326396914
  0
LINE
  5
334
100
AcDbEntity
  8
0
100
AcDbLine
 62
7
  6
BYLAYER
 10
78.1480177961
 20
38.5518058716
 11
78.1480177961
 21
34.0518049522
  0
LINE
  5
335
100
AcDbEntity
  8
0
100
AcDbLine
 62
7
  6
BYLAYER
 10
78.8324205299
 20
49.9326396914
 11
78.8324205299
 21
48.3421066651
  0
LINE
  5
336
100
AcDbEntity
  8
0
100
AcDbLine
 62
7
  6
BYLAYER
 10
78.8324205299
 20
47.3421066651
 11
78.8324205299
 21
44.251755011
  0
LINE
  5
337
100
AcDbEntity
  8
0
100
AcDbLine
 62
7
  6
BYLAYER
 10
80.2324205299
 20
48.3421066651
 11
80.2324205299
 21
47.3421066651
  0
LINE
  5
338
100
AcDbEntity
  8
0
100
AcDbLine
 62
7
  6
BYLAYER
 10
56.7946550465
 20
57.008534926
 11
54.0125252953
 21
54.2264051748
  0
LINE
  5
339
100
AcDbEntity
  8
0
100
AcDbLine
 62
7
  6
BYLAYER
 10
54.5048896783
 20
53.7288200641
 11
57.2922401572
 21
56.516170543
  0
LINE
  5
33A
100
AcDbEntity
  8
0
100
AcDbLine
 62
7
  6
BYLAYER
 10
106.1331294912
 20
39.8832407036
 11
106.5389597508
 21
39.0713328129
  0
LINE
  5
33B
100
AcDbEntity
  8
0
100
AcDbLine
 62
7
  6
BYLAYER
 10
93.8533953517
 20
42.2257330367
 11
93.7557866287
 21
42.5187973385
  0
LINE
  5
33C
100
AcDbEntity
  8
0
100
AcDbLine
 62
7
  6
BYLAYER
 10
82.6984205299
 20
108.0368747294
 11
82.5740043339
 21
121.0152137745
  0
LINE
  5
33D
100
AcDbEntity
  8
0
100
AcDbLine
 62
7
  6
BYLAYER
 10
82.5184205299
 20
121.9336210473
 11
82.5184205299
 21
126.9381991412
  0
LINE
  5
33E
100
AcDbEntity
  8
0
100
AcDbLine
 62
7
  6
BYLAYER
 10
82.6214457081
 20
49.9326396914
 11
82.6214457081
 21
42.2257330367
  0
LINE
  5
33F
100
AcDbEntity
  8
0
100
AcDbLine
 62
7
  6
BYLAYER
 10
82.7190544311
 20
49.9326396914
 11
82.7190544311
 21
42.5187973385
  0
LINE
  5
340
100
AcDbEntity
  8
0
100
AcDbLine
 62
7
  6
BYLAYER
 10
82.974424048
 20
126.3042500218
 11
82.974424048
 21
121.2996719279
  0
LINE
  5
341
100
AcDbEntity
  8
0
100
AcDbLine
 62
7
  6
BYLAYER
 10
83.7181281352
 20
49.9326396914
 11
83.7181281352
 21
42.5187973385
  0
LINE
  5
342
100
AcDbEntity
  8
0
100
AcDbLine
 62
7
  6
BYLAYER
 10
83.9536318712
 20
49.9326396914
 11
83.9536318712
 21
41.8117115804
  0
LINE
  5
343
100
AcDbEntity
  8
0
100
AcDbLine
 62
7
  6
BYLAYER
 10
84.9984205299
 20
71.8811043761
 11
84.9984205299
 21
72.8331168279
  0
LINE
  5
344
100
AcDbEntity
  8
0
100
AcDbLine
 62
7
  6
BYLAYER
 10
85.2384205299
 20
71.8811043761
 11
85.2384205299
 21
72.8331168279
  0
LINE
  5
345
100
AcDbEntity
  8
0
100
AcDbLine
 62
7
  6
BYLAYER
 10
86.3374205299
 20
47.3421066651
 11
86.3374205299
 21
48.3421066651
  0
LINE
  5
346
100
AcDbEntity
  8
0
100
AcDbLine
 62
7
  6
BYLAYER
 10
82.5740043339
 20
121.0152137745
 11
82.5794648744
 21
121.2996719279
  0
LINE
  5
347
100
AcDbEntity
  8
0
100
AcDbLine
 62
7
  6
BYLAYER
 10
72.9467129246
 20
54.3487700889
 11
72.7112091886
 21
53.6416843308
  0
LINE
  5
348
100
AcDbEntity
  8
0
100
AcDbLine
 62
7
  6
BYLAYER
 10
72.7112091886
 20
41.8117115804
 11
72.9467129246
 21
42.5187973385
  0
LINE
  5
349
100
AcDbEntity
  8
0
100
AcDbLine
 62
7
  6
BYLAYER
 10
61.8746550465
 20
57.008534926
 11
59.0925252953
 21
54.2264051748
  0
LINE
  5
34A
100
AcDbEntity
  8
0
100
AcDbLine
 62
7
  6
BYLAYER
 10
59.5848896783
 20
53.7288200641
 11
62.3722401572
 21
56.516170543
  0
LINE
  5
34B
100
AcDbEntity
  8
0
100
AcDbLine
 62
7
  6
BYLAYER
 10
82.6984205299
 20
108.0368747294
 11
105.4017622707
 21
108.0368747294
  0
LINE
  5
34C
100
AcDbEntity
  8
0
100
AcDbLine
 62
7
  6
BYLAYER
 10
105.6748378894
 20
108.8567677985
 11
102.1384205299
 21
108.8567677985
  0
LINE
  5
34D
100
AcDbEntity
  8
0
100
AcDbLine
 62
7
  6
BYLAYER
 10
87.0984205299
 20
108.8567677985
 11
82.6984205299
 21
108.8567677985
  0
LINE
  5
34E
100
AcDbEntity
  8
0
100
AcDbLine
 62
7
  6
BYLAYER
 10
102.1384205299
 20
108.9526396914
 11
87.0984205299
 21
108.9526396914
  0
LINE
  5
34F
100
AcDbEntity
  8
0
100
AcDbLine
 62
7
  6
BYLAYER
 10
102.1384205299
 20
109.4526396914
 11
87.0984205299
 21
109.4526396914
  0
LINE
  5
350
100
AcDbEntity
  8
0
100
AcDbLine
 62
7
  6
BYLAYER
 10
102.1384205299
 20
109.8226396914
 11
87.0984205299
 21
109.8226396914
  0
LINE
  5
351
100
AcDbEntity
  8
0
100
AcDbLine
 62
7
  6
BYLAYER
 10
87.0984205299
 20
108.9526396914
 11
87.0984205299
 21
118.7726396914
  0
LINE
  5
352
100
AcDbEntity
  8
0
100
AcDbLine
 62
7
  6
BYLAYER
 10
87.7374205299
 20
44.251755011
 11
87.7374205299
 21
47.3421066651
  0
LINE
  5
353
100
AcDbEntity
  8
0
100
AcDbLine
 62
7
  6
BYLAYER
 10
87.7374205299
 20
48.3421066651
 11
87.7374205299
 21
49.9326396914
  0
LINE
  5
354
100
AcDbEntity
  8
0
100
AcDbLine
 62
7
  6
BYLAYER
 10
87.7784205299
 20
126.9381991412
 11
87.7784205299
 21
129.2197507786
  0
LINE
  5
355
100
AcDbEntity
  8
0
100
AcDbLine
 62
7
  6
BYLAYER
 10
87.8084205299
 20
121.5726396914
 11
87.8084205299
 21
118.7726396914
  0
LINE
  5
356
100
AcDbEntity
  8
0
100
AcDbLine
 62
7
  6
BYLAYER
 10
88.7374205299
 20
49.9326396914
 11
88.7374205299
 21
48.3421066651
  0
LINE
  5
357
100
AcDbEntity
  8
0
100
AcDbLine
 62
7
  6
BYLAYER
 10
88.7374205299
 20
47.3421066651
 11
88.7374205299
 21
44.251755011
  0
LINE
  5
358
100
AcDbEntity
  8
0
100
AcDbLine
 62
7
  6
BYLAYER
 10
90.1374205299
 20
48.3421066651
 11
90.1374205299
 21
47.3421066651
  0
LINE
  5
359
100
AcDbEntity
  8
0
100
AcDbLine
 62
7
  6
BYLAYER
 10
106.1331294912
 20
40.3618720338
 11
106.0828458635
 21
40.5128455919
  0
LINE
  5
35A
100
AcDbEntity
  8
0
100
AcDbLine
 62
7
  6
BYLAYER
 10
92.5212091886
 20
49.9326396914
 11
92.5212091886
 21
41.8117115804
  0
LINE
  5
35B
100
AcDbEntity
  8
0
100
AcDbLine
 62
7
  6
BYLAYER
 10
92.7567129246
 20
49.9326396914
 11
92.7567129246
 21
42.5187973385
  0
LINE
  5
35C
100
AcDbEntity
  8
0
100
AcDbLine
 62
7
  6
BYLAYER
 10
93.7557866287
 20
49.9326396914
 11
93.7557866287
 21
42.5187973385
  0
LINE
  5
35D
100
AcDbEntity
  8
0
100
AcDbLine
 62
7
  6
BYLAYER
 10
93.8084205299
 20
121.5726396914
 11
93.8084205299
 21
118.7726396914
  0
LINE
  5
35E
100
AcDbEntity
  8
0
100
AcDbLine
 62
7
  6
BYLAYER
 10
93.8533953517
 20
49.9326396914
 11
93.8533953517
 21
42.2257330367
  0
LINE
  5
35F
100
AcDbEntity
  8
0
100
AcDbLine
 62
7
  6
BYLAYER
 10
95.4284205299
 20
121.5726396914
 11
95.4284205299
 21
118.7726396914
  0
LINE
  5
360
100
AcDbEntity
  8
0
100
AcDbLine
 62
7
  6
BYLAYER
 10
82.6214457081
 20
42.2257330367
 11
82.7190544311
 21
42.5187973385
  0
LINE
  5
361
100
AcDbEntity
  8
0
100
AcDbLine
 62
7
  6
BYLAYER
 10
105.6748378894
 20
108.8567677985
 11
105.4017622707
 21
108.0368747294
  0
LINE
  5
362
100
AcDbEntity
  8
0
100
AcDbLine
 62
7
  6
BYLAYER
 10
78.6346550465
 20
57.008534926
 11
75.8525252953
 21
54.2264051748
  0
LINE
  5
363
100
AcDbEntity
  8
0
100
AcDbLine
 62
7
  6
BYLAYER
 10
76.3448896783
 20
53.7288200641
 11
79.1322401572
 21
56.516170543
  0
LINE
  5
364
100
AcDbEntity
  8
0
100
AcDbLine
 62
7
  6
BYLAYER
 10
102.1384205299
 20
117.8726396914
 11
87.0984205299
 21
117.8726396914
  0
LINE
  5
365
100
AcDbEntity
  8
0
100
AcDbLine
 62
7
  6
BYLAYER
 10
102.1384205299
 20
118.4726396914
 11
87.0984205299
 21
118.4726396914
  0
LINE
  5
366
100
AcDbEntity
  8
0
100
AcDbLine
 62
7
  6
BYLAYER
 10
102.1384205299
 20
118.7726396914
 11
101.4284205299
 21
118.7726396914
  0
LINE
  5
367
100
AcDbEntity
  8
0
100
AcDbLine
 62
7
  6
BYLAYER
 10
95.4284205299
 20
118.7726396914
 11
93.8084205299
 21
118.7726396914
  0
LINE
  5
368
100
AcDbEntity
  8
0
100
AcDbLine
 62
7
  6
BYLAYER
 10
87.8084205299
 20
118.7726396914
 11
87.0984205299
 21
118.7726396914
  0
LINE
  5
369
100
AcDbEntity
  8
0
100
AcDbLine
 62
7
  6
BYLAYER
 10
106.0257808419
 20
54.7889954349
 11
106.1331294912
 21
54.4666875923
  0
LINE
  5
36A
100
AcDbEntity
  8
0
100
AcDbLine
 62
7
  6
BYLAYER
 10
105.7508635692
 20
60.1951557243
 11
106.0257808419
 21
59.3697332006
  0
LINE
  5
36B
100
AcDbEntity
  8
0
100
AcDbLine
 62
7
  6
BYLAYER
 10
101.8107785819
 20
72.8331168279
 11
102.0769683221
 21
72.0338981939
  0
LINE
  5
36C
100
AcDbEntity
  8
0
100
AcDbLine
 62
7
  6
BYLAYER
 10
96.1480177961
 20
34.0518049522
 11
96.1480177961
 21
38.5518058716
  0
LINE
  5
36D
100
AcDbEntity
  8
0
100
AcDbLine
 62
7
  6
BYLAYER
 10
96.2424205299
 20
47.3421066651
 11
96.2424205299
 21
48.3421066651
  0
LINE
  5
36E
100
AcDbEntity
  8
0
100
AcDbLine
 62
7
  6
BYLAYER
 10
97.6424205299
 20
44.251755011
 11
97.6424205299
 21
47.3421066651
  0
LINE
  5
36F
100
AcDbEntity
  8
0
100
AcDbLine
 62
7
  6
BYLAYER
 10
97.6424205299
 20
48.3421066651
 11
97.6424205299
 21
49.9326396914
  0
LINE
  5
370
100
AcDbEntity
  8
0
100
AcDbLine
 62
7
  6
BYLAYER
 10
98.6424205299
 20
49.9326396914
 11
98.6424205299
 21
48.3421066651
  0
LINE
  5
371
100
AcDbEntity
  8
0
100
AcDbLine
 62
7
  6
BYLAYER
 10
98.6424205299
 20
47.3421066651
 11
98.6424205299
 21
44.251755011
  0
LINE
  5
372
100
AcDbEntity
  8
0
100
AcDbLine
 62
7
  6
BYLAYER
 10
100.0424205299
 20
48.3421066651
 11
100.0424205299
 21
47.3421066651
  0
LINE
  5
373
100
AcDbEntity
  8
0
100
AcDbLine
 62
7
  6
BYLAYER
 10
100.3584205299
 20
49.9326396914
 11
100.3584205299
 21
59.8326396914
  0
LINE
  5
374
100
AcDbEntity
  8
0
100
AcDbLine
 62
7
  6
BYLAYER
 10
83.7146550465
 20
57.008534926
 11
80.9325252953
 21
54.2264051748
  0
LINE
  5
375
100
AcDbEntity
  8
0
100
AcDbLine
 62
7
  6
BYLAYER
 10
81.4248896783
 20
53.7288200641
 11
84.2122401572
 21
56.516170543
  0
LINE
  5
376
100
AcDbEntity
  8
0
100
AcDbLine
 62
7
  6
BYLAYER
 10
17.5950787891
 20
121.0152137745
 11
28.0972789925
 21
121.0152137745
  0
LINE
  5
377
100
AcDbEntity
  8
0
100
AcDbLine
 62
7
  6
BYLAYER
 10
65.318709856
 20
121.0152137745
 11
82.5740043339
 21
121.0152137745
  0
LINE
  5
378
100
AcDbEntity
  8
0
100
AcDbLine
 62
7
  6
BYLAYER
 10
82.5794648744
 20
121.2996719279
 11
82.974424048
 21
121.2996719279
  0
LINE
  5
379
100
AcDbEntity
  8
0
100
AcDbLine
 62
7
  6
BYLAYER
 10
101.4284205299
 20
121.5726396914
 11
95.4284205299
 21
121.5726396914
  0
LINE
  5
37A
100
AcDbEntity
  8
0
100
AcDbLine
 62
7
  6
BYLAYER
 10
93.8084205299
 20
121.5726396914
 11
87.8084205299
 21
121.5726396914
  0
LINE
  5
37B
100
AcDbEntity
  8
0
100
AcDbLine
 62
7
  6
BYLAYER
 10
18.2784205299
 20
121.6854882678
 11
16.9248042959
 21
121.6854882678
  0
LINE
  5
37C
100
AcDbEntity
  8
0
100
AcDbLine
 62
7
  6
BYLAYER
 10
27.5184205299
 20
121.881207906
 11
18.2784205299
 21
121.881207906
  0
LINE
  5
37D
100
AcDbEntity
  8
0
100
AcDbLine
 62
7
  6
BYLAYER
 10
82.5184205299
 20
121.9336210473
 11
65.9784205299
 21
121.9336210473
  0
LINE
  5
37E
100
AcDbEntity
  8
0
100
AcDbLine
 62
7
  6
BYLAYER
 10
73.2984205299
 20
122.2626549924
 11
71.2984205299
 21
122.2626549924
  0
LINE
  5
37F
100
AcDbEntity
  8
0
100
AcDbLine
 62
7
  6
BYLAYER
 10
71.2984205299
 20
123.0126396226
 11
73.2984205299
 21
123.0126396226
  0
LINE
  5
380
100
AcDbEntity
  8
0
100
AcDbLine
 62
7
  6
BYLAYER
 10
82.974424048
 20
121.2996719279
 11
82.5184205299
 21
121.9336210473
  0
LINE
  5
381
100
AcDbEntity
  8
0
100
AcDbLine
 62
7
  6
BYLAYER
 10
105.7508635692
 20
72.0338981939
 11
105.4017622707
 21
73.0820537795
  0
LINE
  5
382
100
AcDbEntity
  8
0
100
AcDbLine
 62
7
  6
BYLAYER
 10
101.4284205299
 20
121.5726396914
 11
101.4284205299
 21
118.7726396914
  0
LINE
  5
383
100
AcDbEntity
  8
0
100
AcDbLine
 62
7
  6
BYLAYER
 10
101.4384205299
 20
71.8811043761
 11
101.4384205299
 21
72.8331168279
  0
LINE
  5
384
100
AcDbEntity
  8
0
100
AcDbLine
 62
7
  6
BYLAYER
 10
102.1384205299
 20
108.9526396914
 11
102.1384205299
 21
118.7726396914
  0
LINE
  5
385
100
AcDbEntity
  8
0
100
AcDbLine
 62
7
  6
BYLAYER
 10
102.2484205299
 20
41.4182339735
 11
102.2484205299
 21
39.0713328129
  0
LINE
  5
386
100
AcDbEntity
  8
0
100
AcDbLine
 62
7
  6
BYLAYER
 10
102.4314457081
 20
54.0557057872
 11
102.4314457081
 21
42.2257330367
  0
LINE
  5
387
100
AcDbEntity
  8
0
100
AcDbLine
 62
7
  6
BYLAYER
 10
102.5290544311
 20
54.3487700889
 11
102.5290544311
 21
42.5187973385
  0
LINE
  5
388
100
AcDbEntity
  8
0
100
AcDbLine
 62
7
  6
BYLAYER
 10
103.3489838948
 20
54.3487700889
 11
103.3489838948
 21
42.5187973385
  0
LINE
  5
389
100
AcDbEntity
  8
0
100
AcDbLine
 62
7
  6
BYLAYER
 10
103.4669013982
 20
54.4666875923
 11
103.4669013982
 21
39.8832407036
  0
LINE
  5
38A
100
AcDbEntity
  8
0
100
AcDbLine
 62
7
  6
BYLAYER
 10
104.4984205299
 20
40.3618720338
 11
104.4984205299
 21
46.3618720337
  0
LINE
  5
38B
100
AcDbEntity
  8
0
100
AcDbLine
 62
7
  6
BYLAYER
 10
105.4017622707
 20
108.0368747294
 11
105.4017622707
 21
73.0820537795
  0
LINE
  5
38C
100
AcDbEntity
  8
0
100
AcDbLine
 62
7
  6
BYLAYER
 10
105.6748378894
 20
108.8567677985
 11
105.690798518
 21
126.3042500218
  0
LINE
  5
38D
100
AcDbEntity
  8
0
100
AcDbLine
 62
7
  6
BYLAYER
 10
92.5212091886
 20
41.8117115804
 11
92.7567129246
 21
42.5187973385
  0
LINE
  5
38E
100
AcDbEntity
  8
0
100
AcDbLine
 62
7
  6
BYLAYER
 10
88.7946550465
 20
57.008534926
 11
86.0125252953
 21
54.2264051748
  0
LINE
  5
38F
100
AcDbEntity
  8
0
100
AcDbLine
 62
7
  6
BYLAYER
 10
86.5048896783
 20
53.7288200641
 11
89.2922401572
 21
56.516170543
  0
LINE
  5
390
100
AcDbEntity
  8
0
100
AcDbLine
 62
7
  6
BYLAYER
 10
93.8746550465
 20
57.008534926
 11
91.0925252953
 21
54.2264051748
  0
LINE
  5
391
100
AcDbEntity
  8
0
100
AcDbLine
 62
7
  6
BYLAYER
 10
91.5848896783
 20
53.7288200641
 11
94.3722401572
 21
56.516170543
  0
LINE
  5
392
100
AcDbEntity
  8
0
100
AcDbLine
 62
7
  6
BYLAYER
 10
73.2984205299
 20
126.0126393925
 11
71.2984205299
 21
126.0126393925
  0
LINE
  5
393
100
AcDbEntity
  8
0
100
AcDbLine
 62
7
  6
BYLAYER
 10
28.1003391385
 20
126.0152137745
 11
65.3154213178
 21
126.0152137745
  0
LINE
  5
394
100
AcDbEntity
  8
0
100
AcDbLine
 62
7
  6
BYLAYER
 10
82.974424048
 20
126.3042500218
 11
105.690798518
 21
126.3042500218
  0
LINE
  5
395
100
AcDbEntity
  8
0
100
AcDbLine
 62
7
  6
BYLAYER
 10
71.2984205299
 20
126.7626240227
 11
73.2984205299
 21
126.7626240227
  0
LINE
  5
396
100
AcDbEntity
  8
0
100
AcDbLine
 62
7
  6
BYLAYER
 10
18.2784205299
 20
126.8857859999
 11
27.5184205299
 21
126.8857859999
  0
LINE
  5
397
100
AcDbEntity
  8
0
100
AcDbLine
 62
7
  6
BYLAYER
 10
87.7784205299
 20
126.9381991412
 11
82.5184205299
 21
126.9381991412
  0
LINE
  5
398
100
AcDbEntity
  8
0
100
AcDbLine
 62
7
  6
BYLAYER
 10
65.9784205299
 20
126.9381991412
 11
62.2784205299
 21
126.9381991412
  0
LINE
  5
399
100
AcDbEntity
  8
0
100
AcDbLine
 62
7
  6
BYLAYER
 10
106.5707689609
 20
127.1842204648
 11
87.7784205299
 21
127.1842204648
  0
LINE
  5
39A
100
AcDbEntity
  8
0
100
AcDbLine
 62
7
  6
BYLAYER
 10
18.2784205299
 20
127.1842204648
 11
20.2184205299
 21
127.1842204648
  0
LINE
  5
39B
100
AcDbEntity
  8
0
100
AcDbLine
 62
7
  6
BYLAYER
 10
50.4984205299
 20
127.1842204648
 11
62.2784205299
 21
127.1842204648
  0
LINE
  5
39C
100
AcDbEntity
  8
0
100
AcDbLine
 62
7
  6
BYLAYER
 10
50.4984205299
 20
127.2326396914
 11
20.2184205299
 21
127.2326396914
  0
LINE
  5
39D
100
AcDbEntity
  8
0
100
AcDbLine
 62
7
  6
BYLAYER
 10
50.4984205299
 20
127.7326396914
 11
20.2184205299
 21
127.7326396914
  0
LINE
  5
39E
100
AcDbEntity
  8
0
100
AcDbLine
 62
7
  6
BYLAYER
 10
50.4984205299
 20
128.1026396914
 11
20.2184205299
 21
128.1026396914
  0
LINE
  5
39F
100
AcDbEntity
  8
0
100
AcDbLine
 62
7
  6
BYLAYER
 10
16.9248042959
 20
128.6854882678
 11
18.2784205299
 21
128.6854882678
  0
LINE
  5
3A0
100
AcDbEntity
  8
0
100
AcDbLine
 62
7
  6
BYLAYER
 10
87.7784205299
 20
128.9400303788
 11
62.2784205299
 21
128.9400303788
  0
LINE
  5
3A1
100
AcDbEntity
  8
0
100
AcDbLine
 62
7
  6
BYLAYER
 10
18.2784205299
 20
129.2197507786
 11
20.2184205299
 21
129.2197507786
  0
LINE
  5
3A2
100
AcDbEntity
  8
0
100
AcDbLine
 62
7
  6
BYLAYER
 10
50.4984205299
 20
129.2197507786
 11
62.2784205299
 21
129.2197507786
  0
LINE
  5
3A3
100
AcDbEntity
  8
0
100
AcDbLine
 62
7
  6
BYLAYER
 10
87.7784205299
 20
129.2197507786
 11
106.6062992747
 21
129.2197507786
  0
LINE
  5
3A4
100
AcDbEntity
  8
0
100
AcDbLine
 62
7
  6
BYLAYER
 10
106.7484205299
 20
129.3618720337
 11
50.4984205299
 21
129.3618720337
  0
LINE
  5
3A5
100
AcDbEntity
  8
0
100
AcDbLine
 62
7
  6
BYLAYER
 10
20.2184205299
 20
129.3618720337
 11
16.2484205299
 21
129.3618720337
  0
LINE
  5
3A6
100
AcDbEntity
  8
0
100
AcDbLine
 62
7
  6
BYLAYER
 10
82.5184205299
 20
126.9381991412
 11
82.974424048
 21
126.3042500218
  0
LINE
  5
3A7
100
AcDbEntity
  8
0
100
AcDbLine
 62
7
  6
BYLAYER
 10
105.7508635692
 20
60.1951557243
 11
105.7508635692
 21
72.0338981939
  0
LINE
  5
3A8
100
AcDbEntity
  8
0
100
AcDbLine
 62
7
  6
BYLAYER
 10
106.0257808419
 20
59.3697332006
 11
106.0257808419
 21
54.7889954349
  0
LINE
  5
3A9
100
AcDbEntity
  8
0
100
AcDbLine
 62
7
  6
BYLAYER
 10
106.0414904003
 20
43.0093314763
 11
106.0414904003
 21
43.7144126037
  0
LINE
  5
3AA
100
AcDbEntity
  8
0
100
AcDbLine
 62
7
  6
BYLAYER
 10
106.1331294912
 20
54.4666875923
 11
106.1331294912
 21
46.3618720337
  0
LINE
  5
3AB
100
AcDbEntity
  8
0
100
AcDbLine
 62
7
  6
BYLAYER
 10
106.1331294912
 20
40.3618720337
 11
106.1331294912
 21
39.8832407036
  0
LINE
  5
3AC
100
AcDbEntity
  8
0
100
AcDbLine
 62
7
  6
BYLAYER
 10
106.7484205299
 20
38.8618720337
 11
106.7484205299
 21
129.3618720337
  0
LINE
  5
3AD
100
AcDbEntity
  8
0
100
AcDbLine
 62
7
  6
BYLAYER
 10
109.6952700228
 20
36.1526400622
 11
109.6952700228
 21
132.0721766898
  0
LINE
  5
3AE
100
AcDbEntity
  8
0
100
AcDbLine
 62
7
  6
BYLAYER
 10
106.5707689609
 20
127.1842204648
 11
106.6062992747
 21
129.2197507786
  0
LINE
  5
3AF
100
AcDbEntity
  8
0
100
AcDbLine
 62
7
  6
BYLAYER
 10
102.5290544311
 20
54.3487700889
 11
102.4314457081
 21
54.0557057872
  0
LINE
  5
3B0
100
AcDbEntity
  8
0
100
AcDbLine
 62
7
  6
BYLAYER
 10
98.9546550465
 20
57.008534926
 11
96.1725252953
 21
54.2264051748
  0
LINE
  5
3B1
100
AcDbEntity
  8
0
100
AcDbLine
 62
7
  6
BYLAYER
 10
96.6648896783
 20
53.7288200641
 11
99.4522401572
 21
56.516170543
  0
LINE
  5
3B2
100
AcDbEntity
  8
0
100
AcDbLine
 62
7
  6
BYLAYER
 10
109.6952700228
 20
132.0721766898
 11
50.4984205299
 21
132.0721766898
  0
LINE
  5
3B3
100
AcDbEntity
  8
0
100
AcDbLine
 62
7
  6
BYLAYER
 10
20.2184205299
 20
132.0721766898
 11
13.301571037
 21
132.0721766898
  0
LINE
  5
3B4
100
AcDbEntity
  8
0
100
AcDbLine
 62
7
  6
BYLAYER
 10
109.4984205299
 20
132.1114505859
 11
50.4984205299
 21
132.1114505859
  0
LINE
  5
3B5
100
AcDbEntity
  8
0
100
AcDbLine
 62
7
  6
BYLAYER
 10
20.2184205299
 20
132.1114505859
 11
13.4984205299
 21
132.1114505859
  0
LINE
  5
3B6
100
AcDbEntity
  8
0
100
AcDbLine
 62
7
  6
BYLAYER
 10
13.4984205299
 20
132.1118720337
 11
20.2184205299
 21
132.1118720337
  0
LINE
  5
3B7
100
AcDbEntity
  8
0
100
AcDbLine
 62
7
  6
BYLAYER
 10
50.4984205299
 20
132.1118720337
 11
109.4984205299
 21
132.1118720337
  0
LINE
  5
3B8
100
AcDbEntity
  8
0
100
AcDbLine
 62
7
  6
BYLAYER
 10
102.4314457081
 20
42.2257330367
 11
102.5290544311
 21
42.5187973385
  0
LINE
  5
3B9
100
AcDbEntity
  8
0
100
AcDbLine
 62
7
  6
BYLAYER
 10
103.4669013982
 20
54.4666875923
 11
103.3489838948
 21
54.3487700889
  0
LINE
  5
3BA
100
AcDbEntity
  8
0
100
AcDbLine
 62
7
  6
BYLAYER
 10
50.4984205299
 20
136.1526396914
 11
20.2184205299
 21
136.1526396914
  0
LINE
  5
3BB
100
AcDbEntity
  8
0
100
AcDbLine
 62
7
  6
BYLAYER
 10
50.4984205299
 20
136.7526396914
 11
20.2184205299
 21
136.7526396914
  0
LINE
  5
3BC
100
AcDbEntity
  8
0
100
AcDbLine
 62
7
  6
BYLAYER
 10
50.4984205299
 20
137.0526396914
 11
49.7884205299
 21
137.0526396914
  0
LINE
  5
3BD
100
AcDbEntity
  8
0
100
AcDbLine
 62
7
  6
BYLAYER
 10
43.7884205299
 20
137.0526396914
 11
42.1684205299
 21
137.0526396914
  0
LINE
  5
3BE
100
AcDbEntity
  8
0
100
AcDbLine
 62
7
  6
BYLAYER
 10
36.1684205299
 20
137.0526396914
 11
34.5484205299
 21
137.0526396914
  0
LINE
  5
3BF
100
AcDbEntity
  8
0
100
AcDbLine
 62
7
  6
BYLAYER
 10
28.5484205299
 20
137.0526396914
 11
26.9284205299
 21
137.0526396914
  0
LINE
  5
3C0
100
AcDbEntity
  8
0
100
AcDbLine
 62
7
  6
BYLAYER
 10
20.9284202302
 20
137.0526396914
 11
20.2184205299
 21
137.0526396914
  0
LINE
  5
3C1
100
AcDbEntity
  8
0
100
AcDbLine
 62
7
  6
BYLAYER
 10
106.0828458635
 20
46.2108984756
 11
106.1331294912
 21
46.3618720337
  0
LINE
  5
3C2
100
AcDbEntity
  8
0
100
AcDbLine
 62
7
  6
BYLAYER
 10
13.301571037
 20
132.0721766898
 11
13.4984205299
 21
132.1114505859
  0
LINE
  5
3C3
100
AcDbEntity
  8
0
100
AcDbLine
 62
7
  6
BYLAYER
 10
49.7884205299
 20
139.8526396914
 11
43.7884205299
 21
139.8526396914
  0
LINE
  5
3C4
100
AcDbEntity
  8
0
100
AcDbLine
 62
7
  6
BYLAYER
 10
42.1684205299
 20
139.8526396914
 11
36.1684205299
 21
139.8526396914
  0
LINE
  5
3C5
100
AcDbEntity
  8
0
100
AcDbLine
 62
7
  6
BYLAYER
 10
34.5484205299
 20
139.8526396914
 11
28.5484205299
 21
139.8526396914
  0
LINE
  5
3C6
100
AcDbEntity
  8
0
100
AcDbLine
 62
7
  6
BYLAYER
 10
26.9284205299
 20
139.8526396914
 11
20.9284202302
 21
139.8526396914
  0
LINE
  5
3C7
100
AcDbEntity
  8
0
100
AcDbLine
 62
7
  6
BYLAYER
 10
109.6952700228
 20
132.0721766898
 11
109.4984205299
 21
132.1114505859
  0
LINE
  5
3C8
100
AcDbEntity
  8
0
100
AcDbLine
 62
7
  6
BYLAYER
 10
103.3489838948
 20
42.5187973385
 11
102.2484205299
 21
41.4182339735
  0
LINE
  5
3C9
100
AcDbEntity
  8
0
100
AcDbLine
 62
7
  6
BYLAYER
 10
103.4669013982
 20
39.8832407036
 11
102.2484205299
 21
39.0713328129
  0
ARC
  5
3CA
100
AcDbEntity
  8
0
100
AcDbCircle
 62
7
  6
BYLAYER
 10
28.8074205299
 20
47.8421066651
 40
3.625
100
AcDbArc
 50
146.3524635552
 51
33.6474633028
  0
ARC
  5
3CB
100
AcDbEntity
  8
0
100
AcDbCircle
 62
7
  6
BYLAYER
 10
38.7124205299
 20
47.8421066651
 40
3.625
100
AcDbArc
 50
146.3524635552
 51
33.6474633028
  0
CIRCLE
  5
3CC
100
AcDbEntity
  8
0
100
AcDbCircle
 62
7
  6
BYLAYER
 10
40.1584205299
 20
68.4626396914
 40
2.0
  0
CIRCLE
  5
3CD
100
AcDbEntity
  8
0
100
AcDbCircle
 62
7
  6
BYLAYER
 10
35.0784205299
 20
68.4626396914
 40
2.0
  0
CIRCLE
  5
3CE
100
AcDbEntity
  8
0
100
AcDbCircle
 62
7
  6
BYLAYER
 10
29.9984205299
 20
68.4626396914
 40
2.0
  0
CIRCLE
  5
3CF
100
AcDbEntity
  8
0
100
AcDbCircle
 62
7
  6
BYLAYER
 10
24.9184205299
 20
68.4626396914
 40
2.0
  0
CIRCLE
  5
3D0
100
AcDbEntity
  8
0
100
AcDbCircle
 62
7
  6
BYLAYER
 10
40.4184205299
 20
55.3626396914
 40
2.0
  0
CIRCLE
  5
3D1
100
AcDbEntity
  8
0
100
AcDbCircle
 62
7
  6
BYLAYER
 10
35.3384205299
 20
55.3626396914
 40
2.0
  0
CIRCLE
  5
3D2
100
AcDbEntity
  8
0
100
AcDbCircle
 62
7
  6
BYLAYER
 10
30.2584205299
 20
55.3626396914
 40
2.0
  0
CIRCLE
  5
3D3
100
AcDbEntity
  8
0
100
AcDbCircle
 62
7
  6
BYLAYER
 10
25.1784205299
 20
55.3626396914
 40
2.0
  0
ARC
  5
3D4
100
AcDbEntity
  8
0
100
AcDbCircle
 62
7
  6
BYLAYER
 10
48.6174205299
 20
47.8421066651
 40
3.625
100
AcDbArc
 50
146.3524635552
 51
33.6474633028
  0
ARC
  5
3D5
100
AcDbEntity
  8
0
100
AcDbCircle
 62
7
  6
BYLAYER
 10
58.5224205299
 20
47.8421066651
 40
3.625
100
AcDbArc
 50
146.3524635552
 51
33.6474633028
  0
ARC
  5
3D6
100
AcDbEntity
  8
0
100
AcDbCircle
 62
7
  6
BYLAYER
 10
58.7484205299
 20
35.1902802718
 40
1.0
100
AcDbArc
 50
107.6399071473
 51
270.0
  0
CIRCLE
  5
3D7
100
AcDbEntity
  8
0
100
AcDbCircle
 62
7
  6
BYLAYER
 10
45.4984205299
 20
55.3626396914
 40
2.0
  0
CIRCLE
  5
3D8
100
AcDbEntity
  8
0
100
AcDbCircle
 62
7
  6
BYLAYER
 10
50.5784205299
 20
55.3626396914
 40
2.0
  0
CIRCLE
  5
3D9
100
AcDbEntity
  8
0
100
AcDbCircle
 62
7
  6
BYLAYER
 10
55.6584205299
 20
55.3626396914
 40
2.0
  0
CIRCLE
  5
3DA
100
AcDbEntity
  8
0
100
AcDbCircle
 62
7
  6
BYLAYER
 10
60.7384205299
 20
55.3626396914
 40
2.0
  0
CIRCLE
  5
3DB
100
AcDbEntity
  8
0
100
AcDbCircle
 62
7
  6
BYLAYER
 10
23.9284205299
 20
131.7026396914
 40
2.6
  0
CIRCLE
  5
3DC
100
AcDbEntity
  8
0
100
AcDbCircle
 62
7
  6
BYLAYER
 10
31.5484205299
 20
131.7026396914
 40
2.6
  0
CIRCLE
  5
3DD
100
AcDbEntity
  8
0
100
AcDbCircle
 62
7
  6
BYLAYER
 10
39.1684205299
 20
131.7026396914
 40
2.6
  0
CIRCLE
  5
3DE
100
AcDbEntity
  8
0
100
AcDbCircle
 62
7
  6
BYLAYER
 10
46.7884205299
 20
131.7026396914
 40
2.6
  0
CIRCLE
  5
3DF
100
AcDbEntity
  8
0
100
AcDbCircle
 62
7
  6
BYLAYER
 10
23.9284205299
 20
131.7026396914
 40
2.0
  0
CIRCLE
  5
3E0
100
AcDbEntity
  8
0
100
AcDbCircle
 62
7
  6
BYLAYER
 10
31.5484205299
 20
131.7026396914
 40
2.0
  0
CIRCLE
  5
3E1
100
AcDbEntity
  8
0
100
AcDbCircle
 62
7
  6
BYLAYER
 10
39.1684205299
 20
131.7026396914
 40
2.0
  0
CIRCLE
  5
3E2
100
AcDbEntity
  8
0
100
AcDbCircle
 62
7
  6
BYLAYER
 10
46.7884205299
 20
131.7026396914
 40
2.0
  0
ARC
  5
3E3
100
AcDbEntity
  8
0
100
AcDbCircle
 62
7
  6
BYLAYER
 10
61.4984205299
 20
53.0902802719
 40
22.0000000001
100
AcDbArc
 50
254.8490091099
 51
285.150990892
  0
CIRCLE
  5
3E4
100
AcDbEntity
  8
0
100
AcDbCircle
 62
7
  6
BYLAYER
 10
68.4274205299
 20
47.8421066651
 40
3.625
  0
ARC
  5
3E5
100
AcDbEntity
  8
0
100
AcDbCircle
 62
7
  6
BYLAYER
 10
88.2374205299
 20
47.8421066651
 40
3.625
100
AcDbArc
 50
146.3524635552
 51
33.6474633028
  0
ARC
  5
3E6
100
AcDbEntity
  8
0
100
AcDbCircle
 62
7
  6
BYLAYER
 10
98.1424205299
 20
47.8421066651
 40
3.625
100
AcDbArc
 50
146.3524635552
 51
52.5309253903
  0
ARC
  5
3E7
100
AcDbEntity
  8
0
100
AcDbCircle
 62
7
  6
BYLAYER
 10
78.3324205299
 20
47.8421066651
 40
3.625
100
AcDbArc
 50
146.3524635552
 51
33.6474633028
  0
CIRCLE
  5
3E8
100
AcDbEntity
  8
0
100
AcDbCircle
 62
7
  6
BYLAYER
 10
97.8184205299
 20
55.3626396914
 40
2.0
  0
CIRCLE
  5
3E9
100
AcDbEntity
  8
0
100
AcDbCircle
 62
7
  6
BYLAYER
 10
92.7384205299
 20
55.3626396914
 40
2.0
  0
CIRCLE
  5
3EA
100
AcDbEntity
  8
0
100
AcDbCircle
 62
7
  6
BYLAYER
 10
87.6584205299
 20
55.3626396914
 40
2.0
  0
CIRCLE
  5
3EB
100
AcDbEntity
  8
0
100
AcDbCircle
 62
7
  6
BYLAYER
 10
82.5784205299
 20
55.3626396914
 40
2.0
  0
CIRCLE
  5
3EC
100
AcDbEntity
  8
0
100
AcDbCircle
 62
7
  6
BYLAYER
 10
77.4984205299
 20
55.3626396914
 40
2.0
  0
ARC
  5
3ED
100
AcDbEntity
  8
0
100
AcDbCircle
 62
7
  6
BYLAYER
 10
61.4984205299
 20
34.1902802718
 40
1.6
100
AcDbArc
 50
180.0
 51
360.0
  0
ARC
  5
3EE
100
AcDbEntity
  8
0
100
AcDbCircle
 62
7
  6
BYLAYER
 10
64.2484205299
 20
35.1902802718
 40
1.0
100
AcDbArc
 50
270.0
 51
72.3608854066
  0
CIRCLE
  5
3EF
100
AcDbEntity
  8
0
100
AcDbCircle
 62
7
  6
BYLAYER
 10
90.8084205299
 20
113.4226396914
 40
2.6
  0
CIRCLE
  5
3F0
100
AcDbEntity
  8
0
100
AcDbCircle
 62
7
  6
BYLAYER
 10
98.4284205299
 20
113.4226396914
 40
2.6
  0
CIRCLE
  5
3F1
100
AcDbEntity
  8
0
100
AcDbCircle
 62
7
  6
BYLAYER
 10
90.8084205299
 20
113.4226396914
 40
2.0
  0
CIRCLE
  5
3F2
100
AcDbEntity
  8
0
100
AcDbCircle
 62
7
  6
BYLAYER
 10
98.4284205299
 20
113.4226396914
 40
2.0
  0
SPLINE
  5
3F3
100
AcDbEntity
  8
0
100
AcDbSpline
 62
7
  6
BYLAYER
 70
0
 71
3
 72
35
 73
31
 74
0
 42
0.0000001
 43
0.0000001
 44
0.0000000001
 40
0.0
 40
0.0
 40
0.0
 40
0.0
 40
0.0007407888
 40
0.00260114
 40
0.005636841
 40
0.0098487545
 40
0.0217734636
 40
0.0383052193
 40
0.0592961666
 40
0.0845131178
 40
0.1137170574
 40
0.1466548432
 40
0.2223708363
 40
0.3087588447
 40
0.4024939086
 40
0.4999791577
 40
0.5974640516
 40
0.6912017834
 40
0.7775939138
 40
0.8533220907
 40
0.886264618
 40
0.915473181
 40
0.9406953208
 40
0.9616904262
 40
0.9782242316
 40
0.9901502359
 40
0.9943625993
 40
0.9973986193
 40
0.9992591584
 40
1.0
 40
1.0
 40
1.0
 40
1.0
 10
106.0851280626
 20
44.3626817234
 30
0.0
 10
106.0846334709
 20
44.3626817234
 30
0.0
 10
106.0839519836
 20
44.3604399469
 30
0.0
 10
106.0832500664
 20
44.3572743242
 30
0.0
 10
106.0824308519
 20
44.3509560685
 30
0.0
 10
106.0812117717
 20
44.3383857521
 30
0.0
 10
106.079800725
 20
44.3164890836
 30
0.0
 10
106.0782480753
 20
44.2835724032
 30
0.0
 10
106.07674455
 20
44.2416867685
 30
0.0
 10
106.0753040506
 20
44.1913662791
 30
0.0
 10
106.073949467
 20
44.1330535191
 30
0.0
 10
106.0721990744
 20
44.0410296302
 30
0.0
 10
106.0703925646
 20
43.9108199641
 30
0.0
 10
106.0688369631
 20
43.7400144849
 30
0.0
 10
106.0678742932
 20
43.5546697441
 30
0.0
 10
106.0675509356
 20
43.3619140372
 30
0.0
 10
106.0678741
 20
43.1691565495
 30
0.0
 10
106.0688362936
 20
42.9838075093
 30
0.0
 10
106.0703920546
 20
42.8129893637
 30
0.0
 10
106.0721982193
 20
42.6827656391
 30
0.0
 10
106.0739487024
 20
42.5907273623
 30
0.0
 10
106.0753034427
 20
42.5324048857
 30
0.0
 10
106.0767440485
 20
42.4820750716
 30
0.0
 10
106.0782476553
 20
42.4401818176
 30
0.0
 10
106.0798005489
 20
42.4072601494
 30
0.0
 10
106.0812116873
 20
42.3853609194
 30
0.0
 10
106.0824308279
 20
42.3727892626
 30
0.0
 10
106.0832500344
 20
42.3664702999
 30
0.0
 10
106.0839520049
 20
42.3633044137
 30
0.0
 10
106.0846334356
 20
42.3610623445
 30
0.0
 10
106.0851280626
 20
42.3610623445
 30
0.0
  0
SPLINE
  5
3F4
100
AcDbEntity
  8
0
100
AcDbSpline
 62
7
  6
BYLAYER
 70
0
 71
3
 72
35
 73
31
 74
0
 42
0.0000001
 43
0.0000001
 44
0.0000000001
 40
0.0
 40
0.0
 40
0.0
 40
0.0
 40
0.0007409757
 40
0.0026019448
 40
0.0056385895
 40
0.0098516803
 40
0.0217790877
 40
0.0383130947
 40
0.0593035735
 40
0.0845184759
 40
0.11372057
 40
0.1466574801
 40
0.2223722166
 40
0.3087595584
 40
0.4024942412
 40
0.4999798892
 40
0.5974651938
 40
0.6912025452
 40
0.777593978
 40
0.85332066
 40
0.8862621456
 40
0.915468606
 40
0.9406884753
 40
0.9616829601
 40
0.9782189075
 40
0.9901474701
 40
0.9943609476
 40
0.9973978596
 40
0.9992589821
 40
1.0
 40
1.0
 40
1.0
 40
1.0
 10
16.9117129972
 20
44.3626817234
 30
0.0
 10
16.9122077136
 20
44.3626817234
 30
0.0
 10
16.9128889508
 20
44.3604389202
 30
0.0
 10
16.9135909995
 20
44.3572725059
 30
0.0
 10
16.9144100606
 20
44.3509521844
 30
0.0
 10
16.915629077
 20
44.3383787458
 30
0.0
 10
16.9170399194
 20
44.3164778958
 30
0.0
 10
16.9185923842
 20
44.2835582477
 30
0.0
 10
16.9200960223
 20
44.2416727972
 30
0.0
 10
16.9215366531
 20
44.1913552365
 30
0.0
 10
16.9228913666
 20
44.1330456755
 30
0.0
 10
16.9246419069
 20
44.0410244634
 30
0.0
 10
16.9264486815
 20
43.9108166942
 30
0.0
 10
16.9280044848
 20
43.7400127877
 30
0.0
 10
16.9289673206
 20
43.5546685159
 30
0.0
 10
16.9292907241
 20
43.3619125595
 30
0.0
 10
16.9289675183
 20
43.1691548217
 30
0.0
 10
16.9280051614
 20
42.9838062629
 30
0.0
 10
16.9264492051
 20
42.8129898691
 30
0.0
 10
16.924642766
 20
42.6827683323
 30
0.0
 10
16.9228921339
 20
42.5907331739
 30
0.0
 10
16.9215372554
 20
42.5324143274
 30
0.0
 10
16.9200965146
 20
42.4820878632
 30
0.0
 10
16.918592794
 20
42.4401951168
 30
0.0
 10
16.9170400952
 20
42.407270747
 30
0.0
 10
16.9156291587
 20
42.3853675486
 30
0.0
 10
16.9144100853
 20
42.3727929342
 30
0.0
 10
16.9135910273
 20
42.3664720179
 30
0.0
 10
16.9128889353
 20
42.3633053838
 30
0.0
 10
16.9122077418
 20
42.3610623445
 30
0.0
 10
16.9117129972
 20
42.3610623445
 30
0.0
  0
SPLINE
  5
3F5
100
AcDbEntity
  8
0
100
AcDbSpline
 62
7
  6
BYLAYER
 70
0
 71
3
 72
18
 73
14
 74
0
 42
0.0000001
 43
0.0000001
 44
0.0000000001
 40
0.0
 40
0.0
 40
0.0
 40
0.0
 40
0.0096040092
 40
0.0280404773
 40
0.0551970153
 40
0.0908538799
 40
0.134667031
 40
0.1862708949
 40
0.3109029234
 40
0.4602915273
 40
0.6290151904
 40
0.8111834539
 40
1.0
 40
1.0
 40
1.0
 40
1.0
 10
106.0828458635
 20
40.5128455919
 30
0.0
 10
106.0803194162
 20
40.5204310977
 30
0.0
 10
106.0779648563
 20
40.5439085341
 30
0.0
 10
106.0737580438
 20
40.5894908919
 30
0.0
 10
106.0702411547
 20
40.6571372677
 30
0.0
 10
106.0664305144
 20
40.7457824105
 30
0.0
 10
106.0628769583
 20
40.8548569944
 30
0.0
 10
106.0580013223
 20
41.0379734705
 30
0.0
 10
106.0528058053
 20
41.3090078136
 30
0.0
 10
106.0478978694
 20
41.6775518061
 30
0.0
 10
106.0442473198
 20
42.0940127506
 30
0.0
 10
106.041996126
 20
42.5433059873
 30
0.0
 10
106.0414904003
 20
42.852144887
 30
0.0
 10
106.0414904003
 20
43.0093314763
 30
0.0
  0
SPLINE
  5
3F6
100
AcDbEntity
  8
0
100
AcDbSpline
 62
7
  6
BYLAYER
 70
0
 71
3
 72
18
 73
14
 74
0
 42
0.0000001
 43
0.0000001
 44
0.0000000001
 40
0.0
 40
0.0
 40
0.0
 40
0.0
 40
0.1888164991
 40
0.370984683
 40
0.5397083348
 40
0.689096952
 40
0.8137290112
 40
0.8653328882
 40
0.9091460618
 40
0.9448029497
 40
0.9719595005
 40
0.9903959834
 40
1.0
 40
1.0
 40
1.0
 40
1.0
 10
106.0414904003
 20
43.7144126037
 30
0.0
 10
106.0414904003
 20
43.8715991532
 30
0.0
 10
106.041996125
 20
44.1804379459
 30
0.0
 10
106.0442473184
 20
44.6297310655
 30
0.0
 10
106.047897866
 20
45.0461919432
 30
0.0
 10
106.0528058007
 20
45.414735961
 30
0.0
 10
106.0580013164
 20
45.6857703503
 30
0.0
 10
106.0628769529
 20
45.8688868807
 30
0.0
 10
106.0664305092
 20
45.9779615132
 30
0.0
 10
106.0702411498
 20
46.0666067043
 30
0.0
 10
106.0737580417
 20
46.1342531221
 30
0.0
 10
106.0779648571
 20
46.1798355082
 30
0.0
 10
106.0803194142
 20
46.203312964
 30
0.0
 10
106.0828458635
 20
46.2108984756
 30
0.0
  0
SPLINE
  5
3F7
100
AcDbEntity
  8
0
100
AcDbSpline
 62
7
  6
BYLAYER
 70
0
 71
3
 72
35
 73
31
 74
0
 42
0.0000001
 43
0.0000001
 44
0.0000000001
 40
0.0
 40
0.0
 40
0.0
 40
0.0
 40
0.0007407888
 40
0.00260114
 40
0.005636841
 40
0.0098487545
 40
0.0217734636
 40
0.0383052193
 40
0.0592961667
 40
0.0845131178
 40
0.1137170575
 40
0.1466548433
 40
0.2223708364
 40
0.3087588447
 40
0.4024939086
 40
0.4999791577
 40
0.5974640516
 40
0.6912017834
 40
0.7775939138
 40
0.8533220907
 40
0.886264618
 40
0.915473181
 40
0.9406953208
 40
0.9616904261
 40
0.9782242316
 40
0.9901502359
 40
0.9943625993
 40
0.9973986193
 40
0.9992591584
 40
1.0
 40
1.0
 40
1.0
 40
1.0
 10
106.0851280626
 20
42.3610623445
 30
0.0
 10
106.0856226543
 20
42.3610623445
 30
0.0
 10
106.0863041416
 20
42.363304121
 30
0.0
 10
106.0870060588
 20
42.3664697437
 30
0.0
 10
106.0878252734
 20
42.3727879994
 30
0.0
 10
106.0890443536
 20
42.3853583158
 30
0.0
 10
106.0904554002
 20
42.4072549843
 30
0.0
 10
106.0920080499
 20
42.4401716648
 30
0.0
 10
106.0935115752
 20
42.4820572995
 30
0.0
 10
106.0949520746
 20
42.5323777889
 30
0.0
 10
106.0963066582
 20
42.5906905489
 30
0.0
 10
106.0980570509
 20
42.6827144377
 30
0.0
 10
106.0998635607
 20
42.8129241038
 30
0.0
 10
106.1014191621
 20
42.983729583
 30
0.0
 10
106.1023818321
 20
43.1690743238
 30
0.0
 10
106.1027051896
 20
43.3618300306
 30
0.0
 10
106.1023820253
 20
43.5545875184
 30
0.0
 10
106.1014198317
 20
43.7399365585
 30
0.0
 10
106.0998640706
 20
43.9107547041
 30
0.0
 10
106.098057906
 20
44.0409784288
 30
0.0
 10
106.0963074229
 20
44.1330167055
 30
0.0
 10
106.0949526826
 20
44.1913391821
 30
0.0
 10
106.0935120767
 20
44.2416689962
 30
0.0
 10
106.0920084699
 20
44.2835622502
 30
0.0
 10
106.0904555763
 20
44.3164839184
 30
0.0
 10
106.0890444379
 20
44.3383831484
 30
0.0
 10
106.0878252974
 20
44.3509548053
 30
0.0
 10
106.0870060909
 20
44.357273768
 30
0.0
 10
106.0863041203
 20
44.3604396542
 30
0.0
 10
106.0856226896
 20
44.3626817234
 30
0.0
 10
106.0851280626
 20
44.3626817234
 30
0.0
  0
SPLINE
  5
3F8
100
AcDbEntity
  8
0
100
AcDbSpline
 62
7
  6
BYLAYER
 70
0
 71
3
 72
18
 73
14
 74
0
 42
0.0000001
 43
0.0000001
 44
0.0000000001
 40
0.0
 40
0.0
 40
0.0
 40
0.0
 40
0.1888156788
 40
0.3709836814
 40
0.5397090057
 40
0.6890969941
 40
0.8137262488
 40
0.8653285831
 40
0.9091403042
 40
0.9447969982
 40
0.9719555729
 40
0.9903946911
 40
1.0
 40
1.0
 40
1.0
 40
1.0
 10
16.9553506595
 20
43.7144128832
 30
0.0
 10
16.9553506595
 20
43.8715987279
 30
0.0
 10
16.9548452695
 20
44.1804366439
 30
0.0
 10
16.9525943237
 20
44.629730261
 30
0.0
 10
16.9489437405
 20
45.0461917987
 30
0.0
 10
16.9440356072
 20
45.4147342963
 30
0.0
 10
16.9388398084
 20
45.6857645005
 30
0.0
 10
16.9339640067
 20
45.8688761693
 30
0.0
 10
16.9304103562
 20
45.9779481311
 30
0.0
 10
16.9265995295
 20
46.0665936043
 30
0.0
 10
16.9230828807
 20
46.1342437818
 30
0.0
 10
16.9188758764
 20
46.1798310329
 30
0.0
 10
16.9165219815
 20
46.2033119554
 30
0.0
 10
16.9139951926
 20
46.2108984866
 30
0.0
  0
SPLINE
  5
3F9
100
AcDbEntity
  8
0
100
AcDbSpline
 62
7
  6
BYLAYER
 70
0
 71
3
 72
18
 73
14
 74
0
 42
0.0000001
 43
0.0000001
 44
0.0000000001
 40
0.0
 40
0.0
 40
0.0
 40
0.0
 40
0.0096053091
 40
0.0280444276
 40
0.0552030026
 40
0.0908596968
 40
0.134671418
 40
0.1862737524
 40
0.3109030068
 40
0.4602909947
 40
0.6290163185
 40
0.8111843211
 40
1.0
 40
1.0
 40
1.0
 40
1.0
 10
16.9139951927
 20
40.5128455812
 30
0.0
 10
16.9165219817
 20
40.5204321125
 30
0.0
 10
16.9188758765
 20
40.5439130356
 30
0.0
 10
16.9230828808
 20
40.5895002874
 30
0.0
 10
16.9265995296
 20
40.6571504658
 30
0.0
 10
16.9304103563
 20
40.7457959397
 30
0.0
 10
16.9339640068
 20
40.854867902
 30
0.0
 10
16.9388398085
 20
41.0379795711
 30
0.0
 10
16.9440356073
 20
41.3090097754
 30
0.0
 10
16.9489437405
 20
41.6775522728
 30
0.0
 10
16.9525943238
 20
42.0940138107
 30
0.0
 10
16.9548452696
 20
42.5433074284
 30
0.0
 10
16.9553506595
 20
42.8521453453
 30
0.0
 10
16.9553506595
 20
43.0093311903
 30
0.0
  0
SPLINE
  5
3FA
100
AcDbEntity
  8
0
100
AcDbSpline
 62
7
  6
BYLAYER
 70
0
 71
3
 72
35
 73
31
 74
0
 42
0.0000001
 43
0.0000001
 44
0.0000000001
 40
0.0
 40
0.0
 40
0.0
 40
0.0
 40
0.0007409757
 40
0.0026019448
 40
0.0056385895
 40
0.0098516804
 40
0.0217790877
 40
0.0383130947
 40
0.0593035735
 40
0.0845184759
 40
0.11372057
 40
0.1466574802
 40
0.2223722167
 40
0.3087595584
 40
0.4024942413
 40
0.4999798892
 40
0.5974651938
 40
0.6912025452
 40
0.777593978
 40
0.85332066
 40
0.8862621456
 40
0.9154686059
 40
0.9406884753
 40
0.9616829601
 40
0.9782189075
 40
0.9901474701
 40
0.9943609476
 40
0.9973978596
 40
0.9992589821
 40
1.0
 40
1.0
 40
1.0
 40
1.0
 10
16.9117129972
 20
42.3610623445
 30
0.0
 10
16.9112182807
 20
42.3610623445
 30
0.0
 10
16.9105370435
 20
42.3633051476
 30
0.0
 10
16.9098349949
 20
42.366471562
 30
0.0
 10
16.9090159337
 20
42.3727918835
 30
0.0
 10
16.9077969173
 20
42.3853653221
 30
0.0
 10
16.906386075
 20
42.4072661721
 30
0.0
 10
16.9048336102
 20
42.4401858203
 30
0.0
 10
16.903329972
 20
42.4820712708
 30
0.0
 10
16.9018893413
 20
42.5323888315
 30
0.0
 10
16.9005346277
 20
42.5906983924
 30
0.0
 10
16.8987840875
 20
42.6827196046
 30
0.0
 10
16.8969773129
 20
42.8129273737
 30
0.0
 10
16.8954215095
 20
42.9837312802
 30
0.0
 10
16.8944586738
 20
43.169075552
 30
0.0
 10
16.8941352703
 20
43.3618315084
 30
0.0
 10
16.8944584761
 20
43.5545892462
 30
0.0
 10
16.8954208329
 20
43.739937805
 30
0.0
 10
16.8969767893
 20
43.9107541988
 30
0.0
 10
16.8987832283
 20
44.0409757356
 30
0.0
 10
16.9005338605
 20
44.1330108939
 30
0.0
 10
16.901888739
 20
44.1913297405
 30
0.0
 10
16.9033294797
 20
44.2416562047
 30
0.0
 10
16.9048332003
 20
44.283548951
 30
0.0
 10
16.9063858991
 20
44.3164733209
 30
0.0
 10
16.9077968356
 20
44.3383765192
 30
0.0
 10
16.909015909
 20
44.3509511336
 30
0.0
 10
16.909834967
 20
44.3572720499
 30
0.0
 10
16.910537059
 20
44.3604386841
 30
0.0
 10
16.9112182526
 20
44.3626817234
 30
0.0
 10
16.9117129972
 20
44.3626817234
 30
0.0
  0
ENDSEC
  0
SECTION
  2
OBJECTS
  0
DICTIONARY
  5
C
100
AcDbDictionary
280
0
281
1
  3
ACAD_GROUP
350
D
  3
ACAD_MLINESTYLE
350
17
  3
ACAD_LAYOUT
350
1A
  3
ACAD_PLOTSETTINGS
350
19
  3
ACAD_PLOTSTYLENAME
350
E
  0
DICTIONARY
  5
D
102
{ACAD_REACTORS
330
C
102
}
100
AcDbDictionary
280
0
281
1
  0
ACDBDICTIONARYWDFLT
  5
E
102
{ACAD_REACTORS
330
C
102
}
100
AcDbDictionary
281
1
  3
Normal
350
F
100
AcDbDictionaryWithDefault
340
F
  0
DICTIONARY
  5
17
102
{ACAD_REACTORS
330
C
102
}
100
AcDbDictionary
280
0
281
1
  3
Standard
350
18
  0
DICTIONARY
  5
19
102
{ACAD_REACTORS
330
C
102
}
100
AcDbDictionary
281
1
  0
DICTIONARY
  5
1A
102
{ACAD_REACTORS
330
C
102
}
100
AcDbDictionary
281
1
  3
Model
350
3FB
  3
Layout1
350
3FC
  0
ACDBPLACEHOLDER
  5
F
102
{ACAD_REACTORS
330
E
102
}
  0
MLINESTYLE
  5
18
102
{ACAD_REACTORS
330
17
102
}
100
AcDbMlineStyle
  2
STANDARD
 70
0
  3

 62
256
 51
90.0
 52
90.0
 71
2
 49
0.5
 62
256
  6
BYLAYER
 49
-0.5
 62
256
  6
BYLAYER
  0
LAYOUT
  5
3FB
102
{ACAD_REACTORS
330
1A
102
}
100
AcDbPlotSettings
  1

  2
none_device
  4

  6

 40
0.0
 41
0.0
 42
0.0
 43
0.0
 44
210.0
 45
297.0
 46
0.0
 47
0.0
 48
0.0
 49
0.0
140
0.0
141
0.0
142
1.0
143
1.0
 70
1024
 72
1
 73
0
 74
0
  7

 75
0
147
1.0
148
0.0
149
0.0
100
AcDbLayout
  1
Model
 70
0
 71
0
 10
0.0
 20
0.0
 11
210.0
 21
297.0
 12
0.0
 22
0.0
 32
0.0
 14
0.0
 24
0.0
 34
0.0
 15
0.0
 25
0.0
 35
0.0
146
0.0
 13
0.0
 23
0.0
 33
0.0
 16
1.0
 26
0.0
 36
0.0
 17
0.0
 27
1.0
 37
0.0
 76
0
330
210
345
0
346
0
  0
LAYOUT
  5
3FC
102
{ACAD_REACTORS
330
1A
102
}
100
AcDbPlotSettings
  1

  2
none_device
  4

  6

 40
0.0
 41
0.0
 42
0.0
 43
0.0
 44
210.0
 45
297.0
 46
0.0
 47
0.0
 48
0.0
 49
0.0
140
0.0
141
0.0
142
1.0
143
1.0
 70
0
 72
1
 73
0
 74
0
  7

 75
0
147
1.0
148
0.0
149
0.0
100
AcDbLayout
  1
Layout1
 70
0
 71
1
 10
0.0
 20
0.0
 11
210.0
 21
297.0
 12
0.0
 22
0.0
 32
0.0
 14
0.0
 24
0.0
 34
0.0
 15
0.0
 25
0.0
 35
0.0
146
0.0
 13
0.0
 23
0.0
 33
0.0
 16
1.0
 26
0.0
 36
0.0
 17
0.0
 27
1.0
 37
0.0
 76
0
330
211
345
0
346
0
  0
ENDSEC
  0
EOF
