999
DXF file: C:\Users\sesa63760\Dev\_Creo\CAD\MCADID0000967_3D-CAD\drw0001_4.dxf
999
Pro/ENGINEER 2019471 by Parametric Technology Corporation
  0
SECTION
  2
HEADER
  9
$ACADVER
  1
AC1024
  9
$DWGCODEPAGE
  3
ANSI_1252
  9
$EXTMAX
 10
399.1682973481
 20
564.5380205352
 30
0.0
  9
$EXTMIN
 10
0.0
 20
0.0
 30
0.0
  9
$LIMMIN
 10
0.0
 20
0.0
  9
$LIMMAX
 10
399.1682973481
 20
564.5380205352
  9
$VIEWCTR
 10
199.5841486741
 20
282.2690102676
  9
$VIEWSIZE
 40
564.5380205352
  9
$CLAYER
  8
0
  9
$LTSCALE
 40
36.7995154127
  9
$CELTYPE
  6
BYLAYER
  9
$DIMSCALE
 40
1.0
  9
$DIMASZ
 40
4.7520035399
  9
$DIMEXO
 40
1.0
  9
$DIMDLI
 40
25.4251197397
  9
$DIMEXE
 40
1.0
  9
$DIMCEN
 40
6.0217388857
  9
$DIMLFAC
 40
1.0
  9
$DIMBLK
  1
_FILLED
  9
$DIMALT
 70
0
  9
$DIMALTF
 40
0.0393700787
  9
$DIMTXT
 40
6.6528049558
  9
$DIMTOL
 70
1
  9
$DIMLIM
 70
0
  9
$DIMTFAC
 40
1.0
  9
$DIMTP
 40
0.01
  9
$DIMTM
 40
0.01
  9
$DIMGAP
 40
0.625
  9
$DIMDSEP
 70
46
  9
$AUNITS
 70
0
  9
$PDMODE
 70
3
  9
$PDSIZE
 40
0.3125
  9
$HANDSEED
  5
3FA
  9
$TILEMODE
 70
1
  9
$MEASUREMENT
 70
1
  9
$INSUNITS
 70
4
  0
ENDSEC
  0
SECTION
  2
CLASSES
  0
CLASS
  1
ACDBDICTIONARYWDFLT
  2
AcDbDictionaryWithDefault
  3
AutoCAD 2000
 90
0
 91
1
280
0
281
0
  0
CLASS
  1
ACDBPLACEHOLDER
  2
AcDbPlaceHolder
  3
AutoCAD 2000
 90
0
 91
1
280
0
281
0
  0
CLASS
  1
LAYOUT
  2
AcDbLayout
  3
AutoCAD 2000
 90
0
 91
0
280
0
281
0
  0
ENDSEC
  0
SECTION
  2
TABLES
  0
TABLE
  2
VPORT
  5
8
100
AcDbSymbolTable
 70
2
  0
VPORT
  5
1F4
100
AcDbSymbolTableRecord
100
AcDbViewportTableRecord
  2
*ACTIVE
 70
0
 10
0.0
 20
0.0
 11
1.0
 21
1.0
 12
199.5841486741
 22
282.2690102676
 13
0.0
 23
0.0
 14
1.0
 24
1.0
 15
0.0
 25
0.0
 16
0.0
 26
0.0
 36
1.0
 17
0.0
 27
0.0
 37
0.0
 40
564.5380205352
 41
0.7070707071
 42
50.0
 43
0.0
 44
0.0
 50
0.0
 51
0.0
 71
0
 72
100
 73
1
 74
1
 75
0
 76
0
 77
0
 78
0
  0
ENDTAB
  0
TABLE
  2
LTYPE
  5
5
100
AcDbSymbolTable
 70
6
  0
LTYPE
  5
14
100
AcDbSymbolTableRecord
100
AcDbLinetypeTableRecord
  2
BYBLOCK
 70
0
  3

 72
65
 73
0
 40
0.0
  0
LTYPE
  5
15
100
AcDbSymbolTableRecord
100
AcDbLinetypeTableRecord
  2
BYLAYER
 70
0
  3

 72
65
 73
0
 40
0.0
  0
LTYPE
  5
16
100
AcDbSymbolTableRecord
100
AcDbLinetypeTableRecord
  2
CONTINUOUS
 70
64
  3
Solid line
 72
65
 73
0
 40
0.0
  0
LTYPE
  5
1F5
100
AcDbSymbolTableRecord
100
AcDbLinetypeTableRecord
  2
CENTER
 70
64
  3
____ _ ____ _ ____ _ ____ _ ____ _ ____ _ ____
 72
65
 73
4
 40
0.6
 49
0.375
 74
0
 49
-0.075
 74
0
 49
0.075
 74
0
 49
-0.075
 74
0
  0
LTYPE
  5
1F6
100
AcDbSymbolTableRecord
100
AcDbLinetypeTableRecord
  2
HIDDEN
 70
64
  3
- - - - - - - - - - - - - - - - - - - -
 72
65
 73
2
 40
0.2
 49
0.1
 74
0
 49
-0.1
 74
0
  0
LTYPE
  5
1F7
100
AcDbSymbolTableRecord
100
AcDbLinetypeTableRecord
  2
PHANTOM
 70
64
  3
_____ _ _ _____ _ _ _____ _ _ _____
 72
65
 73
6
 40
0.8
 49
0.45
 74
0
 49
-0.05
 74
0
 49
0.1
 74
0
 49
-0.05
 74
0
 49
0.1
 74
0
 49
-0.05
 74
0
  0
LTYPE
  5
1F8
100
AcDbSymbolTableRecord
100
AcDbLinetypeTableRecord
  2
DOT
 70
64
  3
. . . . . . . . . . . . . . . . . . . .
 72
65
 73
2
 40
0.2
 49
0.1
 74
0
 49
-0.1
 74
0
  0
LTYPE
  5
1F9
100
AcDbSymbolTableRecord
100
AcDbLinetypeTableRecord
  2
DASHED
 70
64
  3
- - - - - - - - - - - - - - - - - - - -
 72
65
 73
2
 40
0.2
 49
0.1
 74
0
 49
-0.1
 74
0
  0
ENDTAB
  0
TABLE
  2
LAYER
  5
2
100
AcDbSymbolTable
 70
36
  0
LAYER
  5
10
100
AcDbSymbolTableRecord
100
AcDbLayerTableRecord
  2
0
 70
0
 62
7
  6
CONTINUOUS
370
-3
390
F
  0
LAYER
  5
1FA
100
AcDbSymbolTableRecord
100
AcDbLayerTableRecord
  2
DEFAULT_1
 70
0
 62
7
  6
CENTER
370
-3
390
F
  0
LAYER
  5
1FB
100
AcDbSymbolTableRecord
100
AcDbLayerTableRecord
  2
DEFAULT_2
 70
0
 62
8
  6
HIDDEN
370
-3
390
F
  0
LAYER
  5
1FC
100
AcDbSymbolTableRecord
100
AcDbLayerTableRecord
  2
DEFAULT_3
 70
0
 62
7
  6
PHANTOM
370
-3
390
F
  0
LAYER
  5
1FD
100
AcDbSymbolTableRecord
100
AcDbLayerTableRecord
  2
00_COMPONENTS
 70
0
 62
7
  6
CONTINUOUS
370
-3
390
F
  0
LAYER
  5
1FE
100
AcDbSymbolTableRecord
100
AcDbLayerTableRecord
  2
01_1_DEFAULT_DATUMS
 70
0
 62
7
  6
CONTINUOUS
370
-3
390
F
  0
LAYER
  5
1FF
100
AcDbSymbolTableRecord
100
AcDbLayerTableRecord
  2
01_PLANES
 70
0
 62
7
  6
CONTINUOUS
370
-3
390
F
  0
LAYER
  5
200
100
AcDbSymbolTableRecord
100
AcDbLayerTableRecord
  2
02_COORD_SYS
 70
0
 62
7
  6
CONTINUOUS
370
-3
390
F
  0
LAYER
  5
201
100
AcDbSymbolTableRecord
100
AcDbLayerTableRecord
  2
03_AXES
 70
0
 62
7
  6
CONTINUOUS
370
-3
390
F
  0
LAYER
  5
202
100
AcDbSymbolTableRecord
100
AcDbLayerTableRecord
  2
04_POINTS
 70
0
 62
7
  6
CONTINUOUS
370
-3
390
F
  0
LAYER
  5
203
100
AcDbSymbolTableRecord
100
AcDbLayerTableRecord
  2
05_CURVES
 70
0
 62
7
  6
CONTINUOUS
370
-3
390
F
  0
LAYER
  5
204
100
AcDbSymbolTableRecord
100
AcDbLayerTableRecord
  2
06_SURFS
 70
0
 62
7
  6
CONTINUOUS
370
-3
390
F
  0
LAYER
  5
205
100
AcDbSymbolTableRecord
100
AcDbLayerTableRecord
  2
07_COSMETICS
 70
0
 62
7
  6
CONTINUOUS
370
-3
390
F
  0
LAYER
  5
206
100
AcDbSymbolTableRecord
100
AcDbLayerTableRecord
  2
10_NOTES
 70
0
 62
7
  6
CONTINUOUS
370
-3
390
F
  0
LAYER
  5
207
100
AcDbSymbolTableRecord
100
AcDbLayerTableRecord
  2
11_NOTES_PUB
 70
0
 62
7
  6
CONTINUOUS
370
-3
390
F
  0
LAYER
  5
208
100
AcDbSymbolTableRecord
100
AcDbLayerTableRecord
  2
13_REF_GTOL
 70
0
 62
7
  6
CONTINUOUS
370
-3
390
F
  0
LAYER
  5
209
100
AcDbSymbolTableRecord
100
AcDbLayerTableRecord
  2
16_MISC
 70
0
 62
7
  6
CONTINUOUS
370
-3
390
F
  0
LAYER
  5
20A
100
AcDbSymbolTableRecord
100
AcDbLayerTableRecord
  2
17_NO_PRINT
 70
0
 62
7
  6
CONTINUOUS
370
-3
390
F
  0
LAYER
  5
20B
100
AcDbSymbolTableRecord
100
AcDbLayerTableRecord
  2
18_DATUM_CAMS_JOINTS
 70
0
 62
7
  6
CONTINUOUS
370
-3
390
F
  0
LAYER
  5
20C
100
AcDbSymbolTableRecord
100
AcDbLayerTableRecord
  2
19_DATUM_FUNCTIONAL
 70
0
 62
7
  6
CONTINUOUS
370
-3
390
F
  0
LAYER
  5
20D
100
AcDbSymbolTableRecord
100
AcDbLayerTableRecord
  2
20_DATUM_KINEMATIC_SCHEME
 70
0
 62
7
  6
CONTINUOUS
370
-3
390
F
  0
ENDTAB
  0
TABLE
  2
STYLE
  5
3
100
AcDbSymbolTable
 70
1
  0
STYLE
  5
11
100
AcDbSymbolTableRecord
100
AcDbTextStyleTableRecord
  2
STANDARD
 70
0
 40
0.0
 41
0.8
 50
0.0
 71
0
 42
0.2
  3
txt
  4

  0
STYLE
  5
20E
100
AcDbSymbolTableRecord
100
AcDbTextStyleTableRecord
  2
TEXTSTYLE_1
 70
0
 40
0.0
 41
0.8
 50
0.0
 71
0
 42
0.2
  3
gdt
  4

  0
ENDTAB
  0
TABLE
  2
VIEW
  5
6
100
AcDbSymbolTable
 70
0
  0
ENDTAB
  0
TABLE
  2
UCS
  5
7
100
AcDbSymbolTable
 70
0
  0
ENDTAB
  0
TABLE
  2
APPID
  5
9
100
AcDbSymbolTable
 70
1
  0
APPID
  5
20F
100
AcDbSymbolTableRecord
100
AcDbRegAppTableRecord
  2
ACAD
 70
0
  0
ENDTAB
  0
TABLE
  2
BLOCK_RECORD
  5
1
100
AcDbSymbolTable
 70
0
  0
BLOCK_RECORD
  5
210
100
AcDbSymbolTableRecord
100
AcDbBlockTableRecord
  2
*Model_Space
  0
BLOCK_RECORD
  5
211
100
AcDbSymbolTableRecord
100
AcDbBlockTableRecord
  2
*Paper_Space
  0
BLOCK_RECORD
  5
212
100
AcDbSymbolTableRecord
100
AcDbBlockTableRecord
  2
_FILLED
  0
ENDTAB
  0
TABLE
  2
DIMSTYLE
  5
A
100
AcDbSymbolTable
 70
1
100
AcDbDimStyleTable
 71
0
  0
DIMSTYLE
105
213
100
AcDbSymbolTableRecord
100
AcDbDimStyleTableRecord
  2
STANDARD
 70
0
  3

  4

 40
1.0
 41
4.7520035399
 42
1.0
 43
0.38
 44
1.0
 45
0.0
 46
0.0
 47
0.01
 48
0.01
140
6.6528049558
141
0.09
142
0.0
143
25.4
144
1.0
145
0.0
146
1.0
147
0.625
 71
1
 72
0
 73
0
 74
0
 75
0
 76
0
 77
1
 78
8
 79
2
170
0
171
1
172
0
173
0
174
0
175
0
176
0
177
0
178
0
270
2
179
2
271
2
272
2
273
2
274
2
275
0
280
0
281
0
282
0
283
1
284
8
285
0
286
0
287
3
288
0
340
11
278
46
341
212
342
212
343
212
344
212
  0
ENDTAB
  0
ENDSEC
  0
SECTION
  2
BLOCKS
  0
BLOCK
  5
20
100
AcDbEntity
  8
0
100
AcDbBlockBegin
  2
*Model_Space
 70
0
 10
0.0
 20
0.0
 30
0.0
  3
*Model_Space
  1

  0
ENDBLK
  5
21
100
AcDbEntity
  8
0
100
AcDbBlockEnd
  0
BLOCK
  5
1C
100
AcDbEntity
  8
0
100
AcDbBlockBegin
  2
*Paper_Space
 70
0
 10
0.0
 20
0.0
 30
0.0
  3
*Paper_Space
  1

  0
ENDBLK
  5
1D
100
AcDbEntity
  8
0
100
AcDbBlockEnd
  0
BLOCK
  5
214
100
AcDbEntity
  8
0
100
AcDbBlockBegin
  2
_FILLED
 70
64
 10
0.0
 20
0.0
  3
_FILLED
  1

  0
SOLID
  5
215
100
AcDbEntity
  8
0
  6
BYBLOCK
 62
0
100
AcDbTrace
 10
0.0
 20
0.0
 11
-1.0
 21
0.25
 12
-1.0
 22
-0.25
 13
-1.0
 23
-0.25
  0
ENDBLK
  5
216
100
AcDbEntity
  8
0
  6
BYBLOCK
 62
0
100
AcDbBlockEnd
  0
ENDSEC
  0
SECTION
  2
ENTITIES
  0
LINE
  5
217
100
AcDbEntity
  8
0
100
AcDbLine
 62
7
  6
CONTINUOUS
 10
54.674561813
 20
85.5415376849
 11
354.6745720715
 21
85.5415376849
  0
LINE
  5
218
100
AcDbEntity
  8
0
100
AcDbLine
 62
7
  6
CONTINUOUS
 10
58.7725124233
 20
89.5415380866
 11
105.1754958876
 21
89.5415380865
  0
LINE
  5
219
100
AcDbEntity
  8
0
100
AcDbLine
 62
7
  6
CONTINUOUS
 10
304.1755100404
 20
89.5415380859
 11
350.7725124233
 21
89.5415380858
  0
LINE
  5
21A
100
AcDbEntity
  8
0
100
AcDbLine
 62
7
  6
CONTINUOUS
 10
295.772512428
 20
102.5415380718
 11
257.7725124181
 21
102.5415380719
  0
LINE
  5
21B
100
AcDbEntity
  8
0
100
AcDbLine
 62
7
  6
CONTINUOUS
 10
248.772512428
 20
102.5415380718
 11
210.7725124181
 21
102.5415380719
  0
LINE
  5
21C
100
AcDbEntity
  8
0
100
AcDbLine
 62
7
  6
CONTINUOUS
 10
201.7725124281
 20
102.5415380718
 11
163.7725124181
 21
102.5415380719
  0
LINE
  5
21D
100
AcDbEntity
  8
0
100
AcDbLine
 62
7
  6
CONTINUOUS
 10
154.7725124281
 20
102.5415380718
 11
116.772512418
 21
102.5415380719
  0
LINE
  5
21E
100
AcDbEntity
  8
0
100
AcDbLine
 62
7
  6
CONTINUOUS
 10
116.7725124228
 20
109.5415380649
 11
154.7725124242
 21
109.5415380648
  0
LINE
  5
21F
100
AcDbEntity
  8
0
100
AcDbLine
 62
7
  6
CONTINUOUS
 10
163.7725124228
 20
109.5415380649
 11
201.7725124242
 21
109.5415380648
  0
LINE
  5
220
100
AcDbEntity
  8
0
100
AcDbLine
 62
7
  6
CONTINUOUS
 10
210.7725124228
 20
109.5415380649
 11
248.7725124242
 21
109.5415380648
  0
LINE
  5
221
100
AcDbEntity
  8
0
100
AcDbLine
 62
7
  6
CONTINUOUS
 10
257.7725124228
 20
109.5415380649
 11
295.7725124242
 21
109.5415380648
  0
LINE
  5
222
100
AcDbEntity
  8
0
100
AcDbLine
 62
7
  6
CONTINUOUS
 10
295.7725124237
 20
112.5415380608
 11
257.7725124224
 21
112.5415380609
  0
LINE
  5
223
100
AcDbEntity
  8
0
100
AcDbLine
 62
7
  6
CONTINUOUS
 10
248.7725124237
 20
112.5415380608
 11
210.7725124224
 21
112.5415380609
  0
LINE
  5
224
100
AcDbEntity
  8
0
100
AcDbLine
 62
7
  6
CONTINUOUS
 10
201.7725124237
 20
112.5415380608
 11
163.7725124224
 21
112.5415380609
  0
LINE
  5
225
100
AcDbEntity
  8
0
100
AcDbLine
 62
7
  6
CONTINUOUS
 10
154.7725124237
 20
112.5415380608
 11
116.7725124224
 21
112.5415380609
  0
LINE
  5
226
100
AcDbEntity
  8
0
100
AcDbLine
 62
7
  6
CONTINUOUS
 10
44.4571161035
 20
410.5415377103
 11
44.4571161035
 21
475.5415377099
  0
LINE
  5
227
100
AcDbEntity
  8
0
100
AcDbLine
 62
7
  6
CONTINUOUS
 10
44.6299932723
 20
410.5415377103
 11
44.6299932723
 21
475.5415377099
  0
LINE
  5
228
100
AcDbEntity
  8
0
100
AcDbLine
 62
7
  6
CONTINUOUS
 10
54.6745618129
 20
85.5415376849
 11
54.7598345082
 21
410.5413363848
  0
LINE
  5
229
100
AcDbEntity
  8
0
100
AcDbLine
 62
7
  6
CONTINUOUS
 10
53.989755134
 20
410.5415377103
 11
54.0302259546
 21
475.5415377099
  0
LINE
  5
22A
100
AcDbEntity
  8
0
100
AcDbLine
 62
7
  6
CONTINUOUS
 10
116.7725124185
 20
119.5415380539
 11
154.7725124285
 21
119.5415380538
  0
LINE
  5
22B
100
AcDbEntity
  8
0
100
AcDbLine
 62
7
  6
CONTINUOUS
 10
163.7725124185
 20
119.5415380539
 11
201.7725124285
 21
119.5415380538
  0
LINE
  5
22C
100
AcDbEntity
  8
0
100
AcDbLine
 62
7
  6
CONTINUOUS
 10
210.7725124185
 20
119.5415380539
 11
248.7725124285
 21
119.5415380538
  0
LINE
  5
22D
100
AcDbEntity
  8
0
100
AcDbLine
 62
7
  6
CONTINUOUS
 10
257.7725124185
 20
119.5415380539
 11
295.7725124285
 21
119.5415380538
  0
LINE
  5
22E
100
AcDbEntity
  8
0
100
AcDbLine
 62
7
  6
CONTINUOUS
 10
295.772512428
 20
122.5415380508
 11
257.7725124181
 21
122.5415380509
  0
LINE
  5
22F
100
AcDbEntity
  8
0
100
AcDbLine
 62
7
  6
CONTINUOUS
 10
248.772512428
 20
122.5415380508
 11
210.772512418
 21
122.5415380509
  0
LINE
  5
230
100
AcDbEntity
  8
0
100
AcDbLine
 62
7
  6
CONTINUOUS
 10
201.772512428
 20
122.5415380508
 11
163.772512418
 21
122.5415380509
  0
LINE
  5
231
100
AcDbEntity
  8
0
100
AcDbLine
 62
7
  6
CONTINUOUS
 10
154.772512428
 20
122.5415380508
 11
116.772512418
 21
122.5415380509
  0
LINE
  5
232
100
AcDbEntity
  8
0
100
AcDbLine
 62
7
  6
CONTINUOUS
 10
116.7725124186
 20
129.5415380429
 11
154.7725124285
 21
129.5415380428
  0
LINE
  5
233
100
AcDbEntity
  8
0
100
AcDbLine
 62
7
  6
CONTINUOUS
 10
163.7725124186
 20
129.5415380429
 11
201.7725124285
 21
129.5415380428
  0
LINE
  5
234
100
AcDbEntity
  8
0
100
AcDbLine
 62
7
  6
CONTINUOUS
 10
210.7725124186
 20
129.5415380429
 11
248.7725124285
 21
129.5415380428
  0
LINE
  5
235
100
AcDbEntity
  8
0
100
AcDbLine
 62
7
  6
CONTINUOUS
 10
257.7725124185
 20
129.5415380429
 11
295.7725124285
 21
129.5415380428
  0
LINE
  5
236
100
AcDbEntity
  8
0
100
AcDbLine
 62
7
  6
CONTINUOUS
 10
58.7725124231
 20
89.541538087
 11
58.7725124244
 21
261.6189347459
  0
LINE
  5
237
100
AcDbEntity
  8
0
100
AcDbLine
 62
7
  6
CONTINUOUS
 10
295.772512428
 20
132.5415380398
 11
257.7725124181
 21
132.5415380399
  0
LINE
  5
238
100
AcDbEntity
  8
0
100
AcDbLine
 62
7
  6
CONTINUOUS
 10
248.772512428
 20
132.5415380398
 11
210.7725124181
 21
132.5415380399
  0
LINE
  5
239
100
AcDbEntity
  8
0
100
AcDbLine
 62
7
  6
CONTINUOUS
 10
201.772512428
 20
132.5415380398
 11
163.7725124181
 21
132.5415380399
  0
LINE
  5
23A
100
AcDbEntity
  8
0
100
AcDbLine
 62
7
  6
CONTINUOUS
 10
154.772512428
 20
132.5415380398
 11
116.7725124181
 21
132.5415380399
  0
LINE
  5
23B
100
AcDbEntity
  8
0
100
AcDbLine
 62
7
  6
CONTINUOUS
 10
116.7725124185
 20
139.5415380319
 11
154.7725124285
 21
139.5415380318
  0
LINE
  5
23C
100
AcDbEntity
  8
0
100
AcDbLine
 62
7
  6
CONTINUOUS
 10
163.7725124185
 20
139.5415380319
 11
201.7725124285
 21
139.5415380318
  0
LINE
  5
23D
100
AcDbEntity
  8
0
100
AcDbLine
 62
7
  6
CONTINUOUS
 10
210.7725124185
 20
139.5415380319
 11
248.7725124285
 21
139.5415380318
  0
LINE
  5
23E
100
AcDbEntity
  8
0
100
AcDbLine
 62
7
  6
CONTINUOUS
 10
257.7725124185
 20
139.5415380319
 11
295.7725124285
 21
139.5415380318
  0
LINE
  5
23F
100
AcDbEntity
  8
0
100
AcDbLine
 62
7
  6
CONTINUOUS
 10
295.772512428
 20
142.5415380288
 11
257.7725124181
 21
142.5415380289
  0
LINE
  5
240
100
AcDbEntity
  8
0
100
AcDbLine
 62
7
  6
CONTINUOUS
 10
248.772512428
 20
142.5415380288
 11
210.7725124181
 21
142.5415380289
  0
LINE
  5
241
100
AcDbEntity
  8
0
100
AcDbLine
 62
7
  6
CONTINUOUS
 10
201.772512428
 20
142.5415380288
 11
163.7725124181
 21
142.5415380289
  0
LINE
  5
242
100
AcDbEntity
  8
0
100
AcDbLine
 62
7
  6
CONTINUOUS
 10
154.772512428
 20
142.5415380288
 11
116.7725124181
 21
142.5415380289
  0
LINE
  5
243
100
AcDbEntity
  8
0
100
AcDbLine
 62
7
  6
CONTINUOUS
 10
72.2606642873
 20
410.5415377103
 11
72.1611629973
 21
475.5415377099
  0
LINE
  5
244
100
AcDbEntity
  8
0
100
AcDbLine
 62
7
  6
CONTINUOUS
 10
116.7725124185
 20
149.5415380209
 11
154.7725124285
 21
149.5415380208
  0
LINE
  5
245
100
AcDbEntity
  8
0
100
AcDbLine
 62
7
  6
CONTINUOUS
 10
163.7725124185
 20
149.5415380209
 11
201.7725124285
 21
149.5415380208
  0
LINE
  5
246
100
AcDbEntity
  8
0
100
AcDbLine
 62
7
  6
CONTINUOUS
 10
210.7725124185
 20
149.5415380209
 11
248.7725124285
 21
149.5415380208
  0
LINE
  5
247
100
AcDbEntity
  8
0
100
AcDbLine
 62
7
  6
CONTINUOUS
 10
257.7725124185
 20
149.5415380209
 11
295.7725124285
 21
149.5415380208
  0
LINE
  5
248
100
AcDbEntity
  8
0
100
AcDbLine
 62
7
  6
CONTINUOUS
 10
295.772512428
 20
152.5415380178
 11
257.7725124181
 21
152.5415380179
  0
LINE
  5
249
100
AcDbEntity
  8
0
100
AcDbLine
 62
7
  6
CONTINUOUS
 10
248.772512428
 20
152.5415380178
 11
210.7725124181
 21
152.5415380179
  0
LINE
  5
24A
100
AcDbEntity
  8
0
100
AcDbLine
 62
7
  6
CONTINUOUS
 10
201.7725124281
 20
152.5415380178
 11
163.7725124181
 21
152.5415380179
  0
LINE
  5
24B
100
AcDbEntity
  8
0
100
AcDbLine
 62
7
  6
CONTINUOUS
 10
154.7725124281
 20
152.5415380178
 11
116.772512418
 21
152.5415380179
  0
LINE
  5
24C
100
AcDbEntity
  8
0
100
AcDbLine
 62
7
  6
CONTINUOUS
 10
116.7725124228
 20
159.5415380109
 11
154.7725124242
 21
159.5415380108
  0
LINE
  5
24D
100
AcDbEntity
  8
0
100
AcDbLine
 62
7
  6
CONTINUOUS
 10
163.7725124228
 20
159.5415380109
 11
201.7725124242
 21
159.5415380108
  0
LINE
  5
24E
100
AcDbEntity
  8
0
100
AcDbLine
 62
7
  6
CONTINUOUS
 10
210.7725124228
 20
159.5415380109
 11
248.7725124242
 21
159.5415380108
  0
LINE
  5
24F
100
AcDbEntity
  8
0
100
AcDbLine
 62
7
  6
CONTINUOUS
 10
257.7725124228
 20
159.5415380109
 11
295.7725124242
 21
159.5415380108
  0
LINE
  5
250
100
AcDbEntity
  8
0
100
AcDbLine
 62
7
  6
CONTINUOUS
 10
295.772512428
 20
162.5415380068
 11
257.7725124181
 21
162.5415380069
  0
LINE
  5
251
100
AcDbEntity
  8
0
100
AcDbLine
 62
7
  6
CONTINUOUS
 10
248.772512428
 20
162.5415380068
 11
210.7725124181
 21
162.5415380069
  0
LINE
  5
252
100
AcDbEntity
  8
0
100
AcDbLine
 62
7
  6
CONTINUOUS
 10
201.772512428
 20
162.5415380068
 11
163.7725124181
 21
162.5415380069
  0
LINE
  5
253
100
AcDbEntity
  8
0
100
AcDbLine
 62
7
  6
CONTINUOUS
 10
154.772512428
 20
162.5415380068
 11
116.7725124181
 21
162.5415380069
  0
LINE
  5
254
100
AcDbEntity
  8
0
100
AcDbLine
 62
7
  6
CONTINUOUS
 10
94.7725124232
 20
410.5415377103
 11
94.7725124233
 21
475.5415377099
  0
LINE
  5
255
100
AcDbEntity
  8
0
100
AcDbLine
 62
7
  6
CONTINUOUS
 10
97.2725124232
 20
410.5415377103
 11
97.2725124223
 21
89.5413149815
  0
LINE
  5
256
100
AcDbEntity
  8
0
100
AcDbLine
 62
7
  6
CONTINUOUS
 10
92.7725124232
 20
410.5415377103
 11
92.7945720614
 21
475.5415377099
  0
LINE
  5
257
100
AcDbEntity
  8
0
100
AcDbLine
 62
7
  6
CONTINUOUS
 10
105.1754958875
 20
89.5415380868
 11
105.2594299092
 21
410.5415377103
  0
LINE
  5
258
100
AcDbEntity
  8
0
100
AcDbLine
 62
7
  6
CONTINUOUS
 10
116.7725124228
 20
169.5415379999
 11
154.7725124242
 21
169.5415379998
  0
LINE
  5
259
100
AcDbEntity
  8
0
100
AcDbLine
 62
7
  6
CONTINUOUS
 10
163.7725124228
 20
169.5415379999
 11
201.7725124242
 21
169.5415379998
  0
LINE
  5
25A
100
AcDbEntity
  8
0
100
AcDbLine
 62
7
  6
CONTINUOUS
 10
210.7725124228
 20
169.5415379999
 11
248.7725124242
 21
169.5415379998
  0
LINE
  5
25B
100
AcDbEntity
  8
0
100
AcDbLine
 62
7
  6
CONTINUOUS
 10
257.7725124228
 20
169.5415379999
 11
295.7725124242
 21
169.5415379998
  0
LINE
  5
25C
100
AcDbEntity
  8
0
100
AcDbLine
 62
7
  6
CONTINUOUS
 10
295.7725124237
 20
172.5415379958
 11
257.7725124224
 21
172.5415379959
  0
LINE
  5
25D
100
AcDbEntity
  8
0
100
AcDbLine
 62
7
  6
CONTINUOUS
 10
248.7725124237
 20
172.5415379958
 11
210.7725124224
 21
172.5415379959
  0
LINE
  5
25E
100
AcDbEntity
  8
0
100
AcDbLine
 62
7
  6
CONTINUOUS
 10
201.7725124237
 20
172.5415379958
 11
163.7725124224
 21
172.5415379959
  0
LINE
  5
25F
100
AcDbEntity
  8
0
100
AcDbLine
 62
7
  6
CONTINUOUS
 10
154.7725124237
 20
172.5415379958
 11
116.7725124224
 21
172.5415379959
  0
LINE
  5
260
100
AcDbEntity
  8
0
100
AcDbLine
 62
7
  6
CONTINUOUS
 10
116.7725124185
 20
179.5415379889
 11
154.7725124285
 21
179.5415379888
  0
LINE
  5
261
100
AcDbEntity
  8
0
100
AcDbLine
 62
7
  6
CONTINUOUS
 10
163.7725124185
 20
179.5415379889
 11
201.7725124285
 21
179.5415379888
  0
LINE
  5
262
100
AcDbEntity
  8
0
100
AcDbLine
 62
7
  6
CONTINUOUS
 10
210.7725124185
 20
179.5415379889
 11
248.7725124285
 21
179.5415379888
  0
LINE
  5
263
100
AcDbEntity
  8
0
100
AcDbLine
 62
7
  6
CONTINUOUS
 10
257.7725124185
 20
179.5415379889
 11
295.7725124285
 21
179.5415379888
  0
LINE
  5
264
100
AcDbEntity
  8
0
100
AcDbLine
 62
7
  6
CONTINUOUS
 10
106.7725124233
 20
410.5415377103
 11
106.8009710577
 21
475.5415377099
  0
LINE
  5
265
100
AcDbEntity
  8
0
100
AcDbLine
 62
7
  6
CONTINUOUS
 10
295.772512428
 20
182.5415379858
 11
257.7725124181
 21
182.5415379859
  0
LINE
  5
266
100
AcDbEntity
  8
0
100
AcDbLine
 62
7
  6
CONTINUOUS
 10
248.772512428
 20
182.5415379858
 11
210.7725124181
 21
182.5415379859
  0
LINE
  5
267
100
AcDbEntity
  8
0
100
AcDbLine
 62
7
  6
CONTINUOUS
 10
201.772512428
 20
182.5415379858
 11
163.7725124181
 21
182.5415379859
  0
LINE
  5
268
100
AcDbEntity
  8
0
100
AcDbLine
 62
7
  6
CONTINUOUS
 10
154.772512428
 20
182.5415379858
 11
116.7725124181
 21
182.5415379859
  0
LINE
  5
269
100
AcDbEntity
  8
0
100
AcDbLine
 62
7
  6
CONTINUOUS
 10
116.7725124185
 20
189.5415379779
 11
154.7725124285
 21
189.5415379778
  0
LINE
  5
26A
100
AcDbEntity
  8
0
100
AcDbLine
 62
7
  6
CONTINUOUS
 10
163.7725124185
 20
189.5415379779
 11
201.7725124285
 21
189.5415379778
  0
LINE
  5
26B
100
AcDbEntity
  8
0
100
AcDbLine
 62
7
  6
CONTINUOUS
 10
210.7725124185
 20
189.5415379779
 11
248.7725124285
 21
189.5415379778
  0
LINE
  5
26C
100
AcDbEntity
  8
0
100
AcDbLine
 62
7
  6
CONTINUOUS
 10
257.7725124185
 20
189.5415379779
 11
295.7725124285
 21
189.5415379778
  0
LINE
  5
26D
100
AcDbEntity
  8
0
100
AcDbLine
 62
7
  6
CONTINUOUS
 10
295.772512428
 20
192.5415379748
 11
257.7725124181
 21
192.5415379749
  0
LINE
  5
26E
100
AcDbEntity
  8
0
100
AcDbLine
 62
7
  6
CONTINUOUS
 10
248.772512428
 20
192.5415379748
 11
210.7725124181
 21
192.5415379749
  0
LINE
  5
26F
100
AcDbEntity
  8
0
100
AcDbLine
 62
7
  6
CONTINUOUS
 10
201.772512428
 20
192.5415379748
 11
163.7725124181
 21
192.5415379749
  0
LINE
  5
270
100
AcDbEntity
  8
0
100
AcDbLine
 62
7
  6
CONTINUOUS
 10
154.772512428
 20
192.5415379748
 11
116.7725124181
 21
192.5415379749
  0
LINE
  5
271
100
AcDbEntity
  8
0
100
AcDbLine
 62
7
  6
CONTINUOUS
 10
116.7725124185
 20
199.5415379669
 11
154.7725124285
 21
199.5415379668
  0
LINE
  5
272
100
AcDbEntity
  8
0
100
AcDbLine
 62
7
  6
CONTINUOUS
 10
163.7725124185
 20
199.5415379669
 11
201.7725124285
 21
199.5415379668
  0
LINE
  5
273
100
AcDbEntity
  8
0
100
AcDbLine
 62
7
  6
CONTINUOUS
 10
210.7725124185
 20
199.5415379669
 11
248.7725124285
 21
199.5415379668
  0
LINE
  5
274
100
AcDbEntity
  8
0
100
AcDbLine
 62
7
  6
CONTINUOUS
 10
257.7725124185
 20
199.5415379669
 11
295.7725124285
 21
199.5415379668
  0
LINE
  5
275
100
AcDbEntity
  8
0
100
AcDbLine
 62
7
  6
CONTINUOUS
 10
295.772512428
 20
202.5415379638
 11
257.7725124181
 21
202.5415379639
  0
LINE
  5
276
100
AcDbEntity
  8
0
100
AcDbLine
 62
7
  6
CONTINUOUS
 10
248.772512428
 20
202.5415379638
 11
210.772512418
 21
202.5415379639
  0
LINE
  5
277
100
AcDbEntity
  8
0
100
AcDbLine
 62
7
  6
CONTINUOUS
 10
201.772512428
 20
202.5415379638
 11
163.772512418
 21
202.5415379639
  0
LINE
  5
278
100
AcDbEntity
  8
0
100
AcDbLine
 62
7
  6
CONTINUOUS
 10
154.7725124281
 20
202.5415379638
 11
116.7725124181
 21
202.5415379639
  0
LINE
  5
279
100
AcDbEntity
  8
0
100
AcDbLine
 62
7
  6
CONTINUOUS
 10
116.7725124185
 20
209.5415379559
 11
154.7725124285
 21
209.5415379558
  0
LINE
  5
27A
100
AcDbEntity
  8
0
100
AcDbLine
 62
7
  6
CONTINUOUS
 10
163.7725124186
 20
209.5415379559
 11
201.7725124285
 21
209.5415379558
  0
LINE
  5
27B
100
AcDbEntity
  8
0
100
AcDbLine
 62
7
  6
CONTINUOUS
 10
210.7725124186
 20
209.5415379559
 11
248.7725124285
 21
209.5415379558
  0
LINE
  5
27C
100
AcDbEntity
  8
0
100
AcDbLine
 62
7
  6
CONTINUOUS
 10
257.7725124185
 20
209.5415379559
 11
295.7725124285
 21
209.5415379558
  0
LINE
  5
27D
100
AcDbEntity
  8
0
100
AcDbLine
 62
7
  6
CONTINUOUS
 10
295.772512428
 20
212.5415379528
 11
257.7725124181
 21
212.5415379529
  0
LINE
  5
27E
100
AcDbEntity
  8
0
100
AcDbLine
 62
7
  6
CONTINUOUS
 10
248.772512428
 20
212.5415379528
 11
210.7725124181
 21
212.5415379529
  0
LINE
  5
27F
100
AcDbEntity
  8
0
100
AcDbLine
 62
7
  6
CONTINUOUS
 10
201.7725124281
 20
212.5415379528
 11
163.7725124181
 21
212.5415379529
  0
LINE
  5
280
100
AcDbEntity
  8
0
100
AcDbLine
 62
7
  6
CONTINUOUS
 10
154.772512428
 20
212.5415379528
 11
116.772512418
 21
212.5415379529
  0
LINE
  5
281
100
AcDbEntity
  8
0
100
AcDbLine
 62
7
  6
CONTINUOUS
 10
116.7725124228
 20
219.5415379459
 11
154.7725124242
 21
219.5415379458
  0
LINE
  5
282
100
AcDbEntity
  8
0
100
AcDbLine
 62
7
  6
CONTINUOUS
 10
163.7725124228
 20
219.5415379459
 11
201.7725124242
 21
219.5415379458
  0
LINE
  5
283
100
AcDbEntity
  8
0
100
AcDbLine
 62
7
  6
CONTINUOUS
 10
210.7725124228
 20
219.5415379459
 11
248.7725124242
 21
219.5415379458
  0
LINE
  5
284
100
AcDbEntity
  8
0
100
AcDbLine
 62
7
  6
CONTINUOUS
 10
257.7725124228
 20
219.5415379459
 11
295.7725124242
 21
219.5415379458
  0
LINE
  5
285
100
AcDbEntity
  8
0
100
AcDbLine
 62
7
  6
CONTINUOUS
 10
295.7725124237
 20
222.5415379418
 11
257.7725124224
 21
222.5415379419
  0
LINE
  5
286
100
AcDbEntity
  8
0
100
AcDbLine
 62
7
  6
CONTINUOUS
 10
248.7725124237
 20
222.5415379418
 11
210.7725124224
 21
222.5415379419
  0
LINE
  5
287
100
AcDbEntity
  8
0
100
AcDbLine
 62
7
  6
CONTINUOUS
 10
201.7725124237
 20
222.5415379418
 11
163.7725124224
 21
222.5415379419
  0
LINE
  5
288
100
AcDbEntity
  8
0
100
AcDbLine
 62
7
  6
CONTINUOUS
 10
154.7725124237
 20
222.5415379418
 11
116.7725124224
 21
222.5415379419
  0
LINE
  5
289
100
AcDbEntity
  8
0
100
AcDbLine
 62
7
  6
CONTINUOUS
 10
116.7725124175
 20
229.5415379347
 11
154.7725124291
 21
229.5415379347
  0
LINE
  5
28A
100
AcDbEntity
  8
0
100
AcDbLine
 62
7
  6
CONTINUOUS
 10
163.7725124174
 20
229.5415379347
 11
201.7725124291
 21
229.5415379347
  0
LINE
  5
28B
100
AcDbEntity
  8
0
100
AcDbLine
 62
7
  6
CONTINUOUS
 10
210.7725124174
 20
229.5415379347
 11
248.7725124291
 21
229.5415379347
  0
LINE
  5
28C
100
AcDbEntity
  8
0
100
AcDbLine
 62
7
  6
CONTINUOUS
 10
257.7725124175
 20
229.5415379347
 11
295.7725124292
 21
229.5415379347
  0
LINE
  5
28D
100
AcDbEntity
  8
0
100
AcDbLine
 62
7
  6
CONTINUOUS
 10
295.7725124274
 20
232.5415379315
 11
257.7725124191
 21
232.5415379315
  0
LINE
  5
28E
100
AcDbEntity
  8
0
100
AcDbLine
 62
7
  6
CONTINUOUS
 10
248.7725124274
 20
232.5415379315
 11
210.7725124191
 21
232.5415379315
  0
LINE
  5
28F
100
AcDbEntity
  8
0
100
AcDbLine
 62
7
  6
CONTINUOUS
 10
201.7725124274
 20
232.5415379315
 11
163.7725124191
 21
232.5415379315
  0
LINE
  5
290
100
AcDbEntity
  8
0
100
AcDbLine
 62
7
  6
CONTINUOUS
 10
154.7725124274
 20
232.5415379315
 11
116.7725124191
 21
232.5415379315
  0
LINE
  5
291
100
AcDbEntity
  8
0
100
AcDbLine
 62
7
  6
CONTINUOUS
 10
116.7725124192
 20
239.5415379239
 11
154.7725124274
 21
239.5415379239
  0
LINE
  5
292
100
AcDbEntity
  8
0
100
AcDbLine
 62
7
  6
CONTINUOUS
 10
163.7725124192
 20
239.5415379239
 11
201.7725124274
 21
239.5415379239
  0
LINE
  5
293
100
AcDbEntity
  8
0
100
AcDbLine
 62
7
  6
CONTINUOUS
 10
210.7725124192
 20
239.5415379239
 11
248.7725124274
 21
239.5415379239
  0
LINE
  5
294
100
AcDbEntity
  8
0
100
AcDbLine
 62
7
  6
CONTINUOUS
 10
257.7725124192
 20
239.5415379239
 11
295.7725124274
 21
239.5415379239
  0
LINE
  5
295
100
AcDbEntity
  8
0
100
AcDbLine
 62
7
  6
CONTINUOUS
 10
295.7725124269
 20
242.5415379206
 11
257.7725124196
 21
242.5415379206
  0
LINE
  5
296
100
AcDbEntity
  8
0
100
AcDbLine
 62
7
  6
CONTINUOUS
 10
248.7725124269
 20
242.5415379206
 11
210.7725124196
 21
242.5415379206
  0
LINE
  5
297
100
AcDbEntity
  8
0
100
AcDbLine
 62
7
  6
CONTINUOUS
 10
201.7725124269
 20
242.5415379206
 11
163.7725124196
 21
242.5415379206
  0
LINE
  5
298
100
AcDbEntity
  8
0
100
AcDbLine
 62
7
  6
CONTINUOUS
 10
154.772512427
 20
242.5415379206
 11
116.7725124196
 21
242.5415379206
  0
LINE
  5
299
100
AcDbEntity
  8
0
100
AcDbLine
 62
7
  6
CONTINUOUS
 10
58.7725124235
 20
241.6189343813
 11
54.7153726935
 21
241.6199952283
  0
LINE
  5
29A
100
AcDbEntity
  8
0
100
AcDbLine
 62
7
  6
CONTINUOUS
 10
350.7725124235
 20
241.5425832265
 11
354.715362441
 21
241.5415522637
  0
LINE
  5
29B
100
AcDbEntity
  8
0
100
AcDbLine
 62
7
  6
CONTINUOUS
 10
116.7725124192
 20
249.5415379131
 11
154.7725124274
 21
249.5415379131
  0
LINE
  5
29C
100
AcDbEntity
  8
0
100
AcDbLine
 62
7
  6
CONTINUOUS
 10
163.7725124192
 20
249.5415379131
 11
201.7725124274
 21
249.5415379131
  0
LINE
  5
29D
100
AcDbEntity
  8
0
100
AcDbLine
 62
7
  6
CONTINUOUS
 10
210.7725124192
 20
249.5415379131
 11
248.7725124274
 21
249.5415379131
  0
LINE
  5
29E
100
AcDbEntity
  8
0
100
AcDbLine
 62
7
  6
CONTINUOUS
 10
257.7725124192
 20
249.5415379131
 11
295.7725124274
 21
249.5415379131
  0
LINE
  5
29F
100
AcDbEntity
  8
0
100
AcDbLine
 62
7
  6
CONTINUOUS
 10
54.7206909946
 20
261.6199942022
 11
72.2356131431
 21
261.6154144607
  0
LINE
  5
2A0
100
AcDbEntity
  8
0
100
AcDbLine
 62
7
  6
CONTINUOUS
 10
337.2061671123
 20
261.5461308724
 11
354.720680737
 21
261.5415512377
  0
LINE
  5
2A1
100
AcDbEntity
  8
0
100
AcDbLine
 62
7
  6
CONTINUOUS
 10
295.7725124274
 20
272.0415379141
 11
257.7725124191
 21
272.0415379141
  0
LINE
  5
2A2
100
AcDbEntity
  8
0
100
AcDbLine
 62
7
  6
CONTINUOUS
 10
247.7725124274
 20
272.0415379141
 11
209.7725124191
 21
272.0415379141
  0
LINE
  5
2A3
100
AcDbEntity
  8
0
100
AcDbLine
 62
7
  6
CONTINUOUS
 10
199.7725124274
 20
272.0415379141
 11
161.7725124191
 21
272.0415379141
  0
LINE
  5
2A4
100
AcDbEntity
  8
0
100
AcDbLine
 62
7
  6
CONTINUOUS
 10
151.7725124274
 20
272.0415379141
 11
113.7725124191
 21
272.0415379141
  0
LINE
  5
2A5
100
AcDbEntity
  8
0
100
AcDbLine
 62
7
  6
CONTINUOUS
 10
113.7725124196
 20
279.0415379066
 11
151.772512427
 21
279.0415379066
  0
LINE
  5
2A6
100
AcDbEntity
  8
0
100
AcDbLine
 62
7
  6
CONTINUOUS
 10
161.7725124196
 20
279.0415379066
 11
199.772512427
 21
279.0415379066
  0
LINE
  5
2A7
100
AcDbEntity
  8
0
100
AcDbLine
 62
7
  6
CONTINUOUS
 10
209.7725124196
 20
279.0415379066
 11
247.772512427
 21
279.0415379066
  0
LINE
  5
2A8
100
AcDbEntity
  8
0
100
AcDbLine
 62
7
  6
CONTINUOUS
 10
257.7725124196
 20
279.0415379066
 11
295.772512427
 21
279.0415379066
  0
LINE
  5
2A9
100
AcDbEntity
  8
0
100
AcDbLine
 62
7
  6
CONTINUOUS
 10
295.7725124274
 20
282.0415379033
 11
257.7725124191
 21
282.0415379033
  0
LINE
  5
2AA
100
AcDbEntity
  8
0
100
AcDbLine
 62
7
  6
CONTINUOUS
 10
247.7725124274
 20
282.0415379033
 11
209.7725124191
 21
282.0415379033
  0
LINE
  5
2AB
100
AcDbEntity
  8
0
100
AcDbLine
 62
7
  6
CONTINUOUS
 10
199.7725124274
 20
282.0415379033
 11
161.7725124191
 21
282.0415379033
  0
LINE
  5
2AC
100
AcDbEntity
  8
0
100
AcDbLine
 62
7
  6
CONTINUOUS
 10
151.7725124274
 20
282.0415379033
 11
113.7725124191
 21
282.0415379033
  0
LINE
  5
2AD
100
AcDbEntity
  8
0
100
AcDbLine
 62
7
  6
CONTINUOUS
 10
113.7725124191
 20
289.0415378957
 11
151.7725124274
 21
289.0415378957
  0
LINE
  5
2AE
100
AcDbEntity
  8
0
100
AcDbLine
 62
7
  6
CONTINUOUS
 10
161.7725124192
 20
289.0415378957
 11
199.7725124274
 21
289.0415378957
  0
LINE
  5
2AF
100
AcDbEntity
  8
0
100
AcDbLine
 62
7
  6
CONTINUOUS
 10
209.7725124192
 20
289.0415378957
 11
247.7725124274
 21
289.0415378957
  0
LINE
  5
2B0
100
AcDbEntity
  8
0
100
AcDbLine
 62
7
  6
CONTINUOUS
 10
257.7725124192
 20
289.0415378957
 11
295.7725124274
 21
289.0415378957
  0
LINE
  5
2B1
100
AcDbEntity
  8
0
100
AcDbLine
 62
7
  6
CONTINUOUS
 10
295.7725124274
 20
292.0415378925
 11
257.7725124191
 21
292.0415378925
  0
LINE
  5
2B2
100
AcDbEntity
  8
0
100
AcDbLine
 62
7
  6
CONTINUOUS
 10
247.7725124274
 20
292.0415378925
 11
209.7725124191
 21
292.0415378925
  0
LINE
  5
2B3
100
AcDbEntity
  8
0
100
AcDbLine
 62
7
  6
CONTINUOUS
 10
199.7725124274
 20
292.0415378925
 11
161.7725124191
 21
292.0415378925
  0
LINE
  5
2B4
100
AcDbEntity
  8
0
100
AcDbLine
 62
7
  6
CONTINUOUS
 10
151.7725124274
 20
292.0415378925
 11
113.7725124191
 21
292.0415378925
  0
LINE
  5
2B5
100
AcDbEntity
  8
0
100
AcDbLine
 62
7
  6
CONTINUOUS
 10
113.7725124192
 20
299.0415378849
 11
151.7725124274
 21
299.0415378849
  0
LINE
  5
2B6
100
AcDbEntity
  8
0
100
AcDbLine
 62
7
  6
CONTINUOUS
 10
161.7725124191
 20
299.0415378849
 11
199.7725124274
 21
299.0415378849
  0
LINE
  5
2B7
100
AcDbEntity
  8
0
100
AcDbLine
 62
7
  6
CONTINUOUS
 10
209.7725124192
 20
299.0415378849
 11
247.7725124274
 21
299.0415378849
  0
LINE
  5
2B8
100
AcDbEntity
  8
0
100
AcDbLine
 62
7
  6
CONTINUOUS
 10
257.7725124192
 20
299.0415378849
 11
295.7725124274
 21
299.0415378849
  0
LINE
  5
2B9
100
AcDbEntity
  8
0
100
AcDbLine
 62
7
  6
CONTINUOUS
 10
295.7725124274
 20
302.0415378817
 11
257.7725124191
 21
302.0415378817
  0
LINE
  5
2BA
100
AcDbEntity
  8
0
100
AcDbLine
 62
7
  6
CONTINUOUS
 10
247.7725124274
 20
302.0415378817
 11
209.7725124191
 21
302.0415378817
  0
LINE
  5
2BB
100
AcDbEntity
  8
0
100
AcDbLine
 62
7
  6
CONTINUOUS
 10
199.7725124274
 20
302.0415378817
 11
161.7725124191
 21
302.0415378817
  0
LINE
  5
2BC
100
AcDbEntity
  8
0
100
AcDbLine
 62
7
  6
CONTINUOUS
 10
151.7725124274
 20
302.0415378817
 11
113.7725124191
 21
302.0415378817
  0
LINE
  5
2BD
100
AcDbEntity
  8
0
100
AcDbLine
 62
7
  6
CONTINUOUS
 10
113.7725124192
 20
309.0415378741
 11
151.7725124274
 21
309.0415378741
  0
LINE
  5
2BE
100
AcDbEntity
  8
0
100
AcDbLine
 62
7
  6
CONTINUOUS
 10
161.7725124192
 20
309.0415378741
 11
199.7725124274
 21
309.0415378741
  0
LINE
  5
2BF
100
AcDbEntity
  8
0
100
AcDbLine
 62
7
  6
CONTINUOUS
 10
209.7725124192
 20
309.0415378741
 11
247.7725124274
 21
309.0415378741
  0
LINE
  5
2C0
100
AcDbEntity
  8
0
100
AcDbLine
 62
7
  6
CONTINUOUS
 10
257.7725124192
 20
309.0415378741
 11
295.7725124274
 21
309.0415378741
  0
LINE
  5
2C1
100
AcDbEntity
  8
0
100
AcDbLine
 62
7
  6
CONTINUOUS
 10
295.7725124274
 20
312.0415378709
 11
257.7725124191
 21
312.0415378709
  0
LINE
  5
2C2
100
AcDbEntity
  8
0
100
AcDbLine
 62
7
  6
CONTINUOUS
 10
247.7725124274
 20
312.0415378709
 11
209.7725124191
 21
312.0415378709
  0
LINE
  5
2C3
100
AcDbEntity
  8
0
100
AcDbLine
 62
7
  6
CONTINUOUS
 10
199.7725124274
 20
312.0415378709
 11
161.7725124191
 21
312.0415378709
  0
LINE
  5
2C4
100
AcDbEntity
  8
0
100
AcDbLine
 62
7
  6
CONTINUOUS
 10
151.7725124274
 20
312.0415378709
 11
113.7725124191
 21
312.0415378709
  0
LINE
  5
2C5
100
AcDbEntity
  8
0
100
AcDbLine
 62
7
  6
CONTINUOUS
 10
113.7725124192
 20
319.0415378633
 11
151.7725124274
 21
319.0415378633
  0
LINE
  5
2C6
100
AcDbEntity
  8
0
100
AcDbLine
 62
7
  6
CONTINUOUS
 10
161.7725124192
 20
319.0415378633
 11
199.7725124274
 21
319.0415378633
  0
LINE
  5
2C7
100
AcDbEntity
  8
0
100
AcDbLine
 62
7
  6
CONTINUOUS
 10
209.7725124192
 20
319.0415378633
 11
247.7725124274
 21
319.0415378633
  0
LINE
  5
2C8
100
AcDbEntity
  8
0
100
AcDbLine
 62
7
  6
CONTINUOUS
 10
257.7725124192
 20
319.0415378633
 11
295.7725124274
 21
319.0415378633
  0
LINE
  5
2C9
100
AcDbEntity
  8
0
100
AcDbLine
 62
7
  6
CONTINUOUS
 10
295.7725124273
 20
322.04153786
 11
257.7725124192
 21
322.04153786
  0
LINE
  5
2CA
100
AcDbEntity
  8
0
100
AcDbLine
 62
7
  6
CONTINUOUS
 10
247.7725124274
 20
322.04153786
 11
209.7725124192
 21
322.04153786
  0
LINE
  5
2CB
100
AcDbEntity
  8
0
100
AcDbLine
 62
7
  6
CONTINUOUS
 10
199.7725124273
 20
322.04153786
 11
161.7725124192
 21
322.04153786
  0
LINE
  5
2CC
100
AcDbEntity
  8
0
100
AcDbLine
 62
7
  6
CONTINUOUS
 10
151.7725124273
 20
322.04153786
 11
113.7725124192
 21
322.04153786
  0
LINE
  5
2CD
100
AcDbEntity
  8
0
100
AcDbLine
 62
7
  6
CONTINUOUS
 10
113.7725124192
 20
329.0415378525
 11
151.7725124273
 21
329.0415378525
  0
LINE
  5
2CE
100
AcDbEntity
  8
0
100
AcDbLine
 62
7
  6
CONTINUOUS
 10
161.7725124193
 20
329.0415378525
 11
199.7725124273
 21
329.0415378525
  0
LINE
  5
2CF
100
AcDbEntity
  8
0
100
AcDbLine
 62
7
  6
CONTINUOUS
 10
209.7725124192
 20
329.0415378525
 11
247.7725124273
 21
329.0415378525
  0
LINE
  5
2D0
100
AcDbEntity
  8
0
100
AcDbLine
 62
7
  6
CONTINUOUS
 10
257.7725124192
 20
329.0415378525
 11
295.7725124273
 21
329.0415378525
  0
LINE
  5
2D1
100
AcDbEntity
  8
0
100
AcDbLine
 62
7
  6
CONTINUOUS
 10
295.7725124273
 20
332.0415378492
 11
257.7725124192
 21
332.0415378492
  0
LINE
  5
2D2
100
AcDbEntity
  8
0
100
AcDbLine
 62
7
  6
CONTINUOUS
 10
247.7725124273
 20
332.0415378492
 11
209.7725124192
 21
332.0415378492
  0
LINE
  5
2D3
100
AcDbEntity
  8
0
100
AcDbLine
 62
7
  6
CONTINUOUS
 10
199.7725124273
 20
332.0415378492
 11
161.7725124192
 21
332.0415378492
  0
LINE
  5
2D4
100
AcDbEntity
  8
0
100
AcDbLine
 62
7
  6
CONTINUOUS
 10
151.7725124273
 20
332.0415378492
 11
113.7725124192
 21
332.0415378492
  0
LINE
  5
2D5
100
AcDbEntity
  8
0
100
AcDbLine
 62
7
  6
CONTINUOUS
 10
113.7725124193
 20
339.0415378417
 11
151.7725124272
 21
339.0415378417
  0
LINE
  5
2D6
100
AcDbEntity
  8
0
100
AcDbLine
 62
7
  6
CONTINUOUS
 10
161.7725124193
 20
339.0415378417
 11
199.7725124272
 21
339.0415378417
  0
LINE
  5
2D7
100
AcDbEntity
  8
0
100
AcDbLine
 62
7
  6
CONTINUOUS
 10
209.7725124193
 20
339.0415378417
 11
247.7725124272
 21
339.0415378417
  0
LINE
  5
2D8
100
AcDbEntity
  8
0
100
AcDbLine
 62
7
  6
CONTINUOUS
 10
257.7725124193
 20
339.0415378417
 11
295.7725124272
 21
339.0415378417
  0
LINE
  5
2D9
100
AcDbEntity
  8
0
100
AcDbLine
 62
7
  6
CONTINUOUS
 10
295.7725124274
 20
342.0415378384
 11
257.7725124191
 21
342.0415378384
  0
LINE
  5
2DA
100
AcDbEntity
  8
0
100
AcDbLine
 62
7
  6
CONTINUOUS
 10
247.7725124274
 20
342.0415378384
 11
209.7725124191
 21
342.0415378384
  0
LINE
  5
2DB
100
AcDbEntity
  8
0
100
AcDbLine
 62
7
  6
CONTINUOUS
 10
199.7725124274
 20
342.0415378384
 11
161.7725124191
 21
342.0415378384
  0
LINE
  5
2DC
100
AcDbEntity
  8
0
100
AcDbLine
 62
7
  6
CONTINUOUS
 10
151.7725124274
 20
342.0415378384
 11
113.7725124191
 21
342.0415378384
  0
LINE
  5
2DD
100
AcDbEntity
  8
0
100
AcDbLine
 62
7
  6
CONTINUOUS
 10
113.7725124196
 20
349.0415378309
 11
151.772512427
 21
349.0415378309
  0
LINE
  5
2DE
100
AcDbEntity
  8
0
100
AcDbLine
 62
7
  6
CONTINUOUS
 10
161.7725124196
 20
349.0415378309
 11
199.772512427
 21
349.0415378309
  0
LINE
  5
2DF
100
AcDbEntity
  8
0
100
AcDbLine
 62
7
  6
CONTINUOUS
 10
209.7725124196
 20
349.0415378309
 11
247.772512427
 21
349.0415378309
  0
LINE
  5
2E0
100
AcDbEntity
  8
0
100
AcDbLine
 62
7
  6
CONTINUOUS
 10
257.7725124196
 20
349.0415378309
 11
295.772512427
 21
349.0415378309
  0
LINE
  5
2E1
100
AcDbEntity
  8
0
100
AcDbLine
 62
7
  6
CONTINUOUS
 10
295.7725124274
 20
352.0415378276
 11
257.7725124191
 21
352.0415378276
  0
LINE
  5
2E2
100
AcDbEntity
  8
0
100
AcDbLine
 62
7
  6
CONTINUOUS
 10
247.7725124274
 20
352.0415378276
 11
209.7725124191
 21
352.0415378276
  0
LINE
  5
2E3
100
AcDbEntity
  8
0
100
AcDbLine
 62
7
  6
CONTINUOUS
 10
199.7725124274
 20
352.0415378276
 11
161.7725124191
 21
352.0415378276
  0
LINE
  5
2E4
100
AcDbEntity
  8
0
100
AcDbLine
 62
7
  6
CONTINUOUS
 10
151.7725124274
 20
352.0415378276
 11
113.7725124191
 21
352.0415378276
  0
LINE
  5
2E5
100
AcDbEntity
  8
0
100
AcDbLine
 62
7
  6
CONTINUOUS
 10
113.7725124192
 20
359.04153782
 11
151.7725124274
 21
359.04153782
  0
LINE
  5
2E6
100
AcDbEntity
  8
0
100
AcDbLine
 62
7
  6
CONTINUOUS
 10
161.7725124192
 20
359.04153782
 11
199.7725124274
 21
359.04153782
  0
LINE
  5
2E7
100
AcDbEntity
  8
0
100
AcDbLine
 62
7
  6
CONTINUOUS
 10
209.7725124192
 20
359.04153782
 11
247.7725124274
 21
359.04153782
  0
LINE
  5
2E8
100
AcDbEntity
  8
0
100
AcDbLine
 62
7
  6
CONTINUOUS
 10
257.7725124192
 20
359.04153782
 11
295.7725124274
 21
359.04153782
  0
LINE
  5
2E9
100
AcDbEntity
  8
0
100
AcDbLine
 62
7
  6
CONTINUOUS
 10
295.7725124274
 20
362.0415378168
 11
257.7725124191
 21
362.0415378168
  0
LINE
  5
2EA
100
AcDbEntity
  8
0
100
AcDbLine
 62
7
  6
CONTINUOUS
 10
247.7725124274
 20
362.0415378168
 11
209.7725124191
 21
362.0415378168
  0
LINE
  5
2EB
100
AcDbEntity
  8
0
100
AcDbLine
 62
7
  6
CONTINUOUS
 10
199.7725124274
 20
362.0415378168
 11
161.7725124191
 21
362.0415378168
  0
LINE
  5
2EC
100
AcDbEntity
  8
0
100
AcDbLine
 62
7
  6
CONTINUOUS
 10
151.7725124274
 20
362.0415378168
 11
113.7725124191
 21
362.0415378168
  0
LINE
  5
2ED
100
AcDbEntity
  8
0
100
AcDbLine
 62
7
  6
CONTINUOUS
 10
302.7725124181
 20
410.5415377103
 11
302.7955940385
 21
475.5415377099
  0
LINE
  5
2EE
100
AcDbEntity
  8
0
100
AcDbLine
 62
7
  6
CONTINUOUS
 10
304.1755100404
 20
89.541538086
 11
304.259444062
 21
410.5415377103
  0
LINE
  5
2EF
100
AcDbEntity
  8
0
100
AcDbLine
 62
7
  6
CONTINUOUS
 10
113.7725124192
 20
369.0415378092
 11
151.7725124274
 21
369.0415378092
  0
LINE
  5
2F0
100
AcDbEntity
  8
0
100
AcDbLine
 62
7
  6
CONTINUOUS
 10
161.7725124192
 20
369.0415378092
 11
199.7725124274
 21
369.0415378092
  0
LINE
  5
2F1
100
AcDbEntity
  8
0
100
AcDbLine
 62
7
  6
CONTINUOUS
 10
209.7725124192
 20
369.0415378092
 11
247.7725124274
 21
369.0415378092
  0
LINE
  5
2F2
100
AcDbEntity
  8
0
100
AcDbLine
 62
7
  6
CONTINUOUS
 10
257.7725124192
 20
369.0415378092
 11
295.7725124274
 21
369.0415378092
  0
LINE
  5
2F3
100
AcDbEntity
  8
0
100
AcDbLine
 62
7
  6
CONTINUOUS
 10
295.7725124274
 20
372.041537806
 11
257.7725124191
 21
372.041537806
  0
LINE
  5
2F4
100
AcDbEntity
  8
0
100
AcDbLine
 62
7
  6
CONTINUOUS
 10
247.7725124274
 20
372.041537806
 11
209.7725124191
 21
372.041537806
  0
LINE
  5
2F5
100
AcDbEntity
  8
0
100
AcDbLine
 62
7
  6
CONTINUOUS
 10
199.7725124274
 20
372.041537806
 11
161.7725124191
 21
372.041537806
  0
LINE
  5
2F6
100
AcDbEntity
  8
0
100
AcDbLine
 62
7
  6
CONTINUOUS
 10
151.7725124274
 20
372.041537806
 11
113.7725124191
 21
372.041537806
  0
LINE
  5
2F7
100
AcDbEntity
  8
0
100
AcDbLine
 62
7
  6
CONTINUOUS
 10
113.7725124191
 20
379.0415377984
 11
151.7725124274
 21
379.0415377984
  0
LINE
  5
2F8
100
AcDbEntity
  8
0
100
AcDbLine
 62
7
  6
CONTINUOUS
 10
161.7725124192
 20
379.0415377984
 11
199.7725124274
 21
379.0415377984
  0
LINE
  5
2F9
100
AcDbEntity
  8
0
100
AcDbLine
 62
7
  6
CONTINUOUS
 10
209.7725124192
 20
379.0415377984
 11
247.7725124274
 21
379.0415377984
  0
LINE
  5
2FA
100
AcDbEntity
  8
0
100
AcDbLine
 62
7
  6
CONTINUOUS
 10
257.7725124192
 20
379.0415377984
 11
295.7725124274
 21
379.0415377984
  0
LINE
  5
2FB
100
AcDbEntity
  8
0
100
AcDbLine
 62
7
  6
CONTINUOUS
 10
295.7725124274
 20
382.0415377952
 11
257.7725124191
 21
382.0415377952
  0
LINE
  5
2FC
100
AcDbEntity
  8
0
100
AcDbLine
 62
7
  6
CONTINUOUS
 10
247.7725124274
 20
382.0415377952
 11
209.7725124191
 21
382.0415377952
  0
LINE
  5
2FD
100
AcDbEntity
  8
0
100
AcDbLine
 62
7
  6
CONTINUOUS
 10
199.7725124274
 20
382.0415377952
 11
161.7725124191
 21
382.0415377952
  0
LINE
  5
2FE
100
AcDbEntity
  8
0
100
AcDbLine
 62
7
  6
CONTINUOUS
 10
151.7725124274
 20
382.0415377952
 11
113.7725124191
 21
382.0415377952
  0
LINE
  5
2FF
100
AcDbEntity
  8
0
100
AcDbLine
 62
7
  6
CONTINUOUS
 10
312.2725124219
 20
89.5412750129
 11
312.2725124228
 21
410.5415377103
  0
LINE
  5
300
100
AcDbEntity
  8
0
100
AcDbLine
 62
7
  6
CONTINUOUS
 10
314.7725124234
 20
410.5415377103
 11
314.7725124234
 21
475.5415377099
  0
LINE
  5
301
100
AcDbEntity
  8
0
100
AcDbLine
 62
7
  6
CONTINUOUS
 10
316.7725124233
 20
410.5415377103
 11
316.7888548173
 21
475.5415377099
  0
LINE
  5
302
100
AcDbEntity
  8
0
100
AcDbLine
 62
7
  6
CONTINUOUS
 10
113.7725124192
 20
389.0415377876
 11
151.7725124274
 21
389.0415377876
  0
LINE
  5
303
100
AcDbEntity
  8
0
100
AcDbLine
 62
7
  6
CONTINUOUS
 10
161.7725124192
 20
389.0415377876
 11
199.7725124274
 21
389.0415377876
  0
LINE
  5
304
100
AcDbEntity
  8
0
100
AcDbLine
 62
7
  6
CONTINUOUS
 10
209.7725124192
 20
389.0415377876
 11
247.7725124274
 21
389.0415377876
  0
LINE
  5
305
100
AcDbEntity
  8
0
100
AcDbLine
 62
7
  6
CONTINUOUS
 10
257.7725124192
 20
389.0415377876
 11
295.7725124274
 21
389.0415377876
  0
LINE
  5
306
100
AcDbEntity
  8
0
100
AcDbLine
 62
7
  6
CONTINUOUS
 10
295.7725124274
 20
392.0415377844
 11
257.7725124191
 21
392.0415377844
  0
LINE
  5
307
100
AcDbEntity
  8
0
100
AcDbLine
 62
7
  6
CONTINUOUS
 10
247.7725124274
 20
392.0415377844
 11
209.7725124191
 21
392.0415377844
  0
LINE
  5
308
100
AcDbEntity
  8
0
100
AcDbLine
 62
7
  6
CONTINUOUS
 10
199.7725124274
 20
392.0415377844
 11
161.7725124191
 21
392.0415377844
  0
LINE
  5
309
100
AcDbEntity
  8
0
100
AcDbLine
 62
7
  6
CONTINUOUS
 10
151.7725124274
 20
392.0415377844
 11
113.7725124191
 21
392.0415377844
  0
LINE
  5
30A
100
AcDbEntity
  8
0
100
AcDbLine
 62
7
  6
CONTINUOUS
 10
113.7725124192
 20
399.0415377768
 11
151.7725124274
 21
399.0415377768
  0
LINE
  5
30B
100
AcDbEntity
  8
0
100
AcDbLine
 62
7
  6
CONTINUOUS
 10
161.7725124192
 20
399.0415377768
 11
199.7725124274
 21
399.0415377768
  0
LINE
  5
30C
100
AcDbEntity
  8
0
100
AcDbLine
 62
7
  6
CONTINUOUS
 10
209.7725124192
 20
399.0415377768
 11
247.7725124274
 21
399.0415377768
  0
LINE
  5
30D
100
AcDbEntity
  8
0
100
AcDbLine
 62
7
  6
CONTINUOUS
 10
257.7725124192
 20
399.0415377768
 11
295.7725124274
 21
399.0415377768
  0
LINE
  5
30E
100
AcDbEntity
  8
0
100
AcDbLine
 62
7
  6
CONTINUOUS
 10
337.2843605593
 20
410.5415377103
 11
337.2855461203
 21
475.5415377099
  0
LINE
  5
30F
100
AcDbEntity
  8
0
100
AcDbLine
 62
7
  6
CONTINUOUS
 10
44.4571161035
 20
410.5415377103
 11
365.0860613693
 21
410.5415377103
  0
LINE
  5
310
100
AcDbEntity
  8
0
100
AcDbLine
 62
7
  6
CONTINUOUS
 10
350.7725124231
 20
89.5415380858
 11
350.7725124238
 21
261.5425835911
  0
LINE
  5
311
100
AcDbEntity
  8
0
100
AcDbLine
 62
7
  6
CONTINUOUS
 10
355.5552697121
 20
410.5415377103
 11
355.5547875012
 21
475.5415377099
  0
LINE
  5
312
100
AcDbEntity
  8
0
100
AcDbLine
 62
7
  6
CONTINUOUS
 10
354.6745720715
 20
85.5415376849
 11
354.7598448724
 21
410.5417456954
  0
LINE
  5
313
100
AcDbEntity
  8
0
100
AcDbLine
 62
7
  6
CONTINUOUS
 10
364.9150315739
 20
475.5415377099
 11
364.9150315738
 21
410.5415377103
  0
LINE
  5
314
100
AcDbEntity
  8
0
100
AcDbLine
 62
7
  6
CONTINUOUS
 10
365.087908743
 20
410.5415377103
 11
365.087908743
 21
475.5415377099
  0
LINE
  5
315
100
AcDbEntity
  8
0
100
AcDbLine
 62
7
  6
CONTINUOUS
 10
44.4589634772
 20
475.5415377099
 11
365.0859665849
 21
475.5415377099
  0
ARC
  5
316
100
AcDbEntity
  8
0
100
AcDbCircle
 62
7
  6
CONTINUOUS
 10
116.7725124233
 20
106.0415380681
 40
3.499999999
100
AcDbArc
 50
90.0000000073
 51
269.9999999142
  0
ARC
  5
317
100
AcDbEntity
  8
0
100
AcDbCircle
 62
7
  6
CONTINUOUS
 10
154.7725124233
 20
106.0415380681
 40
3.499999999
100
AcDbArc
 50
270.0000000786
 51
89.9999999851
  0
ARC
  5
318
100
AcDbEntity
  8
0
100
AcDbCircle
 62
7
  6
CONTINUOUS
 10
116.7725124233
 20
116.0415380571
 40
3.499999999
100
AcDbArc
 50
90.0000000775
 51
269.9999999851
  0
ARC
  5
319
100
AcDbEntity
  8
0
100
AcDbCircle
 62
7
  6
CONTINUOUS
 10
154.7725124233
 20
116.0415380571
 40
3.499999999
100
AcDbArc
 50
270.0000000073
 51
89.9999999146
  0
ARC
  5
31A
100
AcDbEntity
  8
0
100
AcDbCircle
 62
7
  6
CONTINUOUS
 10
116.7725124233
 20
126.0415380471
 40
3.499999999
100
AcDbArc
 50
90.000000077
 51
269.9999999142
  0
ARC
  5
31B
100
AcDbEntity
  8
0
100
AcDbCircle
 62
7
  6
CONTINUOUS
 10
154.7725124233
 20
126.0415380471
 40
3.499999999
100
AcDbArc
 50
270.0000000775
 51
89.9999999145
  0
ARC
  5
31C
100
AcDbEntity
  8
0
100
AcDbCircle
 62
7
  6
CONTINUOUS
 10
116.7725124233
 20
136.0415380361
 40
3.499999999
100
AcDbArc
 50
90.0000000775
 51
269.9999999146
  0
ARC
  5
31D
100
AcDbEntity
  8
0
100
AcDbCircle
 62
7
  6
CONTINUOUS
 10
154.7725124233
 20
136.0415380361
 40
3.499999999
100
AcDbArc
 50
270.0000000775
 51
89.9999999145
  0
ARC
  5
31E
100
AcDbEntity
  8
0
100
AcDbCircle
 62
7
  6
CONTINUOUS
 10
116.7725124233
 20
146.0415380251
 40
3.499999999
100
AcDbArc
 50
90.0000000775
 51
269.9999999146
  0
ARC
  5
31F
100
AcDbEntity
  8
0
100
AcDbCircle
 62
7
  6
CONTINUOUS
 10
154.7725124233
 20
146.0415380251
 40
3.499999999
100
AcDbArc
 50
270.000000077
 51
89.9999999142
  0
ARC
  5
320
100
AcDbEntity
  8
0
100
AcDbCircle
 62
7
  6
CONTINUOUS
 10
116.7725124233
 20
156.0415380141
 40
3.499999999
100
AcDbArc
 50
90.0000000073
 51
269.9999999142
  0
ARC
  5
321
100
AcDbEntity
  8
0
100
AcDbCircle
 62
7
  6
CONTINUOUS
 10
154.7725124233
 20
156.0415380141
 40
3.499999999
100
AcDbArc
 50
270.0000000786
 51
89.9999999851
  0
ARC
  5
322
100
AcDbEntity
  8
0
100
AcDbCircle
 62
7
  6
CONTINUOUS
 10
116.7725124233
 20
166.0415380031
 40
3.499999999
100
AcDbArc
 50
90.0000000073
 51
269.9999999145
  0
ARC
  5
323
100
AcDbEntity
  8
0
100
AcDbCircle
 62
7
  6
CONTINUOUS
 10
154.7725124233
 20
166.0415380031
 40
3.499999999
100
AcDbArc
 50
270.0000000775
 51
89.9999999851
  0
ARC
  5
324
100
AcDbEntity
  8
0
100
AcDbCircle
 62
7
  6
CONTINUOUS
 10
116.7725124233
 20
176.0415379921
 40
3.499999999
100
AcDbArc
 50
90.0000000775
 51
269.9999999851
  0
ARC
  5
325
100
AcDbEntity
  8
0
100
AcDbCircle
 62
7
  6
CONTINUOUS
 10
154.7725124233
 20
176.0415379921
 40
3.499999999
100
AcDbArc
 50
270.0000000073
 51
89.9999999145
  0
ARC
  5
326
100
AcDbEntity
  8
0
100
AcDbCircle
 62
7
  6
CONTINUOUS
 10
116.7725124233
 20
186.0415379821
 40
3.499999999
100
AcDbArc
 50
90.0000000775
 51
269.9999999146
  0
ARC
  5
327
100
AcDbEntity
  8
0
100
AcDbCircle
 62
7
  6
CONTINUOUS
 10
154.7725124233
 20
186.0415379821
 40
3.499999999
100
AcDbArc
 50
270.0000000775
 51
89.9999999145
  0
ARC
  5
328
100
AcDbEntity
  8
0
100
AcDbCircle
 62
7
  6
CONTINUOUS
 10
116.7725124233
 20
196.0415379711
 40
3.499999999
100
AcDbArc
 50
90.0000000775
 51
269.9999999145
  0
ARC
  5
329
100
AcDbEntity
  8
0
100
AcDbCircle
 62
7
  6
CONTINUOUS
 10
154.7725124233
 20
196.0415379711
 40
3.499999999
100
AcDbArc
 50
270.0000000775
 51
89.9999999146
  0
ARC
  5
32A
100
AcDbEntity
  8
0
100
AcDbCircle
 62
7
  6
CONTINUOUS
 10
116.7725124233
 20
206.0415379601
 40
3.499999999
100
AcDbArc
 50
90.0000000775
 51
269.9999999145
  0
ARC
  5
32B
100
AcDbEntity
  8
0
100
AcDbCircle
 62
7
  6
CONTINUOUS
 10
154.7725124233
 20
206.0415379601
 40
3.499999999
100
AcDbArc
 50
270.0000000786
 51
89.9999999145
  0
ARC
  5
32C
100
AcDbEntity
  8
0
100
AcDbCircle
 62
7
  6
CONTINUOUS
 10
116.7725124233
 20
216.0415379491
 40
3.499999999
100
AcDbArc
 50
90.0000000073
 51
269.9999999142
  0
ARC
  5
32D
100
AcDbEntity
  8
0
100
AcDbCircle
 62
7
  6
CONTINUOUS
 10
154.7725124233
 20
216.0415379491
 40
3.499999999
100
AcDbArc
 50
270.0000000775
 51
89.9999999851
  0
ARC
  5
32E
100
AcDbEntity
  8
0
100
AcDbCircle
 62
7
  6
CONTINUOUS
 10
116.7725124233
 20
226.0415379381
 40
3.499999999
100
AcDbArc
 50
90.0000000952
 51
269.9999999851
  0
ARC
  5
32F
100
AcDbEntity
  8
0
100
AcDbCircle
 62
7
  6
CONTINUOUS
 10
154.7725124233
 20
226.0415379381
 40
3.499999999
100
AcDbArc
 50
270.0000000073
 51
89.9999999042
  0
ARC
  5
330
100
AcDbEntity
  8
0
100
AcDbCircle
 62
7
  6
CONTINUOUS
 10
116.7725124233
 20
236.0415379277
 40
3.499999999
100
AcDbArc
 50
90.0000000672
 51
269.9999999324
  0
ARC
  5
331
100
AcDbEntity
  8
0
100
AcDbCircle
 62
7
  6
CONTINUOUS
 10
154.7725124233
 20
236.0415379277
 40
3.499999999
100
AcDbArc
 50
270.0000000672
 51
89.9999999324
  0
ARC
  5
332
100
AcDbEntity
  8
0
100
AcDbCircle
 62
7
  6
CONTINUOUS
 10
116.7725124233
 20
246.0415379169
 40
3.499999999
100
AcDbArc
 50
90.0000000672
 51
269.9999999395
  0
ARC
  5
333
100
AcDbEntity
  8
0
100
AcDbCircle
 62
7
  6
CONTINUOUS
 10
154.7725124233
 20
246.0415379169
 40
3.499999999
100
AcDbArc
 50
270.000000061
 51
89.9999999324
  0
ARC
  5
334
100
AcDbEntity
  8
0
100
AcDbCircle
 62
7
  6
CONTINUOUS
 10
163.7725124233
 20
106.0415380681
 40
3.499999999
100
AcDbArc
 50
90.0000000073
 51
269.9999999146
  0
ARC
  5
335
100
AcDbEntity
  8
0
100
AcDbCircle
 62
7
  6
CONTINUOUS
 10
201.7725124233
 20
106.0415380681
 40
3.499999999
100
AcDbArc
 50
270.0000000786
 51
89.9999999851
  0
ARC
  5
336
100
AcDbEntity
  8
0
100
AcDbCircle
 62
7
  6
CONTINUOUS
 10
163.7725124233
 20
116.0415380571
 40
3.499999999
100
AcDbArc
 50
90.0000000775
 51
269.9999999851
  0
ARC
  5
337
100
AcDbEntity
  8
0
100
AcDbCircle
 62
7
  6
CONTINUOUS
 10
201.7725124233
 20
116.0415380571
 40
3.499999999
100
AcDbArc
 50
270.0000000073
 51
89.9999999146
  0
ARC
  5
338
100
AcDbEntity
  8
0
100
AcDbCircle
 62
7
  6
CONTINUOUS
 10
163.7725124233
 20
126.0415380471
 40
3.499999999
100
AcDbArc
 50
90.000000077
 51
269.9999999142
  0
ARC
  5
339
100
AcDbEntity
  8
0
100
AcDbCircle
 62
7
  6
CONTINUOUS
 10
201.7725124233
 20
126.0415380471
 40
3.499999999
100
AcDbArc
 50
270.0000000775
 51
89.9999999145
  0
ARC
  5
33A
100
AcDbEntity
  8
0
100
AcDbCircle
 62
7
  6
CONTINUOUS
 10
163.7725124233
 20
136.0415380361
 40
3.499999999
100
AcDbArc
 50
90.0000000775
 51
269.9999999146
  0
ARC
  5
33B
100
AcDbEntity
  8
0
100
AcDbCircle
 62
7
  6
CONTINUOUS
 10
201.7725124233
 20
136.0415380361
 40
3.499999999
100
AcDbArc
 50
270.0000000775
 51
89.9999999145
  0
ARC
  5
33C
100
AcDbEntity
  8
0
100
AcDbCircle
 62
7
  6
CONTINUOUS
 10
163.7725124233
 20
146.0415380251
 40
3.499999999
100
AcDbArc
 50
90.0000000786
 51
269.9999999145
  0
ARC
  5
33D
100
AcDbEntity
  8
0
100
AcDbCircle
 62
7
  6
CONTINUOUS
 10
201.7725124233
 20
146.0415380251
 40
3.499999999
100
AcDbArc
 50
270.0000000775
 51
89.9999999146
  0
ARC
  5
33E
100
AcDbEntity
  8
0
100
AcDbCircle
 62
7
  6
CONTINUOUS
 10
163.7725124233
 20
156.0415380141
 40
3.499999999
100
AcDbArc
 50
90.0000000073
 51
269.9999999145
  0
ARC
  5
33F
100
AcDbEntity
  8
0
100
AcDbCircle
 62
7
  6
CONTINUOUS
 10
201.7725124233
 20
156.0415380141
 40
3.499999999
100
AcDbArc
 50
270.0000000786
 51
89.9999999851
  0
ARC
  5
340
100
AcDbEntity
  8
0
100
AcDbCircle
 62
7
  6
CONTINUOUS
 10
163.7725124233
 20
166.0415380031
 40
3.499999999
100
AcDbArc
 50
90.0000000073
 51
269.9999999145
  0
ARC
  5
341
100
AcDbEntity
  8
0
100
AcDbCircle
 62
7
  6
CONTINUOUS
 10
201.7725124233
 20
166.0415380031
 40
3.499999999
100
AcDbArc
 50
270.0000000775
 51
89.9999999851
  0
ARC
  5
342
100
AcDbEntity
  8
0
100
AcDbCircle
 62
7
  6
CONTINUOUS
 10
163.7725124233
 20
176.0415379921
 40
3.499999999
100
AcDbArc
 50
90.0000000775
 51
269.9999999851
  0
ARC
  5
343
100
AcDbEntity
  8
0
100
AcDbCircle
 62
7
  6
CONTINUOUS
 10
201.7725124233
 20
176.0415379921
 40
3.499999999
100
AcDbArc
 50
270.0000000073
 51
89.9999999145
  0
ARC
  5
344
100
AcDbEntity
  8
0
100
AcDbCircle
 62
7
  6
CONTINUOUS
 10
163.7725124233
 20
186.0415379821
 40
3.499999999
100
AcDbArc
 50
90.0000000775
 51
269.9999999146
  0
ARC
  5
345
100
AcDbEntity
  8
0
100
AcDbCircle
 62
7
  6
CONTINUOUS
 10
201.7725124233
 20
186.0415379821
 40
3.499999999
100
AcDbArc
 50
270.0000000775
 51
89.9999999145
  0
ARC
  5
346
100
AcDbEntity
  8
0
100
AcDbCircle
 62
7
  6
CONTINUOUS
 10
163.7725124233
 20
196.0415379711
 40
3.499999999
100
AcDbArc
 50
90.0000000786
 51
269.9999999145
  0
ARC
  5
347
100
AcDbEntity
  8
0
100
AcDbCircle
 62
7
  6
CONTINUOUS
 10
201.7725124233
 20
196.0415379711
 40
3.499999999
100
AcDbArc
 50
270.0000000775
 51
89.9999999146
  0
ARC
  5
348
100
AcDbEntity
  8
0
100
AcDbCircle
 62
7
  6
CONTINUOUS
 10
163.7725124233
 20
206.0415379601
 40
3.499999999
100
AcDbArc
 50
90.000000077
 51
269.9999999142
  0
ARC
  5
349
100
AcDbEntity
  8
0
100
AcDbCircle
 62
7
  6
CONTINUOUS
 10
201.7725124233
 20
206.0415379601
 40
3.499999999
100
AcDbArc
 50
270.0000000775
 51
89.9999999145
  0
ARC
  5
34A
100
AcDbEntity
  8
0
100
AcDbCircle
 62
7
  6
CONTINUOUS
 10
163.7725124233
 20
216.0415379491
 40
3.499999999
100
AcDbArc
 50
90.0000000073
 51
269.9999999145
  0
ARC
  5
34B
100
AcDbEntity
  8
0
100
AcDbCircle
 62
7
  6
CONTINUOUS
 10
201.7725124233
 20
216.0415379491
 40
3.499999999
100
AcDbArc
 50
270.0000000786
 51
89.9999999851
  0
ARC
  5
34C
100
AcDbEntity
  8
0
100
AcDbCircle
 62
7
  6
CONTINUOUS
 10
163.7725124233
 20
226.0415379381
 40
3.499999999
100
AcDbArc
 50
90.0000000966
 51
269.9999999851
  0
ARC
  5
34D
100
AcDbEntity
  8
0
100
AcDbCircle
 62
7
  6
CONTINUOUS
 10
201.7725124233
 20
226.0415379381
 40
3.499999999
100
AcDbArc
 50
270.0000000074
 51
89.9999999041
  0
ARC
  5
34E
100
AcDbEntity
  8
0
100
AcDbCircle
 62
7
  6
CONTINUOUS
 10
163.7725124233
 20
236.0415379277
 40
3.499999999
100
AcDbArc
 50
90.0000000672
 51
269.9999999324
  0
ARC
  5
34F
100
AcDbEntity
  8
0
100
AcDbCircle
 62
7
  6
CONTINUOUS
 10
201.7725124233
 20
236.0415379277
 40
3.499999999
100
AcDbArc
 50
270.0000000672
 51
89.9999999324
  0
ARC
  5
350
100
AcDbEntity
  8
0
100
AcDbCircle
 62
7
  6
CONTINUOUS
 10
163.7725124233
 20
246.0415379169
 40
3.499999999
100
AcDbArc
 50
90.0000000672
 51
269.9999999395
  0
ARC
  5
351
100
AcDbEntity
  8
0
100
AcDbCircle
 62
7
  6
CONTINUOUS
 10
201.7725124233
 20
246.0415379169
 40
3.499999999
100
AcDbArc
 50
270.0000000602
 51
89.9999999324
  0
ARC
  5
352
100
AcDbEntity
  8
0
100
AcDbCircle
 62
7
  6
CONTINUOUS
 10
113.7725124233
 20
275.5415379104
 40
3.499999999
100
AcDbArc
 50
90.0000000602
 51
269.9999999324
  0
ARC
  5
353
100
AcDbEntity
  8
0
100
AcDbCircle
 62
7
  6
CONTINUOUS
 10
151.7725124233
 20
275.5415379104
 40
3.499999999
100
AcDbArc
 50
270.0000000672
 51
89.9999999395
  0
ARC
  5
354
100
AcDbEntity
  8
0
100
AcDbCircle
 62
7
  6
CONTINUOUS
 10
113.7725124233
 20
285.5415378996
 40
3.499999999
100
AcDbArc
 50
90.0000000681
 51
269.9999999324
  0
ARC
  5
355
100
AcDbEntity
  8
0
100
AcDbCircle
 62
7
  6
CONTINUOUS
 10
151.7725124233
 20
285.5415378996
 40
3.499999999
100
AcDbArc
 50
270.0000000672
 51
89.9999999324
  0
ARC
  5
356
100
AcDbEntity
  8
0
100
AcDbCircle
 62
7
  6
CONTINUOUS
 10
113.7725124233
 20
295.5415378887
 40
3.499999999
100
AcDbArc
 50
90.0000000668
 51
269.9999999321
  0
ARC
  5
357
100
AcDbEntity
  8
0
100
AcDbCircle
 62
7
  6
CONTINUOUS
 10
151.7725124233
 20
295.5415378887
 40
3.499999999
100
AcDbArc
 50
270.0000000681
 51
89.9999999324
  0
ARC
  5
358
100
AcDbEntity
  8
0
100
AcDbCircle
 62
7
  6
CONTINUOUS
 10
113.7725124233
 20
305.5415378779
 40
3.499999999
100
AcDbArc
 50
90.0000000672
 51
269.9999999324
  0
ARC
  5
359
100
AcDbEntity
  8
0
100
AcDbCircle
 62
7
  6
CONTINUOUS
 10
151.7725124233
 20
305.5415378779
 40
3.499999999
100
AcDbArc
 50
270.0000000672
 51
89.9999999324
  0
ARC
  5
35A
100
AcDbEntity
  8
0
100
AcDbCircle
 62
7
  6
CONTINUOUS
 10
113.7725124233
 20
315.5415378671
 40
3.499999999
100
AcDbArc
 50
90.0000000672
 51
269.9999999324
  0
ARC
  5
35B
100
AcDbEntity
  8
0
100
AcDbCircle
 62
7
  6
CONTINUOUS
 10
151.7725124233
 20
315.5415378671
 40
3.499999999
100
AcDbArc
 50
270.0000000672
 51
89.9999999324
  0
ARC
  5
35C
100
AcDbEntity
  8
0
100
AcDbCircle
 62
7
  6
CONTINUOUS
 10
113.7725124233
 20
325.5415378563
 40
3.499999999
100
AcDbArc
 50
90.000000066
 51
269.9999999331
  0
ARC
  5
35D
100
AcDbEntity
  8
0
100
AcDbCircle
 62
7
  6
CONTINUOUS
 10
151.7725124233
 20
325.5415378563
 40
3.499999999
100
AcDbArc
 50
270.0000000665
 51
89.9999999336
  0
ARC
  5
35E
100
AcDbEntity
  8
0
100
AcDbCircle
 62
7
  6
CONTINUOUS
 10
113.7725124233
 20
335.5415378454
 40
3.499999999
100
AcDbArc
 50
90.0000000653
 51
269.9999999338
  0
ARC
  5
35F
100
AcDbEntity
  8
0
100
AcDbCircle
 62
7
  6
CONTINUOUS
 10
151.7725124233
 20
335.5415378454
 40
3.499999999
100
AcDbArc
 50
270.0000000658
 51
89.9999999352
  0
ARC
  5
360
100
AcDbEntity
  8
0
100
AcDbCircle
 62
7
  6
CONTINUOUS
 10
113.7725124233
 20
345.5415378347
 40
3.499999999
100
AcDbArc
 50
90.0000000602
 51
269.9999999324
  0
ARC
  5
361
100
AcDbEntity
  8
0
100
AcDbCircle
 62
7
  6
CONTINUOUS
 10
151.7725124233
 20
345.5415378347
 40
3.499999999
100
AcDbArc
 50
270.0000000672
 51
89.9999999395
  0
ARC
  5
362
100
AcDbEntity
  8
0
100
AcDbCircle
 62
7
  6
CONTINUOUS
 10
113.7725124233
 20
355.5415378239
 40
3.499999999
100
AcDbArc
 50
90.0000000672
 51
269.9999999324
  0
ARC
  5
363
100
AcDbEntity
  8
0
100
AcDbCircle
 62
7
  6
CONTINUOUS
 10
151.7725124233
 20
355.5415378239
 40
3.499999999
100
AcDbArc
 50
270.0000000672
 51
89.9999999324
  0
ARC
  5
364
100
AcDbEntity
  8
0
100
AcDbCircle
 62
7
  6
CONTINUOUS
 10
113.7725124233
 20
365.541537813
 40
3.499999999
100
AcDbArc
 50
90.0000000672
 51
269.9999999324
  0
ARC
  5
365
100
AcDbEntity
  8
0
100
AcDbCircle
 62
7
  6
CONTINUOUS
 10
151.7725124233
 20
365.541537813
 40
3.499999999
100
AcDbArc
 50
270.0000000672
 51
89.9999999324
  0
ARC
  5
366
100
AcDbEntity
  8
0
100
AcDbCircle
 62
7
  6
CONTINUOUS
 10
113.7725124233
 20
375.5415378022
 40
3.499999999
100
AcDbArc
 50
90.0000000681
 51
269.9999999324
  0
ARC
  5
367
100
AcDbEntity
  8
0
100
AcDbCircle
 62
7
  6
CONTINUOUS
 10
151.7725124233
 20
375.5415378022
 40
3.499999999
100
AcDbArc
 50
270.0000000672
 51
89.9999999324
  0
ARC
  5
368
100
AcDbEntity
  8
0
100
AcDbCircle
 62
7
  6
CONTINUOUS
 10
113.7725124233
 20
385.5415377914
 40
3.499999999
100
AcDbArc
 50
90.0000000672
 51
269.9999999324
  0
ARC
  5
369
100
AcDbEntity
  8
0
100
AcDbCircle
 62
7
  6
CONTINUOUS
 10
151.7725124233
 20
385.5415377914
 40
3.499999999
100
AcDbArc
 50
270.0000000672
 51
89.9999999324
  0
ARC
  5
36A
100
AcDbEntity
  8
0
100
AcDbCircle
 62
7
  6
CONTINUOUS
 10
113.7725124233
 20
395.5415377806
 40
3.499999999
100
AcDbArc
 50
90.0000000672
 51
269.9999999324
  0
ARC
  5
36B
100
AcDbEntity
  8
0
100
AcDbCircle
 62
7
  6
CONTINUOUS
 10
151.7725124233
 20
395.5415377806
 40
3.499999999
100
AcDbArc
 50
270.0000000672
 51
89.9999999324
  0
ARC
  5
36C
100
AcDbEntity
  8
0
100
AcDbCircle
 62
7
  6
CONTINUOUS
 10
161.7725124233
 20
275.5415379104
 40
3.499999999
100
AcDbArc
 50
90.0000000602
 51
269.9999999324
  0
ARC
  5
36D
100
AcDbEntity
  8
0
100
AcDbCircle
 62
7
  6
CONTINUOUS
 10
199.7725124233
 20
275.5415379104
 40
3.499999999
100
AcDbArc
 50
270.0000000672
 51
89.9999999395
  0
ARC
  5
36E
100
AcDbEntity
  8
0
100
AcDbCircle
 62
7
  6
CONTINUOUS
 10
161.7725124233
 20
285.5415378996
 40
3.499999999
100
AcDbArc
 50
90.0000000672
 51
269.9999999324
  0
ARC
  5
36F
100
AcDbEntity
  8
0
100
AcDbCircle
 62
7
  6
CONTINUOUS
 10
199.7725124233
 20
285.5415378996
 40
3.499999999
100
AcDbArc
 50
270.0000000672
 51
89.9999999324
  0
ARC
  5
370
100
AcDbEntity
  8
0
100
AcDbCircle
 62
7
  6
CONTINUOUS
 10
161.7725124233
 20
295.5415378887
 40
3.499999999
100
AcDbArc
 50
90.0000000681
 51
269.9999999324
  0
ARC
  5
371
100
AcDbEntity
  8
0
100
AcDbCircle
 62
7
  6
CONTINUOUS
 10
199.7725124233
 20
295.5415378887
 40
3.499999999
100
AcDbArc
 50
270.0000000681
 51
89.9999999324
  0
ARC
  5
372
100
AcDbEntity
  8
0
100
AcDbCircle
 62
7
  6
CONTINUOUS
 10
161.7725124233
 20
305.5415378779
 40
3.499999999
100
AcDbArc
 50
90.0000000672
 51
269.9999999324
  0
ARC
  5
373
100
AcDbEntity
  8
0
100
AcDbCircle
 62
7
  6
CONTINUOUS
 10
199.7725124233
 20
305.5415378779
 40
3.499999999
100
AcDbArc
 50
270.0000000672
 51
89.9999999324
  0
ARC
  5
374
100
AcDbEntity
  8
0
100
AcDbCircle
 62
7
  6
CONTINUOUS
 10
161.7725124233
 20
315.5415378671
 40
3.499999999
100
AcDbArc
 50
90.0000000672
 51
269.9999999324
  0
ARC
  5
375
100
AcDbEntity
  8
0
100
AcDbCircle
 62
7
  6
CONTINUOUS
 10
199.7725124233
 20
315.5415378671
 40
3.499999999
100
AcDbArc
 50
270.0000000672
 51
89.9999999324
  0
ARC
  5
376
100
AcDbEntity
  8
0
100
AcDbCircle
 62
7
  6
CONTINUOUS
 10
161.7725124233
 20
325.5415378563
 40
3.499999999
100
AcDbArc
 50
90.0000000656
 51
269.9999999328
  0
ARC
  5
377
100
AcDbEntity
  8
0
100
AcDbCircle
 62
7
  6
CONTINUOUS
 10
199.7725124233
 20
325.5415378563
 40
3.499999999
100
AcDbArc
 50
270.0000000665
 51
89.9999999336
  0
ARC
  5
378
100
AcDbEntity
  8
0
100
AcDbCircle
 62
7
  6
CONTINUOUS
 10
161.7725124233
 20
335.5415378454
 40
3.499999999
100
AcDbArc
 50
90.0000000644
 51
269.9999999338
  0
ARC
  5
379
100
AcDbEntity
  8
0
100
AcDbCircle
 62
7
  6
CONTINUOUS
 10
199.7725124233
 20
335.5415378454
 40
3.499999999
100
AcDbArc
 50
270.0000000658
 51
89.9999999352
  0
ARC
  5
37A
100
AcDbEntity
  8
0
100
AcDbCircle
 62
7
  6
CONTINUOUS
 10
161.7725124233
 20
345.5415378347
 40
3.499999999
100
AcDbArc
 50
90.0000000602
 51
269.9999999324
  0
ARC
  5
37B
100
AcDbEntity
  8
0
100
AcDbCircle
 62
7
  6
CONTINUOUS
 10
199.7725124233
 20
345.5415378347
 40
3.499999999
100
AcDbArc
 50
270.0000000672
 51
89.9999999395
  0
ARC
  5
37C
100
AcDbEntity
  8
0
100
AcDbCircle
 62
7
  6
CONTINUOUS
 10
161.7725124233
 20
355.5415378239
 40
3.499999999
100
AcDbArc
 50
90.0000000672
 51
269.9999999324
  0
ARC
  5
37D
100
AcDbEntity
  8
0
100
AcDbCircle
 62
7
  6
CONTINUOUS
 10
199.7725124233
 20
355.5415378239
 40
3.499999999
100
AcDbArc
 50
270.0000000672
 51
89.9999999324
  0
ARC
  5
37E
100
AcDbEntity
  8
0
100
AcDbCircle
 62
7
  6
CONTINUOUS
 10
161.7725124233
 20
365.541537813
 40
3.499999999
100
AcDbArc
 50
90.0000000672
 51
269.9999999324
  0
ARC
  5
37F
100
AcDbEntity
  8
0
100
AcDbCircle
 62
7
  6
CONTINUOUS
 10
199.7725124233
 20
365.541537813
 40
3.499999999
100
AcDbArc
 50
270.0000000672
 51
89.9999999324
  0
ARC
  5
380
100
AcDbEntity
  8
0
100
AcDbCircle
 62
7
  6
CONTINUOUS
 10
161.7725124233
 20
375.5415378022
 40
3.499999999
100
AcDbArc
 50
90.0000000672
 51
269.9999999324
  0
ARC
  5
381
100
AcDbEntity
  8
0
100
AcDbCircle
 62
7
  6
CONTINUOUS
 10
199.7725124233
 20
375.5415378022
 40
3.499999999
100
AcDbArc
 50
270.0000000672
 51
89.9999999324
  0
ARC
  5
382
100
AcDbEntity
  8
0
100
AcDbCircle
 62
7
  6
CONTINUOUS
 10
161.7725124233
 20
385.5415377914
 40
3.499999999
100
AcDbArc
 50
90.0000000672
 51
269.9999999324
  0
ARC
  5
383
100
AcDbEntity
  8
0
100
AcDbCircle
 62
7
  6
CONTINUOUS
 10
199.7725124233
 20
385.5415377914
 40
3.499999999
100
AcDbArc
 50
270.0000000672
 51
89.9999999324
  0
ARC
  5
384
100
AcDbEntity
  8
0
100
AcDbCircle
 62
7
  6
CONTINUOUS
 10
161.7725124233
 20
395.5415377806
 40
3.499999999
100
AcDbArc
 50
90.0000000672
 51
269.9999999324
  0
ARC
  5
385
100
AcDbEntity
  8
0
100
AcDbCircle
 62
7
  6
CONTINUOUS
 10
199.7725124233
 20
395.5415377806
 40
3.499999999
100
AcDbArc
 50
270.0000000672
 51
89.9999999324
  0
ARC
  5
386
100
AcDbEntity
  8
0
100
AcDbCircle
 62
7
  6
CONTINUOUS
 10
210.7725124233
 20
106.0415380681
 40
3.499999999
100
AcDbArc
 50
90.0000000073
 51
269.9999999146
  0
ARC
  5
387
100
AcDbEntity
  8
0
100
AcDbCircle
 62
7
  6
CONTINUOUS
 10
248.7725124233
 20
106.0415380681
 40
3.499999999
100
AcDbArc
 50
270.0000000775
 51
89.9999999851
  0
ARC
  5
388
100
AcDbEntity
  8
0
100
AcDbCircle
 62
7
  6
CONTINUOUS
 10
210.7725124233
 20
116.0415380571
 40
3.499999999
100
AcDbArc
 50
90.0000000775
 51
269.9999999851
  0
ARC
  5
389
100
AcDbEntity
  8
0
100
AcDbCircle
 62
7
  6
CONTINUOUS
 10
248.7725124233
 20
116.0415380571
 40
3.499999999
100
AcDbArc
 50
270.0000000073
 51
89.9999999146
  0
ARC
  5
38A
100
AcDbEntity
  8
0
100
AcDbCircle
 62
7
  6
CONTINUOUS
 10
210.7725124233
 20
126.0415380471
 40
3.499999999
100
AcDbArc
 50
90.000000077
 51
269.9999999142
  0
ARC
  5
38B
100
AcDbEntity
  8
0
100
AcDbCircle
 62
7
  6
CONTINUOUS
 10
248.7725124233
 20
126.0415380471
 40
3.499999999
100
AcDbArc
 50
270.0000000775
 51
89.9999999145
  0
ARC
  5
38C
100
AcDbEntity
  8
0
100
AcDbCircle
 62
7
  6
CONTINUOUS
 10
210.7725124233
 20
136.0415380361
 40
3.499999999
100
AcDbArc
 50
90.0000000775
 51
269.9999999146
  0
ARC
  5
38D
100
AcDbEntity
  8
0
100
AcDbCircle
 62
7
  6
CONTINUOUS
 10
248.7725124233
 20
136.0415380361
 40
3.499999999
100
AcDbArc
 50
270.0000000775
 51
89.9999999145
  0
ARC
  5
38E
100
AcDbEntity
  8
0
100
AcDbCircle
 62
7
  6
CONTINUOUS
 10
210.7725124233
 20
146.0415380251
 40
3.499999999
100
AcDbArc
 50
90.0000000786
 51
269.9999999145
  0
ARC
  5
38F
100
AcDbEntity
  8
0
100
AcDbCircle
 62
7
  6
CONTINUOUS
 10
248.7725124233
 20
146.0415380251
 40
3.499999999
100
AcDbArc
 50
270.0000000777
 51
89.9999999149
  0
ARC
  5
390
100
AcDbEntity
  8
0
100
AcDbCircle
 62
7
  6
CONTINUOUS
 10
210.7725124233
 20
156.0415380141
 40
3.499999999
100
AcDbArc
 50
90.0000000073
 51
269.9999999145
  0
ARC
  5
391
100
AcDbEntity
  8
0
100
AcDbCircle
 62
7
  6
CONTINUOUS
 10
248.7725124233
 20
156.0415380141
 40
3.499999999
100
AcDbArc
 50
270.0000000775
 51
89.9999999851
  0
ARC
  5
392
100
AcDbEntity
  8
0
100
AcDbCircle
 62
7
  6
CONTINUOUS
 10
210.7725124233
 20
166.0415380031
 40
3.499999999
100
AcDbArc
 50
90.0000000073
 51
269.9999999145
  0
ARC
  5
393
100
AcDbEntity
  8
0
100
AcDbCircle
 62
7
  6
CONTINUOUS
 10
248.7725124233
 20
166.0415380031
 40
3.499999999
100
AcDbArc
 50
270.000000077
 51
89.9999999851
  0
ARC
  5
394
100
AcDbEntity
  8
0
100
AcDbCircle
 62
7
  6
CONTINUOUS
 10
210.7725124233
 20
176.0415379921
 40
3.499999999
100
AcDbArc
 50
90.0000000775
 51
269.9999999851
  0
ARC
  5
395
100
AcDbEntity
  8
0
100
AcDbCircle
 62
7
  6
CONTINUOUS
 10
248.7725124233
 20
176.0415379921
 40
3.499999999
100
AcDbArc
 50
270.0000000073
 51
89.9999999145
  0
ARC
  5
396
100
AcDbEntity
  8
0
100
AcDbCircle
 62
7
  6
CONTINUOUS
 10
210.7725124233
 20
186.0415379821
 40
3.499999999
100
AcDbArc
 50
90.0000000775
 51
269.9999999146
  0
ARC
  5
397
100
AcDbEntity
  8
0
100
AcDbCircle
 62
7
  6
CONTINUOUS
 10
248.7725124233
 20
186.0415379821
 40
3.499999999
100
AcDbArc
 50
270.0000000775
 51
89.9999999145
  0
ARC
  5
398
100
AcDbEntity
  8
0
100
AcDbCircle
 62
7
  6
CONTINUOUS
 10
210.7725124233
 20
196.0415379711
 40
3.499999999
100
AcDbArc
 50
90.0000000786
 51
269.9999999145
  0
ARC
  5
399
100
AcDbEntity
  8
0
100
AcDbCircle
 62
7
  6
CONTINUOUS
 10
248.7725124233
 20
196.0415379711
 40
3.499999999
100
AcDbArc
 50
270.000000077
 51
89.9999999142
  0
ARC
  5
39A
100
AcDbEntity
  8
0
100
AcDbCircle
 62
7
  6
CONTINUOUS
 10
210.7725124233
 20
206.0415379601
 40
3.499999999
100
AcDbArc
 50
90.000000077
 51
269.9999999142
  0
ARC
  5
39B
100
AcDbEntity
  8
0
100
AcDbCircle
 62
7
  6
CONTINUOUS
 10
248.7725124233
 20
206.0415379601
 40
3.499999999
100
AcDbArc
 50
270.0000000775
 51
89.9999999145
  0
ARC
  5
39C
100
AcDbEntity
  8
0
100
AcDbCircle
 62
7
  6
CONTINUOUS
 10
210.7725124233
 20
216.0415379491
 40
3.499999999
100
AcDbArc
 50
90.0000000073
 51
269.9999999145
  0
ARC
  5
39D
100
AcDbEntity
  8
0
100
AcDbCircle
 62
7
  6
CONTINUOUS
 10
248.7725124233
 20
216.0415379491
 40
3.499999999
100
AcDbArc
 50
270.0000000775
 51
89.9999999851
  0
ARC
  5
39E
100
AcDbEntity
  8
0
100
AcDbCircle
 62
7
  6
CONTINUOUS
 10
210.7725124233
 20
226.0415379381
 40
3.499999999
100
AcDbArc
 50
90.0000000966
 51
269.9999999851
  0
ARC
  5
39F
100
AcDbEntity
  8
0
100
AcDbCircle
 62
7
  6
CONTINUOUS
 10
248.7725124233
 20
226.0415379381
 40
3.499999999
100
AcDbArc
 50
270.0000000074
 51
89.9999999045
  0
ARC
  5
3A0
100
AcDbEntity
  8
0
100
AcDbCircle
 62
7
  6
CONTINUOUS
 10
210.7725124233
 20
236.0415379277
 40
3.499999999
100
AcDbArc
 50
90.0000000672
 51
269.9999999324
  0
ARC
  5
3A1
100
AcDbEntity
  8
0
100
AcDbCircle
 62
7
  6
CONTINUOUS
 10
248.7725124233
 20
236.0415379277
 40
3.499999999
100
AcDbArc
 50
270.0000000672
 51
89.9999999324
  0
ARC
  5
3A2
100
AcDbEntity
  8
0
100
AcDbCircle
 62
7
  6
CONTINUOUS
 10
210.7725124233
 20
246.0415379169
 40
3.499999999
100
AcDbArc
 50
90.0000000672
 51
269.9999999395
  0
ARC
  5
3A3
100
AcDbEntity
  8
0
100
AcDbCircle
 62
7
  6
CONTINUOUS
 10
248.7725124233
 20
246.0415379169
 40
3.499999999
100
AcDbArc
 50
270.0000000602
 51
89.9999999324
  0
ARC
  5
3A4
100
AcDbEntity
  8
0
100
AcDbCircle
 62
7
  6
CONTINUOUS
 10
257.7725124233
 20
106.0415380681
 40
3.499999999
100
AcDbArc
 50
90.0000000073
 51
269.9999999146
  0
ARC
  5
3A5
100
AcDbEntity
  8
0
100
AcDbCircle
 62
7
  6
CONTINUOUS
 10
295.7725124233
 20
106.0415380681
 40
3.499999999
100
AcDbArc
 50
270.0000000775
 51
89.9999999851
  0
ARC
  5
3A6
100
AcDbEntity
  8
0
100
AcDbCircle
 62
7
  6
CONTINUOUS
 10
257.7725124233
 20
116.0415380571
 40
3.499999999
100
AcDbArc
 50
90.0000000775
 51
269.9999999851
  0
ARC
  5
3A7
100
AcDbEntity
  8
0
100
AcDbCircle
 62
7
  6
CONTINUOUS
 10
295.7725124233
 20
116.0415380571
 40
3.499999999
100
AcDbArc
 50
270.0000000073
 51
89.9999999146
  0
ARC
  5
3A8
100
AcDbEntity
  8
0
100
AcDbCircle
 62
7
  6
CONTINUOUS
 10
257.7725124233
 20
126.0415380471
 40
3.499999999
100
AcDbArc
 50
90.0000000775
 51
269.9999999146
  0
ARC
  5
3A9
100
AcDbEntity
  8
0
100
AcDbCircle
 62
7
  6
CONTINUOUS
 10
295.7725124233
 20
126.0415380471
 40
3.499999999
100
AcDbArc
 50
270.0000000775
 51
89.9999999145
  0
ARC
  5
3AA
100
AcDbEntity
  8
0
100
AcDbCircle
 62
7
  6
CONTINUOUS
 10
257.7725124233
 20
136.0415380361
 40
3.499999999
100
AcDbArc
 50
90.0000000775
 51
269.9999999146
  0
ARC
  5
3AB
100
AcDbEntity
  8
0
100
AcDbCircle
 62
7
  6
CONTINUOUS
 10
295.7725124233
 20
136.0415380361
 40
3.499999999
100
AcDbArc
 50
270.0000000775
 51
89.9999999145
  0
ARC
  5
3AC
100
AcDbEntity
  8
0
100
AcDbCircle
 62
7
  6
CONTINUOUS
 10
257.7725124233
 20
146.0415380251
 40
3.499999999
100
AcDbArc
 50
90.0000000775
 51
269.9999999146
  0
ARC
  5
3AD
100
AcDbEntity
  8
0
100
AcDbCircle
 62
7
  6
CONTINUOUS
 10
295.7725124233
 20
146.0415380251
 40
3.499999999
100
AcDbArc
 50
270.0000000777
 51
89.9999999149
  0
ARC
  5
3AE
100
AcDbEntity
  8
0
100
AcDbCircle
 62
7
  6
CONTINUOUS
 10
257.7725124233
 20
156.0415380141
 40
3.499999999
100
AcDbArc
 50
90.0000000074
 51
269.9999999145
  0
ARC
  5
3AF
100
AcDbEntity
  8
0
100
AcDbCircle
 62
7
  6
CONTINUOUS
 10
295.7725124233
 20
156.0415380141
 40
3.499999999
100
AcDbArc
 50
270.0000000775
 51
89.9999999851
  0
ARC
  5
3B0
100
AcDbEntity
  8
0
100
AcDbCircle
 62
7
  6
CONTINUOUS
 10
257.7725124233
 20
166.0415380031
 40
3.499999999
100
AcDbArc
 50
90.0000000073
 51
269.9999999145
  0
ARC
  5
3B1
100
AcDbEntity
  8
0
100
AcDbCircle
 62
7
  6
CONTINUOUS
 10
295.7725124233
 20
166.0415380031
 40
3.499999999
100
AcDbArc
 50
270.0000000775
 51
89.9999999851
  0
ARC
  5
3B2
100
AcDbEntity
  8
0
100
AcDbCircle
 62
7
  6
CONTINUOUS
 10
257.7725124233
 20
176.0415379921
 40
3.499999999
100
AcDbArc
 50
90.0000000775
 51
269.9999999851
  0
ARC
  5
3B3
100
AcDbEntity
  8
0
100
AcDbCircle
 62
7
  6
CONTINUOUS
 10
295.7725124233
 20
176.0415379921
 40
3.499999999
100
AcDbArc
 50
270.0000000073
 51
89.9999999145
  0
ARC
  5
3B4
100
AcDbEntity
  8
0
100
AcDbCircle
 62
7
  6
CONTINUOUS
 10
257.7725124233
 20
186.0415379821
 40
3.499999999
100
AcDbArc
 50
90.0000000775
 51
269.9999999146
  0
ARC
  5
3B5
100
AcDbEntity
  8
0
100
AcDbCircle
 62
7
  6
CONTINUOUS
 10
295.7725124233
 20
186.0415379821
 40
3.499999999
100
AcDbArc
 50
270.0000000775
 51
89.9999999145
  0
ARC
  5
3B6
100
AcDbEntity
  8
0
100
AcDbCircle
 62
7
  6
CONTINUOUS
 10
257.7725124233
 20
196.0415379711
 40
3.499999999
100
AcDbArc
 50
90.0000000775
 51
269.9999999145
  0
ARC
  5
3B7
100
AcDbEntity
  8
0
100
AcDbCircle
 62
7
  6
CONTINUOUS
 10
295.7725124233
 20
196.0415379711
 40
3.499999999
100
AcDbArc
 50
270.000000077
 51
89.9999999142
  0
ARC
  5
3B8
100
AcDbEntity
  8
0
100
AcDbCircle
 62
7
  6
CONTINUOUS
 10
257.7725124233
 20
206.0415379601
 40
3.499999999
100
AcDbArc
 50
90.0000000775
 51
269.9999999145
  0
ARC
  5
3B9
100
AcDbEntity
  8
0
100
AcDbCircle
 62
7
  6
CONTINUOUS
 10
295.7725124233
 20
206.0415379601
 40
3.499999999
100
AcDbArc
 50
270.0000000775
 51
89.9999999145
  0
ARC
  5
3BA
100
AcDbEntity
  8
0
100
AcDbCircle
 62
7
  6
CONTINUOUS
 10
257.7725124233
 20
216.0415379491
 40
3.499999999
100
AcDbArc
 50
90.0000000073
 51
269.9999999145
  0
ARC
  5
3BB
100
AcDbEntity
  8
0
100
AcDbCircle
 62
7
  6
CONTINUOUS
 10
295.7725124233
 20
216.0415379491
 40
3.499999999
100
AcDbArc
 50
270.0000000775
 51
89.9999999851
  0
ARC
  5
3BC
100
AcDbEntity
  8
0
100
AcDbCircle
 62
7
  6
CONTINUOUS
 10
257.7725124233
 20
226.0415379381
 40
3.499999999
100
AcDbArc
 50
90.0000000952
 51
269.9999999851
  0
ARC
  5
3BD
100
AcDbEntity
  8
0
100
AcDbCircle
 62
7
  6
CONTINUOUS
 10
295.7725124233
 20
226.0415379381
 40
3.499999999
100
AcDbArc
 50
270.0000000073
 51
89.9999999037
  0
ARC
  5
3BE
100
AcDbEntity
  8
0
100
AcDbCircle
 62
7
  6
CONTINUOUS
 10
257.7725124233
 20
236.0415379277
 40
3.499999999
100
AcDbArc
 50
90.0000000672
 51
269.9999999324
  0
ARC
  5
3BF
100
AcDbEntity
  8
0
100
AcDbCircle
 62
7
  6
CONTINUOUS
 10
295.7725124233
 20
236.0415379277
 40
3.499999999
100
AcDbArc
 50
270.0000000672
 51
89.9999999324
  0
ARC
  5
3C0
100
AcDbEntity
  8
0
100
AcDbCircle
 62
7
  6
CONTINUOUS
 10
257.7725124233
 20
246.0415379169
 40
3.499999999
100
AcDbArc
 50
90.0000000668
 51
269.9999999392
  0
ARC
  5
3C1
100
AcDbEntity
  8
0
100
AcDbCircle
 62
7
  6
CONTINUOUS
 10
295.7725124233
 20
246.0415379169
 40
3.499999999
100
AcDbArc
 50
270.0000000602
 51
89.9999999324
  0
ARC
  5
3C2
100
AcDbEntity
  8
0
100
AcDbCircle
 62
7
  6
CONTINUOUS
 10
209.7725124233
 20
275.5415379104
 40
3.499999999
100
AcDbArc
 50
90.0000000602
 51
269.9999999324
  0
ARC
  5
3C3
100
AcDbEntity
  8
0
100
AcDbCircle
 62
7
  6
CONTINUOUS
 10
247.7725124233
 20
275.5415379104
 40
3.499999999
100
AcDbArc
 50
270.0000000672
 51
89.9999999395
  0
ARC
  5
3C4
100
AcDbEntity
  8
0
100
AcDbCircle
 62
7
  6
CONTINUOUS
 10
209.7725124233
 20
285.5415378996
 40
3.499999999
100
AcDbArc
 50
90.0000000672
 51
269.9999999324
  0
ARC
  5
3C5
100
AcDbEntity
  8
0
100
AcDbCircle
 62
7
  6
CONTINUOUS
 10
247.7725124233
 20
285.5415378996
 40
3.499999999
100
AcDbArc
 50
270.0000000672
 51
89.9999999324
  0
ARC
  5
3C6
100
AcDbEntity
  8
0
100
AcDbCircle
 62
7
  6
CONTINUOUS
 10
209.7725124233
 20
295.5415378887
 40
3.499999999
100
AcDbArc
 50
90.0000000672
 51
269.9999999324
  0
ARC
  5
3C7
100
AcDbEntity
  8
0
100
AcDbCircle
 62
7
  6
CONTINUOUS
 10
247.7725124233
 20
295.5415378887
 40
3.499999999
100
AcDbArc
 50
270.0000000681
 51
89.9999999324
  0
ARC
  5
3C8
100
AcDbEntity
  8
0
100
AcDbCircle
 62
7
  6
CONTINUOUS
 10
209.7725124233
 20
305.5415378779
 40
3.499999999
100
AcDbArc
 50
90.0000000672
 51
269.9999999324
  0
ARC
  5
3C9
100
AcDbEntity
  8
0
100
AcDbCircle
 62
7
  6
CONTINUOUS
 10
247.7725124233
 20
305.5415378779
 40
3.499999999
100
AcDbArc
 50
270.0000000672
 51
89.9999999324
  0
ARC
  5
3CA
100
AcDbEntity
  8
0
100
AcDbCircle
 62
7
  6
CONTINUOUS
 10
209.7725124233
 20
315.5415378671
 40
3.499999999
100
AcDbArc
 50
90.0000000672
 51
269.9999999324
  0
ARC
  5
3CB
100
AcDbEntity
  8
0
100
AcDbCircle
 62
7
  6
CONTINUOUS
 10
247.7725124233
 20
315.5415378671
 40
3.499999999
100
AcDbArc
 50
270.0000000672
 51
89.9999999324
  0
ARC
  5
3CC
100
AcDbEntity
  8
0
100
AcDbCircle
 62
7
  6
CONTINUOUS
 10
209.7725124233
 20
325.5415378563
 40
3.499999999
100
AcDbArc
 50
90.000000066
 51
269.9999999331
  0
ARC
  5
3CD
100
AcDbEntity
  8
0
100
AcDbCircle
 62
7
  6
CONTINUOUS
 10
247.7725124233
 20
325.5415378563
 40
3.499999999
100
AcDbArc
 50
270.0000000674
 51
89.9999999336
  0
ARC
  5
3CE
100
AcDbEntity
  8
0
100
AcDbCircle
 62
7
  6
CONTINUOUS
 10
209.7725124233
 20
335.5415378454
 40
3.499999999
100
AcDbArc
 50
90.0000000644
 51
269.9999999338
  0
ARC
  5
3CF
100
AcDbEntity
  8
0
100
AcDbCircle
 62
7
  6
CONTINUOUS
 10
247.7725124233
 20
335.5415378454
 40
3.499999999
100
AcDbArc
 50
270.0000000658
 51
89.9999999352
  0
ARC
  5
3D0
100
AcDbEntity
  8
0
100
AcDbCircle
 62
7
  6
CONTINUOUS
 10
209.7725124233
 20
345.5415378347
 40
3.499999999
100
AcDbArc
 50
90.0000000602
 51
269.9999999324
  0
ARC
  5
3D1
100
AcDbEntity
  8
0
100
AcDbCircle
 62
7
  6
CONTINUOUS
 10
247.7725124233
 20
345.5415378347
 40
3.499999999
100
AcDbArc
 50
270.0000000672
 51
89.9999999395
  0
ARC
  5
3D2
100
AcDbEntity
  8
0
100
AcDbCircle
 62
7
  6
CONTINUOUS
 10
209.7725124233
 20
355.5415378239
 40
3.499999999
100
AcDbArc
 50
90.0000000672
 51
269.9999999324
  0
ARC
  5
3D3
100
AcDbEntity
  8
0
100
AcDbCircle
 62
7
  6
CONTINUOUS
 10
247.7725124233
 20
355.5415378239
 40
3.499999999
100
AcDbArc
 50
270.0000000672
 51
89.9999999324
  0
ARC
  5
3D4
100
AcDbEntity
  8
0
100
AcDbCircle
 62
7
  6
CONTINUOUS
 10
209.7725124233
 20
365.541537813
 40
3.499999999
100
AcDbArc
 50
90.0000000672
 51
269.9999999324
  0
ARC
  5
3D5
100
AcDbEntity
  8
0
100
AcDbCircle
 62
7
  6
CONTINUOUS
 10
247.7725124233
 20
365.541537813
 40
3.499999999
100
AcDbArc
 50
270.0000000672
 51
89.9999999324
  0
ARC
  5
3D6
100
AcDbEntity
  8
0
100
AcDbCircle
 62
7
  6
CONTINUOUS
 10
209.7725124233
 20
375.5415378022
 40
3.499999999
100
AcDbArc
 50
90.0000000672
 51
269.9999999324
  0
ARC
  5
3D7
100
AcDbEntity
  8
0
100
AcDbCircle
 62
7
  6
CONTINUOUS
 10
247.7725124233
 20
375.5415378022
 40
3.499999999
100
AcDbArc
 50
270.0000000668
 51
89.9999999321
  0
ARC
  5
3D8
100
AcDbEntity
  8
0
100
AcDbCircle
 62
7
  6
CONTINUOUS
 10
209.7725124233
 20
385.5415377914
 40
3.499999999
100
AcDbArc
 50
90.0000000672
 51
269.9999999324
  0
ARC
  5
3D9
100
AcDbEntity
  8
0
100
AcDbCircle
 62
7
  6
CONTINUOUS
 10
247.7725124233
 20
385.5415377914
 40
3.499999999
100
AcDbArc
 50
270.0000000672
 51
89.9999999324
  0
ARC
  5
3DA
100
AcDbEntity
  8
0
100
AcDbCircle
 62
7
  6
CONTINUOUS
 10
209.7725124233
 20
395.5415377806
 40
3.499999999
100
AcDbArc
 50
90.0000000672
 51
269.9999999324
  0
ARC
  5
3DB
100
AcDbEntity
  8
0
100
AcDbCircle
 62
7
  6
CONTINUOUS
 10
247.7725124233
 20
395.5415377806
 40
3.499999999
100
AcDbArc
 50
270.0000000672
 51
89.9999999324
  0
ARC
  5
3DC
100
AcDbEntity
  8
0
100
AcDbCircle
 62
7
  6
CONTINUOUS
 10
257.7725124233
 20
275.5415379104
 40
3.499999999
100
AcDbArc
 50
90.0000000602
 51
269.9999999324
  0
ARC
  5
3DD
100
AcDbEntity
  8
0
100
AcDbCircle
 62
7
  6
CONTINUOUS
 10
295.7725124233
 20
275.5415379104
 40
3.499999999
100
AcDbArc
 50
270.0000000681
 51
89.9999999394
  0
ARC
  5
3DE
100
AcDbEntity
  8
0
100
AcDbCircle
 62
7
  6
CONTINUOUS
 10
257.7725124233
 20
285.5415378996
 40
3.499999999
100
AcDbArc
 50
90.0000000672
 51
269.9999999324
  0
ARC
  5
3DF
100
AcDbEntity
  8
0
100
AcDbCircle
 62
7
  6
CONTINUOUS
 10
295.7725124233
 20
285.5415378996
 40
3.499999999
100
AcDbArc
 50
270.0000000668
 51
89.9999999321
  0
ARC
  5
3E0
100
AcDbEntity
  8
0
100
AcDbCircle
 62
7
  6
CONTINUOUS
 10
257.7725124233
 20
295.5415378887
 40
3.499999999
100
AcDbArc
 50
90.0000000672
 51
269.9999999324
  0
ARC
  5
3E1
100
AcDbEntity
  8
0
100
AcDbCircle
 62
7
  6
CONTINUOUS
 10
295.7725124233
 20
295.5415378887
 40
3.499999999
100
AcDbArc
 50
270.0000000672
 51
89.9999999324
  0
ARC
  5
3E2
100
AcDbEntity
  8
0
100
AcDbCircle
 62
7
  6
CONTINUOUS
 10
257.7725124233
 20
305.5415378779
 40
3.499999999
100
AcDbArc
 50
90.0000000672
 51
269.9999999324
  0
ARC
  5
3E3
100
AcDbEntity
  8
0
100
AcDbCircle
 62
7
  6
CONTINUOUS
 10
295.7725124233
 20
305.5415378779
 40
3.499999999
100
AcDbArc
 50
270.0000000672
 51
89.9999999324
  0
ARC
  5
3E4
100
AcDbEntity
  8
0
100
AcDbCircle
 62
7
  6
CONTINUOUS
 10
257.7725124233
 20
315.5415378671
 40
3.499999999
100
AcDbArc
 50
90.0000000668
 51
269.9999999321
  0
ARC
  5
3E5
100
AcDbEntity
  8
0
100
AcDbCircle
 62
7
  6
CONTINUOUS
 10
295.7725124233
 20
315.5415378671
 40
3.499999999
100
AcDbArc
 50
270.0000000668
 51
89.9999999321
  0
ARC
  5
3E6
100
AcDbEntity
  8
0
100
AcDbCircle
 62
7
  6
CONTINUOUS
 10
257.7725124233
 20
325.5415378563
 40
3.499999999
100
AcDbArc
 50
90.000000066
 51
269.9999999331
  0
ARC
  5
3E7
100
AcDbEntity
  8
0
100
AcDbCircle
 62
7
  6
CONTINUOUS
 10
295.7725124233
 20
325.5415378563
 40
3.499999999
100
AcDbArc
 50
270.0000000665
 51
89.9999999336
  0
ARC
  5
3E8
100
AcDbEntity
  8
0
100
AcDbCircle
 62
7
  6
CONTINUOUS
 10
257.7725124233
 20
335.5415378454
 40
3.499999999
100
AcDbArc
 50
90.0000000653
 51
269.9999999338
  0
ARC
  5
3E9
100
AcDbEntity
  8
0
100
AcDbCircle
 62
7
  6
CONTINUOUS
 10
295.7725124233
 20
335.5415378454
 40
3.499999999
100
AcDbArc
 50
270.0000000654
 51
89.9999999349
  0
ARC
  5
3EA
100
AcDbEntity
  8
0
100
AcDbCircle
 62
7
  6
CONTINUOUS
 10
257.7725124233
 20
345.5415378347
 40
3.499999999
100
AcDbArc
 50
90.0000000602
 51
269.9999999324
  0
ARC
  5
3EB
100
AcDbEntity
  8
0
100
AcDbCircle
 62
7
  6
CONTINUOUS
 10
295.7725124233
 20
345.5415378347
 40
3.499999999
100
AcDbArc
 50
270.0000000672
 51
89.9999999395
  0
ARC
  5
3EC
100
AcDbEntity
  8
0
100
AcDbCircle
 62
7
  6
CONTINUOUS
 10
257.7725124233
 20
355.5415378239
 40
3.499999999
100
AcDbArc
 50
90.0000000672
 51
269.9999999324
  0
ARC
  5
3ED
100
AcDbEntity
  8
0
100
AcDbCircle
 62
7
  6
CONTINUOUS
 10
295.7725124233
 20
355.5415378239
 40
3.499999999
100
AcDbArc
 50
270.0000000672
 51
89.9999999324
  0
ARC
  5
3EE
100
AcDbEntity
  8
0
100
AcDbCircle
 62
7
  6
CONTINUOUS
 10
257.7725124233
 20
365.541537813
 40
3.499999999
100
AcDbArc
 50
90.0000000668
 51
269.9999999321
  0
ARC
  5
3EF
100
AcDbEntity
  8
0
100
AcDbCircle
 62
7
  6
CONTINUOUS
 10
295.7725124233
 20
365.541537813
 40
3.499999999
100
AcDbArc
 50
270.0000000672
 51
89.9999999324
  0
ARC
  5
3F0
100
AcDbEntity
  8
0
100
AcDbCircle
 62
7
  6
CONTINUOUS
 10
257.7725124233
 20
375.5415378022
 40
3.499999999
100
AcDbArc
 50
90.0000000672
 51
269.9999999324
  0
ARC
  5
3F1
100
AcDbEntity
  8
0
100
AcDbCircle
 62
7
  6
CONTINUOUS
 10
295.7725124233
 20
375.5415378022
 40
3.499999999
100
AcDbArc
 50
270.0000000668
 51
89.9999999321
  0
ARC
  5
3F2
100
AcDbEntity
  8
0
100
AcDbCircle
 62
7
  6
CONTINUOUS
 10
257.7725124233
 20
385.5415377914
 40
3.499999999
100
AcDbArc
 50
90.0000000672
 51
269.9999999324
  0
ARC
  5
3F3
100
AcDbEntity
  8
0
100
AcDbCircle
 62
7
  6
CONTINUOUS
 10
295.7725124233
 20
385.5415377914
 40
3.499999999
100
AcDbArc
 50
270.0000000672
 51
89.9999999324
  0
ARC
  5
3F4
100
AcDbEntity
  8
0
100
AcDbCircle
 62
7
  6
CONTINUOUS
 10
257.7725124233
 20
395.5415377806
 40
3.499999999
100
AcDbArc
 50
90.0000000672
 51
269.9999999324
  0
ARC
  5
3F5
100
AcDbEntity
  8
0
100
AcDbCircle
 62
7
  6
CONTINUOUS
 10
295.7725124233
 20
395.5415377806
 40
3.499999999
100
AcDbArc
 50
270.0000000672
 51
89.9999999324
  0
SPLINE
  5
3F6
100
AcDbEntity
  8
0
100
AcDbSpline
 62
7
  6
CONTINUOUS
 70
0
 71
3
 72
9
 73
5
 74
0
 42
0.0000001
 43
0.0000001
 44
0.0000000001
 40
0.0
 40
0.0
 40
0.0
 40
0.0
 40
0.5000000085
 40
1.0
 40
1.0
 40
1.0
 40
1.0
 10
336.9994663758
 20
410.5406138151
 30
0.0
 10
337.0734125261
 20
385.7082848649
 30
0.0
 10
337.1177500331
 20
336.0433782013
 30
0.0
 10
337.1829321126
 20
286.3785582093
 30
0.0
 10
337.2061671123
 20
261.5461308724
 30
0.0
  0
SPLINE
  5
3F7
100
AcDbEntity
  8
0
100
AcDbSpline
 62
7
  6
CONTINUOUS
 70
0
 71
3
 72
9
 73
5
 74
0
 42
0.0000001
 43
0.0000001
 44
0.0000000001
 40
0.0
 40
0.0
 40
0.0
 40
0.0
 40
0.5000000087
 40
1.0
 40
1.0
 40
1.0
 40
1.0
 10
72.5199885828
 20
410.5405596682
 30
0.0
 10
72.4332196583
 20
385.7198072117
 30
0.0
 10
72.3629092928
 20
336.0780007162
 30
0.0
 10
72.2718171331
 20
286.4362913149
 30
0.0
 10
72.2356127273
 20
261.6154144608
 30
0.0
  0
ENDSEC
  0
SECTION
  2
OBJECTS
  0
DICTIONARY
  5
C
100
AcDbDictionary
280
0
281
1
  3
ACAD_GROUP
350
D
  3
ACAD_MLINESTYLE
350
17
  3
ACAD_LAYOUT
350
1A
  3
ACAD_PLOTSETTINGS
350
19
  3
ACAD_PLOTSTYLENAME
350
E
  0
DICTIONARY
  5
D
102
{ACAD_REACTORS
330
C
102
}
100
AcDbDictionary
280
0
281
1
  0
ACDBDICTIONARYWDFLT
  5
E
102
{ACAD_REACTORS
330
C
102
}
100
AcDbDictionary
281
1
  3
Normal
350
F
100
AcDbDictionaryWithDefault
340
F
  0
DICTIONARY
  5
17
102
{ACAD_REACTORS
330
C
102
}
100
AcDbDictionary
280
0
281
1
  3
Standard
350
18
  0
DICTIONARY
  5
19
102
{ACAD_REACTORS
330
C
102
}
100
AcDbDictionary
281
1
  0
DICTIONARY
  5
1A
102
{ACAD_REACTORS
330
C
102
}
100
AcDbDictionary
281
1
  3
Model
350
3F8
  3
Layout1
350
3F9
  0
ACDBPLACEHOLDER
  5
F
102
{ACAD_REACTORS
330
E
102
}
  0
MLINESTYLE
  5
18
102
{ACAD_REACTORS
330
17
102
}
100
AcDbMlineStyle
  2
STANDARD
 70
0
  3

 62
256
 51
90.0
 52
90.0
 71
2
 49
0.5
 62
256
  6
BYLAYER
 49
-0.5
 62
256
  6
BYLAYER
  0
LAYOUT
  5
3F8
102
{ACAD_REACTORS
330
1A
102
}
100
AcDbPlotSettings
  1

  2
none_device
  4

  6

 40
0.0
 41
0.0
 42
0.0
 43
0.0
 44
210.0
 45
297.0
 46
0.0
 47
0.0
 48
0.0
 49
0.0
140
0.0
141
0.0
142
1.0
143
1.0
 70
1024
 72
1
 73
0
 74
0
  7

 75
0
147
1.0
148
0.0
149
0.0
100
AcDbLayout
  1
Model
 70
0
 71
0
 10
0.0
 20
0.0
 11
210.0
 21
297.0
 12
0.0
 22
0.0
 32
0.0
 14
0.0
 24
0.0
 34
0.0
 15
0.0
 25
0.0
 35
0.0
146
0.0
 13
0.0
 23
0.0
 33
0.0
 16
1.0
 26
0.0
 36
0.0
 17
0.0
 27
1.0
 37
0.0
 76
0
330
210
345
0
346
0
  0
LAYOUT
  5
3F9
102
{ACAD_REACTORS
330
1A
102
}
100
AcDbPlotSettings
  1

  2
none_device
  4

  6

 40
0.0
 41
0.0
 42
0.0
 43
0.0
 44
210.0
 45
297.0
 46
0.0
 47
0.0
 48
0.0
 49
0.0
140
0.0
141
0.0
142
1.0
143
1.0
 70
0
 72
1
 73
0
 74
0
  7

 75
0
147
1.0
148
0.0
149
0.0
100
AcDbLayout
  1
Layout1
 70
0
 71
1
 10
0.0
 20
0.0
 11
210.0
 21
297.0
 12
0.0
 22
0.0
 32
0.0
 14
0.0
 24
0.0
 34
0.0
 15
0.0
 25
0.0
 35
0.0
146
0.0
 13
0.0
 23
0.0
 33
0.0
 16
1.0
 26
0.0
 36
0.0
 17
0.0
 27
1.0
 37
0.0
 76
0
330
211
345
0
346
0
  0
ENDSEC
  0
EOF
