999
DXF file: C:\Users\sesa63760\Dev\_Creo\CAD\MCADPD0003859_3D-CAD\drw0001_6.dxf
999
Pro/ENGINEER 2019471 by Parametric Technology Corporation
  0
SECTION
  2
HEADER
  9
$ACADVER
  1
AC1024
  9
$DWGCODEPAGE
  3
ANSI_1252
  9
$EXTMAX
 10
533.9401896426
 20
755.1439824946
 30
0.0
  9
$EXTMIN
 10
0.0
 20
0.0
 30
0.0
  9
$LIMMIN
 10
0.0
 20
0.0
  9
$LIMMAX
 10
533.9401896426
 20
755.1439824946
  9
$VIEWCTR
 10
266.9700948213
 20
377.5719912473
  9
$VIEWSIZE
 40
755.1439824946
  9
$CLAYER
  8
0
  9
$LTSCALE
 40
49.2242003404
  9
$CELTYPE
  6
BYLAYER
  9
$DIMSCALE
 40
1.0
  9
$DIMASZ
 40
6.3564308291
  9
$DIMEXO
 40
1.0
  9
$DIMDLI
 40
34.0094475079
  9
$DIMEXE
 40
1.0
  9
$DIMCEN
 40
8.0548691466
  9
$DIMLFAC
 40
1.0
  9
$DIMBLK
  1
_FILLED
  9
$DIMALT
 70
0
  9
$DIMALTF
 40
0.0393700787
  9
$DIMTXT
 40
8.8990031607
  9
$DIMTOL
 70
1
  9
$DIMLIM
 70
0
  9
$DIMTFAC
 40
1.0
  9
$DIMTP
 40
0.01
  9
$DIMTM
 40
0.01
  9
$DIMGAP
 40
0.625
  9
$DIMDSEP
 70
46
  9
$AUNITS
 70
0
  9
$PDMODE
 70
3
  9
$PDSIZE
 40
0.3125
  9
$HANDSEED
  5
26D
  9
$TILEMODE
 70
1
  9
$MEASUREMENT
 70
1
  9
$INSUNITS
 70
4
  0
ENDSEC
  0
SECTION
  2
CLASSES
  0
CLASS
  1
ACDBDICTIONARYWDFLT
  2
AcDbDictionaryWithDefault
  3
AutoCAD 2000
 90
0
 91
1
280
0
281
0
  0
CLASS
  1
ACDBPLACEHOLDER
  2
AcDbPlaceHolder
  3
AutoCAD 2000
 90
0
 91
1
280
0
281
0
  0
CLASS
  1
LAYOUT
  2
AcDbLayout
  3
AutoCAD 2000
 90
0
 91
0
280
0
281
0
  0
ENDSEC
  0
SECTION
  2
TABLES
  0
TABLE
  2
VPORT
  5
8
100
AcDbSymbolTable
 70
2
  0
VPORT
  5
1F4
100
AcDbSymbolTableRecord
100
AcDbViewportTableRecord
  2
*ACTIVE
 70
0
 10
0.0
 20
0.0
 11
1.0
 21
1.0
 12
266.9700948213
 22
377.5719912473
 13
0.0
 23
0.0
 14
1.0
 24
1.0
 15
0.0
 25
0.0
 16
0.0
 26
0.0
 36
1.0
 17
0.0
 27
0.0
 37
0.0
 40
755.1439824946
 41
0.7070707071
 42
50.0
 43
0.0
 44
0.0
 50
0.0
 51
0.0
 71
0
 72
100
 73
1
 74
1
 75
0
 76
0
 77
0
 78
0
  0
ENDTAB
  0
TABLE
  2
LTYPE
  5
5
100
AcDbSymbolTable
 70
6
  0
LTYPE
  5
14
100
AcDbSymbolTableRecord
100
AcDbLinetypeTableRecord
  2
BYBLOCK
 70
0
  3

 72
65
 73
0
 40
0.0
  0
LTYPE
  5
15
100
AcDbSymbolTableRecord
100
AcDbLinetypeTableRecord
  2
BYLAYER
 70
0
  3

 72
65
 73
0
 40
0.0
  0
LTYPE
  5
16
100
AcDbSymbolTableRecord
100
AcDbLinetypeTableRecord
  2
CONTINUOUS
 70
64
  3
Solid line
 72
65
 73
0
 40
0.0
  0
LTYPE
  5
1F5
100
AcDbSymbolTableRecord
100
AcDbLinetypeTableRecord
  2
CENTER
 70
64
  3
____ _ ____ _ ____ _ ____ _ ____ _ ____ _ ____
 72
65
 73
4
 40
0.6
 49
0.375
 74
0
 49
-0.075
 74
0
 49
0.075
 74
0
 49
-0.075
 74
0
  0
LTYPE
  5
1F6
100
AcDbSymbolTableRecord
100
AcDbLinetypeTableRecord
  2
HIDDEN
 70
64
  3
- - - - - - - - - - - - - - - - - - - -
 72
65
 73
2
 40
0.2
 49
0.1
 74
0
 49
-0.1
 74
0
  0
LTYPE
  5
1F7
100
AcDbSymbolTableRecord
100
AcDbLinetypeTableRecord
  2
PHANTOM
 70
64
  3
_____ _ _ _____ _ _ _____ _ _ _____
 72
65
 73
6
 40
0.8
 49
0.45
 74
0
 49
-0.05
 74
0
 49
0.1
 74
0
 49
-0.05
 74
0
 49
0.1
 74
0
 49
-0.05
 74
0
  0
LTYPE
  5
1F8
100
AcDbSymbolTableRecord
100
AcDbLinetypeTableRecord
  2
DOT
 70
64
  3
. . . . . . . . . . . . . . . . . . . .
 72
65
 73
2
 40
0.2
 49
0.1
 74
0
 49
-0.1
 74
0
  0
LTYPE
  5
1F9
100
AcDbSymbolTableRecord
100
AcDbLinetypeTableRecord
  2
DASHED
 70
64
  3
- - - - - - - - - - - - - - - - - - - -
 72
65
 73
2
 40
0.2
 49
0.1
 74
0
 49
-0.1
 74
0
  0
ENDTAB
  0
TABLE
  2
LAYER
  5
2
100
AcDbSymbolTable
 70
36
  0
LAYER
  5
10
100
AcDbSymbolTableRecord
100
AcDbLayerTableRecord
  2
0
 70
0
 62
7
  6
CONTINUOUS
370
-3
390
F
  0
LAYER
  5
1FA
100
AcDbSymbolTableRecord
100
AcDbLayerTableRecord
  2
DEFAULT_1
 70
0
 62
7
  6
CENTER
370
-3
390
F
  0
LAYER
  5
1FB
100
AcDbSymbolTableRecord
100
AcDbLayerTableRecord
  2
DEFAULT_2
 70
0
 62
7
  6
HIDDEN
370
-3
390
F
  0
LAYER
  5
1FC
100
AcDbSymbolTableRecord
100
AcDbLayerTableRecord
  2
DEFAULT_3
 70
0
 62
7
  6
PHANTOM
370
-3
390
F
  0
LAYER
  5
1FD
100
AcDbSymbolTableRecord
100
AcDbLayerTableRecord
  2
00_COMPONENTS
 70
0
 62
7
  6
CONTINUOUS
370
-3
390
F
  0
LAYER
  5
1FE
100
AcDbSymbolTableRecord
100
AcDbLayerTableRecord
  2
01_1_DEFAULT_DATUMS
 70
0
 62
7
  6
CONTINUOUS
370
-3
390
F
  0
LAYER
  5
1FF
100
AcDbSymbolTableRecord
100
AcDbLayerTableRecord
  2
01_PLANES
 70
0
 62
7
  6
CONTINUOUS
370
-3
390
F
  0
LAYER
  5
200
100
AcDbSymbolTableRecord
100
AcDbLayerTableRecord
  2
02_COORD_SYS
 70
0
 62
7
  6
CONTINUOUS
370
-3
390
F
  0
LAYER
  5
201
100
AcDbSymbolTableRecord
100
AcDbLayerTableRecord
  2
03_AXES
 70
0
 62
7
  6
CONTINUOUS
370
-3
390
F
  0
LAYER
  5
202
100
AcDbSymbolTableRecord
100
AcDbLayerTableRecord
  2
04_POINTS
 70
0
 62
7
  6
CONTINUOUS
370
-3
390
F
  0
LAYER
  5
203
100
AcDbSymbolTableRecord
100
AcDbLayerTableRecord
  2
05_CURVES
 70
0
 62
7
  6
CONTINUOUS
370
-3
390
F
  0
LAYER
  5
204
100
AcDbSymbolTableRecord
100
AcDbLayerTableRecord
  2
06_SURFS
 70
0
 62
7
  6
CONTINUOUS
370
-3
390
F
  0
LAYER
  5
205
100
AcDbSymbolTableRecord
100
AcDbLayerTableRecord
  2
07_COSMETICS
 70
0
 62
7
  6
CONTINUOUS
370
-3
390
F
  0
LAYER
  5
206
100
AcDbSymbolTableRecord
100
AcDbLayerTableRecord
  2
10_NOTES
 70
0
 62
7
  6
CONTINUOUS
370
-3
390
F
  0
LAYER
  5
207
100
AcDbSymbolTableRecord
100
AcDbLayerTableRecord
  2
11_NOTES_PUB
 70
0
 62
7
  6
CONTINUOUS
370
-3
390
F
  0
LAYER
  5
208
100
AcDbSymbolTableRecord
100
AcDbLayerTableRecord
  2
13_REF_GTOL
 70
0
 62
7
  6
CONTINUOUS
370
-3
390
F
  0
LAYER
  5
209
100
AcDbSymbolTableRecord
100
AcDbLayerTableRecord
  2
16_MISC
 70
0
 62
7
  6
CONTINUOUS
370
-3
390
F
  0
LAYER
  5
20A
100
AcDbSymbolTableRecord
100
AcDbLayerTableRecord
  2
17_NO_PRINT
 70
0
 62
7
  6
CONTINUOUS
370
-3
390
F
  0
LAYER
  5
20B
100
AcDbSymbolTableRecord
100
AcDbLayerTableRecord
  2
18_DATUM_CAMS_JOINTS
 70
0
 62
7
  6
CONTINUOUS
370
-3
390
F
  0
LAYER
  5
20C
100
AcDbSymbolTableRecord
100
AcDbLayerTableRecord
  2
19_DATUM_FUNCTIONAL
 70
0
 62
7
  6
CONTINUOUS
370
-3
390
F
  0
LAYER
  5
20D
100
AcDbSymbolTableRecord
100
AcDbLayerTableRecord
  2
20_DATUM_KINEMATIC_SCHEME
 70
0
 62
7
  6
CONTINUOUS
370
-3
390
F
  0
ENDTAB
  0
TABLE
  2
STYLE
  5
3
100
AcDbSymbolTable
 70
1
  0
STYLE
  5
11
100
AcDbSymbolTableRecord
100
AcDbTextStyleTableRecord
  2
STANDARD
 70
0
 40
0.0
 41
1.0
 50
0.0
 71
0
 42
0.2
  3
ARIAL.TTF
  4

  0
STYLE
  5
20E
100
AcDbSymbolTableRecord
100
AcDbTextStyleTableRecord
  2
TEXTSTYLE_1
 70
0
 40
0.0
 41
0.8
 50
0.0
 71
0
 42
0.2
  3
gdt
  4

  0
ENDTAB
  0
TABLE
  2
VIEW
  5
6
100
AcDbSymbolTable
 70
0
  0
ENDTAB
  0
TABLE
  2
UCS
  5
7
100
AcDbSymbolTable
 70
0
  0
ENDTAB
  0
TABLE
  2
APPID
  5
9
100
AcDbSymbolTable
 70
1
  0
APPID
  5
20F
100
AcDbSymbolTableRecord
100
AcDbRegAppTableRecord
  2
ACAD
 70
0
  0
ENDTAB
  0
TABLE
  2
BLOCK_RECORD
  5
1
100
AcDbSymbolTable
 70
0
  0
BLOCK_RECORD
  5
210
100
AcDbSymbolTableRecord
100
AcDbBlockTableRecord
  2
*Model_Space
  0
BLOCK_RECORD
  5
211
100
AcDbSymbolTableRecord
100
AcDbBlockTableRecord
  2
*Paper_Space
  0
BLOCK_RECORD
  5
212
100
AcDbSymbolTableRecord
100
AcDbBlockTableRecord
  2
_FILLED
  0
ENDTAB
  0
TABLE
  2
DIMSTYLE
  5
A
100
AcDbSymbolTable
 70
1
100
AcDbDimStyleTable
 71
0
  0
DIMSTYLE
105
213
100
AcDbSymbolTableRecord
100
AcDbDimStyleTableRecord
  2
STANDARD
 70
0
  3

  4

 40
1.0
 41
6.3564308291
 42
1.0
 43
0.38
 44
1.0
 45
0.0
 46
0.0
 47
0.01
 48
0.01
140
8.8990031607
141
0.09
142
0.0
143
25.4
144
1.0
145
0.0
146
1.0
147
0.625
 71
1
 72
0
 73
0
 74
0
 75
0
 76
0
 77
1
 78
8
 79
2
170
0
171
1
172
0
173
0
174
0
175
0
176
0
177
0
178
0
270
2
179
2
271
2
272
2
273
2
274
2
275
0
280
0
281
0
282
0
283
1
284
8
285
0
286
0
287
3
288
0
340
11
278
46
341
212
342
212
343
212
344
212
  0
ENDTAB
  0
ENDSEC
  0
SECTION
  2
BLOCKS
  0
BLOCK
  5
20
100
AcDbEntity
  8
0
100
AcDbBlockBegin
  2
*Model_Space
 70
0
 10
0.0
 20
0.0
 30
0.0
  3
*Model_Space
  1

  0
ENDBLK
  5
21
100
AcDbEntity
  8
0
100
AcDbBlockEnd
  0
BLOCK
  5
1C
100
AcDbEntity
  8
0
100
AcDbBlockBegin
  2
*Paper_Space
 70
0
 10
0.0
 20
0.0
 30
0.0
  3
*Paper_Space
  1

  0
ENDBLK
  5
1D
100
AcDbEntity
  8
0
100
AcDbBlockEnd
  0
BLOCK
  5
214
100
AcDbEntity
  8
0
100
AcDbBlockBegin
  2
_FILLED
 70
64
 10
0.0
 20
0.0
  3
_FILLED
  1

  0
SOLID
  5
215
100
AcDbEntity
  8
0
  6
BYBLOCK
 62
0
100
AcDbTrace
 10
0.0
 20
0.0
 11
-1.0
 21
0.25
 12
-1.0
 22
-0.25
 13
-1.0
 23
-0.25
  0
ENDBLK
  5
216
100
AcDbEntity
  8
0
  6
BYBLOCK
 62
0
100
AcDbBlockEnd
  0
ENDSEC
  0
SECTION
  2
ENTITIES
  0
LINE
  5
217
100
AcDbEntity
  8
0
100
AcDbLine
 62
7
  6
BYLAYER
 10
60.3915390227
 20
405.0714220632
 11
60.3915390227
 21
387.7725148619
  0
LWPOLYLINE
  5
218
100
AcDbEntity
  8
0
100
AcDbPolyline
 62
7
  6
BYLAYER
 90
4
 70
0
 10
60.3915482595
 20
387.772514727
 10
60.5861360587
 20
386.9120008169
 10
61.5699183203
 20
385.9490785292
 10
62.3907077348
 20
385.7725146348
  0
LINE
  5
219
100
AcDbEntity
  8
0
100
AcDbLine
 62
7
  6
BYLAYER
 10
222.3915390226
 20
396.5730193397
 11
222.3915366889
 21
377.5729481997
  0
LINE
  5
21A
100
AcDbEntity
  8
0
100
AcDbLine
 62
7
  6
BYLAYER
 10
236.8415390226
 20
369.9730193397
 11
232.7915390226
 21
353.4730193397
  0
LWPOLYLINE
  5
21B
100
AcDbEntity
  8
0
100
AcDbPolyline
 62
7
  6
BYLAYER
 90
4
 70
0
 10
480.7921378897
 20
385.7725365279
 10
481.612926424
 20
385.9490027284
 10
482.5968629767
 20
386.9118841784
 10
482.7915179343
 20
387.7725370261
  0
LINE
  5
21C
100
AcDbEntity
  8
0
100
AcDbLine
 62
7
  6
BYLAYER
 10
256.9415390226
 20
348.0730193397
 11
286.2415390226
 21
348.0730193397
  0
LINE
  5
21D
100
AcDbEntity
  8
0
100
AcDbLine
 62
7
  6
BYLAYER
 10
247.9837944977
 20
391.2082260787
 11
247.9837944977
 21
396.5730193397
  0
LINE
  5
21E
100
AcDbEntity
  8
0
100
AcDbLine
 62
7
  6
BYLAYER
 10
256.9415390226
 20
353.4730193397
 11
256.9415390226
 21
348.0730193397
  0
LINE
  5
21F
100
AcDbEntity
  8
0
100
AcDbLine
 62
7
  6
BYLAYER
 10
232.7915390226
 20
353.4730193397
 11
310.3915390226
 21
353.4730193397
  0
LINE
  5
220
100
AcDbEntity
  8
0
100
AcDbLine
 62
7
  6
BYLAYER
 10
271.591550055
 20
380.9758795135
 11
271.5915388734
 21
369.9730194639
  0
LWPOLYLINE
  5
221
100
AcDbEntity
  8
0
100
AcDbPolyline
 62
7
  6
BYLAYER
 90
5
 70
0
 10
318.0044264249
 20
377.092728454
 10
318.1683950562
 20
377.1276775289
 10
319.1772808852
 20
377.3239187464
 10
320.2196697575
 20
377.4936741853
 10
320.791541284
 20
377.5729481903
  0
LWPOLYLINE
  5
222
100
AcDbEntity
  8
0
100
AcDbPolyline
 62
7
  6
BYLAYER
 90
4
 70
0
 10
320.7915415022
 20
377.5729482187
 10
368.7477596215
 20
382.3930657561
 10
422.5703489476
 20
385.0428028446
 10
480.7925839108
 20
385.7724975665
  0
LINE
  5
223
100
AcDbEntity
  8
0
100
AcDbLine
 62
7
  6
BYLAYER
 10
236.8415390226
 20
369.9730193397
 11
306.3415390226
 21
369.9730193397
  0
LINE
  5
224
100
AcDbEntity
  8
0
100
AcDbLine
 62
7
  6
BYLAYER
 10
222.3915390226
 20
378.5730193397
 11
223.7913496258
 21
378.5730193397
  0
LINE
  5
225
100
AcDbEntity
  8
0
100
AcDbLine
 62
7
  6
BYLAYER
 10
319.3917284194
 20
378.5730193397
 11
320.7915390226
 21
378.5730193397
  0
LWPOLYLINE
  5
226
100
AcDbEntity
  8
0
100
AcDbPolyline
 62
7
  6
BYLAYER
 90
26
 70
0
 10
222.3915367613
 20
377.5729481903
 10
222.9634080671
 20
377.4936742177
 10
224.0057969271
 20
377.3239187881
 10
225.0146827474
 20
377.1276775798
 10
225.9885106756
 20
376.9071775923
 10
226.9262680491
 20
376.664427579
 10
227.8285656701
 20
376.4009558472
 10
228.6952908392
 20
376.1186506495
 10
229.5254203568
 20
375.8195887393
 10
230.3172532172
 20
375.5060051664
 10
231.0689521757
 20
375.1801931633
 10
231.7770106986
 20
374.845694122
 10
232.4375914066
 20
374.5068901624
 10
233.054128326
 20
374.1644607782
 10
233.6321185102
 20
373.8170118047
 10
234.1738894242
 20
373.4641149906
 10
234.6813161938
 20
373.1052976186
 10
235.1558693068
 20
372.7395331268
 10
235.5936248407
 20
372.3691421992
 10
235.989484853
 20
371.9973611508
 10
236.3390845942
 20
371.6272340108
 10
236.6351125356
 20
371.2651590194
 10
236.8740244435
 20
370.9111236395
 10
237.0505436682
 20
370.5533903347
 10
237.1207167333
 20
370.1823904849
 10
237.0517205857
 20
370.0767993816
  0
LINE
  5
227
100
AcDbEntity
  8
0
100
AcDbLine
 62
7
  6
BYLAYER
 10
286.2415390226
 20
353.4730193397
 11
286.2415390226
 21
348.0730193397
  0
LINE
  5
228
100
AcDbEntity
  8
0
100
AcDbLine
 62
7
  6
BYLAYER
 10
480.7883445065
 20
407.0714195119
 11
480.2546611711
 21
407.031782672
  0
LINE
  5
229
100
AcDbEntity
  8
0
100
AcDbLine
 62
7
  6
BYLAYER
 10
482.2359337638
 20
405.0330436786
 11
482.7915390226
 21
405.0714220632
  0
LINE
  5
22A
100
AcDbEntity
  8
0
100
AcDbLine
 62
7
  6
BYLAYER
 10
480.788364875
 20
407.0714195444
 11
476.2276776325
 21
406.7643312347
  0
LINE
  5
22B
100
AcDbEntity
  8
0
100
AcDbLine
 62
7
  6
BYLAYER
 10
477.9081472541
 20
404.7658259486
 11
482.7915390226
 21
405.0714220632
  0
LWPOLYLINE
  5
22C
100
AcDbEntity
  8
0
100
AcDbPolyline
 62
7
  6
BYLAYER
 90
4
 70
0
 10
62.3900899019
 20
385.7724977914
 10
120.6127847744
 20
385.042801275
 10
174.4353448319
 20
382.393063816
 10
222.391536543
 20
377.5729482187
  0
LINE
  5
22D
100
AcDbEntity
  8
0
100
AcDbLine
 62
7
  6
BYLAYER
 10
65.2749303221
 20
404.7658259764
 11
60.3915390226
 21
405.0714220632
  0
LINE
  5
22E
100
AcDbEntity
  8
0
100
AcDbLine
 62
7
  6
BYLAYER
 10
66.9553975103
 20
406.7643311899
 11
62.3947256732
 21
407.0714195245
  0
LINE
  5
22F
100
AcDbEntity
  8
0
100
AcDbLine
 62
7
  6
BYLAYER
 10
60.9472436635
 20
405.0330369723
 11
60.3915390227
 21
405.0714220632
  0
LINE
  5
230
100
AcDbEntity
  8
0
100
AcDbLine
 62
7
  6
BYLAYER
 10
63.7519621465
 20
406.9742368017
 11
62.3947335387
 21
407.0714195119
  0
LINE
  5
231
100
AcDbEntity
  8
0
100
AcDbLine
 62
7
  6
BYLAYER
 10
295.1992835475
 20
391.2082260787
 11
295.1992835475
 21
396.5730193397
  0
LINE
  5
232
100
AcDbEntity
  8
0
100
AcDbLine
 62
7
  6
BYLAYER
 10
476.6624749577
 20
403.0634782932
 11
475.0791473197
 21
403.0629388479
  0
LINE
  5
233
100
AcDbEntity
  8
0
100
AcDbLine
 62
7
  6
BYLAYER
 10
320.7915390226
 20
396.5730193397
 11
222.3915390226
 21
396.5730193397
  0
LINE
  5
234
100
AcDbEntity
  8
0
100
AcDbLine
 62
7
  6
BYLAYER
 10
66.5206030878
 20
403.0634792822
 11
68.1039304927
 21
403.0629385359
  0
LINE
  5
235
100
AcDbEntity
  8
0
100
AcDbLine
 62
7
  6
BYLAYER
 10
306.1991702095
 20
369.9730193397
 11
306.0623613124
 21
370.1823904802
  0
LWPOLYLINE
  5
236
100
AcDbEntity
  8
0
100
AcDbPolyline
 62
7
  6
BYLAYER
 90
8
 70
0
 10
306.0623613124
 20
370.1823904802
 10
306.1325343641
 20
370.5533903004
 10
306.3090535905
 20
370.9111236206
 10
306.5479654884
 20
371.2651589912
 10
306.8439934187
 20
371.6272339742
 10
307.1935931419
 20
371.9973611007
 10
307.5894531363
 20
372.3691421385
 10
307.7734570435
 20
372.5292922608
  0
LINE
  5
237
100
AcDbEntity
  8
0
100
AcDbLine
 62
7
  6
BYLAYER
 10
318.0135332273
 20
377.1135758528
 11
313.103036913
 21
365.8724100299
  0
LINE
  5
238
100
AcDbEntity
  8
0
100
AcDbLine
 62
7
  6
BYLAYER
 10
306.3415390226
 20
369.9730193397
 11
310.3915390226
 21
353.4730193397
  0
LINE
  5
239
100
AcDbEntity
  8
0
100
AcDbLine
 62
7
  6
BYLAYER
 10
309.3279280993
 20
366.1962620334
 11
307.7683904683
 21
372.5499338633
  0
LINE
  5
23A
100
AcDbEntity
  8
0
100
AcDbLine
 62
7
  6
BYLAYER
 10
320.7915390226
 20
396.5730193397
 11
320.791541284
 21
377.5729481903
  0
LINE
  5
23B
100
AcDbEntity
  8
0
100
AcDbLine
 62
7
  6
BYLAYER
 10
482.7915390226
 20
387.7725372906
 11
482.7915390226
 21
405.0714220632
  0
ARC
  5
23C
100
AcDbEntity
  8
0
100
AcDbCircle
 62
7
  6
BYLAYER
 10
482.797551479
 20
-847.9830236927
 40
1255.0560514656
100
AcDbArc
 50
90.0917242929
 51
97.4165877802
  0
ARC
  5
23D
100
AcDbEntity
  8
0
100
AcDbCircle
 62
7
  6
BYLAYER
 10
60.3855265663
 20
-847.9830236909
 40
1255.0560514638
100
AcDbArc
 50
82.5834122198
 51
89.9082757071
  0
ARC
  5
23E
100
AcDbEntity
  8
0
100
AcDbCircle
 62
7
  6
BYLAYER
 10
204.5017435885
 20
277.2675995827
 40
121.9555456614
100
AcDbArc
 50
67.7055024045
 51
69.1121326344
  0
ARC
  5
23F
100
AcDbEntity
  8
0
100
AcDbCircle
 62
7
  6
BYLAYER
 10
337.4172760983
 20
280.4616826064
 40
118.5206977117
100
AcDbArc
 50
110.8674835237
 51
112.3148814373
  0
ARC
  5
240
100
AcDbEntity
  8
0
100
AcDbCircle
 62
7
  6
BYLAYER
 10
217.4425600045
 20
330.1434330166
 40
48.8439552154
100
AcDbArc
 50
82.5315015039
 51
84.1846839079
  0
ARC
  5
241
100
AcDbEntity
  8
0
100
AcDbCircle
 62
7
  6
BYLAYER
 10
325.7405180407
 20
330.1434330165
 40
48.8439552154
100
AcDbArc
 50
95.8153160921
 51
97.4684984961
  0
ARC
  5
242
100
AcDbEntity
  8
0
100
AcDbCircle
 62
7
  6
BYLAYER
 10
250.9876554486
 20
354.8966901391
 40
16.9196487545
100
AcDbArc
 50
164.9814700287
 51
166.0589886798
  0
ARC
  5
243
100
AcDbEntity
  8
0
100
AcDbCircle
 62
7
  6
BYLAYER
 10
62.3915390226
 20
405.0714220632
 40
2.0
100
AcDbArc
 50
89.908483816
 51
179.9999999998
  0
ARC
  5
244
100
AcDbEntity
  8
0
100
AcDbCircle
 62
7
  6
BYLAYER
 10
311.2702726802
 20
366.6730193397
 40
2.0
100
AcDbArc
 50
193.7908668973
 51
336.4027746946
  0
ARC
  5
245
100
AcDbEntity
  8
0
100
AcDbCircle
 62
7
  6
BYLAYER
 10
480.7915390226
 20
405.0714220632
 40
2.0
100
AcDbArc
 50
0.0
 51
90.0915161839
  0
SPLINE
  5
246
100
AcDbEntity
  8
0
100
AcDbSpline
 62
7
  6
BYLAYER
 70
0
 71
3
 72
12
 73
8
 74
0
 42
0.0000001
 43
0.0000001
 44
0.0000000001
 40
0.0
 40
0.0
 40
0.0
 40
0.0
 40
0.3725828543
 40
0.6884465478
 40
0.8095003447
 40
0.9007342178
 40
1.0
 40
1.0
 40
1.0
 40
1.0
 10
235.6073497862
 20
358.9730193397
 30
0.0
 10
235.6831836904
 20
359.2698797179
 30
0.0
 10
235.7947136717
 20
359.8271709197
 30
0.0
 10
235.8564130147
 20
360.4883412545
 30
0.0
 10
235.8263493319
 20
360.930022915
 30
0.0
 10
235.7878625125
 20
361.1674170369
 30
0.0
 10
235.6845747034
 20
361.3479036724
 30
0.0
 10
235.6029435477
 20
361.3479418978
 30
0.0
  0
SPLINE
  5
247
100
AcDbEntity
  8
0
100
AcDbSpline
 62
7
  6
BYLAYER
 70
0
 71
3
 72
12
 73
8
 74
0
 42
0.0000001
 43
0.0000001
 44
0.0000000001
 40
0.0
 40
0.0
 40
0.0
 40
0.0
 40
0.0463624416
 40
0.1188298094
 40
0.342139049
 40
0.6479259046
 40
1.0
 40
1.0
 40
1.0
 40
1.0
 10
234.4095331175
 20
356.5981240596
 30
0.0
 10
234.4515402692
 20
356.5981174042
 30
0.0
 10
234.5530612762
 20
356.6545446034
 30
0.0
 10
234.7607075317
 20
356.8816766658
 30
0.0
 10
235.0373726019
 20
357.3597872236
 30
0.0
 10
235.3508494658
 20
358.0928644022
 30
0.0
 10
235.5283956041
 20
358.6639442811
 30
0.0
 10
235.6073497862
 20
358.9730193397
 30
0.0
  0
SPLINE
  5
248
100
AcDbEntity
  8
0
100
AcDbSpline
 62
7
  6
BYLAYER
 70
0
 71
3
 72
11
 73
7
 74
0
 42
0.0000001
 43
0.0000001
 44
0.0000000001
 40
0.0
 40
0.0
 40
0.0
 40
0.0
 40
0.114171306
 40
0.3303584079
 40
0.6361010339
 40
1.0
 40
1.0
 40
1.0
 40
1.0
 10
235.6029435477
 20
361.3479418978
 30
0.0
 10
235.5145008753
 20
361.3479833129
 30
0.0
 10
235.3142462692
 20
361.1232681897
 30
0.0
 10
235.1087022376
 20
360.7028263623
 30
0.0
 10
234.8632990814
 20
360.0485864173
 30
0.0
 10
234.719003851
 20
359.553365268
 30
0.0
 10
234.6459468488
 20
359.2811027582
 30
0.0
  0
SPLINE
  5
249
100
AcDbEntity
  8
0
100
AcDbSpline
 62
7
  6
BYLAYER
 70
0
 71
3
 72
14
 73
10
 74
0
 42
0.0000001
 43
0.0000001
 44
0.0000000001
 40
0.0
 40
0.0
 40
0.0
 40
0.0
 40
0.37299736
 40
0.5421361252
 40
0.6903367142
 40
0.8117532993
 40
0.9020138171
 40
0.9610944249
 40
1.0
 40
1.0
 40
1.0
 40
1.0
 10
234.5663870986
 20
358.9730193397
 30
0.0
 10
234.4924937816
 20
358.6753876912
 30
0.0
 10
234.3958810518
 20
358.2399651881
 30
0.0
 10
234.301885071
 20
357.6799021438
 30
0.0
 10
234.2595729608
 20
357.3219214823
 30
0.0
 10
234.2432657064
 20
357.0249924064
 30
0.0
 10
234.2612750804
 20
356.8046285061
 30
0.0
 10
234.2995280259
 20
356.648638259
 30
0.0
 10
234.377546117
 20
356.5981291275
 30
0.0
 10
234.4095331175
 20
356.5981240596
 30
0.0
  0
SPLINE
  5
24A
100
AcDbEntity
  8
0
100
AcDbSpline
 62
7
  6
BYLAYER
 70
0
 71
3
 72
11
 73
7
 74
0
 42
0.0000001
 43
0.0000001
 44
0.0000000001
 40
0.0
 40
0.0
 40
0.0
 40
0.0
 40
0.2748857703
 40
0.5221314548
 40
0.7584227558
 40
1.0
 40
1.0
 40
1.0
 40
1.0
 10
271.59154588
 20
369.9730251057
 30
0.0
 10
275.4001960593
 20
373.1705797144
 30
0.0
 10
283.156792572
 20
378.6543074526
 30
0.0
 10
295.5043018765
 20
384.7360028454
 30
0.0
 10
307.9596922863
 20
388.9534900175
 30
0.0
 10
316.4599976362
 20
390.6816396789
 30
0.0
 10
320.7915365711
 20
391.2628687734
 30
0.0
  0
SPLINE
  5
24B
100
AcDbEntity
  8
0
100
AcDbSpline
 62
7
  6
BYLAYER
 70
0
 71
3
 72
10
 73
6
 74
0
 42
0.0000001
 43
0.0000001
 44
0.0000000001
 40
0.0
 40
0.0
 40
0.0
 40
0.0
 40
0.4763985777
 40
0.734345057
 40
1.0
 40
1.0
 40
1.0
 40
1.0
 10
247.9837944977
 20
391.2082260787
 30
0.0
 10
244.0998025602
 20
392.6870123453
 30
0.0
 10
237.8190902
 20
394.16338853
 30
0.0
 10
229.2155257659
 20
395.5636711995
 30
0.0
 10
224.6892563124
 20
396.1907863288
 30
0.0
 10
222.3915390226
 20
396.493011511
 30
0.0
  0
SPLINE
  5
24C
100
AcDbEntity
  8
0
100
AcDbSpline
 62
7
  6
BYLAYER
 70
0
 71
3
 72
9
 73
5
 74
0
 42
0.0000001
 43
0.0000001
 44
0.0000000001
 40
0.0
 40
0.0
 40
0.0
 40
0.0
 40
0.5670188389
 40
1.0
 40
1.0
 40
1.0
 40
1.0
 10
476.6624746884
 20
403.0634781447
 30
0.0
 10
476.6623694666
 20
403.4886863209
 30
0.0
 10
476.8849365768
 20
404.2622100439
 30
0.0
 10
477.5840231168
 20
404.7466119866
 30
0.0
 10
477.9081472462
 20
404.7658263902
 30
0.0
  0
SPLINE
  5
24D
100
AcDbEntity
  8
0
100
AcDbSpline
 62
7
  6
BYLAYER
 70
0
 71
3
 72
9
 73
5
 74
0
 42
0.0000001
 43
0.0000001
 44
0.0000000001
 40
0.0
 40
0.0
 40
0.0
 40
0.0
 40
0.2853745856
 40
1.0
 40
1.0
 40
1.0
 40
1.0
 10
482.7915174445
 20
387.7725328019
 30
0.0
 10
482.2830045284
 20
388.5143405487
 30
0.0
 10
480.5740998456
 20
391.1614309812
 30
0.0
 10
479.0483455828
 20
393.9379543349
 30
0.0
 10
478.1714435756
 20
396.0123958085
 30
0.0
  0
SPLINE
  5
24E
100
AcDbEntity
  8
0
100
AcDbSpline
 62
7
  6
BYLAYER
 70
0
 71
3
 72
9
 73
5
 74
0
 42
0.0000001
 43
0.0000001
 44
0.0000000001
 40
0.0
 40
0.0
 40
0.0
 40
0.0
 40
0.4830750728
 40
1.0
 40
1.0
 40
1.0
 40
1.0
 10
478.171440937
 20
396.0123919372
 30
0.0
 10
477.7170532468
 20
397.0872919767
 30
0.0
 10
476.9492071644
 20
399.3916824004
 30
0.0
 10
476.6627544387
 20
401.8147095127
 30
0.0
 10
476.6624755241
 20
403.0634781453
 30
0.0
  0
SPLINE
  5
24F
100
AcDbEntity
  8
0
100
AcDbSpline
 62
7
  6
BYLAYER
 70
0
 71
3
 72
22
 73
18
 74
0
 42
0.0000001
 43
0.0000001
 44
0.0000000001
 40
0.0
 40
0.0
 40
0.0
 40
0.0
 40
0.0011736865
 40
0.004698624
 40
0.0105603984
 40
0.0187300527
 40
0.029178428
 40
0.041876377
 40
0.0739030774
 40
0.1145001075
 40
0.1632449158
 40
0.2197074514
 40
0.2834363567
 40
0.4307086883
 40
0.6013549361
 40
0.7922737652
 40
1.0
 40
1.0
 40
1.0
 40
1.0
 10
480.7920497395
 20
385.772645526
 30
0.0
 10
480.7883386674
 20
385.7712237297
 30
0.0
 10
480.7847296864
 20
385.7969360086
 30
0.0
 10
480.7630756712
 20
385.8166179873
 30
0.0
 10
480.7362340808
 20
385.8749347939
 30
0.0
 10
480.6946406488
 20
385.9443507177
 30
0.0
 10
480.6432410119
 20
386.0379792966
 30
0.0
 10
480.552019061
 20
386.2005933929
 30
0.0
 10
480.4118267405
 20
386.4534687024
 30
0.0
 10
480.2134788174
 20
386.8132738053
 30
0.0
 10
479.9778522418
 20
387.2471559488
 30
0.0
 10
479.7083611379
 20
387.7517090285
 30
0.0
 10
479.2883454569
 20
388.554071746
 30
0.0
 10
478.7068278471
 20
389.7082259707
 30
0.0
 10
477.9712064622
 20
391.266477133
 30
0.0
 10
477.2035860465
 20
393.0350841379
 30
0.0
 10
476.721587085
 20
394.2967170739
 30
0.0
 10
476.4896921528
 20
394.9607529988
 30
0.0
  0
SPLINE
  5
250
100
AcDbEntity
  8
0
100
AcDbSpline
 62
7
  6
BYLAYER
 70
0
 71
3
 72
18
 73
14
 74
0
 42
0.0000001
 43
0.0000001
 44
0.0000000001
 40
0.0
 40
0.0
 40
0.0
 40
0.0
 40
0.2064247504
 40
0.3965087521
 40
0.5671748806
 40
0.7147916497
 40
0.8355110948
 40
0.8845735268
 40
0.9254542325
 40
0.9577043356
 40
0.9810403224
 40
0.9952197884
 40
1.0
 40
1.0
 40
1.0
 40
1.0
 10
65.0116344603
 20
396.0123958222
 30
0.0
 10
64.7581593668
 20
395.4127713552
 30
0.0
 10
64.2374590705
 20
394.2750086574
 30
0.0
 10
63.4142646512
 20
392.6865549658
 30
0.0
 10
62.6249710182
 20
391.2904618627
 30
0.0
 10
61.9093024682
 20
390.1060074544
 30
0.0
 10
61.3727381557
 20
389.2587952655
 30
0.0
 10
61.012448505
 20
388.7040272924
 30
0.0
 10
60.7958153784
 20
388.3777842781
 30
0.0
 10
60.639015628
 20
388.1365046423
 30
0.0
 10
60.4897409265
 20
387.9259648417
 30
0.0
 10
60.4629174241
 20
387.8647498082
 30
0.0
 10
60.3793783102
 20
387.7636202586
 30
0.0
 10
60.3915484874
 20
387.7725169348
 30
0.0
  0
SPLINE
  5
251
100
AcDbEntity
  8
0
100
AcDbSpline
 62
7
  6
BYLAYER
 70
0
 71
3
 72
9
 73
5
 74
0
 42
0.0000001
 43
0.0000001
 44
0.0000000001
 40
0.0
 40
0.0
 40
0.0
 40
0.0
 40
0.5169399709
 40
1.0
 40
1.0
 40
1.0
 40
1.0
 10
66.52060313
 20
403.063479287
 30
0.0
 10
66.5203235431
 20
401.8146741197
 30
0.0
 10
66.2338588759
 20
399.3916467432
 30
0.0
 10
65.4660108146
 20
397.0872581886
 30
0.0
 10
65.0116375291
 20
396.0123913199
 30
0.0
  0
SPLINE
  5
252
100
AcDbEntity
  8
0
100
AcDbSpline
 62
7
  6
BYLAYER
 70
0
 71
3
 72
9
 73
5
 74
0
 42
0.0000001
 43
0.0000001
 44
0.0000000001
 40
0.0
 40
0.0
 40
0.0
 40
0.0
 40
0.432877763
 40
1.0
 40
1.0
 40
1.0
 40
1.0
 10
65.2749303211
 20
404.7658259225
 30
0.0
 10
65.5989933136
 20
404.7467401701
 30
0.0
 10
66.298188202
 20
404.2623507179
 30
0.0
 10
66.5207538343
 20
403.4887766734
 30
0.0
 10
66.5206030549
 20
403.0634792871
 30
0.0
  0
SPLINE
  5
253
100
AcDbEntity
  8
0
100
AcDbSpline
 62
7
  6
BYLAYER
 70
0
 71
3
 72
11
 73
7
 74
0
 42
0.0000001
 43
0.0000001
 44
0.0000000001
 40
0.0
 40
0.0
 40
0.0
 40
0.0
 40
0.2597883538
 40
0.515475329
 40
0.7635770646
 40
1.0
 40
1.0
 40
1.0
 40
1.0
 10
271.5915417081
 20
380.9758556273
 30
0.0
 10
273.4518529882
 20
381.6259185848
 30
0.0
 10
277.1254599772
 20
382.9682603359
 30
0.0
 10
282.4632780973
 20
385.2258682153
 30
0.0
 10
287.5053948865
 20
387.6978759919
 30
0.0
 10
290.7785519374
 20
389.3737067605
 30
0.0
 10
292.4153877456
 20
390.1064993137
 30
0.0
  0
SPLINE
  5
254
100
AcDbEntity
  8
0
100
AcDbSpline
 62
7
  6
BYLAYER
 70
0
 71
3
 72
9
 73
5
 74
0
 42
0.0000001
 43
0.0000001
 44
0.0000000001
 40
0.0
 40
0.0
 40
0.0
 40
0.0
 40
0.5137064623
 40
1.0
 40
1.0
 40
1.0
 40
1.0
 10
292.4153877456
 20
390.1064993137
 30
0.0
 10
297.1534733965
 20
391.6297112954
 30
0.0
 10
306.5544256219
 20
394.0524032572
 30
0.0
 10
316.1183520022
 20
395.660663491
 30
0.0
 10
320.7915374398
 20
396.25894294
 30
0.0
  0
SPLINE
  5
255
100
AcDbEntity
  8
0
100
AcDbSpline
 62
7
  6
BYLAYER
 70
0
 71
3
 72
11
 73
7
 74
0
 42
0.0000001
 43
0.0000001
 44
0.0000000001
 40
0.0
 40
0.0
 40
0.0
 40
0.0
 40
0.2364229333
 40
0.4845246374
 40
0.7402116391
 40
1.0
 40
1.0
 40
1.0
 40
1.0
 10
250.7676902996
 20
390.1064993137
 30
0.0
 10
252.4045375443
 20
389.3737315593
 30
0.0
 10
255.6776726369
 20
387.6978513595
 30
0.0
 10
260.7198195935
 20
385.2259066236
 30
0.0
 10
266.0576141488
 20
382.9682410287
 30
0.0
 10
269.7312333944
 20
381.6259283098
 30
0.0
 10
271.5915417081
 20
380.9758556273
 30
0.0
  0
SPLINE
  5
256
100
AcDbEntity
  8
0
100
AcDbSpline
 62
7
  6
BYLAYER
 70
0
 71
3
 72
10
 73
6
 74
0
 42
0.0000001
 43
0.0000001
 44
0.0000000001
 40
0.0
 40
0.0
 40
0.0
 40
0.0
 40
0.2656561248
 40
0.5236023955
 40
1.0
 40
1.0
 40
1.0
 40
1.0
 10
320.7915390226
 20
396.493011511
 30
0.0
 10
318.4938114587
 20
396.1907849774
 30
0.0
 10
313.9675333049
 20
395.5636703937
 30
0.0
 10
305.363967684
 20
394.163392264
 30
0.0
 10
299.0832676391
 20
392.6870093581
 30
0.0
 10
295.1992835475
 20
391.2082260787
 30
0.0
  0
SPLINE
  5
257
100
AcDbEntity
  8
0
100
AcDbSpline
 62
7
  6
BYLAYER
 70
0
 71
3
 72
10
 73
6
 74
0
 42
0.0000001
 43
0.0000001
 44
0.0000000001
 40
0.0
 40
0.0
 40
0.0
 40
0.0
 40
0.5260148443
 40
0.7793973355
 40
1.0
 40
1.0
 40
1.0
 40
1.0
 10
477.9081472539
 20
404.7658259486
 30
0.0
 10
477.8985710465
 20
405.2633640528
 30
0.0
 10
477.6397479213
 20
406.0339761224
 30
0.0
 10
476.8875094186
 20
406.6454104154
 30
0.0
 10
476.4363338589
 20
406.7601975286
 30
0.0
 10
476.2276761988
 20
406.7643309441
 30
0.0
  0
SPLINE
  5
258
100
AcDbEntity
  8
0
100
AcDbSpline
 62
7
  6
BYLAYER
 70
0
 71
3
 72
9
 73
5
 74
0
 42
0.0000001
 43
0.0000001
 44
0.0000000001
 40
0.0
 40
0.0
 40
0.0
 40
0.0
 40
0.2542859652
 40
1.0
 40
1.0
 40
1.0
 40
1.0
 10
320.7915397676
 20
396.2589351057
 30
0.0
 10
333.8942950168
 20
397.93639989
 30
0.0
 10
385.5152089267
 20
403.7749802955
 30
0.0
 10
437.4897568629
 20
406.5534742788
 30
0.0
 10
476.2276801151
 20
406.7643248288
 30
0.0
  0
SPLINE
  5
259
100
AcDbEntity
  8
0
100
AcDbSpline
 62
7
  6
BYLAYER
 70
0
 71
3
 72
12
 73
8
 74
0
 42
0.0000001
 43
0.0000001
 44
0.0000000001
 40
0.0
 40
0.0
 40
0.0
 40
0.0
 40
0.129289939
 40
0.2271013054
 40
0.3477526804
 40
0.6487522653
 40
1.0
 40
1.0
 40
1.0
 40
1.0
 10
476.2276800196
 20
406.7643311878
 30
0.0
 10
476.0556217993
 20
406.7408973695
 30
0.0
 10
475.8120932339
 20
406.4905308669
 30
0.0
 10
475.5914458805
 20
406.09025848
 30
0.0
 10
475.3406327262
 20
405.4323073804
 30
0.0
 10
475.1323467314
 20
404.4126496786
 30
0.0
 10
475.0745610432
 20
403.5346699502
 30
0.0
 10
475.0791473421
 20
403.0629385328
 30
0.0
  0
SPLINE
  5
25A
100
AcDbEntity
  8
0
100
AcDbSpline
 62
7
  6
BYLAYER
 70
0
 71
3
 72
9
 73
5
 74
0
 42
0.0000001
 43
0.0000001
 44
0.0000000001
 40
0.0
 40
0.0
 40
0.0
 40
0.0
 40
0.5038246832
 40
1.0
 40
1.0
 40
1.0
 40
1.0
 10
320.791536808
 20
391.2628687901
 30
0.0
 10
346.5602618361
 20
394.720653707
 30
0.0
 10
397.8780802513
 20
400.391181672
 30
0.0
 10
449.4750421439
 20
402.8562560615
 30
0.0
 10
475.0791473427
 20
403.0629385328
 30
0.0
  0
SPLINE
  5
25B
100
AcDbEntity
  8
0
100
AcDbSpline
 62
7
  6
BYLAYER
 70
0
 71
3
 72
11
 73
7
 74
0
 42
0.0000001
 43
0.0000001
 44
0.0000000001
 40
0.0
 40
0.0
 40
0.0
 40
0.0
 40
0.2617491567
 40
0.518531185
 40
0.7658595543
 40
1.0
 40
1.0
 40
1.0
 40
1.0
 10
475.0791473427
 20
403.0629385328
 30
0.0
 10
475.0497010798
 20
402.342954233
 30
0.0
 10
475.1705912569
 20
400.914599812
 30
0.0
 10
475.4330961498
 20
398.8218562131
 30
0.0
 10
475.9059990889
 20
396.8433086929
 30
0.0
 10
476.2615543894
 20
395.5636055491
 30
0.0
 10
476.4896926994
 20
394.9607483559
 30
0.0
  0
SPLINE
  5
25C
100
AcDbEntity
  8
0
100
AcDbSpline
 62
7
  6
BYLAYER
 70
0
 71
3
 72
9
 73
5
 74
0
 42
0.0000001
 43
0.0000001
 44
0.0000000001
 40
0.0
 40
0.0
 40
0.0
 40
0.0
 40
0.4630743951
 40
1.0
 40
1.0
 40
1.0
 40
1.0
 10
478.1714405619
 20
396.0123913239
 30
0.0
 10
477.9886059733
 20
395.7622943105
 30
0.0
 10
477.4535830169
 20
395.330185505
 30
0.0
 10
476.835009612
 20
395.0596813595
 30
0.0
 10
476.48969233
 20
394.9607524974
 30
0.0
  0
SPLINE
  5
25D
100
AcDbEntity
  8
0
100
AcDbSpline
 62
7
  6
BYLAYER
 70
0
 71
3
 72
9
 73
5
 74
0
 42
0.0000001
 43
0.0000001
 44
0.0000000001
 40
0.0
 40
0.0
 40
0.0
 40
0.0
 40
0.5059390999
 40
1.0
 40
1.0
 40
1.0
 40
1.0
 10
320.7915421967
 20
382.7490348699
 30
0.0
 10
346.900113458
 20
386.3241837199
 30
0.0
 10
398.6772732356
 20
392.2153171406
 30
0.0
 10
450.7567947617
 20
394.7804798404
 30
0.0
 10
476.4896955277
 20
394.9603120603
 30
0.0
  0
SPLINE
  5
25E
100
AcDbEntity
  8
0
100
AcDbSpline
 62
7
  6
BYLAYER
 70
0
 71
3
 72
12
 73
8
 74
0
 42
0.0000001
 43
0.0000001
 44
0.0000000001
 40
0.0
 40
0.0
 40
0.0
 40
0.0
 40
0.2937804243
 40
0.5306174301
 40
0.6409163937
 40
0.7535276954
 40
1.0
 40
1.0
 40
1.0
 40
1.0
 10
280.8412837458
 20
369.9728605552
 30
0.0
 10
284.3505191917
 20
372.1556377322
 30
0.0
 10
291.072662015
 20
375.5251295446
 30
0.0
 10
299.6981497116
 20
378.2031267206
 30
0.0
 10
305.959434378
 20
379.8220608076
 30
0.0
 10
312.3858658412
 20
381.3384559333
 30
0.0
 10
317.3563924397
 20
382.278962128
 30
0.0
 10
320.7915419015
 20
382.749352081
 30
0.0
  0
SPLINE
  5
25F
100
AcDbEntity
  8
0
100
AcDbSpline
 62
7
  6
BYLAYER
 70
0
 71
3
 72
12
 73
8
 74
0
 42
0.0000001
 43
0.0000001
 44
0.0000000001
 40
0.0
 40
0.0
 40
0.0
 40
0.0
 40
0.2937795782
 40
0.5306164643
 40
0.6409156158
 40
0.7535271789
 40
1.0
 40
1.0
 40
1.0
 40
1.0
 10
262.3415299995
 20
369.9730249513
 30
0.0
 10
258.8323211137
 20
372.1557638143
 30
0.0
 10
252.1102286733
 20
375.5251973812
 30
0.0
 10
243.4848125649
 20
378.2031583055
 30
0.0
 10
237.2235695511
 20
379.8220789789
 30
0.0
 10
230.7971724031
 20
381.3384638117
 30
0.0
 10
225.8266720227
 20
382.2789638219
 30
0.0
 10
222.3915410578
 20
382.749351408
 30
0.0
  0
SPLINE
  5
260
100
AcDbEntity
  8
0
100
AcDbSpline
 62
7
  6
BYLAYER
 70
0
 71
3
 72
11
 73
7
 74
0
 42
0.0000001
 43
0.0000001
 44
0.0000000001
 40
0.0
 40
0.0
 40
0.0
 40
0.0
 40
0.2748857793
 40
0.522131465
 40
0.7584227611
 40
1.0
 40
1.0
 40
1.0
 40
1.0
 10
271.5915388734
 20
369.9730194639
 30
0.0
 10
267.7828881949
 20
373.1705751214
 30
0.0
 10
260.0262905607
 20
378.6543045954
 30
0.0
 10
247.6787792069
 20
384.7360016947
 30
0.0
 10
235.2233867831
 20
388.953489821
 30
0.0
 10
226.7230800774
 20
390.6816397618
 30
0.0
 10
222.3915404532
 20
391.2628689024
 30
0.0
  0
SPLINE
  5
261
100
AcDbEntity
  8
0
100
AcDbSpline
 62
7
  6
BYLAYER
 70
0
 71
3
 72
9
 73
5
 74
0
 42
0.0000001
 43
0.0000001
 44
0.0000000001
 40
0.0
 40
0.0
 40
0.0
 40
0.0
 40
0.513706462
 40
1.0
 40
1.0
 40
1.0
 40
1.0
 10
250.7676902996
 20
390.1064993137
 30
0.0
 10
246.0296044583
 20
391.6297113566
 30
0.0
 10
236.6286518416
 20
394.0524033964
 30
0.0
 10
227.0647250615
 20
395.6606636486
 30
0.0
 10
222.3915394252
 20
396.2589430911
 30
0.0
  0
SPLINE
  5
262
100
AcDbEntity
  8
0
100
AcDbSpline
 62
7
  6
BYLAYER
 70
0
 71
3
 72
9
 73
5
 74
0
 42
0.0000001
 43
0.0000001
 44
0.0000000001
 40
0.0
 40
0.0
 40
0.0
 40
0.0
 40
0.2542859704
 40
1.0
 40
1.0
 40
1.0
 40
1.0
 10
222.3915372932
 20
396.2589359814
 30
0.0
 10
209.2887818281
 20
397.9364008711
 30
0.0
 10
157.6678680839
 20
403.7749813566
 30
0.0
 10
105.6933202873
 20
406.5534749396
 30
0.0
 10
66.955397424
 20
406.7643254427
 30
0.0
  0
SPLINE
  5
263
100
AcDbEntity
  8
0
100
AcDbSpline
 62
7
  6
BYLAYER
 70
0
 71
3
 72
10
 73
6
 74
0
 42
0.0000001
 43
0.0000001
 44
0.0000000001
 40
0.0
 40
0.0
 40
0.0
 40
0.0
 40
0.5250587229
 40
0.7787547152
 40
1.0
 40
1.0
 40
1.0
 40
1.0
 10
65.2749296283
 20
404.7658260173
 30
0.0
 10
65.2844887807
 20
405.2624802579
 30
0.0
 10
65.5425830715
 20
406.0322850771
 30
0.0
 10
66.2940060788
 20
406.6448210314
 30
0.0
 10
66.746124878
 20
406.7601851263
 30
0.0
 10
66.9553989937
 20
406.7643309923
 30
0.0
  0
SPLINE
  5
264
100
AcDbEntity
  8
0
100
AcDbSpline
 62
7
  6
BYLAYER
 70
0
 71
3
 72
12
 73
8
 74
0
 42
0.0000001
 43
0.0000001
 44
0.0000000001
 40
0.0
 40
0.0
 40
0.0
 40
0.0
 40
0.3511295878
 40
0.6519169144
 40
0.7727413565
 40
0.870684479
 40
1.0
 40
1.0
 40
1.0
 40
1.0
 10
68.1039304928
 20
403.0629385394
 30
0.0
 10
68.1001426344
 20
403.5345157009
 30
0.0
 10
68.056005661
 20
404.4122496656
 30
0.0
 10
67.842010581
 20
405.4312596606
 30
0.0
 10
67.591713618
 20
406.0894462273
 30
0.0
 10
67.3710320192
 20
406.4900040117
 30
0.0
 10
67.1275506936
 20
406.7413518448
 30
0.0
 10
66.9553975103
 20
406.7643311899
 30
0.0
  0
SPLINE
  5
265
100
AcDbEntity
  8
0
100
AcDbSpline
 62
7
  6
BYLAYER
 70
0
 71
3
 72
9
 73
5
 74
0
 42
0.0000001
 43
0.0000001
 44
0.0000000001
 40
0.0
 40
0.0
 40
0.0
 40
0.0
 40
0.5038246832
 40
1.0
 40
1.0
 40
1.0
 40
1.0
 10
222.391540624
 20
391.2628688786
 30
0.0
 10
196.622815663
 20
394.7206537766
 30
0.0
 10
145.3049973812
 20
400.3911817071
 30
0.0
 10
93.7080356244
 20
402.8562560744
 30
0.0
 10
68.1039304928
 20
403.0629385394
 30
0.0
  0
SPLINE
  5
266
100
AcDbEntity
  8
0
100
AcDbSpline
 62
7
  6
BYLAYER
 70
0
 71
3
 72
10
 73
6
 74
0
 42
0.0000001
 43
0.0000001
 44
0.0000000001
 40
0.0
 40
0.0
 40
0.0
 40
0.0
 40
0.250003818
 40
0.5001506576
 40
1.0
 40
1.0
 40
1.0
 40
1.0
 10
307.7683904683
 20
372.5499338633
 30
0.0
 10
308.4858870565
 20
373.1605967375
 30
0.0
 10
310.0591167698
 20
374.2212013831
 30
0.0
 10
313.4453837177
 20
375.8867164954
 30
0.0
 10
316.1718684246
 20
376.7175141877
 30
0.0
 10
318.0135332273
 20
377.1135758528
 30
0.0
  0
SPLINE
  5
267
100
AcDbEntity
  8
0
100
AcDbSpline
 62
7
  6
BYLAYER
 70
0
 71
3
 72
9
 73
5
 74
0
 42
0.0000001
 43
0.0000001
 44
0.0000000001
 40
0.0
 40
0.0
 40
0.0
 40
0.0
 40
0.5059263778
 40
1.0
 40
1.0
 40
1.0
 40
1.0
 10
222.3915412557
 20
382.7493502158
 30
0.0
 10
196.2836381224
 20
386.3244196476
 30
0.0
 10
144.5063033905
 20
392.213506022
 30
0.0
 10
92.4269375307
 20
394.7807265199
 30
0.0
 10
66.693385277
 20
394.9607483616
 30
0.0
  0
SPLINE
  5
268
100
AcDbEntity
  8
0
100
AcDbSpline
 62
7
  6
BYLAYER
 70
0
 71
3
 72
11
 73
7
 74
0
 42
0.0000001
 43
0.0000001
 44
0.0000000001
 40
0.0
 40
0.0
 40
0.0
 40
0.0
 40
0.2616914379
 40
0.5185671209
 40
0.7658781696
 40
1.0
 40
1.0
 40
1.0
 40
1.0
 10
68.1039304927
 20
403.0629385359
 30
0.0
 10
68.0943316622
 20
402.3425256941
 30
0.0
 10
68.0404378953
 20
400.9137396691
 30
0.0
 10
67.7388864296
 20
398.8236010767
 30
0.0
 10
67.2935599682
 20
396.8382508582
 30
0.0
 10
66.898987107
 20
395.5716562104
 30
0.0
 10
66.6933857517
 20
394.9607528046
 30
0.0
  0
SPLINE
  5
269
100
AcDbEntity
  8
0
100
AcDbSpline
 62
7
  6
BYLAYER
 70
0
 71
3
 72
16
 73
12
 74
0
 42
0.0000001
 43
0.0000001
 44
0.0000000001
 40
0.0
 40
0.0
 40
0.0
 40
0.0
 40
0.3985233046
 40
0.5692490861
 40
0.7166104538
 40
0.8367813452
 40
0.926080135
 40
0.9581282625
 40
0.981288361
 40
0.9952852437
 40
1.0
 40
1.0
 40
1.0
 40
1.0
 10
66.69338593
 20
394.9607533041
 30
0.0
 10
66.24701734
 20
393.6874444678
 30
0.0
 10
65.5119904895
 20
391.9021482537
 30
0.0
 10
64.4763077326
 20
389.7081363094
 30
0.0
 10
63.808703136
 20
388.3827446418
 30
0.0
 10
63.2431941546
 20
387.3151997601
 30
0.0
 10
62.8523124414
 20
386.5967467034
 30
0.0
 10
62.6127320701
 20
386.1704135906
 30
0.0
 10
62.5013183706
 20
385.9638378973
 30
0.0
 10
62.4263441527
 20
385.8440944887
 30
0.0
 10
62.4010580925
 20
385.784861064
 30
0.0
 10
62.3907856768
 20
385.7726427467
 30
0.0
  0
SPLINE
  5
26A
100
AcDbEntity
  8
0
100
AcDbSpline
 62
7
  6
BYLAYER
 70
0
 71
3
 72
9
 73
5
 74
0
 42
0.0000001
 43
0.0000001
 44
0.0000000001
 40
0.0
 40
0.0
 40
0.0
 40
0.0
 40
0.4454472899
 40
1.0
 40
1.0
 40
1.0
 40
1.0
 10
65.0116373336
 20
396.0123909696
 30
0.0
 10
65.1875211124
 20
395.7718022742
 30
0.0
 10
65.7180131674
 20
395.3361127487
 30
0.0
 10
66.3367143739
 20
395.0629349014
 30
0.0
 10
66.69338593
 20
394.9607533041
 30
0.0
  0
ENDSEC
  0
SECTION
  2
OBJECTS
  0
DICTIONARY
  5
C
100
AcDbDictionary
280
0
281
1
  3
ACAD_GROUP
350
D
  3
ACAD_MLINESTYLE
350
17
  3
ACAD_LAYOUT
350
1A
  3
ACAD_PLOTSETTINGS
350
19
  3
ACAD_PLOTSTYLENAME
350
E
  0
DICTIONARY
  5
D
102
{ACAD_REACTORS
330
C
102
}
100
AcDbDictionary
280
0
281
1
  0
ACDBDICTIONARYWDFLT
  5
E
102
{ACAD_REACTORS
330
C
102
}
100
AcDbDictionary
281
1
  3
Normal
350
F
100
AcDbDictionaryWithDefault
340
F
  0
DICTIONARY
  5
17
102
{ACAD_REACTORS
330
C
102
}
100
AcDbDictionary
280
0
281
1
  3
Standard
350
18
  0
DICTIONARY
  5
19
102
{ACAD_REACTORS
330
C
102
}
100
AcDbDictionary
281
1
  0
DICTIONARY
  5
1A
102
{ACAD_REACTORS
330
C
102
}
100
AcDbDictionary
281
1
  3
Model
350
26B
  3
Layout1
350
26C
  0
ACDBPLACEHOLDER
  5
F
102
{ACAD_REACTORS
330
E
102
}
  0
MLINESTYLE
  5
18
102
{ACAD_REACTORS
330
17
102
}
100
AcDbMlineStyle
  2
STANDARD
 70
0
  3

 62
256
 51
90.0
 52
90.0
 71
2
 49
0.5
 62
256
  6
BYLAYER
 49
-0.5
 62
256
  6
BYLAYER
  0
LAYOUT
  5
26B
102
{ACAD_REACTORS
330
1A
102
}
100
AcDbPlotSettings
  1

  2
none_device
  4

  6

 40
0.0
 41
0.0
 42
0.0
 43
0.0
 44
210.0
 45
297.0
 46
0.0
 47
0.0
 48
0.0
 49
0.0
140
0.0
141
0.0
142
1.0
143
1.0
 70
1024
 72
1
 73
0
 74
0
  7

 75
0
147
1.0
148
0.0
149
0.0
100
AcDbLayout
  1
Model
 70
0
 71
0
 10
0.0
 20
0.0
 11
210.0
 21
297.0
 12
0.0
 22
0.0
 32
0.0
 14
0.0
 24
0.0
 34
0.0
 15
0.0
 25
0.0
 35
0.0
146
0.0
 13
0.0
 23
0.0
 33
0.0
 16
1.0
 26
0.0
 36
0.0
 17
0.0
 27
1.0
 37
0.0
 76
0
330
210
345
0
346
0
  0
LAYOUT
  5
26C
102
{ACAD_REACTORS
330
1A
102
}
100
AcDbPlotSettings
  1

  2
none_device
  4

  6

 40
0.0
 41
0.0
 42
0.0
 43
0.0
 44
210.0
 45
297.0
 46
0.0
 47
0.0
 48
0.0
 49
0.0
140
0.0
141
0.0
142
1.0
143
1.0
 70
0
 72
1
 73
0
 74
0
  7

 75
0
147
1.0
148
0.0
149
0.0
100
AcDbLayout
  1
Layout1
 70
0
 71
1
 10
0.0
 20
0.0
 11
210.0
 21
297.0
 12
0.0
 22
0.0
 32
0.0
 14
0.0
 24
0.0
 34
0.0
 15
0.0
 25
0.0
 35
0.0
146
0.0
 13
0.0
 23
0.0
 33
0.0
 16
1.0
 26
0.0
 36
0.0
 17
0.0
 27
1.0
 37
0.0
 76
0
330
211
345
0
346
0
  0
ENDSEC
  0
EOF
