999
DXF file: C:\Users\sesa63760\Dev\_Creo\CAD\MCADID0000760_3D-CAD\drw0001_1.dxf
999
Pro/ENGINEER 2019471 by Parametric Technology Corporation
  0
SECTION
  2
HEADER
  9
$ACADVER
  1
AC1024
  9
$DWGCODEPAGE
  3
ANSI_1252
  9
$EXTMAX
 10
105.7472664229
 20
149.5568482267
 30
0.0
  9
$EXTMIN
 10
0.0
 20
0.0
 30
0.0
  9
$LIMMIN
 10
0.0
 20
0.0
  9
$LIMMAX
 10
105.7472664229
 20
149.5568482267
  9
$VIEWCTR
 10
52.8736332114
 20
74.7784241133
  9
$VIEWSIZE
 40
149.5568482267
  9
$CLAYER
  8
0
  9
$LTSCALE
 40
9.7488908474
  9
$CELTYPE
  6
BYLAYER
  9
$DIMSCALE
 40
1.0
  9
$DIMASZ
 40
1.2588960288
  9
$DIMEXO
 40
1.0
  9
$DIMDLI
 40
6.7355973127
  9
$DIMEXE
 40
1.0
  9
$DIMCEN
 40
1.5952730478
  9
$DIMLFAC
 40
1.0
  9
$DIMBLK
  1
_FILLED
  9
$DIMALT
 70
0
  9
$DIMALTF
 40
0.0393700787
  9
$DIMTXT
 40
1.7624544404
  9
$DIMTOL
 70
1
  9
$DIMLIM
 70
0
  9
$DIMTFAC
 40
1.0
  9
$DIMTP
 40
0.01
  9
$DIMTM
 40
0.01
  9
$DIMGAP
 40
0.625
  9
$DIMDSEP
 70
46
  9
$AUNITS
 70
0
  9
$PDMODE
 70
3
  9
$PDSIZE
 40
0.3125
  9
$HANDSEED
  5
479
  9
$TILEMODE
 70
1
  9
$MEASUREMENT
 70
1
  9
$INSUNITS
 70
4
  0
ENDSEC
  0
SECTION
  2
CLASSES
  0
CLASS
  1
ACDBDICTIONARYWDFLT
  2
AcDbDictionaryWithDefault
  3
AutoCAD 2000
 90
0
 91
1
280
0
281
0
  0
CLASS
  1
ACDBPLACEHOLDER
  2
AcDbPlaceHolder
  3
AutoCAD 2000
 90
0
 91
1
280
0
281
0
  0
CLASS
  1
LAYOUT
  2
AcDbLayout
  3
AutoCAD 2000
 90
0
 91
0
280
0
281
0
  0
ENDSEC
  0
SECTION
  2
TABLES
  0
TABLE
  2
VPORT
  5
8
100
AcDbSymbolTable
 70
2
  0
VPORT
  5
1F4
100
AcDbSymbolTableRecord
100
AcDbViewportTableRecord
  2
*ACTIVE
 70
0
 10
0.0
 20
0.0
 11
1.0
 21
1.0
 12
52.8736332114
 22
74.7784241133
 13
0.0
 23
0.0
 14
1.0
 24
1.0
 15
0.0
 25
0.0
 16
0.0
 26
0.0
 36
1.0
 17
0.0
 27
0.0
 37
0.0
 40
149.5568482267
 41
0.7070707071
 42
50.0
 43
0.0
 44
0.0
 50
0.0
 51
0.0
 71
0
 72
100
 73
1
 74
1
 75
0
 76
0
 77
0
 78
0
  0
ENDTAB
  0
TABLE
  2
LTYPE
  5
5
100
AcDbSymbolTable
 70
6
  0
LTYPE
  5
14
100
AcDbSymbolTableRecord
100
AcDbLinetypeTableRecord
  2
BYBLOCK
 70
0
  3

 72
65
 73
0
 40
0.0
  0
LTYPE
  5
15
100
AcDbSymbolTableRecord
100
AcDbLinetypeTableRecord
  2
BYLAYER
 70
0
  3

 72
65
 73
0
 40
0.0
  0
LTYPE
  5
16
100
AcDbSymbolTableRecord
100
AcDbLinetypeTableRecord
  2
CONTINUOUS
 70
64
  3
Solid line
 72
65
 73
0
 40
0.0
  0
LTYPE
  5
1F5
100
AcDbSymbolTableRecord
100
AcDbLinetypeTableRecord
  2
CENTER
 70
64
  3
____ _ ____ _ ____ _ ____ _ ____ _ ____ _ ____
 72
65
 73
4
 40
0.6
 49
0.375
 74
0
 49
-0.075
 74
0
 49
0.075
 74
0
 49
-0.075
 74
0
  0
LTYPE
  5
1F6
100
AcDbSymbolTableRecord
100
AcDbLinetypeTableRecord
  2
HIDDEN
 70
64
  3
- - - - - - - - - - - - - - - - - - - -
 72
65
 73
2
 40
0.2
 49
0.1
 74
0
 49
-0.1
 74
0
  0
LTYPE
  5
1F7
100
AcDbSymbolTableRecord
100
AcDbLinetypeTableRecord
  2
PHANTOM
 70
64
  3
_____ _ _ _____ _ _ _____ _ _ _____
 72
65
 73
6
 40
0.8
 49
0.45
 74
0
 49
-0.05
 74
0
 49
0.1
 74
0
 49
-0.05
 74
0
 49
0.1
 74
0
 49
-0.05
 74
0
  0
LTYPE
  5
1F8
100
AcDbSymbolTableRecord
100
AcDbLinetypeTableRecord
  2
DOT
 70
64
  3
. . . . . . . . . . . . . . . . . . . .
 72
65
 73
2
 40
0.2
 49
0.1
 74
0
 49
-0.1
 74
0
  0
LTYPE
  5
1F9
100
AcDbSymbolTableRecord
100
AcDbLinetypeTableRecord
  2
DASHED
 70
64
  3
- - - - - - - - - - - - - - - - - - - -
 72
65
 73
2
 40
0.2
 49
0.1
 74
0
 49
-0.1
 74
0
  0
ENDTAB
  0
TABLE
  2
LAYER
  5
2
100
AcDbSymbolTable
 70
36
  0
LAYER
  5
10
100
AcDbSymbolTableRecord
100
AcDbLayerTableRecord
  2
0
 70
0
 62
7
  6
CONTINUOUS
370
-3
390
F
  0
LAYER
  5
1FA
100
AcDbSymbolTableRecord
100
AcDbLayerTableRecord
  2
DEFAULT_1
 70
0
 62
7
  6
CENTER
370
-3
390
F
  0
LAYER
  5
1FB
100
AcDbSymbolTableRecord
100
AcDbLayerTableRecord
  2
DEFAULT_2
 70
0
 62
8
  6
HIDDEN
370
-3
390
F
  0
LAYER
  5
1FC
100
AcDbSymbolTableRecord
100
AcDbLayerTableRecord
  2
DEFAULT_3
 70
0
 62
7
  6
PHANTOM
370
-3
390
F
  0
LAYER
  5
1FD
100
AcDbSymbolTableRecord
100
AcDbLayerTableRecord
  2
00_COMPONENTS
 70
0
 62
7
  6
CONTINUOUS
370
-3
390
F
  0
LAYER
  5
1FE
100
AcDbSymbolTableRecord
100
AcDbLayerTableRecord
  2
01_1_DEFAULT_DATUMS
 70
0
 62
7
  6
CONTINUOUS
370
-3
390
F
  0
LAYER
  5
1FF
100
AcDbSymbolTableRecord
100
AcDbLayerTableRecord
  2
01_PLANES
 70
0
 62
7
  6
CONTINUOUS
370
-3
390
F
  0
LAYER
  5
200
100
AcDbSymbolTableRecord
100
AcDbLayerTableRecord
  2
02_COORD_SYS
 70
0
 62
7
  6
CONTINUOUS
370
-3
390
F
  0
LAYER
  5
201
100
AcDbSymbolTableRecord
100
AcDbLayerTableRecord
  2
03_AXES
 70
0
 62
7
  6
CONTINUOUS
370
-3
390
F
  0
LAYER
  5
202
100
AcDbSymbolTableRecord
100
AcDbLayerTableRecord
  2
04_POINTS
 70
0
 62
7
  6
CONTINUOUS
370
-3
390
F
  0
LAYER
  5
203
100
AcDbSymbolTableRecord
100
AcDbLayerTableRecord
  2
05_CURVES
 70
0
 62
7
  6
CONTINUOUS
370
-3
390
F
  0
LAYER
  5
204
100
AcDbSymbolTableRecord
100
AcDbLayerTableRecord
  2
06_SURFS
 70
0
 62
7
  6
CONTINUOUS
370
-3
390
F
  0
LAYER
  5
205
100
AcDbSymbolTableRecord
100
AcDbLayerTableRecord
  2
07_COSMETICS
 70
0
 62
7
  6
CONTINUOUS
370
-3
390
F
  0
LAYER
  5
206
100
AcDbSymbolTableRecord
100
AcDbLayerTableRecord
  2
10_NOTES
 70
0
 62
7
  6
CONTINUOUS
370
-3
390
F
  0
LAYER
  5
207
100
AcDbSymbolTableRecord
100
AcDbLayerTableRecord
  2
11_NOTES_PUB
 70
0
 62
7
  6
CONTINUOUS
370
-3
390
F
  0
LAYER
  5
208
100
AcDbSymbolTableRecord
100
AcDbLayerTableRecord
  2
13_REF_GTOL
 70
0
 62
7
  6
CONTINUOUS
370
-3
390
F
  0
LAYER
  5
209
100
AcDbSymbolTableRecord
100
AcDbLayerTableRecord
  2
16_MISC
 70
0
 62
7
  6
CONTINUOUS
370
-3
390
F
  0
LAYER
  5
20A
100
AcDbSymbolTableRecord
100
AcDbLayerTableRecord
  2
17_NO_PRINT
 70
0
 62
7
  6
CONTINUOUS
370
-3
390
F
  0
LAYER
  5
20B
100
AcDbSymbolTableRecord
100
AcDbLayerTableRecord
  2
18_DATUM_CAMS_JOINTS
 70
0
 62
7
  6
CONTINUOUS
370
-3
390
F
  0
LAYER
  5
20C
100
AcDbSymbolTableRecord
100
AcDbLayerTableRecord
  2
19_DATUM_FUNCTIONAL
 70
0
 62
7
  6
CONTINUOUS
370
-3
390
F
  0
LAYER
  5
20D
100
AcDbSymbolTableRecord
100
AcDbLayerTableRecord
  2
20_DATUM_KINEMATIC_SCHEME
 70
0
 62
7
  6
CONTINUOUS
370
-3
390
F
  0
ENDTAB
  0
TABLE
  2
STYLE
  5
3
100
AcDbSymbolTable
 70
1
  0
STYLE
  5
11
100
AcDbSymbolTableRecord
100
AcDbTextStyleTableRecord
  2
STANDARD
 70
0
 40
0.0
 41
0.8
 50
0.0
 71
0
 42
0.2
  3
txt
  4

  0
STYLE
  5
20E
100
AcDbSymbolTableRecord
100
AcDbTextStyleTableRecord
  2
TEXTSTYLE_1
 70
0
 40
0.0
 41
0.8
 50
0.0
 71
0
 42
0.2
  3
gdt
  4

  0
ENDTAB
  0
TABLE
  2
VIEW
  5
6
100
AcDbSymbolTable
 70
0
  0
ENDTAB
  0
TABLE
  2
UCS
  5
7
100
AcDbSymbolTable
 70
0
  0
ENDTAB
  0
TABLE
  2
APPID
  5
9
100
AcDbSymbolTable
 70
1
  0
APPID
  5
20F
100
AcDbSymbolTableRecord
100
AcDbRegAppTableRecord
  2
ACAD
 70
0
  0
ENDTAB
  0
TABLE
  2
BLOCK_RECORD
  5
1
100
AcDbSymbolTable
 70
0
  0
BLOCK_RECORD
  5
210
100
AcDbSymbolTableRecord
100
AcDbBlockTableRecord
  2
*Model_Space
  0
BLOCK_RECORD
  5
211
100
AcDbSymbolTableRecord
100
AcDbBlockTableRecord
  2
*Paper_Space
  0
BLOCK_RECORD
  5
212
100
AcDbSymbolTableRecord
100
AcDbBlockTableRecord
  2
_FILLED
  0
ENDTAB
  0
TABLE
  2
DIMSTYLE
  5
A
100
AcDbSymbolTable
 70
1
100
AcDbDimStyleTable
 71
0
  0
DIMSTYLE
105
213
100
AcDbSymbolTableRecord
100
AcDbDimStyleTableRecord
  2
STANDARD
 70
0
  3

  4

 40
1.0
 41
1.2588960288
 42
1.0
 43
0.38
 44
1.0
 45
0.0
 46
0.0
 47
0.01
 48
0.01
140
1.7624544404
141
0.09
142
0.0
143
25.4
144
1.0
145
0.0
146
1.0
147
0.625
 71
1
 72
0
 73
0
 74
0
 75
0
 76
0
 77
1
 78
8
 79
2
170
0
171
1
172
0
173
0
174
0
175
0
176
0
177
0
178
0
270
2
179
2
271
2
272
2
273
2
274
2
275
0
280
0
281
0
282
0
283
1
284
8
285
0
286
0
287
3
288
0
340
11
278
46
341
212
342
212
343
212
344
212
  0
ENDTAB
  0
ENDSEC
  0
SECTION
  2
BLOCKS
  0
BLOCK
  5
20
100
AcDbEntity
  8
0
100
AcDbBlockBegin
  2
*Model_Space
 70
0
 10
0.0
 20
0.0
 30
0.0
  3
*Model_Space
  1

  0
ENDBLK
  5
21
100
AcDbEntity
  8
0
100
AcDbBlockEnd
  0
BLOCK
  5
1C
100
AcDbEntity
  8
0
100
AcDbBlockBegin
  2
*Paper_Space
 70
0
 10
0.0
 20
0.0
 30
0.0
  3
*Paper_Space
  1

  0
ENDBLK
  5
1D
100
AcDbEntity
  8
0
100
AcDbBlockEnd
  0
BLOCK
  5
214
100
AcDbEntity
  8
0
100
AcDbBlockBegin
  2
_FILLED
 70
64
 10
0.0
 20
0.0
  3
_FILLED
  1

  0
SOLID
  5
215
100
AcDbEntity
  8
0
  6
BYBLOCK
 62
0
100
AcDbTrace
 10
0.0
 20
0.0
 11
-1.0
 21
0.25
 12
-1.0
 22
-0.25
 13
-1.0
 23
-0.25
  0
ENDBLK
  5
216
100
AcDbEntity
  8
0
  6
BYBLOCK
 62
0
100
AcDbBlockEnd
  0
ENDSEC
  0
SECTION
  2
ENTITIES
  0
LINE
  5
217
100
AcDbEntity
  8
0
100
AcDbLine
 62
7
  6
CONTINUOUS
 10
28.8337217443
 20
17.6780991471
 11
25.4055054353
 21
19.6573359797
  0
LINE
  5
218
100
AcDbEntity
  8
0
100
AcDbLine
 62
7
  6
CONTINUOUS
 10
17.802810032
 20
24.0466549177
 11
14.374593723
 21
26.0258917502
  0
LINE
  5
219
100
AcDbEntity
  8
0
100
AcDbLine
 62
7
  6
CONTINUOUS
 10
45.7488518898
 20
15.9355557231
 11
46.04143528
 21
15.9610598162
  0
LINE
  5
21A
100
AcDbEntity
  8
0
100
AcDbLine
 62
7
  6
CONTINUOUS
 10
25.2590573548
 20
23.1269193235
 11
23.3506828563
 21
24.2286949284
  0
LINE
  5
21B
100
AcDbEntity
  8
0
100
AcDbLine
 62
7
  6
CONTINUOUS
 10
14.2281456425
 20
29.495475094
 11
12.3197711441
 21
30.5972506989
  0
LINE
  5
21C
100
AcDbEntity
  8
0
100
AcDbLine
 62
7
  6
CONTINUOUS
 10
25.2590573548
 20
24.3108813697
 11
24.4113474444
 21
24.8002958428
  0
LINE
  5
21D
100
AcDbEntity
  8
0
100
AcDbLine
 62
7
  6
CONTINUOUS
 10
14.2281456425
 20
30.6794371402
 11
13.3804357321
 21
31.1688516133
  0
LINE
  5
21E
100
AcDbEntity
  8
0
100
AcDbLine
 62
7
  6
CONTINUOUS
 10
13.3804357321
 20
32.5569057221
 11
14.2281456425
 21
32.067491249
  0
LINE
  5
21F
100
AcDbEntity
  8
0
100
AcDbLine
 62
7
  6
CONTINUOUS
 10
24.4113474444
 20
26.1883499516
 11
25.2590573548
 21
25.6989354785
  0
LINE
  5
220
100
AcDbEntity
  8
0
100
AcDbLine
 62
7
  6
CONTINUOUS
 10
25.2590573548
 20
27.421755579
 11
24.4113474444
 21
27.9111700521
  0
LINE
  5
221
100
AcDbEntity
  8
0
100
AcDbLine
 62
7
  6
CONTINUOUS
 10
14.2281456425
 20
33.7903113495
 11
13.3804357321
 21
34.2797258226
  0
LINE
  5
222
100
AcDbEntity
  8
0
100
AcDbLine
 62
7
  6
CONTINUOUS
 10
45.7488447682
 20
15.9355433768
 11
35.5699607755
 21
21.8121918426
  0
LINE
  5
223
100
AcDbEntity
  8
0
100
AcDbLine
 62
7
  6
CONTINUOUS
 10
45.6245773758
 20
16.2102150655
 11
35.7457036574
 21
21.9136564371
  0
LINE
  5
224
100
AcDbEntity
  8
0
100
AcDbLine
 62
7
  6
CONTINUOUS
 10
13.3804357321
 20
35.6677799314
 11
14.2281456425
 21
35.1783654583
  0
LINE
  5
225
100
AcDbEntity
  8
0
100
AcDbLine
 62
7
  6
CONTINUOUS
 10
24.4113474444
 20
29.2992241609
 11
25.2590573548
 21
28.8098096878
  0
LINE
  5
226
100
AcDbEntity
  8
0
100
AcDbLine
 62
7
  6
CONTINUOUS
 10
39.5204747552
 20
21.9823431633
 11
37.6925587906
 21
23.0376670629
  0
LINE
  5
227
100
AcDbEntity
  8
0
100
AcDbLine
 62
7
  6
CONTINUOUS
 10
25.2590573548
 20
30.5326297882
 11
24.4113474444
 21
31.0220442613
  0
LINE
  5
228
100
AcDbEntity
  8
0
100
AcDbLine
 62
7
  6
CONTINUOUS
 10
14.2281456425
 20
36.9011855587
 11
13.3804357321
 21
37.3906000318
  0
LINE
  5
229
100
AcDbEntity
  8
0
100
AcDbLine
 62
7
  6
CONTINUOUS
 10
38.7532145464
 20
23.6500332937
 11
39.5204747552
 21
23.2070654269
  0
LINE
  5
22A
100
AcDbEntity
  8
0
100
AcDbLine
 62
7
  6
CONTINUOUS
 10
39.331300822
 20
23.5755454143
 11
38.9777459594
 21
23.7796657916
  0
LINE
  5
22B
100
AcDbEntity
  8
0
100
AcDbLine
 62
7
  6
CONTINUOUS
 10
13.3804357321
 20
38.7786541406
 11
14.2281456425
 21
38.2892396675
  0
LINE
  5
22C
100
AcDbEntity
  8
0
100
AcDbLine
 62
7
  6
CONTINUOUS
 10
24.4113474444
 20
32.4100983701
 11
25.2590573548
 21
31.920683897
  0
LINE
  5
22D
100
AcDbEntity
  8
0
100
AcDbLine
 62
7
  6
CONTINUOUS
 10
25.2590573548
 20
33.6435039975
 11
24.4113474444
 21
34.1329184706
  0
LINE
  5
22E
100
AcDbEntity
  8
0
100
AcDbLine
 62
7
  6
CONTINUOUS
 10
14.2281456425
 20
40.012059768
 11
13.3804357321
 21
40.5014742411
  0
LINE
  5
22F
100
AcDbEntity
  8
0
100
AcDbLine
 62
7
  6
CONTINUOUS
 10
13.3804357321
 20
41.8895283499
 11
14.2281456425
 21
41.4001138768
  0
LINE
  5
230
100
AcDbEntity
  8
0
100
AcDbLine
 62
7
  6
CONTINUOUS
 10
24.4113474444
 20
35.5209725794
 11
25.2590573548
 21
35.0315581063
  0
LINE
  5
231
100
AcDbEntity
  8
0
100
AcDbLine
 62
7
  6
CONTINUOUS
 10
18.3227340542
 20
105.2380853348
 11
23.5627068478
 21
108.3689817793
  0
LINE
  5
232
100
AcDbEntity
  8
0
100
AcDbLine
 62
7
  6
CONTINUOUS
 10
43.1786707671
 20
122.1845363586
 11
49.9792092078
 21
126.1108056212
  0
LINE
  5
233
100
AcDbEntity
  8
0
100
AcDbLine
 62
7
  6
CONTINUOUS
 10
52.0820259781
 20
124.8753952794
 11
45.3185123477
 21
120.9705021733
  0
LINE
  5
234
100
AcDbEntity
  8
0
100
AcDbLine
 62
7
  6
CONTINUOUS
 10
23.5627068478
 20
108.3689817793
 11
42.1814951032
 21
119.1184800247
  0
LINE
  5
235
100
AcDbEntity
  8
0
100
AcDbLine
 62
7
  6
CONTINUOUS
 10
52.5320068359
 20
125.094315089
 11
67.403144755
 21
133.6801193194
  0
LINE
  5
236
100
AcDbEntity
  8
0
100
AcDbLine
 62
7
  6
CONTINUOUS
 10
25.2590573548
 20
36.7543782068
 11
24.4113474444
 21
37.2437926799
  0
LINE
  5
237
100
AcDbEntity
  8
0
100
AcDbLine
 62
7
  6
CONTINUOUS
 10
14.2281456425
 20
43.1229339773
 11
13.3804357321
 21
43.6123484504
  0
LINE
  5
238
100
AcDbEntity
  8
0
100
AcDbLine
 62
7
  6
CONTINUOUS
 10
13.3804357321
 20
45.0004025592
 11
14.2281456425
 21
44.5109880861
  0
LINE
  5
239
100
AcDbEntity
  8
0
100
AcDbLine
 62
7
  6
CONTINUOUS
 10
24.4113474444
 20
38.6318467886
 11
25.2590573548
 21
38.1424323156
  0
LINE
  5
23A
100
AcDbEntity
  8
0
100
AcDbLine
 62
7
  6
CONTINUOUS
 10
25.2590573548
 20
39.865252416
 11
24.4113474444
 21
40.3546668891
  0
LINE
  5
23B
100
AcDbEntity
  8
0
100
AcDbLine
 62
7
  6
CONTINUOUS
 10
14.2281456425
 20
46.2338081865
 11
13.3804357321
 21
46.7232226596
  0
LINE
  5
23C
100
AcDbEntity
  8
0
100
AcDbLine
 62
7
  6
CONTINUOUS
 10
13.3804357321
 20
48.1112767684
 11
14.2281456425
 21
47.6218622953
  0
LINE
  5
23D
100
AcDbEntity
  8
0
100
AcDbLine
 62
7
  6
CONTINUOUS
 10
24.4113474444
 20
41.7427209979
 11
25.2590573548
 21
41.2533065248
  0
LINE
  5
23E
100
AcDbEntity
  8
0
100
AcDbLine
 62
7
  6
CONTINUOUS
 10
12.2611919122
 20
30.6788995295
 11
12.2611919122
 21
84.2087979966
  0
LINE
  5
23F
100
AcDbEntity
  8
0
100
AcDbLine
 62
7
  6
CONTINUOUS
 10
12.3197711439
 20
30.597250699
 11
12.3197711439
 21
84.1271491661
  0
LINE
  5
240
100
AcDbEntity
  8
0
100
AcDbLine
 62
7
  6
CONTINUOUS
 10
13.3804357321
 20
31.1688516133
 11
13.3804357321
 21
32.5569057221
  0
LINE
  5
241
100
AcDbEntity
  8
0
100
AcDbLine
 62
7
  6
CONTINUOUS
 10
13.3804357321
 20
34.2797258226
 11
13.3804357321
 21
35.6677799314
  0
LINE
  5
242
100
AcDbEntity
  8
0
100
AcDbLine
 62
7
  6
CONTINUOUS
 10
13.3804357321
 20
37.3906000318
 11
13.3804357321
 21
38.7786541406
  0
LINE
  5
243
100
AcDbEntity
  8
0
100
AcDbLine
 62
7
  6
CONTINUOUS
 10
13.3804357321
 20
40.5014742411
 11
13.3804357321
 21
41.8895283499
  0
LINE
  5
244
100
AcDbEntity
  8
0
100
AcDbLine
 62
7
  6
CONTINUOUS
 10
13.3804357321
 20
43.6123484504
 11
13.3804357321
 21
45.0004025592
  0
LINE
  5
245
100
AcDbEntity
  8
0
100
AcDbLine
 62
7
  6
CONTINUOUS
 10
13.3804357321
 20
46.7232226596
 11
13.3804357321
 21
48.1112767684
  0
LINE
  5
246
100
AcDbEntity
  8
0
100
AcDbLine
 62
7
  6
CONTINUOUS
 10
13.3804357321
 20
49.8340968689
 11
13.3804357321
 21
51.2221509777
  0
LINE
  5
247
100
AcDbEntity
  8
0
100
AcDbLine
 62
7
  6
CONTINUOUS
 10
13.3804357321
 20
52.9449710782
 11
13.3804357321
 21
54.333025187
  0
LINE
  5
248
100
AcDbEntity
  8
0
100
AcDbLine
 62
7
  6
CONTINUOUS
 10
13.3804357321
 20
56.0558452874
 11
13.3804357321
 21
57.4438993962
  0
LINE
  5
249
100
AcDbEntity
  8
0
100
AcDbLine
 62
7
  6
CONTINUOUS
 10
13.3804357321
 20
59.1667194967
 11
13.3804357321
 21
60.5547736055
  0
LINE
  5
24A
100
AcDbEntity
  8
0
100
AcDbLine
 62
7
  6
CONTINUOUS
 10
13.3804357321
 20
62.277593706
 11
13.3804357321
 21
63.6656478147
  0
LINE
  5
24B
100
AcDbEntity
  8
0
100
AcDbLine
 62
7
  6
CONTINUOUS
 10
13.3804357321
 20
65.3884679152
 11
13.3804357321
 21
66.776522024
  0
LINE
  5
24C
100
AcDbEntity
  8
0
100
AcDbLine
 62
7
  6
CONTINUOUS
 10
13.3804357321
 20
68.4993421245
 11
13.3804357321
 21
69.8873962333
  0
LINE
  5
24D
100
AcDbEntity
  8
0
100
AcDbLine
 62
7
  6
CONTINUOUS
 10
13.3804357321
 20
71.6102163337
 11
13.3804357321
 21
72.9982704425
  0
LINE
  5
24E
100
AcDbEntity
  8
0
100
AcDbLine
 62
7
  6
CONTINUOUS
 10
13.3804357321
 20
74.721090543
 11
13.3804357321
 21
76.1091446518
  0
LINE
  5
24F
100
AcDbEntity
  8
0
100
AcDbLine
 62
7
  6
CONTINUOUS
 10
13.3804357321
 20
77.8319647523
 11
13.3804357321
 21
79.2200188611
  0
LINE
  5
250
100
AcDbEntity
  8
0
100
AcDbLine
 62
7
  6
CONTINUOUS
 10
13.3804357321
 20
80.9428389615
 11
13.3804357321
 21
82.3308930703
  0
LINE
  5
251
100
AcDbEntity
  8
0
100
AcDbLine
 62
7
  6
CONTINUOUS
 10
14.2281456425
 20
26.2300138278
 11
14.2281456425
 21
79.7599122948
  0
LINE
  5
252
100
AcDbEntity
  8
0
100
AcDbLine
 62
7
  6
CONTINUOUS
 10
14.3745937231
 20
26.0258917501
 11
14.3745937231
 21
79.5557902171
  0
LINE
  5
253
100
AcDbEntity
  8
0
100
AcDbLine
 62
7
  6
CONTINUOUS
 10
14.9360771274
 20
81.43276341
 11
14.9360771274
 21
80.9337718074
  0
LINE
  5
254
100
AcDbEntity
  8
0
100
AcDbLine
 62
7
  6
CONTINUOUS
 10
15.6207153779
 20
82.0197824494
 11
15.6207153779
 21
82.1675935446
  0
LINE
  5
255
100
AcDbEntity
  8
0
100
AcDbLine
 62
7
  6
CONTINUOUS
 10
15.6480081584
 20
82.0630757506
 11
15.6480081584
 21
82.1295523543
  0
LINE
  5
256
100
AcDbEntity
  8
0
100
AcDbLine
 62
7
  6
CONTINUOUS
 10
14.2582986192
 20
79.858642464
 11
14.2281763861
 21
79.7599122567
  0
LINE
  5
257
100
AcDbEntity
  8
0
100
AcDbLine
 62
7
  6
CONTINUOUS
 10
15.6285877391
 20
82.1892354608
 11
15.6207102255
 21
82.1675935532
  0
LINE
  5
258
100
AcDbEntity
  8
0
100
AcDbLine
 62
7
  6
CONTINUOUS
 10
65.9889488564
 20
131.2306611948
 11
66.9124845583
 21
131.7638615981
  0
LINE
  5
259
100
AcDbEntity
  8
0
100
AcDbLine
 62
7
  6
CONTINUOUS
 10
52.0820259781
 20
123.2015152361
 11
52.5320068359
 21
123.4613102547
  0
LINE
  5
25A
100
AcDbEntity
  8
0
100
AcDbLine
 62
7
  6
CONTINUOUS
 10
68.5444053738
 20
131.3996646038
 11
69.9487397655
 21
132.2104526031
  0
LINE
  5
25B
100
AcDbEntity
  8
0
100
AcDbLine
 62
7
  6
CONTINUOUS
 10
55.2763372044
 20
123.4536166925
 11
45.0233315648
 21
117.5340764614
  0
LINE
  5
25C
100
AcDbEntity
  8
0
100
AcDbLine
 62
7
  6
CONTINUOUS
 10
36.0982718357
 20
111.6500934165
 11
40.0120280268
 21
113.909688119
  0
LINE
  5
25D
100
AcDbEntity
  8
0
100
AcDbLine
 62
7
  6
CONTINUOUS
 10
61.5540099754
 20
126.3468829559
 11
65.4677661665
 21
128.6064776584
  0
LINE
  5
25E
100
AcDbEntity
  8
0
100
AcDbLine
 62
7
  6
CONTINUOUS
 10
71.6458031059
 20
131.2306747922
 11
68.7927045502
 21
129.5834474057
  0
LINE
  5
25F
100
AcDbEntity
  8
0
100
AcDbLine
 62
7
  6
CONTINUOUS
 10
66.2841564859
 20
128.1351451507
 11
62.3704002948
 21
125.8755504482
  0
LINE
  5
260
100
AcDbEntity
  8
0
100
AcDbLine
 62
7
  6
CONTINUOUS
 10
40.8284183462
 20
113.4383556113
 11
36.9146621551
 21
111.1787609088
  0
LINE
  5
261
100
AcDbEntity
  8
0
100
AcDbLine
 62
7
  6
CONTINUOUS
 10
78.9266345938
 20
133.9871562119
 11
76.7794048676
 21
132.7773873
  0
LINE
  5
262
100
AcDbEntity
  8
0
100
AcDbLine
 62
7
  6
CONTINUOUS
 10
77.0039314599
 20
132.7817187623
 11
79.1511611862
 21
133.9914876743
  0
LINE
  5
263
100
AcDbEntity
  8
0
100
AcDbLine
 62
7
  6
CONTINUOUS
 10
25.2590573548
 20
42.9761266253
 11
24.4113474444
 21
43.4655410984
  0
LINE
  5
264
100
AcDbEntity
  8
0
100
AcDbLine
 62
7
  6
CONTINUOUS
 10
14.2281456425
 20
49.3446823958
 11
13.3804357321
 21
49.8340968689
  0
LINE
  5
265
100
AcDbEntity
  8
0
100
AcDbLine
 62
7
  6
CONTINUOUS
 10
57.6013175124
 20
25.519709558
 11
59.0155369627
 21
24.703228049
  0
LINE
  5
266
100
AcDbEntity
  8
0
100
AcDbLine
 62
7
  6
CONTINUOUS
 10
13.3804357321
 20
51.2221509777
 11
14.2281456425
 21
50.7327365046
  0
LINE
  5
267
100
AcDbEntity
  8
0
100
AcDbLine
 62
7
  6
CONTINUOUS
 10
24.4113474444
 20
44.8535952072
 11
25.2590573548
 21
44.3641807341
  0
LINE
  5
268
100
AcDbEntity
  8
0
100
AcDbLine
 62
7
  6
CONTINUOUS
 10
25.2590573548
 20
46.0870008346
 11
24.4113474444
 21
46.5764153076
  0
LINE
  5
269
100
AcDbEntity
  8
0
100
AcDbLine
 62
7
  6
CONTINUOUS
 10
14.2281456425
 20
52.4555566051
 11
13.3804357321
 21
52.9449710782
  0
LINE
  5
26A
100
AcDbEntity
  8
0
100
AcDbLine
 62
7
  6
CONTINUOUS
 10
13.3804357321
 20
54.333025187
 11
14.2281456425
 21
53.8436107139
  0
LINE
  5
26B
100
AcDbEntity
  8
0
100
AcDbLine
 62
7
  6
CONTINUOUS
 10
24.4113474444
 20
47.9644694164
 11
25.2590573548
 21
47.4750549434
  0
LINE
  5
26C
100
AcDbEntity
  8
0
100
AcDbLine
 62
7
  6
CONTINUOUS
 10
17.8028100316
 20
77.5765533849
 11
17.8028100316
 21
24.0466549179
  0
LINE
  5
26D
100
AcDbEntity
  8
0
100
AcDbLine
 62
7
  6
CONTINUOUS
 10
17.90587615
 20
90.5835998138
 11
17.90587615
 21
104.5075869123
  0
LINE
  5
26E
100
AcDbEntity
  8
0
100
AcDbLine
 62
7
  6
CONTINUOUS
 10
18.0856527443
 20
24.046655597
 11
18.0856527443
 21
77.576554064
  0
LINE
  5
26F
100
AcDbEntity
  8
0
100
AcDbLine
 62
7
  6
CONTINUOUS
 10
18.297783896
 20
77.6990273105
 11
18.297783896
 21
24.1691288435
  0
LINE
  5
270
100
AcDbEntity
  8
0
100
AcDbLine
 62
7
  6
CONTINUOUS
 10
18.9665319059
 20
89.971243781
 11
18.9665319059
 21
88.1279330355
  0
LINE
  5
271
100
AcDbEntity
  8
0
100
AcDbLine
 62
7
  6
CONTINUOUS
 10
15.6787332704
 20
82.1118136039
 11
14.2582986192
 21
79.858642464
  0
LINE
  5
272
100
AcDbEntity
  8
0
100
AcDbLine
 62
7
  6
CONTINUOUS
 10
15.6285877391
 20
82.1892354608
 11
15.6431868529
 21
82.2084176194
  0
LINE
  5
273
100
AcDbEntity
  8
0
100
AcDbLine
 62
7
  6
CONTINUOUS
 10
79.1551285489
 20
131.9576416076
 11
81.250521846
 21
133.1973376189
  0
LINE
  5
274
100
AcDbEntity
  8
0
100
AcDbLine
 62
7
  6
CONTINUOUS
 10
83.3031197547
 20
131.5944075063
 11
81.2077264576
 21
130.354711495
  0
LINE
  5
275
100
AcDbEntity
  8
0
100
AcDbLine
 62
7
  6
CONTINUOUS
 10
83.622843059
 20
131.1108809134
 11
81.5274497619
 21
129.8711849021
  0
LINE
  5
276
100
AcDbEntity
  8
0
100
AcDbLine
 62
7
  6
CONTINUOUS
 10
38.8468727246
 20
109.859103476
 11
43.1141808343
 21
112.3228202554
  0
LINE
  5
277
100
AcDbEntity
  8
0
100
AcDbLine
 62
7
  6
CONTINUOUS
 10
64.3026108643
 20
124.5558930153
 11
68.569918974
 21
127.0196097948
  0
LINE
  5
278
100
AcDbEntity
  8
0
100
AcDbLine
 62
7
  6
CONTINUOUS
 10
40.2734472539
 20
109.0497269138
 11
43.1141808343
 21
110.6898154211
  0
LINE
  5
279
100
AcDbEntity
  8
0
100
AcDbLine
 62
7
  6
CONTINUOUS
 10
65.7291853936
 20
123.7465164532
 11
68.569918974
 21
125.3866049605
  0
LINE
  5
27A
100
AcDbEntity
  8
0
100
AcDbLine
 62
7
  6
CONTINUOUS
 10
70.0088237176
 20
126.1888765474
 11
65.7415156079
 21
123.725159768
  0
LINE
  5
27B
100
AcDbEntity
  8
0
100
AcDbLine
 62
7
  6
CONTINUOUS
 10
44.5530855779
 20
111.492087008
 11
40.2857774682
 21
109.0283702286
  0
LINE
  5
27C
100
AcDbEntity
  8
0
100
AcDbLine
 62
7
  6
CONTINUOUS
 10
81.203759095
 20
133.224335495
 11
79.0565293687
 21
132.014566583
  0
LINE
  5
27D
100
AcDbEntity
  8
0
100
AcDbLine
 62
7
  6
CONTINUOUS
 10
48.1112365717
 20
34.795703242
 11
49.525456022
 21
33.9792217329
  0
LINE
  5
27E
100
AcDbEntity
  8
0
100
AcDbLine
 62
7
  6
CONTINUOUS
 10
25.2590573548
 20
49.1978750438
 11
24.4113474444
 21
49.6872895169
  0
LINE
  5
27F
100
AcDbEntity
  8
0
100
AcDbLine
 62
7
  6
CONTINUOUS
 10
14.2281456425
 20
55.5664308143
 11
13.3804357321
 21
56.0558452874
  0
LINE
  5
280
100
AcDbEntity
  8
0
100
AcDbLine
 62
7
  6
CONTINUOUS
 10
13.3804357321
 20
57.4438993962
 11
14.2281456425
 21
56.9544849231
  0
LINE
  5
281
100
AcDbEntity
  8
0
100
AcDbLine
 62
7
  6
CONTINUOUS
 10
24.4113474444
 20
51.0753436257
 11
25.2590573548
 21
50.5859291526
  0
LINE
  5
282
100
AcDbEntity
  8
0
100
AcDbLine
 62
7
  6
CONTINUOUS
 10
51.6349482163
 20
37.0336147935
 11
53.0491676666
 21
36.2171332845
  0
LINE
  5
283
100
AcDbEntity
  8
0
100
AcDbLine
 62
7
  6
CONTINUOUS
 10
25.2590573548
 20
52.3087492531
 11
24.4113474444
 21
52.7981637262
  0
LINE
  5
284
100
AcDbEntity
  8
0
100
AcDbLine
 62
7
  6
CONTINUOUS
 10
14.2281456425
 20
58.6773050236
 11
13.3804357321
 21
59.1667194967
  0
LINE
  5
285
100
AcDbEntity
  8
0
100
AcDbLine
 62
7
  6
CONTINUOUS
 10
23.2921036244
 20
24.310343759
 11
23.2921036244
 21
59.1749969705
  0
LINE
  5
286
100
AcDbEntity
  8
0
100
AcDbLine
 62
7
  6
CONTINUOUS
 10
23.3506828562
 20
24.2286949285
 11
23.3506828562
 21
59.0933481399
  0
LINE
  5
287
100
AcDbEntity
  8
0
100
AcDbLine
 62
7
  6
CONTINUOUS
 10
24.4113474444
 20
24.8002958428
 11
24.4113474444
 21
26.1883499516
  0
LINE
  5
288
100
AcDbEntity
  8
0
100
AcDbLine
 62
7
  6
CONTINUOUS
 10
24.4113474444
 20
27.9111700521
 11
24.4113474444
 21
29.2992241609
  0
LINE
  5
289
100
AcDbEntity
  8
0
100
AcDbLine
 62
7
  6
CONTINUOUS
 10
24.4113474444
 20
31.0220442613
 11
24.4113474444
 21
32.4100983701
  0
LINE
  5
28A
100
AcDbEntity
  8
0
100
AcDbLine
 62
7
  6
CONTINUOUS
 10
24.4113474444
 20
34.1329184706
 11
24.4113474444
 21
35.5209725794
  0
LINE
  5
28B
100
AcDbEntity
  8
0
100
AcDbLine
 62
7
  6
CONTINUOUS
 10
24.4113474444
 20
37.2437926799
 11
24.4113474444
 21
38.6318467886
  0
LINE
  5
28C
100
AcDbEntity
  8
0
100
AcDbLine
 62
7
  6
CONTINUOUS
 10
24.4113474444
 20
40.3546668891
 11
24.4113474444
 21
41.7427209979
  0
LINE
  5
28D
100
AcDbEntity
  8
0
100
AcDbLine
 62
7
  6
CONTINUOUS
 10
24.4113474444
 20
43.4655410984
 11
24.4113474444
 21
44.8535952072
  0
LINE
  5
28E
100
AcDbEntity
  8
0
100
AcDbLine
 62
7
  6
CONTINUOUS
 10
24.4113474444
 20
46.5764153076
 11
24.4113474444
 21
47.9644694164
  0
LINE
  5
28F
100
AcDbEntity
  8
0
100
AcDbLine
 62
7
  6
CONTINUOUS
 10
24.4113474444
 20
49.6872895169
 11
24.4113474444
 21
51.0753436257
  0
LINE
  5
290
100
AcDbEntity
  8
0
100
AcDbLine
 62
7
  6
CONTINUOUS
 10
24.4113474444
 20
52.7981637262
 11
24.4113474444
 21
54.186217835
  0
LINE
  5
291
100
AcDbEntity
  8
0
100
AcDbLine
 62
7
  6
CONTINUOUS
 10
24.4113474444
 20
55.9090379354
 11
24.4113474444
 21
57.2970920442
  0
LINE
  5
292
100
AcDbEntity
  8
0
100
AcDbLine
 62
7
  6
CONTINUOUS
 10
25.2590573548
 20
19.8614580573
 11
25.2590573548
 21
54.7261112687
  0
LINE
  5
293
100
AcDbEntity
  8
0
100
AcDbLine
 62
7
  6
CONTINUOUS
 10
25.4055054354
 20
19.6573359796
 11
25.4055054354
 21
54.521989191
  0
LINE
  5
294
100
AcDbEntity
  8
0
100
AcDbLine
 62
7
  6
CONTINUOUS
 10
84.8005703302
 20
127.0652504528
 11
82.7051770332
 21
125.8255544415
  0
LINE
  5
295
100
AcDbEntity
  8
0
100
AcDbLine
 62
7
  6
CONTINUOUS
 10
29.9469002847
 20
96.6175202871
 11
27.613255006
 21
95.2701975998
  0
LINE
  5
296
100
AcDbEntity
  8
0
100
AcDbLine
 62
7
  6
CONTINUOUS
 10
29.1130590198
 20
95.1215795257
 11
31.4467042984
 21
96.468902213
  0
LINE
  5
297
100
AcDbEntity
  8
0
100
AcDbLine
 62
7
  6
CONTINUOUS
 10
12.3197699677
 20
84.2904461479
 11
20.5629086601
 21
89.0495960827
  0
LINE
  5
298
100
AcDbEntity
  8
0
100
AcDbLine
 62
7
  6
CONTINUOUS
 10
13.3804357321
 20
60.5547736055
 11
14.2281456425
 21
60.0653591324
  0
LINE
  5
299
100
AcDbEntity
  8
0
100
AcDbLine
 62
7
  6
CONTINUOUS
 10
24.4113474444
 20
54.186217835
 11
25.2590573548
 21
53.6968033619
  0
LINE
  5
29A
100
AcDbEntity
  8
0
100
AcDbLine
 62
7
  6
CONTINUOUS
 10
28.8337217439
 20
52.5427523588
 11
25.4055054354
 21
54.521989191
  0
LINE
  5
29B
100
AcDbEntity
  8
0
100
AcDbLine
 62
7
  6
CONTINUOUS
 10
28.9751407452
 20
52.869346662
 11
29.3286956078
 21
52.6652262847
  0
LINE
  5
29C
100
AcDbEntity
  8
0
100
AcDbLine
 62
7
  6
CONTINUOUS
 10
25.5560691541
 20
55.2481474993
 11
24.4113474444
 21
55.9090379354
  0
LINE
  5
29D
100
AcDbEntity
  8
0
100
AcDbLine
 62
7
  6
CONTINUOUS
 10
14.2281456425
 20
61.7881792329
 11
13.3804357321
 21
62.277593706
  0
LINE
  5
29E
100
AcDbEntity
  8
0
100
AcDbLine
 62
7
  6
CONTINUOUS
 10
13.3804357321
 20
63.6656478147
 11
14.2281456425
 21
63.1762333416
  0
LINE
  5
29F
100
AcDbEntity
  8
0
100
AcDbLine
 62
7
  6
CONTINUOUS
 10
24.4113474444
 20
57.2970920442
 11
25.9669888397
 21
56.398962384
  0
LINE
  5
2A0
100
AcDbEntity
  8
0
100
AcDbLine
 62
7
  6
CONTINUOUS
 10
26.7096449827
 20
57.0780125778
 11
26.6789198706
 21
57.0957513282
  0
LINE
  5
2A1
100
AcDbEntity
  8
0
100
AcDbLine
 62
7
  6
CONTINUOUS
 10
26.6740985652
 20
57.1746165932
 11
23.3506828562
 21
59.0933481399
  0
LINE
  5
2A2
100
AcDbEntity
  8
0
100
AcDbLine
 62
7
  6
CONTINUOUS
 10
14.2281456425
 20
64.8990534421
 11
13.3804357321
 21
65.3884679152
  0
LINE
  5
2A3
100
AcDbEntity
  8
0
100
AcDbLine
 62
7
  6
CONTINUOUS
 10
45.6245773758
 20
16.2102150655
 11
45.7488518898
 21
15.9355557231
  0
LINE
  5
2A4
100
AcDbEntity
  8
0
100
AcDbLine
 62
7
  6
CONTINUOUS
 10
25.9669888397
 20
56.398962384
 11
25.9669888396
 21
55.8999707813
  0
LINE
  5
2A5
100
AcDbEntity
  8
0
100
AcDbLine
 62
7
  6
CONTINUOUS
 10
26.6516270902
 20
56.9859814232
 11
26.6516270902
 21
57.1337925185
  0
LINE
  5
2A6
100
AcDbEntity
  8
0
100
AcDbLine
 62
7
  6
CONTINUOUS
 10
26.6789198706
 20
57.0292747245
 11
26.6789198706
 21
57.0957513282
  0
LINE
  5
2A7
100
AcDbEntity
  8
0
100
AcDbLine
 62
7
  6
CONTINUOUS
 10
26.9920529329
 20
93.8969810809
 11
26.9920529329
 21
69.4011624188
  0
LINE
  5
2A8
100
AcDbEntity
  8
0
100
AcDbLine
 62
7
  6
CONTINUOUS
 10
27.9468342471
 20
66.8226017004
 11
27.9468342471
 21
61.9102192046
  0
LINE
  5
2A9
100
AcDbEntity
  8
0
100
AcDbLine
 62
7
  6
CONTINUOUS
 10
28.5125220273
 20
65.8437333864
 11
28.5125220273
 21
62.2368172472
  0
LINE
  5
2AA
100
AcDbEntity
  8
0
100
AcDbLine
 62
7
  6
CONTINUOUS
 10
28.8337217439
 20
52.5427523588
 11
28.8337217439
 21
17.6780991474
  0
LINE
  5
2AB
100
AcDbEntity
  8
0
100
AcDbLine
 62
7
  6
CONTINUOUS
 10
29.1165644561
 20
17.6780998268
 11
29.1165644561
 21
52.5427530382
  0
LINE
  5
2AC
100
AcDbEntity
  8
0
100
AcDbLine
 62
7
  6
CONTINUOUS
 10
29.3286956078
 20
52.6652262847
 11
29.3286956078
 21
17.8005730733
  0
LINE
  5
2AD
100
AcDbEntity
  8
0
100
AcDbLine
 62
7
  6
CONTINUOUS
 10
29.5731777831
 20
65.2313773536
 11
29.5731777831
 21
62.849183478
  0
LINE
  5
2AE
100
AcDbEntity
  8
0
100
AcDbLine
 62
7
  6
CONTINUOUS
 10
84.8005703302
 20
123.5542900592
 11
82.7051770332
 21
122.3145940479
  0
LINE
  5
2AF
100
AcDbEntity
  8
0
100
AcDbLine
 62
7
  6
CONTINUOUS
 10
14.5825430371
 20
81.6368717948
 11
13.3804357321
 21
80.9428389615
  0
LINE
  5
2B0
100
AcDbEntity
  8
0
100
AcDbLine
 62
7
  6
CONTINUOUS
 10
13.3804357321
 20
66.776522024
 11
14.2281456425
 21
66.2871075509
  0
LINE
  5
2B1
100
AcDbEntity
  8
0
100
AcDbLine
 62
7
  6
CONTINUOUS
 10
14.2281456425
 20
68.0099276514
 11
13.3804357321
 21
68.4993421245
  0
LINE
  5
2B2
100
AcDbEntity
  8
0
100
AcDbLine
 62
7
  6
CONTINUOUS
 10
13.3804357321
 20
69.8873962333
 11
14.2281456425
 21
69.3979817602
  0
LINE
  5
2B3
100
AcDbEntity
  8
0
100
AcDbLine
 62
7
  6
CONTINUOUS
 10
25.2892103315
 20
54.8248414378
 11
25.2590880984
 21
54.7261112306
  0
LINE
  5
2B4
100
AcDbEntity
  8
0
100
AcDbLine
 62
7
  6
CONTINUOUS
 10
26.6594994513
 20
57.1554344346
 11
26.6516219377
 21
57.1337925271
  0
LINE
  5
2B5
100
AcDbEntity
  8
0
100
AcDbLine
 62
7
  6
CONTINUOUS
 10
14.2281456425
 20
78.3213873758
 11
13.3804357321
 21
77.8319647523
  0
LINE
  5
2B6
100
AcDbEntity
  8
0
100
AcDbLine
 62
7
  6
CONTINUOUS
 10
17.944229033
 20
77.9031476881
 11
26.9920529329
 21
83.1268800708
  0
LINE
  5
2B7
100
AcDbEntity
  8
0
100
AcDbLine
 62
7
  6
CONTINUOUS
 10
18.297783896
 20
77.6990273105
 11
18.0856527443
 21
77.576554064
  0
LINE
  5
2B8
100
AcDbEntity
  8
0
100
AcDbLine
 62
7
  6
CONTINUOUS
 10
14.2281456425
 20
75.2105131665
 11
13.3804357321
 21
74.721090543
  0
LINE
  5
2B9
100
AcDbEntity
  8
0
100
AcDbLine
 62
7
  6
CONTINUOUS
 10
14.2281456425
 20
71.1208018606
 11
13.3804357321
 21
71.6102163337
  0
LINE
  5
2BA
100
AcDbEntity
  8
0
100
AcDbLine
 62
7
  6
CONTINUOUS
 10
13.3804357321
 20
72.9982704425
 11
14.2281456425
 21
72.5088559694
  0
LINE
  5
2BB
100
AcDbEntity
  8
0
100
AcDbLine
 62
7
  6
CONTINUOUS
 10
38.9777459594
 20
58.644319003
 11
39.331300822
 21
58.4401986258
  0
LINE
  5
2BC
100
AcDbEntity
  8
0
100
AcDbLine
 62
7
  6
CONTINUOUS
 10
28.5125220273
 20
65.8437333864
 11
39.5204747552
 21
59.4884326919
  0
LINE
  5
2BD
100
AcDbEntity
  8
0
100
AcDbLine
 62
7
  6
CONTINUOUS
 10
14.2281456425
 20
74.2316760699
 11
13.3804357321
 21
74.721090543
  0
LINE
  5
2BE
100
AcDbEntity
  8
0
100
AcDbLine
 62
7
  6
CONTINUOUS
 10
29.1130590198
 20
65.727492509
 11
40.5688827437
 21
59.113619224
  0
LINE
  5
2BF
100
AcDbEntity
  8
0
100
AcDbLine
 62
7
  6
CONTINUOUS
 10
13.3804357321
 20
76.1091446518
 11
14.2281456425
 21
75.6197301787
  0
LINE
  5
2C0
100
AcDbEntity
  8
0
100
AcDbLine
 62
7
  6
CONTINUOUS
 10
38.9777459594
 20
58.644319003
 11
38.9777459594
 21
23.7796657916
  0
LINE
  5
2C1
100
AcDbEntity
  8
0
100
AcDbLine
 62
7
  6
CONTINUOUS
 10
39.331300822
 20
58.4401986258
 11
39.331300822
 21
23.5755454143
  0
LINE
  5
2C2
100
AcDbEntity
  8
0
100
AcDbLine
 62
7
  6
CONTINUOUS
 10
39.5204747552
 20
59.4884326919
 11
39.5204747552
 21
21.9823431633
  0
LINE
  5
2C3
100
AcDbEntity
  8
0
100
AcDbLine
 62
7
  6
CONTINUOUS
 10
51.2814080735
 20
92.3659442021
 11
46.04143528
 21
89.2350477576
  0
LINE
  5
2C4
100
AcDbEntity
  8
0
100
AcDbLine
 62
7
  6
CONTINUOUS
 10
42.9025280223
 20
89.8550289281
 11
40.5688827437
 21
88.5077062407
  0
LINE
  5
2C5
100
AcDbEntity
  8
0
100
AcDbLine
 62
7
  6
CONTINUOUS
 10
14.2281456425
 20
72.0996389572
 11
13.3804357321
 21
71.6102163338
  0
LINE
  5
2C6
100
AcDbEntity
  8
0
100
AcDbLine
 62
7
  6
CONTINUOUS
 10
51.2814080735
 20
92.3659442021
 11
95.1218459808
 21
117.6770817422
  0
LINE
  5
2C7
100
AcDbEntity
  8
0
100
AcDbLine
 62
7
  6
CONTINUOUS
 10
57.1943832432
 20
94.4225549837
 11
59.0155369627
 21
95.4739922977
  0
LINE
  5
2C8
100
AcDbEntity
  8
0
100
AcDbLine
 62
7
  6
CONTINUOUS
 10
79.821706034
 20
107.4863679076
 11
81.6428597535
 21
108.5378052216
  0
LINE
  5
2C9
100
AcDbEntity
  8
0
100
AcDbLine
 62
7
  6
CONTINUOUS
 10
88.3813776173
 20
112.2476144544
 11
90.029365453
 21
113.1990749955
  0
LINE
  5
2CA
100
AcDbEntity
  8
0
100
AcDbLine
 62
7
  6
CONTINUOUS
 10
14.2281456425
 20
68.988764748
 11
13.3804357321
 21
68.4993421245
  0
LINE
  5
2CB
100
AcDbEntity
  8
0
100
AcDbLine
 62
7
  6
CONTINUOUS
 10
88.3813776173
 20
111.2543080353
 11
88.6394614361
 21
111.4033119081
  0
LINE
  5
2CC
100
AcDbEntity
  8
0
100
AcDbLine
 62
7
  6
CONTINUOUS
 10
42.6898888306
 20
84.8340363284
 11
45.0235341092
 21
86.1813590158
  0
LINE
  5
2CD
100
AcDbEntity
  8
0
100
AcDbLine
 62
7
  6
CONTINUOUS
 10
80.2282700268
 20
106.3534368887
 11
79.8350668943
 21
106.1264223094
  0
LINE
  5
2CE
100
AcDbEntity
  8
0
100
AcDbLine
 62
7
  6
CONTINUOUS
 10
57.6013175124
 20
93.2894101798
 11
57.1943832432
 21
93.0544679723
  0
LINE
  5
2CF
100
AcDbEntity
  8
0
100
AcDbLine
 62
7
  6
CONTINUOUS
 10
14.2281456425
 20
77.3425502792
 11
13.3804357321
 21
77.8319647523
  0
LINE
  5
2D0
100
AcDbEntity
  8
0
100
AcDbLine
 62
7
  6
CONTINUOUS
 10
13.3804357321
 20
79.2200188611
 11
14.2281456425
 21
78.730604388
  0
LINE
  5
2D1
100
AcDbEntity
  8
0
100
AcDbLine
 62
7
  6
CONTINUOUS
 10
75.8302419923
 20
43.6684211332
 11
77.2444614426
 21
42.8519396242
  0
LINE
  5
2D2
100
AcDbEntity
  8
0
100
AcDbLine
 62
7
  6
CONTINUOUS
 10
17.8028100316
 20
77.5765533849
 11
14.3745937231
 21
79.5557902171
  0
LINE
  5
2D3
100
AcDbEntity
  8
0
100
AcDbLine
 62
7
  6
CONTINUOUS
 10
18.297783896
 20
77.6990273105
 11
17.944229033
 21
77.9031476881
  0
LINE
  5
2D4
100
AcDbEntity
  8
0
100
AcDbLine
 62
7
  6
CONTINUOUS
 10
14.5251574419
 20
80.2819485254
 11
13.3804357321
 21
80.9428389615
  0
LINE
  5
2D5
100
AcDbEntity
  8
0
100
AcDbLine
 62
7
  6
CONTINUOUS
 10
40.0120280268
 20
112.9670152542
 11
40.0120280268
 21
113.909688119
  0
LINE
  5
2D6
100
AcDbEntity
  8
0
100
AcDbLine
 62
7
  6
CONTINUOUS
 10
42.6898888306
 20
60.3382176688
 11
42.6898888306
 21
84.8340363309
  0
LINE
  5
2D7
100
AcDbEntity
  8
0
100
AcDbLine
 62
7
  6
CONTINUOUS
 10
43.1141808343
 20
110.6898154211
 11
43.1141808343
 21
112.3228202554
  0
LINE
  5
2D8
100
AcDbEntity
  8
0
100
AcDbLine
 62
7
  6
CONTINUOUS
 10
43.1786707671
 20
122.1845363586
 11
43.1786707671
 21
118.5625266134
  0
LINE
  5
2D9
100
AcDbEntity
  8
0
100
AcDbLine
 62
7
  6
CONTINUOUS
 10
26.7096449826
 20
57.0780125778
 11
25.2892103315
 21
54.8248414378
  0
LINE
  5
2DA
100
AcDbEntity
  8
0
100
AcDbLine
 62
7
  6
CONTINUOUS
 10
26.6594994514
 20
57.1554344346
 11
26.6740985652
 21
57.1746165932
  0
LINE
  5
2DB
100
AcDbEntity
  8
0
100
AcDbLine
 62
7
  6
CONTINUOUS
 10
70.5730002861
 20
99.5989241751
 11
77.2321188993
 21
103.4435451497
  0
LINE
  5
2DC
100
AcDbEntity
  8
0
100
AcDbLine
 62
7
  6
CONTINUOUS
 10
82.3388057416
 20
106.1607483879
 11
88.3813776173
 21
109.6494080624
  0
LINE
  5
2DD
100
AcDbEntity
  8
0
100
AcDbLine
 62
7
  6
CONTINUOUS
 10
90.029365453
 20
110.6008686035
 11
90.2272902894
 21
110.715139879
  0
LINE
  5
2DE
100
AcDbEntity
  8
0
100
AcDbLine
 62
7
  6
CONTINUOUS
 10
82.570739328
 20
106.1032449301
 11
86.7426519676
 21
108.5118854379
  0
LINE
  5
2DF
100
AcDbEntity
  8
0
100
AcDbLine
 62
7
  6
CONTINUOUS
 10
81.6424894771
 20
105.5369553797
 11
79.8220763101
 21
104.4859456213
  0
LINE
  5
2E0
100
AcDbEntity
  8
0
100
AcDbLine
 62
7
  6
CONTINUOUS
 10
59.0155369627
 20
92.4729286707
 11
57.1943832432
 21
91.4214913568
  0
LINE
  5
2E1
100
AcDbEntity
  8
0
100
AcDbLine
 62
7
  6
CONTINUOUS
 10
84.6460890902
 20
106.6278270276
 11
85.9895863809
 21
107.4034909199
  0
LINE
  5
2E2
100
AcDbEntity
  8
0
100
AcDbLine
 62
7
  6
CONTINUOUS
 10
14.2281456425
 20
65.8778905387
 11
13.3804357321
 21
65.3884679152
  0
LINE
  5
2E3
100
AcDbEntity
  8
0
100
AcDbLine
 62
7
  6
CONTINUOUS
 10
83.3238049146
 20
105.3091888162
 11
84.6460890902
 21
106.0726053839
  0
LINE
  5
2E4
100
AcDbEntity
  8
0
100
AcDbLine
 62
7
  6
CONTINUOUS
 10
87.0608486943
 20
106.8176397478
 11
87.0325912485
 21
106.8013254012
  0
LINE
  5
2E5
100
AcDbEntity
  8
0
100
AcDbLine
 62
7
  6
CONTINUOUS
 10
82.818225671
 20
104.3681748245
 11
82.3388057416
 21
104.0913832515
  0
LINE
  5
2E6
100
AcDbEntity
  8
0
100
AcDbLine
 62
7
  6
CONTINUOUS
 10
87.4038058308
 20
106.5870094106
 11
86.0603085405
 21
105.8113455185
  0
LINE
  5
2E7
100
AcDbEntity
  8
0
100
AcDbLine
 62
7
  6
CONTINUOUS
 10
86.4845726092
 20
105.5663958132
 11
87.4038075976
 21
106.0971132132
  0
LINE
  5
2E8
100
AcDbEntity
  8
0
100
AcDbLine
 62
7
  6
CONTINUOUS
 10
86.0603085405
 20
105.2561238749
 11
84.7380243649
 21
104.4927073071
  0
LINE
  5
2E9
100
AcDbEntity
  8
0
100
AcDbLine
 62
7
  6
CONTINUOUS
 10
85.1622884336
 20
104.2477576018
 11
86.4845726092
 21
105.0111741695
  0
LINE
  5
2EA
100
AcDbEntity
  8
0
100
AcDbLine
 62
7
  6
CONTINUOUS
 10
75.817899449
 20
98.3669571527
 11
70.5730002861
 21
95.3388312846
  0
LINE
  5
2EB
100
AcDbEntity
  8
0
100
AcDbLine
 62
7
  6
CONTINUOUS
 10
14.2281456425
 20
62.7670163319
 11
13.3804357321
 21
62.2775937084
  0
LINE
  5
2EC
100
AcDbEntity
  8
0
100
AcDbLine
 62
7
  6
CONTINUOUS
 10
13.3804357321
 20
82.3308930703
 11
14.9360771274
 21
81.43276341
  0
LINE
  5
2ED
100
AcDbEntity
  8
0
100
AcDbLine
 62
7
  6
CONTINUOUS
 10
15.6787332703
 20
82.1118136039
 11
15.6480081584
 21
82.1295523543
  0
LINE
  5
2EE
100
AcDbEntity
  8
0
100
AcDbLine
 62
7
  6
CONTINUOUS
 10
15.6431868529
 20
82.2084176194
 11
12.3197711439
 21
84.1271491661
  0
LINE
  5
2EF
100
AcDbEntity
  8
0
100
AcDbLine
 62
7
  6
CONTINUOUS
 10
88.7138863498
 20
43.4824523284
 11
90.1281058001
 21
42.6659708193
  0
LINE
  5
2F0
100
AcDbEntity
  8
0
100
AcDbLine
 62
7
  6
CONTINUOUS
 10
45.0235341092
 20
86.1813590183
 11
45.0235341092
 21
61.6855403562
  0
LINE
  5
2F1
100
AcDbEntity
  8
0
100
AcDbLine
 62
7
  6
CONTINUOUS
 10
45.3185123477
 20
120.9705021733
 11
45.3185123477
 21
117.7044981485
  0
LINE
  5
2F2
100
AcDbEntity
  8
0
100
AcDbLine
 62
7
  6
CONTINUOUS
 10
45.6245773758
 20
16.2102150655
 11
45.6245773758
 21
88.5045493351
  0
LINE
  5
2F3
100
AcDbEntity
  8
0
100
AcDbLine
 62
7
  6
CONTINUOUS
 10
48.0880712063
 20
33.1498578726
 11
48.0880712063
 21
37.6668784298
  0
LINE
  5
2F4
100
AcDbEntity
  8
0
100
AcDbLine
 62
7
  6
CONTINUOUS
 10
48.0880712063
 20
69.8924666434
 11
48.0880712063
 21
74.4094872006
  0
LINE
  5
2F5
100
AcDbEntity
  8
0
100
AcDbLine
 62
7
  6
CONTINUOUS
 10
48.1112365717
 20
74.4094872006
 11
48.1112365717
 21
71.5383120128
  0
LINE
  5
2F6
100
AcDbEntity
  8
0
100
AcDbLine
 62
7
  6
CONTINUOUS
 10
48.1112365717
 20
37.6668784298
 11
48.1112365717
 21
34.795703242
  0
LINE
  5
2F7
100
AcDbEntity
  8
0
100
AcDbLine
 62
7
  6
CONTINUOUS
 10
49.525456022
 20
75.2398624534
 11
49.525456022
 21
70.7218305038
  0
LINE
  5
2F8
100
AcDbEntity
  8
0
100
AcDbLine
 62
7
  6
CONTINUOUS
 10
49.525456022
 20
38.4972536826
 11
49.525456022
 21
33.9792217329
  0
LINE
  5
2F9
100
AcDbEntity
  8
0
100
AcDbLine
 62
7
  6
CONTINUOUS
 10
77.2321188993
 20
97.5504756437
 11
70.5730002861
 21
93.7058546691
  0
LINE
  5
2FA
100
AcDbEntity
  8
0
100
AcDbLine
 62
7
  6
CONTINUOUS
 10
14.2281456425
 20
59.6561421226
 11
13.3804357321
 21
59.1667194991
  0
LINE
  5
2FB
100
AcDbEntity
  8
0
100
AcDbLine
 62
7
  6
CONTINUOUS
 10
90.2272902894
 20
102.8894651536
 11
90.6209554739
 21
103.1167464972
  0
LINE
  5
2FC
100
AcDbEntity
  8
0
100
AcDbLine
 62
7
  6
CONTINUOUS
 10
48.1112365717
 20
71.5383120128
 11
49.525456022
 21
70.7218305038
  0
LINE
  5
2FD
100
AcDbEntity
  8
0
100
AcDbLine
 62
7
  6
CONTINUOUS
 10
17.90587615
 20
90.5835998138
 11
26.9920529329
 21
85.3378118779
  0
LINE
  5
2FE
100
AcDbEntity
  8
0
100
AcDbLine
 62
7
  6
CONTINUOUS
 10
51.2937506174
 20
35.2036488283
 11
51.2937506174
 21
39.3146651205
  0
LINE
  5
2FF
100
AcDbEntity
  8
0
100
AcDbLine
 62
7
  6
CONTINUOUS
 10
51.2937506174
 20
71.9462575991
 11
51.2937506174
 21
76.0572738913
  0
LINE
  5
300
100
AcDbEntity
  8
0
100
AcDbLine
 62
7
  6
CONTINUOUS
 10
51.6349482163
 20
76.254263241
 11
51.6349482163
 21
73.7762235644
  0
LINE
  5
301
100
AcDbEntity
  8
0
100
AcDbLine
 62
7
  6
CONTINUOUS
 10
51.6349482163
 20
39.5116544701
 11
51.6349482163
 21
37.0336147935
  0
LINE
  5
302
100
AcDbEntity
  8
0
100
AcDbLine
 62
7
  6
CONTINUOUS
 10
52.0820259781
 20
124.8753952794
 11
52.0820259781
 21
121.6093912546
  0
LINE
  5
303
100
AcDbEntity
  8
0
100
AcDbLine
 62
7
  6
CONTINUOUS
 10
52.5320068359
 20
123.4613102547
 11
52.5320068359
 21
125.094315089
  0
LINE
  5
304
100
AcDbEntity
  8
0
100
AcDbLine
 62
7
  6
CONTINUOUS
 10
53.0491676666
 20
77.0707583475
 11
53.0491676666
 21
72.9597420553
  0
LINE
  5
305
100
AcDbEntity
  8
0
100
AcDbLine
 62
7
  6
CONTINUOUS
 10
53.0491676666
 20
40.3281495766
 11
53.0491676666
 21
36.2171332845
  0
LINE
  5
306
100
AcDbEntity
  8
0
100
AcDbLine
 62
7
  6
CONTINUOUS
 10
76.6842081556
 20
132.6673684891
 11
75.5064808844
 21
129.9816295779
  0
LINE
  5
307
100
AcDbEntity
  8
0
100
AcDbLine
 62
7
  6
CONTINUOUS
 10
48.0880712063
 20
74.4094872006
 11
49.525456022
 21
75.2398624534
  0
LINE
  5
308
100
AcDbEntity
  8
0
100
AcDbLine
 62
7
  6
CONTINUOUS
 10
14.2281456425
 20
56.5452679133
 11
13.3804357321
 21
56.0558452899
  0
LINE
  5
309
100
AcDbEntity
  8
0
100
AcDbLine
 62
7
  6
CONTINUOUS
 10
51.2937506174
 20
76.0572738913
 11
53.0491676666
 21
77.0707583475
  0
LINE
  5
30A
100
AcDbEntity
  8
0
100
AcDbLine
 62
7
  6
CONTINUOUS
 10
89.2067360236
 20
97.6461593935
 11
88.8130708391
 21
97.4188780499
  0
LINE
  5
30B
100
AcDbEntity
  8
0
100
AcDbLine
 62
7
  6
CONTINUOUS
 10
23.3506816795
 20
59.2566451221
 11
31.6362476894
 21
64.0402903338
  0
LINE
  5
30C
100
AcDbEntity
  8
0
100
AcDbLine
 62
7
  6
CONTINUOUS
 10
14.2281456425
 20
53.4343937041
 11
13.3804357321
 21
52.9449710806
  0
LINE
  5
30D
100
AcDbEntity
  8
0
100
AcDbLine
 62
7
  6
CONTINUOUS
 10
75.8179112243
 20
88.8955641306
 11
78.6463265737
 21
90.5285407464
  0
LINE
  5
30E
100
AcDbEntity
  8
0
100
AcDbLine
 62
7
  6
CONTINUOUS
 10
90.6209554739
 20
96.8296778844
 11
90.2272902894
 21
96.6023965408
  0
LINE
  5
30F
100
AcDbEntity
  8
0
100
AcDbLine
 62
7
  6
CONTINUOUS
 10
51.6349482163
 20
73.7762235644
 11
51.2937506174
 21
73.5792342147
  0
LINE
  5
310
100
AcDbEntity
  8
0
100
AcDbLine
 62
7
  6
CONTINUOUS
 10
48.1112365717
 20
71.5383120128
 11
48.0880712063
 21
71.5249457127
  0
LINE
  5
311
100
AcDbEntity
  8
0
100
AcDbLine
 62
7
  6
CONTINUOUS
 10
51.6349482163
 20
73.7762235644
 11
53.0491676666
 21
72.9597420553
  0
LINE
  5
312
100
AcDbEntity
  8
0
100
AcDbLine
 62
7
  6
CONTINUOUS
 10
57.1943832432
 20
23.651790735
 11
57.1943832432
 21
26.6528543619
  0
LINE
  5
313
100
AcDbEntity
  8
0
100
AcDbLine
 62
7
  6
CONTINUOUS
 10
57.1943832432
 20
91.4214913568
 11
57.1943832432
 21
94.4225549837
  0
LINE
  5
314
100
AcDbEntity
  8
0
100
AcDbLine
 62
7
  6
CONTINUOUS
 10
57.6013175124
 20
94.6574971912
 11
57.6013175124
 21
93.2894101798
  0
LINE
  5
315
100
AcDbEntity
  8
0
100
AcDbLine
 62
7
  6
CONTINUOUS
 10
57.6013175124
 20
26.8877965694
 11
57.6013175124
 21
25.519709558
  0
LINE
  5
316
100
AcDbEntity
  8
0
100
AcDbLine
 62
7
  6
CONTINUOUS
 10
59.0155369627
 20
95.4739922977
 11
59.0155369627
 21
92.4729286707
  0
LINE
  5
317
100
AcDbEntity
  8
0
100
AcDbLine
 62
7
  6
CONTINUOUS
 10
59.0155369627
 20
27.7042916759
 11
59.0155369627
 21
24.703228049
  0
LINE
  5
318
100
AcDbEntity
  8
0
100
AcDbLine
 62
7
  6
CONTINUOUS
 10
94.1388979295
 20
93.1567765819
 11
93.5662175387
 21
92.8145986614
  0
LINE
  5
319
100
AcDbEntity
  8
0
100
AcDbLine
 62
7
  6
CONTINUOUS
 10
82.3388057416
 20
90.0475416768
 11
82.818225671
 21
90.3243332499
  0
LINE
  5
31A
100
AcDbEntity
  8
0
100
AcDbLine
 62
7
  6
CONTINUOUS
 10
53.0491676666
 20
72.9597420553
 11
51.2937506174
 21
71.9462575991
  0
LINE
  5
31B
100
AcDbEntity
  8
0
100
AcDbLine
 62
7
  6
CONTINUOUS
 10
14.2281456425
 20
50.3235194948
 11
13.3804357321
 21
49.8340968713
  0
LINE
  5
31C
100
AcDbEntity
  8
0
100
AcDbLine
 62
7
  6
CONTINUOUS
 10
25.6134547494
 20
56.6030707687
 11
24.4113474444
 21
55.9090379354
  0
LINE
  5
31D
100
AcDbEntity
  8
0
100
AcDbLine
 62
7
  6
CONTINUOUS
 10
84.3880234408
 20
89.3526954455
 11
82.570739328
 21
88.3034922366
  0
LINE
  5
31E
100
AcDbEntity
  8
0
100
AcDbLine
 62
7
  6
CONTINUOUS
 10
93.2126656203
 20
94.2434814182
 11
92.2934306319
 21
93.7127640182
  0
LINE
  5
31F
100
AcDbEntity
  8
0
100
AcDbLine
 62
7
  6
CONTINUOUS
 10
86.4845726092
 20
90.1589952019
 11
85.1622884336
 21
89.3955786342
  0
LINE
  5
320
100
AcDbEntity
  8
0
100
AcDbLine
 62
7
  6
CONTINUOUS
 10
84.950154173
 20
89.1716404406
 11
86.2724383486
 21
89.9350570083
  0
LINE
  5
321
100
AcDbEntity
  8
0
100
AcDbLine
 62
7
  6
CONTINUOUS
 10
87.4038075976
 20
90.1344909583
 11
86.4845726092
 21
89.6037735583
  0
LINE
  5
322
100
AcDbEntity
  8
0
100
AcDbLine
 62
7
  6
CONTINUOUS
 10
86.2724383486
 20
89.3798353647
 11
87.49167468
 21
90.083757587
  0
LINE
  5
323
100
AcDbEntity
  8
0
100
AcDbLine
 62
7
  6
CONTINUOUS
 10
14.2281456425
 20
47.2126452856
 11
13.3804357321
 21
46.7232226621
  0
LINE
  5
324
100
AcDbEntity
  8
0
100
AcDbLine
 62
7
  6
CONTINUOUS
 10
25.2590573548
 20
53.2875863497
 11
24.4113474444
 21
52.7981637262
  0
LINE
  5
325
100
AcDbEntity
  8
0
100
AcDbLine
 62
7
  6
CONTINUOUS
 10
88.7578996706
 20
89.5894270683
 11
82.3388057416
 21
85.8833835826
  0
LINE
  5
326
100
AcDbEntity
  8
0
100
AcDbLine
 62
7
  6
CONTINUOUS
 10
88.8130708391
 20
89.5932033245
 11
82.3388057416
 21
85.8553069399
  0
LINE
  5
327
100
AcDbEntity
  8
0
100
AcDbLine
 62
7
  6
CONTINUOUS
 10
49.525456022
 20
70.7218305038
 11
48.0880712063
 21
69.8924666434
  0
LINE
  5
328
100
AcDbEntity
  8
0
100
AcDbLine
 62
7
  6
CONTINUOUS
 10
40.5688827437
 20
88.5077062407
 11
29.1130590198
 21
95.1215795257
  0
LINE
  5
329
100
AcDbEntity
  8
0
100
AcDbLine
 62
7
  6
CONTINUOUS
 10
77.2321071234
 20
81.5469932499
 11
75.8179112243
 21
80.7305117406
  0
LINE
  5
32A
100
AcDbEntity
  8
0
100
AcDbLine
 62
7
  6
CONTINUOUS
 10
90.2272902894
 20
88.7767218154
 11
82.3388057416
 21
84.2223303243
  0
LINE
  5
32B
100
AcDbEntity
  8
0
100
AcDbLine
 62
7
  6
CONTINUOUS
 10
28.9751407452
 20
52.869346662
 11
38.9777459594
 21
58.644319003
  0
LINE
  5
32C
100
AcDbEntity
  8
0
100
AcDbLine
 62
7
  6
CONTINUOUS
 10
14.2281456425
 20
44.1017710763
 11
13.3804357321
 21
43.6123484528
  0
LINE
  5
32D
100
AcDbEntity
  8
0
100
AcDbLine
 62
7
  6
CONTINUOUS
 10
29.1165644552
 20
52.5427530377
 11
29.3286956078
 21
52.6652262847
  0
LINE
  5
32E
100
AcDbEntity
  8
0
100
AcDbLine
 62
7
  6
CONTINUOUS
 10
39.331300822
 20
58.4401986258
 11
39.5204747552
 21
58.5494175951
  0
LINE
  5
32F
100
AcDbEntity
  8
0
100
AcDbLine
 62
7
  6
CONTINUOUS
 10
45.0235341092
 20
61.6855403586
 11
42.6898888306
 21
60.3382176713
  0
LINE
  5
330
100
AcDbEntity
  8
0
100
AcDbLine
 62
7
  6
CONTINUOUS
 10
25.2590573548
 20
50.1767121404
 11
24.4113474444
 21
49.6872895169
  0
LINE
  5
331
100
AcDbEntity
  8
0
100
AcDbLine
 62
7
  6
CONTINUOUS
 10
78.6463265737
 20
80.7305117408
 11
75.8179112243
 21
79.0975351251
  0
LINE
  5
332
100
AcDbEntity
  8
0
100
AcDbLine
 62
7
  6
CONTINUOUS
 10
42.0686867574
 20
58.9650011499
 11
44.402332036
 21
60.3123238373
  0
LINE
  5
333
100
AcDbEntity
  8
0
100
AcDbLine
 62
7
  6
CONTINUOUS
 10
14.2281456425
 20
40.990896867
 11
13.3804357321
 21
40.5014742435
  0
LINE
  5
334
100
AcDbEntity
  8
0
100
AcDbLine
 62
7
  6
CONTINUOUS
 10
25.2590573548
 20
47.0658379311
 11
24.4113474444
 21
46.5764153077
  0
LINE
  5
335
100
AcDbEntity
  8
0
100
AcDbLine
 62
7
  6
CONTINUOUS
 10
31.4467042984
 20
96.468902213
 11
42.9025280223
 21
89.8550289281
  0
LINE
  5
336
100
AcDbEntity
  8
0
100
AcDbLine
 62
7
  6
CONTINUOUS
 10
17.90587615
 20
104.5075869123
 11
45.6245773758
 21
88.5045493351
  0
LINE
  5
337
100
AcDbEntity
  8
0
100
AcDbLine
 62
7
  6
CONTINUOUS
 10
46.04143528
 20
89.2350477576
 11
18.3227340542
 21
105.2380853348
  0
LINE
  5
338
100
AcDbEntity
  8
0
100
AcDbLine
 62
7
  6
CONTINUOUS
 10
65.4677661665
 20
127.6638047936
 11
65.4677661665
 21
128.6064776584
  0
LINE
  5
339
100
AcDbEntity
  8
0
100
AcDbLine
 62
7
  6
CONTINUOUS
 10
66.9124845577
 20
131.7638615978
 11
66.9124845577
 21
130.6880815595
  0
LINE
  5
33A
100
AcDbEntity
  8
0
100
AcDbLine
 62
7
  6
CONTINUOUS
 10
67.8980957722
 20
130.1090323981
 11
67.8980957722
 21
131.7663468656
  0
LINE
  5
33B
100
AcDbEntity
  8
0
100
AcDbLine
 62
7
  6
CONTINUOUS
 10
68.5444053739
 20
129.72932382
 11
68.5444053739
 21
131.3996646038
  0
LINE
  5
33C
100
AcDbEntity
  8
0
100
AcDbLine
 62
7
  6
CONTINUOUS
 10
68.569918974
 20
125.3866049605
 11
68.569918974
 21
127.0196097948
  0
LINE
  5
33D
100
AcDbEntity
  8
0
100
AcDbLine
 62
7
  6
CONTINUOUS
 10
85.1622884336
 20
89.3955786342
 11
84.9501908595
 21
89.1716616303
  0
LINE
  5
33E
100
AcDbEntity
  8
0
100
AcDbLine
 62
7
  6
CONTINUOUS
 10
86.2724746064
 20
89.9350779504
 11
86.4845726092
 21
90.1589952019
  0
LINE
  5
33F
100
AcDbEntity
  8
0
100
AcDbLine
 62
7
  6
CONTINUOUS
 10
86.4845726092
 20
89.6037735583
 11
86.272475035
 21
89.3798565544
  0
LINE
  5
340
100
AcDbEntity
  8
0
100
AcDbLine
 62
7
  6
CONTINUOUS
 10
14.2281456425
 20
37.8800226578
 11
13.3804357321
 21
37.3906000343
  0
LINE
  5
341
100
AcDbEntity
  8
0
100
AcDbLine
 62
7
  6
CONTINUOUS
 10
25.2590573548
 20
43.9549637219
 11
24.4113474444
 21
43.4655410984
  0
LINE
  5
342
100
AcDbEntity
  8
0
100
AcDbLine
 62
7
  6
CONTINUOUS
 10
84.9501908595
 20
89.1716616303
 11
84.7380243648
 21
89.1506268892
  0
LINE
  5
343
100
AcDbEntity
  8
0
100
AcDbLine
 62
7
  6
CONTINUOUS
 10
86.272475035
 20
89.3798565544
 11
86.0603085409
 21
89.3588218136
  0
LINE
  5
344
100
AcDbEntity
  8
0
100
AcDbLine
 62
7
  6
CONTINUOUS
 10
82.3457480264
 20
88.2812131426
 11
82.570739328
 21
88.3034922366
  0
LINE
  5
345
100
AcDbEntity
  8
0
100
AcDbLine
 62
7
  6
CONTINUOUS
 10
95.1218459808
 20
66.4661968986
 11
92.2934306319
 21
68.0991463194
  0
LINE
  5
346
100
AcDbEntity
  8
0
100
AcDbLine
 62
7
  6
CONTINUOUS
 10
51.2814080735
 20
92.3659442021
 11
23.5627068478
 21
108.3689817793
  0
LINE
  5
347
100
AcDbEntity
  8
0
100
AcDbLine
 62
7
  6
CONTINUOUS
 10
69.9487397655
 20
130.2508806644
 11
69.9487397655
 21
132.2104526031
  0
LINE
  5
348
100
AcDbEntity
  8
0
100
AcDbLine
 62
7
  6
CONTINUOUS
 10
70.5730002861
 20
39.0001927214
 11
70.5730002861
 21
44.8932622274
  0
LINE
  5
349
100
AcDbEntity
  8
0
100
AcDbLine
 62
7
  6
CONTINUOUS
 10
70.5730002861
 20
93.7058546691
 11
70.5730002861
 21
99.5989241751
  0
LINE
  5
34A
100
AcDbEntity
  8
0
100
AcDbLine
 62
7
  6
CONTINUOUS
 10
14.2281456425
 20
34.7691484485
 11
13.3804357321
 21
34.279725825
  0
LINE
  5
34B
100
AcDbEntity
  8
0
100
AcDbLine
 62
7
  6
CONTINUOUS
 10
25.2590573548
 20
40.8440895126
 11
24.4113474444
 21
40.3546668891
  0
LINE
  5
34C
100
AcDbEntity
  8
0
100
AcDbLine
 62
7
  6
CONTINUOUS
 10
14.2281456425
 20
31.6582742392
 11
13.3804357321
 21
31.1688516158
  0
LINE
  5
34D
100
AcDbEntity
  8
0
100
AcDbLine
 62
7
  6
CONTINUOUS
 10
25.2590573548
 20
37.7332153033
 11
24.4113474444
 21
37.2437926799
  0
LINE
  5
34E
100
AcDbEntity
  8
0
100
AcDbLine
 62
7
  6
CONTINUOUS
 10
77.2321071234
 20
81.5469932499
 11
78.6463265737
 21
80.7305117408
  0
LINE
  5
34F
100
AcDbEntity
  8
0
100
AcDbLine
 62
7
  6
CONTINUOUS
 10
57.6013175124
 20
93.2894101798
 11
59.0155369627
 21
92.4729286707
  0
LINE
  5
350
100
AcDbEntity
  8
0
100
AcDbLine
 62
7
  6
CONTINUOUS
 10
75.5064808844
 20
129.9816295779
 11
75.5064808844
 21
126.4706691842
  0
LINE
  5
351
100
AcDbEntity
  8
0
100
AcDbLine
 62
7
  6
CONTINUOUS
 10
75.817899449
 20
102.6270500432
 11
75.817899449
 21
98.3669571527
  0
LINE
  5
352
100
AcDbEntity
  8
0
100
AcDbLine
 62
7
  6
CONTINUOUS
 10
75.8179112243
 20
79.0975351251
 11
75.8179112243
 21
88.8955641306
  0
LINE
  5
353
100
AcDbEntity
  8
0
100
AcDbLine
 62
7
  6
CONTINUOUS
 10
75.8302419923
 20
47.9285140237
 11
75.8302419923
 21
43.6684211332
  0
LINE
  5
354
100
AcDbEntity
  8
0
100
AcDbLine
 62
7
  6
CONTINUOUS
 10
77.2321071234
 20
89.7120456399
 11
77.2321071234
 21
81.5469932499
  0
LINE
  5
355
100
AcDbEntity
  8
0
100
AcDbLine
 62
7
  6
CONTINUOUS
 10
77.2321188993
 20
103.4435451497
 11
77.2321188993
 21
97.5504756437
  0
LINE
  5
356
100
AcDbEntity
  8
0
100
AcDbLine
 62
7
  6
CONTINUOUS
 10
77.2444614426
 20
48.7450091302
 11
77.2444614426
 21
42.8519396242
  0
LINE
  5
357
100
AcDbEntity
  8
0
100
AcDbLine
 62
7
  6
CONTINUOUS
 10
87.4916746725
 20
106.3927491943
 11
87.4038075976
 21
106.0971132132
  0
LINE
  5
358
100
AcDbEntity
  8
0
100
AcDbLine
 62
7
  6
CONTINUOUS
 10
25.2590573548
 20
34.6223410941
 11
24.4113474444
 21
34.1329184706
  0
LINE
  5
359
100
AcDbEntity
  8
0
100
AcDbLine
 62
7
  6
CONTINUOUS
 10
25.2590573548
 20
31.5114668848
 11
24.4113474444
 21
31.0220442613
  0
LINE
  5
35A
100
AcDbEntity
  8
0
100
AcDbLine
 62
7
  6
CONTINUOUS
 10
40.2857774682
 20
109.0283702286
 11
38.8468727246
 21
109.859103476
  0
LINE
  5
35B
100
AcDbEntity
  8
0
100
AcDbLine
 62
7
  6
CONTINUOUS
 10
36.9146621551
 20
111.1787609088
 11
36.0982718357
 21
111.6500934165
  0
LINE
  5
35C
100
AcDbEntity
  8
0
100
AcDbLine
 62
7
  6
CONTINUOUS
 10
78.6463265737
 20
90.5285407464
 11
78.6463265737
 21
80.7305117408
  0
LINE
  5
35D
100
AcDbEntity
  8
0
100
AcDbLine
 62
7
  6
CONTINUOUS
 10
79.8220763101
 20
104.4859456213
 11
79.821706034
 21
107.4863679076
  0
LINE
  5
35E
100
AcDbEntity
  8
0
100
AcDbLine
 62
7
  6
CONTINUOUS
 10
80.2282700268
 20
107.7210963371
 11
80.2282700268
 21
106.3534368887
  0
LINE
  5
35F
100
AcDbEntity
  8
0
100
AcDbLine
 62
7
  6
CONTINUOUS
 10
82.3388057416
 20
84.2223303243
 11
82.3388057416
 21
106.1607483879
  0
LINE
  5
360
100
AcDbEntity
  8
0
100
AcDbLine
 62
7
  6
CONTINUOUS
 10
82.7051770332
 20
125.8255544415
 11
82.7051770332
 21
122.3145940479
  0
LINE
  5
361
100
AcDbEntity
  8
0
100
AcDbLine
 62
7
  6
CONTINUOUS
 10
82.818225671
 20
90.3243332499
 11
82.818225671
 21
104.3681748245
  0
LINE
  5
362
100
AcDbEntity
  8
0
100
AcDbLine
 62
7
  6
CONTINUOUS
 10
81.6428597535
 20
108.5378052216
 11
81.6424894771
 21
105.5369553797
  0
LINE
  5
363
100
AcDbEntity
  8
0
100
AcDbLine
 62
7
  6
CONTINUOUS
 10
94.1388979295
 20
93.1567765819
 11
95.1218459808
 21
95.3457406339
  0
LINE
  5
364
100
AcDbEntity
  8
0
100
AcDbLine
 62
7
  6
CONTINUOUS
 10
48.0880712063
 20
37.6668784298
 11
49.525456022
 21
38.4972536826
  0
LINE
  5
365
100
AcDbEntity
  8
0
100
AcDbLine
 62
7
  6
CONTINUOUS
 10
23.2921036244
 20
27.4608276257
 11
18.297783896
 21
24.577372998
  0
LINE
  5
366
100
AcDbEntity
  8
0
100
AcDbLine
 62
7
  6
CONTINUOUS
 10
25.2590573548
 20
28.4005926755
 11
24.4113474444
 21
27.9111700521
  0
LINE
  5
367
100
AcDbEntity
  8
0
100
AcDbLine
 62
7
  6
CONTINUOUS
 10
18.297783896
 20
24.1691288435
 11
18.0856527452
 21
24.0466555975
  0
LINE
  5
368
100
AcDbEntity
  8
0
100
AcDbLine
 62
7
  6
CONTINUOUS
 10
25.2590573548
 20
25.2897184663
 11
24.4113474444
 21
24.8002958428
  0
LINE
  5
369
100
AcDbEntity
  8
0
100
AcDbLine
 62
7
  6
CONTINUOUS
 10
95.1218459808
 20
66.4661968986
 11
92.2934306319
 21
64.8902286932
  0
LINE
  5
36A
100
AcDbEntity
  8
0
100
AcDbLine
 62
7
  6
CONTINUOUS
 10
43.1141808343
 20
110.6898154211
 11
43.1388416891
 21
110.6755777921
  0
LINE
  5
36B
100
AcDbEntity
  8
0
100
AcDbLine
 62
7
  6
CONTINUOUS
 10
40.0120280268
 20
113.909688119
 11
40.8284183462
 21
113.4383556113
  0
LINE
  5
36C
100
AcDbEntity
  8
0
100
AcDbLine
 62
7
  6
CONTINUOUS
 10
43.1141808343
 20
112.3228202554
 11
44.5530855779
 21
111.492087008
  0
LINE
  5
36D
100
AcDbEntity
  8
0
100
AcDbLine
 62
7
  6
CONTINUOUS
 10
84.7380243648
 20
89.1506268892
 11
83.3238049145
 21
89.9671083982
  0
LINE
  5
36E
100
AcDbEntity
  8
0
100
AcDbLine
 62
7
  6
CONTINUOUS
 10
82.818225671
 20
90.3243332499
 11
82.3388057416
 21
90.6011202134
  0
LINE
  5
36F
100
AcDbEntity
  8
0
100
AcDbLine
 62
7
  6
CONTINUOUS
 10
86.0603085409
 20
89.3588218136
 11
85.6673328766
 21
89.5857012865
  0
LINE
  5
370
100
AcDbEntity
  8
0
100
AcDbLine
 62
7
  6
CONTINUOUS
 10
83.3238049146
 20
89.9671083983
 11
83.3238049146
 21
105.3091888162
  0
LINE
  5
371
100
AcDbEntity
  8
0
100
AcDbLine
 62
7
  6
CONTINUOUS
 10
84.6460890902
 20
106.0726053839
 11
84.6460890902
 21
106.6278270276
  0
LINE
  5
372
100
AcDbEntity
  8
0
100
AcDbLine
 62
7
  6
CONTINUOUS
 10
84.7380243649
 20
104.4927073067
 11
84.7380243649
 21
89.1506268893
  0
LINE
  5
373
100
AcDbEntity
  8
0
100
AcDbLine
 62
7
  6
CONTINUOUS
 10
84.8005703302
 20
127.0652504528
 11
84.8005703302
 21
123.5542900592
  0
LINE
  5
374
100
AcDbEntity
  8
0
100
AcDbLine
 62
7
  6
CONTINUOUS
 10
85.1622884336
 20
89.3955786342
 11
85.1622884336
 21
104.2477576018
  0
LINE
  5
375
100
AcDbEntity
  8
0
100
AcDbLine
 62
7
  6
CONTINUOUS
 10
86.0603085405
 20
105.8113455184
 11
86.0603085405
 21
105.256123875
  0
LINE
  5
376
100
AcDbEntity
  8
0
100
AcDbLine
 62
7
  6
CONTINUOUS
 10
86.0603085405
 20
89.8125845376
 11
86.0603085405
 21
89.3588218133
  0
LINE
  5
377
100
AcDbEntity
  8
0
100
AcDbLine
 62
7
  6
CONTINUOUS
 10
86.4845726092
 20
89.6037735583
 11
86.4845726092
 21
90.1589952019
  0
LINE
  5
378
100
AcDbEntity
  8
0
100
AcDbLine
 62
7
  6
CONTINUOUS
 10
86.4845726092
 20
105.0111741695
 11
86.4845726092
 21
105.5663958132
  0
LINE
  5
379
100
AcDbEntity
  8
0
100
AcDbLine
 62
7
  6
CONTINUOUS
 10
87.0608486943
 20
108.3281692194
 11
87.0608486943
 21
106.8176397478
  0
LINE
  5
37A
100
AcDbEntity
  8
0
100
AcDbLine
 62
7
  6
CONTINUOUS
 10
87.4038075976
 20
106.0971132132
 11
87.4038075976
 21
90.1344909583
  0
LINE
  5
37B
100
AcDbEntity
  8
0
100
AcDbLine
 62
7
  6
CONTINUOUS
 10
87.49167468
 20
90.083757587
 11
87.49167468
 21
106.3927910372
  0
LINE
  5
37C
100
AcDbEntity
  8
0
100
AcDbLine
 62
7
  6
CONTINUOUS
 10
51.2937506174
 20
39.3146651205
 11
53.0491676666
 21
40.3281495766
  0
LINE
  5
37D
100
AcDbEntity
  8
0
100
AcDbLine
 62
7
  6
CONTINUOUS
 10
51.6349482163
 20
37.0336147935
 11
51.2937506174
 21
36.8366254438
  0
LINE
  5
37E
100
AcDbEntity
  8
0
100
AcDbLine
 62
7
  6
CONTINUOUS
 10
53.0491676666
 20
36.2171332845
 11
51.2937506174
 21
35.2036488283
  0
LINE
  5
37F
100
AcDbEntity
  8
0
100
AcDbLine
 62
7
  6
CONTINUOUS
 10
48.1112365717
 20
34.795703242
 11
48.0880712063
 21
34.7823369419
  0
LINE
  5
380
100
AcDbEntity
  8
0
100
AcDbLine
 62
7
  6
CONTINUOUS
 10
49.525456022
 20
33.9792217329
 11
48.0880712063
 21
33.1498578726
  0
LINE
  5
381
100
AcDbEntity
  8
0
100
AcDbLine
 62
7
  6
CONTINUOUS
 10
86.9676432691
 20
108.5341645319
 11
86.7426519676
 21
108.5118854379
  0
LINE
  5
382
100
AcDbEntity
  8
0
100
AcDbLine
 62
7
  6
CONTINUOUS
 10
45.0233315648
 20
117.5340764614
 11
42.1814951032
 21
119.1184800247
  0
LINE
  5
383
100
AcDbEntity
  8
0
100
AcDbLine
 62
7
  6
CONTINUOUS
 10
87.4038075976
 20
90.1344909583
 11
87.4916746723
 21
90.0838784831
  0
LINE
  5
384
100
AcDbEntity
  8
0
100
AcDbLine
 62
7
  6
CONTINUOUS
 10
87.49167468
 20
90.3204658691
 11
88.7578996706
 21
89.5894270683
  0
LINE
  5
385
100
AcDbEntity
  8
0
100
AcDbLine
 62
7
  6
CONTINUOUS
 10
88.8130708391
 20
89.5932033245
 11
90.2272902894
 21
88.7767218154
  0
LINE
  5
386
100
AcDbEntity
  8
0
100
AcDbLine
 62
7
  6
CONTINUOUS
 10
75.817899449
 20
98.3669571527
 11
77.2321188993
 21
97.5504756437
  0
LINE
  5
387
100
AcDbEntity
  8
0
100
AcDbLine
 62
7
  6
CONTINUOUS
 10
88.3069520806
 20
41.6145335054
 11
88.3069520806
 21
44.6155971323
  0
LINE
  5
388
100
AcDbEntity
  8
0
100
AcDbLine
 62
7
  6
CONTINUOUS
 10
88.3813776173
 20
109.6494080624
 11
88.3813776173
 21
112.2476144544
  0
LINE
  5
389
100
AcDbEntity
  8
0
100
AcDbLine
 62
7
  6
CONTINUOUS
 10
88.6151460027
 20
112.382579889
 11
88.6151460027
 21
111.4173501126
  0
LINE
  5
38A
100
AcDbEntity
  8
0
100
AcDbLine
 62
7
  6
CONTINUOUS
 10
88.7138863498
 20
44.8505393397
 11
88.7138863498
 21
43.4824523284
  0
LINE
  5
38B
100
AcDbEntity
  8
0
100
AcDbLine
 62
7
  6
CONTINUOUS
 10
88.7578996706
 20
111.3349331085
 11
88.7578996706
 21
89.5894270683
  0
LINE
  5
38C
100
AcDbEntity
  8
0
100
AcDbLine
 62
7
  6
CONTINUOUS
 10
88.8130708391
 20
111.3030807401
 11
88.8130708391
 21
103.7059466627
  0
LINE
  5
38D
100
AcDbEntity
  8
0
100
AcDbLine
 62
7
  6
CONTINUOUS
 10
88.8130708391
 20
97.4188780499
 11
88.8130708391
 21
89.5932033245
  0
LINE
  5
38E
100
AcDbEntity
  8
0
100
AcDbLine
 62
7
  6
CONTINUOUS
 10
89.2067360236
 20
103.4786691041
 11
89.2067360236
 21
97.6461593935
  0
LINE
  5
38F
100
AcDbEntity
  8
0
100
AcDbLine
 62
7
  6
CONTINUOUS
 10
90.029365453
 20
113.1990749955
 11
90.029365453
 21
110.6008686035
  0
LINE
  5
390
100
AcDbEntity
  8
0
100
AcDbLine
 62
7
  6
CONTINUOUS
 10
90.1281058001
 20
45.6670344462
 11
90.1281058001
 21
42.6659708193
  0
LINE
  5
391
100
AcDbEntity
  8
0
100
AcDbLine
 62
7
  6
CONTINUOUS
 10
90.2272902894
 20
110.715139879
 11
90.2272902894
 21
102.8894651536
  0
LINE
  5
392
100
AcDbEntity
  8
0
100
AcDbLine
 62
7
  6
CONTINUOUS
 10
90.2272902894
 20
96.6023965408
 11
90.2272902894
 21
88.7767218154
  0
LINE
  5
393
100
AcDbEntity
  8
0
100
AcDbLine
 62
7
  6
CONTINUOUS
 10
90.6209554739
 20
103.1167464972
 11
90.6209554739
 21
96.8296778844
  0
LINE
  5
394
100
AcDbEntity
  8
0
100
AcDbLine
 62
7
  6
CONTINUOUS
 10
92.2934306319
 20
93.7127640182
 11
92.2934306319
 21
64.8902286932
  0
LINE
  5
395
100
AcDbEntity
  8
0
100
AcDbLine
 62
7
  6
CONTINUOUS
 10
70.5730002861
 20
44.8932622274
 11
77.2444614426
 21
48.7450091302
  0
LINE
  5
396
100
AcDbEntity
  8
0
100
AcDbLine
 62
7
  6
CONTINUOUS
 10
38.9777459594
 20
23.7796657916
 11
29.3286956078
 21
18.2088172272
  0
LINE
  5
397
100
AcDbEntity
  8
0
100
AcDbLine
 62
7
  6
CONTINUOUS
 10
39.5204747552
 20
23.6847643836
 11
39.331300822
 21
23.5755454143
  0
LINE
  5
398
100
AcDbEntity
  8
0
100
AcDbLine
 62
7
  6
CONTINUOUS
 10
29.3286956078
 20
17.8005730733
 11
29.1165644552
 21
17.6780998262
  0
LINE
  5
399
100
AcDbEntity
  8
0
100
AcDbLine
 62
7
  6
CONTINUOUS
 10
75.8302419923
 20
43.6684211332
 11
70.5730002861
 21
40.6331693369
  0
LINE
  5
39A
100
AcDbEntity
  8
0
100
AcDbLine
 62
7
  6
CONTINUOUS
 10
45.3185123477
 20
120.9705021733
 11
43.1786707671
 21
122.1845363586
  0
LINE
  5
39B
100
AcDbEntity
  8
0
100
AcDbLine
 62
7
  6
CONTINUOUS
 10
93.5662175387
 20
92.8145986614
 11
92.2934306319
 21
93.5494259006
  0
LINE
  5
39C
100
AcDbEntity
  8
0
100
AcDbLine
 62
7
  6
CONTINUOUS
 10
93.2126656203
 20
93.6719297262
 11
92.7176802592
 21
93.9577031926
  0
LINE
  5
39D
100
AcDbEntity
  8
0
100
AcDbLine
 62
7
  6
CONTINUOUS
 10
88.8130708391
 20
97.4188780499
 11
90.2272902894
 21
96.6023965408
  0
LINE
  5
39E
100
AcDbEntity
  8
0
100
AcDbLine
 62
7
  6
CONTINUOUS
 10
89.2067360236
 20
97.6461593935
 11
90.6209554739
 21
96.8296778844
  0
LINE
  5
39F
100
AcDbEntity
  8
0
100
AcDbLine
 62
7
  6
CONTINUOUS
 10
93.2126656203
 20
93.6719297262
 11
93.2126656203
 21
94.2434814182
  0
LINE
  5
3A0
100
AcDbEntity
  8
0
100
AcDbLine
 62
7
  6
CONTINUOUS
 10
95.1218459808
 20
117.6770817422
 11
95.1218459808
 21
95.345740634
  0
LINE
  5
3A1
100
AcDbEntity
  8
0
100
AcDbLine
 62
7
  6
CONTINUOUS
 10
95.1218459808
 20
66.4661968987
 11
95.1218459808
 21
44.1918642005
  0
LINE
  5
3A2
100
AcDbEntity
  8
0
100
AcDbLine
 62
7
  6
CONTINUOUS
 10
77.2444614426
 20
42.8519396242
 11
70.5730002861
 21
39.0001927214
  0
LINE
  5
3A3
100
AcDbEntity
  8
0
100
AcDbLine
 62
7
  6
CONTINUOUS
 10
57.1943832432
 20
26.6528543619
 11
59.0155369627
 21
27.7042916759
  0
LINE
  5
3A4
100
AcDbEntity
  8
0
100
AcDbLine
 62
7
  6
CONTINUOUS
 10
88.3069520806
 20
44.6155971323
 11
90.1281058001
 21
45.6670344462
  0
LINE
  5
3A5
100
AcDbEntity
  8
0
100
AcDbLine
 62
7
  6
CONTINUOUS
 10
80.2282700268
 20
106.3534368887
 11
81.6424894771
 21
105.5369553797
  0
LINE
  5
3A6
100
AcDbEntity
  8
0
100
AcDbLine
 62
7
  6
CONTINUOUS
 10
84.7380243649
 20
104.4927073067
 11
83.3238049146
 21
105.3091888158
  0
LINE
  5
3A7
100
AcDbEntity
  8
0
100
AcDbLine
 62
7
  6
CONTINUOUS
 10
82.570739328
 20
106.1032449301
 11
82.404971402
 21
106.1989489217
  0
LINE
  5
3A8
100
AcDbEntity
  8
0
100
AcDbLine
 62
7
  6
CONTINUOUS
 10
86.0603085405
 20
105.2561238749
 11
84.6460890902
 21
106.0726053839
  0
LINE
  5
3A9
100
AcDbEntity
  8
0
100
AcDbLine
 62
7
  6
CONTINUOUS
 10
88.8130708391
 20
103.7059466627
 11
90.2272902894
 21
102.8894651536
  0
LINE
  5
3AA
100
AcDbEntity
  8
0
100
AcDbLine
 62
7
  6
CONTINUOUS
 10
86.0603085405
 20
105.8113455184
 11
84.6460890902
 21
106.6278270275
  0
LINE
  5
3AB
100
AcDbEntity
  8
0
100
AcDbLine
 62
7
  6
CONTINUOUS
 10
49.9792092078
 20
126.1108056212
 11
52.0820259781
 21
124.8753952794
  0
LINE
  5
3AC
100
AcDbEntity
  8
0
100
AcDbLine
 62
7
  6
CONTINUOUS
 10
53.8867788287
 20
122.651359579
 11
52.5320068359
 21
123.4613102547
  0
LINE
  5
3AD
100
AcDbEntity
  8
0
100
AcDbLine
 62
7
  6
CONTINUOUS
 10
52.5320068359
 20
125.0943150889
 11
55.2763372044
 21
123.4536166925
  0
LINE
  5
3AE
100
AcDbEntity
  8
0
100
AcDbLine
 62
7
  6
CONTINUOUS
 10
87.4038058312
 20
106.5870094109
 11
87.4916746725
 21
106.3927491943
  0
LINE
  5
3AF
100
AcDbEntity
  8
0
100
AcDbLine
 62
7
  6
CONTINUOUS
 10
93.2126656203
 20
93.6719297263
 11
93.5662175387
 21
92.8145986614
  0
LINE
  5
3B0
100
AcDbEntity
  8
0
100
AcDbLine
 62
7
  6
CONTINUOUS
 10
82.7051770332
 20
125.8255544415
 11
81.527449762
 21
129.8711849021
  0
LINE
  5
3B1
100
AcDbEntity
  8
0
100
AcDbLine
 62
7
  6
CONTINUOUS
 10
88.7138863498
 20
43.4824523284
 11
88.3069520806
 21
43.2475101209
  0
LINE
  5
3B2
100
AcDbEntity
  8
0
100
AcDbLine
 62
7
  6
CONTINUOUS
 10
57.6013175124
 20
25.519709558
 11
57.1943832432
 21
25.2847673506
  0
LINE
  5
3B3
100
AcDbEntity
  8
0
100
AcDbLine
 62
7
  6
CONTINUOUS
 10
90.1281058001
 20
42.6659708193
 11
88.3069520806
 21
41.6145335054
  0
LINE
  5
3B4
100
AcDbEntity
  8
0
100
AcDbLine
 62
7
  6
CONTINUOUS
 10
59.0155369627
 20
24.703228049
 11
57.1943832432
 21
23.651790735
  0
LINE
  5
3B5
100
AcDbEntity
  8
0
100
AcDbLine
 62
7
  6
CONTINUOUS
 10
95.1218459808
 20
44.1918642005
 11
51.2814080735
 21
18.8807266605
  0
LINE
  5
3B6
100
AcDbEntity
  8
0
100
AcDbLine
 62
7
  6
CONTINUOUS
 10
46.04143528
 20
15.9610598162
 11
51.2814080735
 21
18.8807266605
  0
LINE
  5
3B7
100
AcDbEntity
  8
0
100
AcDbLine
 62
7
  6
CONTINUOUS
 10
87.4038058308
 20
106.5870094106
 11
85.9895863805
 21
107.4034909197
  0
LINE
  5
3B8
100
AcDbEntity
  8
0
100
AcDbLine
 62
7
  6
CONTINUOUS
 10
86.5768840415
 20
108.6075894295
 11
86.7426519676
 21
108.5118854379
  0
LINE
  5
3B9
100
AcDbEntity
  8
0
100
AcDbLine
 62
7
  6
CONTINUOUS
 10
86.96764815
 20
108.534172986
 11
86.7086830547
 21
108.683683171
  0
LINE
  5
3BA
100
AcDbEntity
  8
0
100
AcDbLine
 62
7
  6
CONTINUOUS
 10
65.7415156079
 20
123.725159768
 11
64.3026108643
 21
124.5558930153
  0
LINE
  5
3BB
100
AcDbEntity
  8
0
100
AcDbLine
 62
7
  6
CONTINUOUS
 10
62.3704002948
 20
125.8755504482
 11
61.5540099754
 21
126.3468829559
  0
LINE
  5
3BC
100
AcDbEntity
  8
0
100
AcDbLine
 62
7
  6
CONTINUOUS
 10
87.0608486943
 20
108.3281692194
 11
86.9676432691
 21
108.5341645319
  0
LINE
  5
3BD
100
AcDbEntity
  8
0
100
AcDbLine
 62
7
  6
CONTINUOUS
 10
83.622843059
 20
131.1108809134
 11
84.8005703302
 21
127.0652504528
  0
LINE
  5
3BE
100
AcDbEntity
  8
0
100
AcDbLine
 62
7
  6
CONTINUOUS
 10
88.6151460027
 20
111.4173501126
 11
90.029365453
 21
110.6008686035
  0
LINE
  5
3BF
100
AcDbEntity
  8
0
100
AcDbLine
 62
7
  6
CONTINUOUS
 10
68.569918974
 20
125.3866049605
 11
68.5945798288
 21
125.3723673314
  0
LINE
  5
3C0
100
AcDbEntity
  8
0
100
AcDbLine
 62
7
  6
CONTINUOUS
 10
65.4677661665
 20
128.6064776584
 11
66.2841564859
 21
128.1351451507
  0
LINE
  5
3C1
100
AcDbEntity
  8
0
100
AcDbLine
 62
7
  6
CONTINUOUS
 10
68.569918974
 20
127.0196097948
 11
70.0088237176
 21
126.1888765474
  0
LINE
  5
3C2
100
AcDbEntity
  8
0
100
AcDbLine
 62
7
  6
CONTINUOUS
 10
67.8980957721
 20
131.7663468656
 11
68.5444053738
 21
131.3996646038
  0
LINE
  5
3C3
100
AcDbEntity
  8
0
100
AcDbLine
 62
7
  6
CONTINUOUS
 10
82.7051770332
 20
122.3145940479
 11
75.5064808844
 21
126.4706691842
  0
LINE
  5
3C4
100
AcDbEntity
  8
0
100
AcDbLine
 62
7
  6
CONTINUOUS
 10
95.1218459808
 20
117.6770817422
 11
84.8005703302
 21
123.6359382101
  0
LINE
  5
3C5
100
AcDbEntity
  8
0
100
AcDbLine
 62
7
  6
CONTINUOUS
 10
75.5064808844
 20
129.0017618623
 11
71.6458031059
 21
131.2306747922
  0
LINE
  5
3C6
100
AcDbEntity
  8
0
100
AcDbLine
 62
7
  6
CONTINUOUS
 10
69.9487397655
 20
132.2104526031
 11
67.403144755
 21
133.6801193194
  0
LINE
  5
3C7
100
AcDbEntity
  8
0
100
AcDbLine
 62
7
  6
CONTINUOUS
 10
68.7927045502
 20
129.5834474057
 11
65.9889488564
 21
131.2306611948
  0
LINE
  5
3C8
100
AcDbEntity
  8
0
100
AcDbLine
 62
7
  6
CONTINUOUS
 10
79.0565293687
 20
132.0145665831
 11
77.0039314599
 21
132.7817187624
  0
LINE
  5
3C9
100
AcDbEntity
  8
0
100
AcDbLine
 62
7
  6
CONTINUOUS
 10
79.1551285489
 20
131.9576416076
 11
79.0565293687
 21
132.0145665831
  0
LINE
  5
3CA
100
AcDbEntity
  8
0
100
AcDbLine
 62
7
  6
CONTINUOUS
 10
81.2077264577
 20
130.354711495
 11
79.1551285489
 21
131.9576416076
  0
LINE
  5
3CB
100
AcDbEntity
  8
0
100
AcDbLine
 62
7
  6
CONTINUOUS
 10
81.250521846
 20
133.1973376188
 11
83.3031197548
 21
131.5944075062
  0
LINE
  5
3CC
100
AcDbEntity
  8
0
100
AcDbLine
 62
7
  6
CONTINUOUS
 10
79.1511611861
 20
133.9914876744
 11
81.2037590948
 21
133.2243354951
  0
LINE
  5
3CD
100
AcDbEntity
  8
0
100
AcDbLine
 62
7
  6
CONTINUOUS
 10
81.2037590948
 20
133.2243354951
 11
81.250521846
 21
133.1973376188
  0
ARC
  5
3CE
100
AcDbEntity
  8
0
100
AcDbCircle
 62
7
  6
CONTINUOUS
 10
83.4431538052
 20
130.9791676832
 40
3.8578804422
100
AcDbArc
 50
202.8852083623
 51
217.0901299212
  0
SPLINE
  5
3CF
100
AcDbEntity
  8
0
100
AcDbSpline
 62
7
  6
CONTINUOUS
 70
0
 71
3
 72
17
 73
13
 74
0
 42
0.0000001
 43
0.0000001
 44
0.0000000001
 40
0.0
 40
0.0
 40
0.0
 40
0.0
 40
0.1286863573
 40
0.2703047991
 40
0.4174435769
 40
0.561781611
 40
0.6954485934
 40
0.812712505
 40
0.8646791313
 40
0.9125088214
 40
0.9571392312
 40
1.0
 40
1.0
 40
1.0
 40
1.0
 10
26.5003726271
 20
53.1959066954
 30
0.0
 10
26.6077113126
 20
53.1339497573
 30
0.0
 10
26.8160451641
 20
52.9735582035
 30
0.0
 10
27.0827523644
 20
52.6701964973
 30
0.0
 10
27.3022250692
 20
52.3131623909
 30
0.0
 10
27.4564135542
 20
51.9315836821
 30
0.0
 10
27.5329486144
 20
51.5563886791
 30
0.0
 10
27.5260336225
 20
51.2607700271
 30
0.0
 10
27.4713879303
 20
51.0579735502
 30
0.0
 10
27.4103811329
 20
50.9318977844
 30
0.0
 10
27.3289022667
 20
50.8287238282
 30
0.0
 10
27.2610842031
 20
50.776918534
 30
0.0
 10
27.2253364933
 20
50.7562778583
 30
0.0
  0
SPLINE
  5
3D0
100
AcDbEntity
  8
0
100
AcDbSpline
 62
7
  6
CONTINUOUS
 70
0
 71
3
 72
17
 73
13
 74
0
 42
0.0000001
 43
0.0000001
 44
0.0000000001
 40
0.0
 40
0.0
 40
0.0
 40
0.0
 40
0.1286863573
 40
0.2703047991
 40
0.4174435769
 40
0.561781611
 40
0.6954485934
 40
0.812712505
 40
0.8646791313
 40
0.9125088214
 40
0.9571392312
 40
1.0
 40
1.0
 40
1.0
 40
1.0
 10
26.5003726271
 20
50.0850324857
 30
0.0
 10
26.6077113126
 20
50.0230755475
 30
0.0
 10
26.8160451641
 20
49.8626839938
 30
0.0
 10
27.0827523645
 20
49.5593222876
 30
0.0
 10
27.3022250692
 20
49.2022881811
 30
0.0
 10
27.4564135542
 20
48.8207094724
 30
0.0
 10
27.5329486144
 20
48.4455144694
 30
0.0
 10
27.5260336225
 20
48.1498958173
 30
0.0
 10
27.4713879303
 20
47.9470993405
 30
0.0
 10
27.4103811329
 20
47.8210235747
 30
0.0
 10
27.3289022667
 20
47.7178496184
 30
0.0
 10
27.2610842031
 20
47.6660443242
 30
0.0
 10
27.2253364933
 20
47.6454036486
 30
0.0
  0
SPLINE
  5
3D1
100
AcDbEntity
  8
0
100
AcDbSpline
 62
7
  6
CONTINUOUS
 70
0
 71
3
 72
17
 73
13
 74
0
 42
0.0000001
 43
0.0000001
 44
0.0000000001
 40
0.0
 40
0.0
 40
0.0
 40
0.0
 40
0.1286863573
 40
0.2703047991
 40
0.4174435769
 40
0.561781611
 40
0.6954485934
 40
0.812712505
 40
0.8646791313
 40
0.9125088214
 40
0.9571392312
 40
1.0
 40
1.0
 40
1.0
 40
1.0
 10
26.5003726271
 20
46.9741582776
 30
0.0
 10
26.6077113126
 20
46.9122013394
 30
0.0
 10
26.8160451641
 20
46.7518097856
 30
0.0
 10
27.0827523645
 20
46.4484480794
 30
0.0
 10
27.3022250692
 20
46.091413973
 30
0.0
 10
27.4564135542
 20
45.7098352642
 30
0.0
 10
27.5329486144
 20
45.3346402612
 30
0.0
 10
27.5260336225
 20
45.0390216092
 30
0.0
 10
27.4713879303
 20
44.8362251323
 30
0.0
 10
27.4103811329
 20
44.7101493666
 30
0.0
 10
27.3289022667
 20
44.6069754103
 30
0.0
 10
27.2610842031
 20
44.5551701161
 30
0.0
 10
27.2253364933
 20
44.5345294404
 30
0.0
  0
SPLINE
  5
3D2
100
AcDbEntity
  8
0
100
AcDbSpline
 62
7
  6
CONTINUOUS
 70
0
 71
3
 72
17
 73
13
 74
0
 42
0.0000001
 43
0.0000001
 44
0.0000000001
 40
0.0
 40
0.0
 40
0.0
 40
0.0
 40
0.1286863699
 40
0.2703048276
 40
0.4174436093
 40
0.5617816371
 40
0.6954486088
 40
0.8127125105
 40
0.8646791334
 40
0.9125088217
 40
0.9571392309
 40
1.0
 40
1.0
 40
1.0
 40
1.0
 10
26.500373212
 20
43.8632836222
 30
0.0
 10
26.6077118807
 20
43.8013266938
 30
0.0
 10
26.8160456654
 20
43.6409351066
 30
0.0
 10
27.0827527214
 20
43.3375733726
 30
0.0
 10
27.3022252979
 20
42.9805392991
 30
0.0
 10
27.4564136655
 20
42.5989606701
 30
0.0
 10
27.5329486346
 20
42.223765775
 30
0.0
 10
27.5260335955
 20
41.9281472232
 30
0.0
 10
27.4713878903
 20
41.7253508206
 30
0.0
 10
27.410381095
 20
41.5992751
 30
0.0
 10
27.3289022417
 20
41.4961011795
 30
0.0
 10
27.2610841941
 20
41.4442959014
 30
0.0
 10
27.2253364933
 20
41.4236552309
 30
0.0
  0
SPLINE
  5
3D3
100
AcDbEntity
  8
0
100
AcDbSpline
 62
7
  6
CONTINUOUS
 70
0
 71
3
 72
17
 73
13
 74
0
 42
0.0000001
 43
0.0000001
 44
0.0000000001
 40
0.0
 40
0.0
 40
0.0
 40
0.0
 40
0.1286879908
 40
0.2703075183
 40
0.4174609512
 40
0.5617983983
 40
0.6954521366
 40
0.8127086037
 40
0.8646742608
 40
0.912505238
 40
0.9571370921
 40
1.0
 40
1.0
 40
1.0
 40
1.0
 10
26.5003726252
 20
40.7524098589
 30
0.0
 10
26.6077126484
 20
40.6904521487
 30
0.0
 10
26.8160475947
 20
40.5300580171
 30
0.0
 10
27.082767967
 20
40.2266852192
 30
0.0
 10
27.3022376956
 20
39.8696317764
 30
0.0
 10
27.4564238947
 20
39.4880515718
 30
0.0
 10
27.532949125
 20
39.1128763258
 30
0.0
 10
27.5260369942
 20
38.8172782609
 30
0.0
 10
27.4713895294
 20
38.6144899071
 30
0.0
 10
27.410388004
 20
38.4884097651
 30
0.0
 10
27.3289048833
 20
38.38523258
 30
0.0
 10
27.261084376
 20
38.3334253843
 30
0.0
 10
27.2253355432
 20
38.312782553
 30
0.0
  0
SPLINE
  5
3D4
100
AcDbEntity
  8
0
100
AcDbSpline
 62
7
  6
CONTINUOUS
 70
0
 71
3
 72
17
 73
13
 74
0
 42
0.0000001
 43
0.0000001
 44
0.0000000001
 40
0.0
 40
0.0
 40
0.0
 40
0.0
 40
0.1286863573
 40
0.2703047991
 40
0.4174435769
 40
0.561781611
 40
0.6954485934
 40
0.812712505
 40
0.8646791313
 40
0.9125088214
 40
0.9571392312
 40
1.0
 40
1.0
 40
1.0
 40
1.0
 10
26.5003726271
 20
37.6415356484
 30
0.0
 10
26.6077113127
 20
37.5795787103
 30
0.0
 10
26.8160451642
 20
37.4191871565
 30
0.0
 10
27.0827523645
 20
37.1158254503
 30
0.0
 10
27.3022250692
 20
36.7587913439
 30
0.0
 10
27.4564135543
 20
36.3772126351
 30
0.0
 10
27.5329486145
 20
36.0020176321
 30
0.0
 10
27.5260336226
 20
35.7063989801
 30
0.0
 10
27.4713879304
 20
35.5036025032
 30
0.0
 10
27.410381133
 20
35.3775267374
 30
0.0
 10
27.3289022668
 20
35.2743527812
 30
0.0
 10
27.2610842031
 20
35.222547487
 30
0.0
 10
27.2253364934
 20
35.2019068113
 30
0.0
  0
SPLINE
  5
3D5
100
AcDbEntity
  8
0
100
AcDbSpline
 62
7
  6
CONTINUOUS
 70
0
 71
3
 72
17
 73
13
 74
0
 42
0.0000001
 43
0.0000001
 44
0.0000000001
 40
0.0
 40
0.0
 40
0.0
 40
0.0
 40
0.1286863573
 40
0.2703047991
 40
0.4174435769
 40
0.561781611
 40
0.6954485934
 40
0.812712505
 40
0.8646791313
 40
0.9125088214
 40
0.9571392312
 40
1.0
 40
1.0
 40
1.0
 40
1.0
 10
26.5003726271
 20
34.5306614404
 30
0.0
 10
26.6077113126
 20
34.4687045022
 30
0.0
 10
26.8160451641
 20
34.3083129484
 30
0.0
 10
27.0827523645
 20
34.0049512422
 30
0.0
 10
27.3022250692
 20
33.6479171358
 30
0.0
 10
27.4564135542
 20
33.266338427
 30
0.0
 10
27.5329486144
 20
32.891143424
 30
0.0
 10
27.5260336225
 20
32.595524772
 30
0.0
 10
27.4713879303
 20
32.3927282951
 30
0.0
 10
27.4103811329
 20
32.2666525294
 30
0.0
 10
27.3289022667
 20
32.1634785731
 30
0.0
 10
27.2610842031
 20
32.1116732789
 30
0.0
 10
27.2253364933
 20
32.0910326032
 30
0.0
  0
SPLINE
  5
3D6
100
AcDbEntity
  8
0
100
AcDbSpline
 62
7
  6
CONTINUOUS
 70
0
 71
3
 72
17
 73
13
 74
0
 42
0.0000001
 43
0.0000001
 44
0.0000000001
 40
0.0
 40
0.0
 40
0.0
 40
0.0
 40
0.1286837432
 40
0.2702956855
 40
0.4174293706
 40
0.5617648256
 40
0.6954322185
 40
0.8126979444
 40
0.8646661104
 40
0.9124988864
 40
0.9571334487
 40
1.0
 40
1.0
 40
1.0
 40
1.0
 10
26.5003725287
 20
31.4197872692
 30
0.0
 10
26.607709043
 20
31.3578315843
 30
0.0
 10
26.8160365443
 20
31.1974463904
 30
0.0
 10
27.0827367285
 20
30.8940970207
 30
0.0
 10
27.3022082061
 20
30.5370783886
 30
0.0
 10
27.4564007481
 20
30.1555088361
 30
0.0
 10
27.5329445834
 20
29.7803163969
 30
0.0
 10
27.5260406061
 20
29.4846936744
 30
0.0
 10
27.4713994807
 20
29.2818896926
 30
0.0
 10
27.4103974605
 20
29.155802449
 30
0.0
 10
27.328914858
 20
29.0526142062
 30
0.0
 10
27.2610864871
 20
29.0008060809
 30
0.0
 10
27.225333762
 20
28.9801629466
 30
0.0
  0
SPLINE
  5
3D7
100
AcDbEntity
  8
0
100
AcDbSpline
 62
7
  6
CONTINUOUS
 70
0
 71
3
 72
17
 73
13
 74
0
 42
0.0000001
 43
0.0000001
 44
0.0000000001
 40
0.0
 40
0.0
 40
0.0
 40
0.0
 40
0.1286863573
 40
0.2703047991
 40
0.4174435769
 40
0.561781611
 40
0.6954485934
 40
0.812712505
 40
0.8646791313
 40
0.9125088214
 40
0.9571392312
 40
1.0
 40
1.0
 40
1.0
 40
1.0
 10
26.5003726271
 20
28.3089130209
 30
0.0
 10
26.6077113126
 20
28.2469560828
 30
0.0
 10
26.8160451641
 20
28.086564529
 30
0.0
 10
27.0827523645
 20
27.7832028228
 30
0.0
 10
27.3022250692
 20
27.4261687164
 30
0.0
 10
27.4564135542
 20
27.0445900076
 30
0.0
 10
27.5329486144
 20
26.6693950046
 30
0.0
 10
27.5260336225
 20
26.3737763526
 30
0.0
 10
27.4713879303
 20
26.1709798757
 30
0.0
 10
27.4103811329
 20
26.0449041099
 30
0.0
 10
27.3289022667
 20
25.9417301537
 30
0.0
 10
27.2610842031
 20
25.8899248595
 30
0.0
 10
27.2253364933
 20
25.8692841838
 30
0.0
  0
SPLINE
  5
3D8
100
AcDbEntity
  8
0
100
AcDbSpline
 62
7
  6
CONTINUOUS
 70
0
 71
3
 72
17
 73
13
 74
0
 42
0.0000001
 43
0.0000001
 44
0.0000000001
 40
0.0
 40
0.0
 40
0.0
 40
0.0
 40
0.1286863573
 40
0.2703047991
 40
0.4174435769
 40
0.561781611
 40
0.6954485934
 40
0.812712505
 40
0.8646791313
 40
0.9125088214
 40
0.9571392312
 40
1.0
 40
1.0
 40
1.0
 40
1.0
 10
26.5003726271
 20
25.1980388128
 30
0.0
 10
26.6077113126
 20
25.1360818747
 30
0.0
 10
26.8160451641
 20
24.9756903209
 30
0.0
 10
27.0827523645
 20
24.6723286147
 30
0.0
 10
27.3022250692
 20
24.3152945083
 30
0.0
 10
27.4564135542
 20
23.9337157995
 30
0.0
 10
27.5329486144
 20
23.5585207965
 30
0.0
 10
27.5260336225
 20
23.2629021445
 30
0.0
 10
27.4713879303
 20
23.0601056676
 30
0.0
 10
27.4103811329
 20
22.9340299018
 30
0.0
 10
27.3289022667
 20
22.8308559456
 30
0.0
 10
27.2610842031
 20
22.7790506514
 30
0.0
 10
27.2253364933
 20
22.7584099757
 30
0.0
  0
SPLINE
  5
3D9
100
AcDbEntity
  8
0
100
AcDbSpline
 62
7
  6
CONTINUOUS
 70
0
 71
3
 72
17
 73
13
 74
0
 42
0.0000001
 43
0.0000001
 44
0.0000000001
 40
0.0
 40
0.0
 40
0.0
 40
0.0
 40
0.1286863573
 40
0.2703047991
 40
0.4174435769
 40
0.561781611
 40
0.6954485934
 40
0.812712505
 40
0.8646791313
 40
0.9125088214
 40
0.9571392312
 40
1.0
 40
1.0
 40
1.0
 40
1.0
 10
26.500372627
 20
22.0871646031
 30
0.0
 10
26.6077113126
 20
22.0252076649
 30
0.0
 10
26.8160451641
 20
21.8648161112
 30
0.0
 10
27.0827523644
 20
21.561454405
 30
0.0
 10
27.3022250692
 20
21.2044202986
 30
0.0
 10
27.4564135542
 20
20.8228415898
 30
0.0
 10
27.5329486144
 20
20.4476465868
 30
0.0
 10
27.5260336225
 20
20.1520279347
 30
0.0
 10
27.4713879303
 20
19.9492314578
 30
0.0
 10
27.4103811329
 20
19.8231556921
 30
0.0
 10
27.3289022667
 20
19.7199817358
 30
0.0
 10
27.2610842031
 20
19.6681764416
 30
0.0
 10
27.2253364933
 20
19.6475357659
 30
0.0
  0
SPLINE
  5
3DA
100
AcDbEntity
  8
0
100
AcDbSpline
 62
7
  6
CONTINUOUS
 70
0
 71
3
 72
11
 73
7
 74
0
 42
0.0000001
 43
0.0000001
 44
0.0000000001
 40
0.0
 40
0.0
 40
0.0
 40
0.0
 40
0.2177155805
 40
0.4508632676
 40
0.7104636547
 40
1.0
 40
1.0
 40
1.0
 40
1.0
 10
25.7751820526
 20
22.1590301457
 30
0.0
 10
25.8230103689
 20
22.1866461451
 30
0.0
 10
25.9328934156
 20
22.2266274158
 30
0.0
 10
26.1155525858
 20
22.2312073886
 30
0.0
 10
26.3101281921
 20
22.1840755531
 30
0.0
 10
26.4367683858
 20
22.1238938578
 30
0.0
 10
26.500372627
 20
22.0871646031
 30
0.0
  0
SPLINE
  5
3DB
100
AcDbEntity
  8
0
100
AcDbSpline
 62
7
  6
CONTINUOUS
 70
0
 71
3
 72
9
 73
5
 74
0
 42
0.0000001
 43
0.0000001
 44
0.0000000001
 40
0.0
 40
0.0
 40
0.0
 40
0.0
 40
0.550040839
 40
1.0
 40
1.0
 40
1.0
 40
1.0
 10
23.3506816809
 20
59.2566451229
 30
0.0
 10
23.3341680253
 20
59.2471110164
 30
0.0
 10
23.3058726189
 20
59.2252788414
 30
0.0
 10
23.292085174
 20
59.190595727
 30
0.0
 10
23.292085166
 20
59.174996966
 30
0.0
  0
SPLINE
  5
3DC
100
AcDbEntity
  8
0
100
AcDbSpline
 62
7
  6
CONTINUOUS
 70
0
 71
3
 72
11
 73
7
 74
0
 42
0.0000001
 43
0.0000001
 44
0.0000000001
 40
0.0
 40
0.0
 40
0.0
 40
0.0
 40
0.2177155805
 40
0.4508632676
 40
0.7104636547
 40
1.0
 40
1.0
 40
1.0
 40
1.0
 10
25.7751820525
 20
25.2699043555
 30
0.0
 10
25.8230103687
 20
25.2975203549
 30
0.0
 10
25.9328934155
 20
25.3375016256
 30
0.0
 10
26.1155525857
 20
25.3420815984
 30
0.0
 10
26.3101281921
 20
25.2949497629
 30
0.0
 10
26.4367683859
 20
25.2347680676
 30
0.0
 10
26.5003726271
 20
25.1980388128
 30
0.0
  0
SPLINE
  5
3DD
100
AcDbEntity
  8
0
100
AcDbSpline
 62
7
  6
CONTINUOUS
 70
0
 71
3
 72
9
 73
5
 74
0
 42
0.0000001
 43
0.0000001
 44
0.0000000001
 40
0.0
 40
0.0
 40
0.0
 40
0.0
 40
0.5500415758
 40
1.0
 40
1.0
 40
1.0
 40
1.0
 10
23.3506828563
 20
24.2286949284
 30
0.0
 10
23.3341688995
 20
24.2382290503
 30
0.0
 10
23.3058729578
 20
24.2600612879
 30
0.0
 10
23.2920851739
 20
24.2947448293
 30
0.0
 10
23.292085166
 20
24.3103437636
 30
0.0
  0
SPLINE
  5
3DE
100
AcDbEntity
  8
0
100
AcDbSpline
 62
7
  6
CONTINUOUS
 70
0
 71
3
 72
11
 73
7
 74
0
 42
0.0000001
 43
0.0000001
 44
0.0000000001
 40
0.0
 40
0.0
 40
0.0
 40
0.0
 40
0.2177155805
 40
0.4508632676
 40
0.7104636547
 40
1.0
 40
1.0
 40
1.0
 40
1.0
 10
25.7751820525
 20
28.3807785636
 30
0.0
 10
25.8230103687
 20
28.4083945631
 30
0.0
 10
25.9328934155
 20
28.4483758338
 30
0.0
 10
26.1155525857
 20
28.4529558065
 30
0.0
 10
26.3101281921
 20
28.405823971
 30
0.0
 10
26.4367683858
 20
28.3456422757
 30
0.0
 10
26.5003726271
 20
28.3089130209
 30
0.0
  0
SPLINE
  5
3DF
100
AcDbEntity
  8
0
100
AcDbSpline
 62
7
  6
CONTINUOUS
 70
0
 71
3
 72
11
 73
7
 74
0
 42
0.0000001
 43
0.0000001
 44
0.0000000001
 40
0.0
 40
0.0
 40
0.0
 40
0.0
 40
0.2892210997
 40
0.5490324661
 40
0.7821969809
 40
1.0
 40
1.0
 40
1.0
 40
1.0
 10
25.4055054353
 20
19.6573359797
 30
0.0
 10
25.3836029292
 20
19.6699811116
 30
0.0
 10
25.3438546804
 20
19.6974560727
 30
0.0
 10
25.2962047572
 20
19.7473655593
 30
0.0
 10
25.2660730882
 20
19.8027041632
 30
0.0
 10
25.2590430817
 20
19.8424124573
 30
0.0
 10
25.2590783287
 20
19.8614580241
 30
0.0
  0
SPLINE
  5
3E0
100
AcDbEntity
  8
0
100
AcDbSpline
 62
7
  6
CONTINUOUS
 70
0
 71
3
 72
11
 73
7
 74
0
 42
0.0000001
 43
0.0000001
 44
0.0000000001
 40
0.0
 40
0.0
 40
0.0
 40
0.0
 40
0.2370450208
 40
0.4999976369
 40
0.7629523331
 40
1.0
 40
1.0
 40
1.0
 40
1.0
 10
29.1165644552
 20
17.6780998262
 30
0.0
 10
29.0965046143
 20
17.666518341
 30
0.0
 10
29.0497934891
 20
17.649695213
 30
0.0
 10
28.9751436977
 20
17.6414152666
 30
0.0
 10
28.9004936524
 20
17.6496949205
 30
0.0
 10
28.8537818925
 20
17.6665176771
 30
0.0
 10
28.8337217443
 20
17.6780991471
 30
0.0
  0
SPLINE
  5
3E1
100
AcDbEntity
  8
0
100
AcDbSpline
 62
7
  6
CONTINUOUS
 70
0
 71
3
 72
11
 73
7
 74
0
 42
0.0000001
 43
0.0000001
 44
0.0000000001
 40
0.0
 40
0.0
 40
0.0
 40
0.0
 40
0.2177155833
 40
0.4508632697
 40
0.7104636541
 40
1.0
 40
1.0
 40
1.0
 40
1.0
 10
25.7751820527
 20
31.491652773
 30
0.0
 10
25.823010363
 20
31.5192687689
 30
0.0
 10
25.9328933932
 20
31.559250037
 30
0.0
 10
26.1155525373
 20
31.5638300213
 30
0.0
 10
26.3101281189
 20
31.5166982032
 30
0.0
 10
26.4367682961
 20
31.4565165189
 30
0.0
 10
26.5003725287
 20
31.4197872692
 30
0.0
  0
SPLINE
  5
3E2
100
AcDbEntity
  8
0
100
AcDbSpline
 62
7
  6
CONTINUOUS
 70
0
 71
3
 72
11
 73
7
 74
0
 42
0.0000001
 43
0.0000001
 44
0.0000000001
 40
0.0
 40
0.0
 40
0.0
 40
0.0
 40
0.2177155805
 40
0.4508632676
 40
0.7104636547
 40
1.0
 40
1.0
 40
1.0
 40
1.0
 10
25.7751820525
 20
34.602526983
 30
0.0
 10
25.8230103688
 20
34.6301429824
 30
0.0
 10
25.9328934156
 20
34.6701242531
 30
0.0
 10
26.1155525858
 20
34.6747042259
 30
0.0
 10
26.3101281921
 20
34.6275723904
 30
0.0
 10
26.4367683858
 20
34.5673906951
 30
0.0
 10
26.5003726271
 20
34.5306614404
 30
0.0
  0
SPLINE
  5
3E3
100
AcDbEntity
  8
0
100
AcDbSpline
 62
7
  6
CONTINUOUS
 70
0
 71
3
 72
9
 73
5
 74
0
 42
0.0000001
 43
0.0000001
 44
0.0000000001
 40
0.0
 40
0.0
 40
0.0
 40
0.0
 40
0.5500415757
 40
1.0
 40
1.0
 40
1.0
 40
1.0
 10
12.3197711441
 20
30.5972506989
 30
0.0
 10
12.3032571872
 20
30.6067848208
 30
0.0
 10
12.2749612455
 20
30.6286170585
 30
0.0
 10
12.2611734616
 20
30.6633005998
 30
0.0
 10
12.2611734537
 20
30.6788995341
 30
0.0
  0
SPLINE
  5
3E4
100
AcDbEntity
  8
0
100
AcDbSpline
 62
7
  6
CONTINUOUS
 70
0
 71
3
 72
11
 73
7
 74
0
 42
0.0000001
 43
0.0000001
 44
0.0000000001
 40
0.0
 40
0.0
 40
0.0
 40
0.0
 40
0.2177155805
 40
0.4508632676
 40
0.7104636547
 40
1.0
 40
1.0
 40
1.0
 40
1.0
 10
25.7751820525
 20
37.7134011911
 30
0.0
 10
25.8230103688
 20
37.7410171906
 30
0.0
 10
25.9328934156
 20
37.7809984613
 30
0.0
 10
26.1155525858
 20
37.785578434
 30
0.0
 10
26.3101281922
 20
37.7384465985
 30
0.0
 10
26.4367683859
 20
37.6782649032
 30
0.0
 10
26.5003726271
 20
37.6415356484
 30
0.0
  0
SPLINE
  5
3E5
100
AcDbEntity
  8
0
100
AcDbSpline
 62
7
  6
CONTINUOUS
 70
0
 71
3
 72
11
 73
7
 74
0
 42
0.0000001
 43
0.0000001
 44
0.0000000001
 40
0.0
 40
0.0
 40
0.0
 40
0.0
 40
0.2892210997
 40
0.5490324661
 40
0.7821969809
 40
1.0
 40
1.0
 40
1.0
 40
1.0
 10
14.374593723
 20
26.0258917502
 30
0.0
 10
14.3526912169
 20
26.0385368821
 30
0.0
 10
14.3129429681
 20
26.0660118432
 30
0.0
 10
14.2652930449
 20
26.1159213298
 30
0.0
 10
14.2351613759
 20
26.1712599337
 30
0.0
 10
14.2281313694
 20
26.2109682278
 30
0.0
 10
14.2281666164
 20
26.2300137946
 30
0.0
  0
SPLINE
  5
3E6
100
AcDbEntity
  8
0
100
AcDbSpline
 62
7
  6
CONTINUOUS
 70
0
 71
3
 72
11
 73
7
 74
0
 42
0.0000001
 43
0.0000001
 44
0.0000000001
 40
0.0
 40
0.0
 40
0.0
 40
0.0
 40
0.2370450206
 40
0.4999976365
 40
0.7629523329
 40
1.0
 40
1.0
 40
1.0
 40
1.0
 10
18.0856527452
 20
24.0466555975
 30
0.0
 10
18.0655929042
 20
24.0350741122
 30
0.0
 10
18.0188817788
 20
24.0182509839
 30
0.0
 10
17.9442319868
 20
24.0099710371
 30
0.0
 10
17.8695819408
 20
24.0182506908
 30
0.0
 10
17.8228701804
 20
24.0350734475
 30
0.0
 10
17.802810032
 20
24.0466549177
 30
0.0
  0
SPLINE
  5
3E7
100
AcDbEntity
  8
0
100
AcDbSpline
 62
7
  6
CONTINUOUS
 70
0
 71
3
 72
11
 73
7
 74
0
 42
0.0000001
 43
0.0000001
 44
0.0000000001
 40
0.0
 40
0.0
 40
0.0
 40
0.0
 40
0.2177155805
 40
0.4508632676
 40
0.7104636547
 40
1.0
 40
1.0
 40
1.0
 40
1.0
 10
25.7751820525
 20
40.8242754008
 30
0.0
 10
25.8230103686
 20
40.8518914002
 30
0.0
 10
25.9328934151
 20
40.8918726709
 30
0.0
 10
26.1155525848
 20
40.8964526438
 30
0.0
 10
26.3101281907
 20
40.8493208087
 30
0.0
 10
26.4367683842
 20
40.7891391135
 30
0.0
 10
26.5003726252
 20
40.7524098589
 30
0.0
  0
SPLINE
  5
3E8
100
AcDbEntity
  8
0
100
AcDbSpline
 62
7
  6
CONTINUOUS
 70
0
 71
3
 72
11
 73
7
 74
0
 42
0.0000001
 43
0.0000001
 44
0.0000000001
 40
0.0
 40
0.0
 40
0.0
 40
0.0
 40
0.2177429669
 40
0.4508904017
 40
0.7104684829
 40
1.0
 40
1.0
 40
1.0
 40
1.0
 10
25.7751847839
 20
43.9351450573
 30
0.0
 10
25.8230194666
 20
43.9627641477
 30
0.0
 10
25.9329063587
 20
44.0027584548
 30
0.0
 10
26.1155688078
 20
44.0073221735
 30
0.0
 10
26.3101377516
 20
43.960197091
 30
0.0
 10
26.4367699027
 20
43.9000123388
 30
0.0
 10
26.500373212
 20
43.8632836222
 30
0.0
  0
SPLINE
  5
3E9
100
AcDbEntity
  8
0
100
AcDbSpline
 62
7
  6
CONTINUOUS
 70
0
 71
3
 72
11
 73
7
 74
0
 42
0.0000001
 43
0.0000001
 44
0.0000000001
 40
0.0
 40
0.0
 40
0.0
 40
0.0
 40
0.2177155805
 40
0.4508632676
 40
0.7104636547
 40
1.0
 40
1.0
 40
1.0
 40
1.0
 10
25.7751820525
 20
47.0460238203
 30
0.0
 10
25.8230103687
 20
47.0736398197
 30
0.0
 10
25.9328934155
 20
47.1136210904
 30
0.0
 10
26.1155525857
 20
47.1182010632
 30
0.0
 10
26.3101281921
 20
47.0710692277
 30
0.0
 10
26.4367683859
 20
47.0108875323
 30
0.0
 10
26.5003726271
 20
46.9741582776
 30
0.0
  0
SPLINE
  5
3EA
100
AcDbEntity
  8
0
100
AcDbSpline
 62
7
  6
CONTINUOUS
 70
0
 71
3
 72
11
 73
7
 74
0
 42
0.0000001
 43
0.0000001
 44
0.0000000001
 40
0.0
 40
0.0
 40
0.0
 40
0.0
 40
0.2177155805
 40
0.4508632676
 40
0.7104636547
 40
1.0
 40
1.0
 40
1.0
 40
1.0
 10
25.7751820525
 20
50.1568980283
 30
0.0
 10
25.8230103688
 20
50.1845140278
 30
0.0
 10
25.9328934156
 20
50.2244952985
 30
0.0
 10
26.1155525858
 20
50.2290752712
 30
0.0
 10
26.3101281921
 20
50.1819434357
 30
0.0
 10
26.4367683859
 20
50.1217617404
 30
0.0
 10
26.5003726271
 20
50.0850324857
 30
0.0
  0
SPLINE
  5
3EB
100
AcDbEntity
  8
0
100
AcDbSpline
 62
7
  6
CONTINUOUS
 70
0
 71
3
 72
11
 73
7
 74
0
 42
0.0000001
 43
0.0000001
 44
0.0000000001
 40
0.0
 40
0.0
 40
0.0
 40
0.0
 40
0.2367285468
 40
0.4989100111
 40
0.7616834297
 40
1.0
 40
1.0
 40
1.0
 40
1.0
 10
17.90587615
 20
104.5075869123
 30
0.0
 10
17.90587615
 20
104.5763180685
 30
0.0
 10
17.9313761717
 20
104.7212682429
 30
0.0
 10
18.0205013594
 20
104.9254141998
 30
0.0
 10
18.1512414376
 20
105.106335208
 30
0.0
 10
18.2633368683
 20
105.2025953722
 30
0.0
 10
18.3227340542
 20
105.2380853348
 30
0.0
  0
SPLINE
  5
3EC
100
AcDbEntity
  8
0
100
AcDbSpline
 62
7
  6
CONTINUOUS
 70
0
 71
3
 72
11
 73
7
 74
0
 42
0.0000001
 43
0.0000001
 44
0.0000000001
 40
0.0
 40
0.0
 40
0.0
 40
0.0
 40
0.2177154825
 40
0.4508631649
 40
0.710463621
 40
1.0
 40
1.0
 40
1.0
 40
1.0
 10
14.7442717921
 20
28.5275821668
 30
0.0
 10
14.7921001223
 20
28.5551981751
 30
0.0
 10
14.901983273
 20
28.5951793959
 30
0.0
 10
15.0846425876
 20
28.5997590513
 30
0.0
 10
15.2792182787
 20
28.5526268508
 30
0.0
 10
15.4058585197
 20
28.4924449664
 30
0.0
 10
15.4694627905
 20
28.4557156357
 30
0.0
  0
SPLINE
  5
3ED
100
AcDbEntity
  8
0
100
AcDbSpline
 62
7
  6
CONTINUOUS
 70
0
 71
3
 72
11
 73
7
 74
0
 42
0.0000001
 43
0.0000001
 44
0.0000000001
 40
0.0
 40
0.0
 40
0.0
 40
0.0
 40
0.2177154824
 40
0.4508631648
 40
0.7104636211
 40
1.0
 40
1.0
 40
1.0
 40
1.0
 10
14.7442717921
 20
31.6384563765
 30
0.0
 10
14.7921001225
 20
31.6660723848
 30
0.0
 10
14.9019832734
 20
31.7060536057
 30
0.0
 10
15.0846425885
 20
31.7106332609
 30
0.0
 10
15.2792182801
 20
31.66350106
 30
0.0
 10
15.4058585214
 20
31.6033191754
 30
0.0
 10
15.4694627924
 20
31.5665898446
 30
0.0
  0
SPLINE
  5
3EE
100
AcDbEntity
  8
0
100
AcDbSpline
 62
7
  6
CONTINUOUS
 70
0
 71
3
 72
11
 73
7
 74
0
 42
0.0000001
 43
0.0000001
 44
0.0000000001
 40
0.0
 40
0.0
 40
0.0
 40
0.0
 40
0.2177154825
 40
0.4508631649
 40
0.7104636211
 40
1.0
 40
1.0
 40
1.0
 40
1.0
 10
14.7442717924
 20
34.7493305858
 30
0.0
 10
14.7921001227
 20
34.776946594
 30
0.0
 10
14.9019832735
 20
34.8169278149
 30
0.0
 10
15.0846425883
 20
34.8215074703
 30
0.0
 10
15.2792182796
 20
34.7743752697
 30
0.0
 10
15.4058585207
 20
34.7141933854
 30
0.0
 10
15.4694627915
 20
34.6774640547
 30
0.0
  0
SPLINE
  5
3EF
100
AcDbEntity
  8
0
100
AcDbSpline
 62
7
  6
CONTINUOUS
 70
0
 71
3
 72
11
 73
7
 74
0
 42
0.0000001
 43
0.0000001
 44
0.0000000001
 40
0.0
 40
0.0
 40
0.0
 40
0.0
 40
0.2177154825
 40
0.4508631649
 40
0.7104636211
 40
1.0
 40
1.0
 40
1.0
 40
1.0
 10
14.7442717925
 20
37.8602047955
 30
0.0
 10
14.7921001228
 20
37.8878208038
 30
0.0
 10
14.9019832735
 20
37.9278020246
 30
0.0
 10
15.0846425883
 20
37.93238168
 30
0.0
 10
15.2792182796
 20
37.8852494795
 30
0.0
 10
15.4058585207
 20
37.8250675951
 30
0.0
 10
15.4694627916
 20
37.7883382644
 30
0.0
  0
SPLINE
  5
3F0
100
AcDbEntity
  8
0
100
AcDbSpline
 62
7
  6
CONTINUOUS
 70
0
 71
3
 72
16
 73
12
 74
0
 42
0.0000001
 43
0.0000001
 44
0.0000000001
 40
0.0
 40
0.0
 40
0.0
 40
0.0
 40
0.1287410646
 40
0.2704217333
 40
0.4176260079
 40
0.5620272452
 40
0.6957527046
 40
0.8130676178
 40
0.9124709781
 40
0.9571206991
 40
1.0
 40
1.0
 40
1.0
 40
1.0
 10
64.5149199347
 20
29.7870623565
 30
0.0
 10
64.5149199347
 20
29.8968853933
 30
0.0
 10
64.5456688741
 20
30.1278290066
 30
0.0
 10
64.6603077324
 20
30.4669125371
 30
0.0
 10
64.8370904877
 20
30.7935339995
 30
0.0
 10
65.0614831038
 20
31.0809141546
 30
0.0
 10
65.3158986667
 20
31.3059325155
 30
0.0
 10
65.5805742821
 20
31.4511291077
 30
0.0
 10
65.8052432482
 20
31.4949611571
 30
0.0
 10
65.9644182206
 20
31.471715673
 30
0.0
 10
66.0342223333
 20
31.4426294895
 30
0.0
 10
66.0659009916
 20
31.4243418459
 30
0.0
  0
SPLINE
  5
3F1
100
AcDbEntity
  8
0
100
AcDbSpline
 62
7
  6
CONTINUOUS
 70
0
 71
3
 72
16
 73
12
 74
0
 42
0.0000001
 43
0.0000001
 44
0.0000000001
 40
0.0
 40
0.0
 40
0.0
 40
0.0
 40
0.1287410646
 40
0.2704217334
 40
0.4176260079
 40
0.5620272452
 40
0.6957527047
 40
0.8130676178
 40
0.9124709781
 40
0.9571206991
 40
1.0
 40
1.0
 40
1.0
 40
1.0
 10
64.5149199345
 20
96.7402605623
 30
0.0
 10
64.5149199345
 20
96.8500835991
 30
0.0
 10
64.545668874
 20
97.0810272123
 30
0.0
 10
64.6603077325
 20
97.4201107428
 30
0.0
 10
64.837090488
 20
97.746732205
 30
0.0
 10
65.0614831042
 20
98.0341123601
 30
0.0
 10
65.3158986671
 20
98.2591307207
 30
0.0
 10
65.5805742824
 20
98.4043273128
 30
0.0
 10
65.8052432485
 20
98.4481593622
 30
0.0
 10
65.9644182208
 20
98.4249138781
 30
0.0
 10
66.0342223335
 20
98.3958276945
 30
0.0
 10
66.0659009919
 20
98.3775400509
 30
0.0
  0
SPLINE
  5
3F2
100
AcDbEntity
  8
0
100
AcDbSpline
 62
7
  6
CONTINUOUS
 70
0
 71
3
 72
16
 73
12
 74
0
 42
0.0000001
 43
0.0000001
 44
0.0000000001
 40
0.0
 40
0.0
 40
0.0
 40
0.0
 40
0.1287426802
 40
0.2704244162
 40
0.4176433442
 40
0.5620439557
 40
0.6957561457
 40
0.8130635989
 40
0.9124674061
 40
0.9571185644
 40
1.0
 40
1.0
 40
1.0
 40
1.0
 10
91.4095508354
 20
112.2677902658
 30
0.0
 10
91.4095508354
 20
112.3746308166
 30
0.0
 10
91.4394657993
 20
112.5993017831
 30
0.0
 10
91.5509926032
 20
112.9291872473
 30
0.0
 10
91.7229880176
 20
113.2469408254
 30
0.0
 10
91.941286189
 20
113.5265116352
 30
0.0
 10
92.1887786704
 20
113.745401751
 30
0.0
 10
92.4462483697
 20
113.8866438609
 30
0.0
 10
92.6648081113
 20
113.9292870846
 30
0.0
 10
92.8196619208
 20
113.9066724548
 30
0.0
 10
92.8875719965
 20
113.8783753067
 30
0.0
 10
92.918392063
 20
113.8605846193
 30
0.0
  0
SPLINE
  5
3F3
100
AcDbEntity
  8
0
100
AcDbSpline
 62
7
  6
CONTINUOUS
 70
0
 71
3
 72
16
 73
12
 74
0
 42
0.0000001
 43
0.0000001
 44
0.0000000001
 40
0.0
 40
0.0
 40
0.0
 40
0.0
 40
0.1287426802
 40
0.2704244162
 40
0.4176433442
 40
0.5620439557
 40
0.6957561457
 40
0.8130635989
 40
0.9124674061
 40
0.9571185644
 40
1.0
 40
1.0
 40
1.0
 40
1.0
 10
91.4095508354
 20
45.3145920612
 30
0.0
 10
91.4095508354
 20
45.421432612
 30
0.0
 10
91.4394657993
 20
45.6461035785
 30
0.0
 10
91.5509926032
 20
45.9759890427
 30
0.0
 10
91.7229880176
 20
46.2937426208
 30
0.0
 10
91.941286189
 20
46.5733134306
 30
0.0
 10
92.1887786704
 20
46.7922035464
 30
0.0
 10
92.4462483697
 20
46.9334456563
 30
0.0
 10
92.6648081113
 20
46.97608888
 30
0.0
 10
92.8196619208
 20
46.9534742502
 30
0.0
 10
92.8875719965
 20
46.925177102
 30
0.0
 10
92.918392063
 20
46.9073864147
 30
0.0
  0
SPLINE
  5
3F4
100
AcDbEntity
  8
0
100
AcDbSpline
 62
7
  6
CONTINUOUS
 70
0
 71
3
 72
11
 73
7
 74
0
 42
0.0000001
 43
0.0000001
 44
0.0000000001
 40
0.0
 40
0.0
 40
0.0
 40
0.0
 40
0.2177155573
 40
0.4508666956
 40
0.7104706204
 40
1.0
 40
1.0
 40
1.0
 40
1.0
 10
14.7442727423
 20
40.971077472
 30
0.0
 10
14.7921001391
 20
40.9986949576
 30
0.0
 10
14.9019849156
 20
41.0386748427
 30
0.0
 10
15.0846454623
 20
41.0432559972
 30
0.0
 10
15.2792203461
 20
40.9961210431
 30
0.0
 10
15.405859972
 20
40.9359410003
 30
0.0
 10
15.469462603
 20
40.8992126164
 30
0.0
  0
SPLINE
  5
3F5
100
AcDbEntity
  8
0
100
AcDbSpline
 62
7
  6
CONTINUOUS
 70
0
 71
3
 72
11
 73
7
 74
0
 42
0.0000001
 43
0.0000001
 44
0.0000000001
 40
0.0
 40
0.0
 40
0.0
 40
0.0
 40
0.2177154824
 40
0.4508631648
 40
0.7104636211
 40
1.0
 40
1.0
 40
1.0
 40
1.0
 10
14.7442717921
 20
44.0819532138
 30
0.0
 10
14.7921001225
 20
44.1095692221
 30
0.0
 10
14.9019832734
 20
44.149550443
 30
0.0
 10
15.0846425885
 20
44.1541300982
 30
0.0
 10
15.2792182801
 20
44.1069978973
 30
0.0
 10
15.4058585214
 20
44.0468160127
 30
0.0
 10
15.4694627924
 20
44.0100866819
 30
0.0
  0
SPLINE
  5
3F6
100
AcDbEntity
  8
0
100
AcDbSpline
 62
7
  6
CONTINUOUS
 70
0
 71
3
 72
11
 73
7
 74
0
 42
0.0000001
 43
0.0000001
 44
0.0000000001
 40
0.0
 40
0.0
 40
0.0
 40
0.0
 40
0.2177154825
 40
0.4508631649
 40
0.7104636211
 40
1.0
 40
1.0
 40
1.0
 40
1.0
 10
14.7442717926
 20
47.192827423
 30
0.0
 10
14.7921001228
 20
47.2204434313
 30
0.0
 10
14.9019832736
 20
47.2604246521
 30
0.0
 10
15.0846425884
 20
47.2650043075
 30
0.0
 10
15.2792182796
 20
47.217872107
 30
0.0
 10
15.4058585207
 20
47.1576902226
 30
0.0
 10
15.4694627916
 20
47.1209608919
 30
0.0
  0
SPLINE
  5
3F7
100
AcDbEntity
  8
0
100
AcDbSpline
 62
7
  6
CONTINUOUS
 70
0
 71
3
 72
11
 73
7
 74
0
 42
0.0000001
 43
0.0000001
 44
0.0000000001
 40
0.0
 40
0.0
 40
0.0
 40
0.0
 40
0.2177154824
 40
0.4508631648
 40
0.7104636211
 40
1.0
 40
1.0
 40
1.0
 40
1.0
 10
14.7442717921
 20
50.3037016316
 30
0.0
 10
14.7921001225
 20
50.3313176399
 30
0.0
 10
14.9019832734
 20
50.3712988608
 30
0.0
 10
15.0846425885
 20
50.375878516
 30
0.0
 10
15.2792182801
 20
50.3287463151
 30
0.0
 10
15.4058585214
 20
50.2685644305
 30
0.0
 10
15.4694627924
 20
50.2318350997
 30
0.0
  0
SPLINE
  5
3F8
100
AcDbEntity
  8
0
100
AcDbSpline
 62
7
  6
CONTINUOUS
 70
0
 71
3
 72
11
 73
7
 74
0
 42
0.0000001
 43
0.0000001
 44
0.0000000001
 40
0.0
 40
0.0
 40
0.0
 40
0.0
 40
0.2177154824
 40
0.4508631648
 40
0.7104636211
 40
1.0
 40
1.0
 40
1.0
 40
1.0
 10
14.7442717921
 20
53.4145758413
 30
0.0
 10
14.7921001225
 20
53.4421918496
 30
0.0
 10
14.9019832734
 20
53.4821730705
 30
0.0
 10
15.0846425885
 20
53.4867527257
 30
0.0
 10
15.2792182801
 20
53.4396205249
 30
0.0
 10
15.4058585214
 20
53.3794386403
 30
0.0
 10
15.4694627924
 20
53.3427093095
 30
0.0
  0
SPLINE
  5
3F9
100
AcDbEntity
  8
0
100
AcDbSpline
 62
7
  6
CONTINUOUS
 70
0
 71
3
 72
11
 73
7
 74
0
 42
0.0000001
 43
0.0000001
 44
0.0000000001
 40
0.0
 40
0.0
 40
0.0
 40
0.0
 40
0.2177154825
 40
0.4508631649
 40
0.7104636211
 40
1.0
 40
1.0
 40
1.0
 40
1.0
 10
14.7442717924
 20
56.5254500506
 30
0.0
 10
14.7921001227
 20
56.5530660589
 30
0.0
 10
14.9019832735
 20
56.5930472798
 30
0.0
 10
15.0846425882
 20
56.5976269351
 30
0.0
 10
15.2792182795
 20
56.5504947346
 30
0.0
 10
15.4058585206
 20
56.4903128502
 30
0.0
 10
15.4694627915
 20
56.4535835195
 30
0.0
  0
SPLINE
  5
3FA
100
AcDbEntity
  8
0
100
AcDbSpline
 62
7
  6
CONTINUOUS
 70
0
 71
3
 72
11
 73
7
 74
0
 42
0.0000001
 43
0.0000001
 44
0.0000000001
 40
0.0
 40
0.0
 40
0.0
 40
0.0
 40
0.2177154825
 40
0.4508631649
 40
0.7104636211
 40
1.0
 40
1.0
 40
1.0
 40
1.0
 10
14.7442717925
 20
59.6363242602
 30
0.0
 10
14.7921001228
 20
59.6639402685
 30
0.0
 10
14.9019832735
 20
59.7039214894
 30
0.0
 10
15.0846425883
 20
59.7085011448
 30
0.0
 10
15.2792182795
 20
59.6613689442
 30
0.0
 10
15.4058585206
 20
59.6011870599
 30
0.0
 10
15.4694627915
 20
59.5644577292
 30
0.0
  0
SPLINE
  5
3FB
100
AcDbEntity
  8
0
100
AcDbSpline
 62
7
  6
CONTINUOUS
 70
0
 71
3
 72
11
 73
7
 74
0
 42
0.0000001
 43
0.0000001
 44
0.0000000001
 40
0.0
 40
0.0
 40
0.0
 40
0.0
 40
0.2177154824
 40
0.4508631648
 40
0.7104636211
 40
1.0
 40
1.0
 40
1.0
 40
1.0
 10
14.7442717921
 20
62.7471984689
 30
0.0
 10
14.7921001225
 20
62.7748144772
 30
0.0
 10
14.9019832734
 20
62.8147956981
 30
0.0
 10
15.0846425885
 20
62.8193753533
 30
0.0
 10
15.2792182801
 20
62.7722431524
 30
0.0
 10
15.4058585214
 20
62.7120612678
 30
0.0
 10
15.4694627923
 20
62.675331937
 30
0.0
  0
SPLINE
  5
3FC
100
AcDbEntity
  8
0
100
AcDbSpline
 62
7
  6
CONTINUOUS
 70
0
 71
3
 72
11
 73
7
 74
0
 42
0.0000001
 43
0.0000001
 44
0.0000000001
 40
0.0
 40
0.0
 40
0.0
 40
0.0
 40
0.2177154824
 40
0.4508631648
 40
0.7104636211
 40
1.0
 40
1.0
 40
1.0
 40
1.0
 10
14.7442717921
 20
65.8580726785
 30
0.0
 10
14.7921001225
 20
65.8856886869
 30
0.0
 10
14.9019832734
 20
65.9256699078
 30
0.0
 10
15.0846425885
 20
65.9302495629
 30
0.0
 10
15.2792182801
 20
65.8831173621
 30
0.0
 10
15.4058585214
 20
65.8229354775
 30
0.0
 10
15.4694627924
 20
65.7862061467
 30
0.0
  0
SPLINE
  5
3FD
100
AcDbEntity
  8
0
100
AcDbSpline
 62
7
  6
CONTINUOUS
 70
0
 71
3
 72
11
 73
7
 74
0
 42
0.0000001
 43
0.0000001
 44
0.0000000001
 40
0.0
 40
0.0
 40
0.0
 40
0.0
 40
0.2177154825
 40
0.4508631649
 40
0.7104636211
 40
1.0
 40
1.0
 40
1.0
 40
1.0
 10
14.7442717926
 20
68.9689468877
 30
0.0
 10
14.7921001228
 20
68.996562896
 30
0.0
 10
14.9019832736
 20
69.0365441169
 30
0.0
 10
15.0846425884
 20
69.0411237723
 30
0.0
 10
15.2792182796
 20
68.9939915717
 30
0.0
 10
15.4058585207
 20
68.9338096874
 30
0.0
 10
15.4694627916
 20
68.8970803567
 30
0.0
  0
SPLINE
  5
3FE
100
AcDbEntity
  8
0
100
AcDbSpline
 62
7
  6
CONTINUOUS
 70
0
 71
3
 72
11
 73
7
 74
0
 42
0.0000001
 43
0.0000001
 44
0.0000000001
 40
0.0
 40
0.0
 40
0.0
 40
0.0
 40
0.2177154825
 40
0.4508631649
 40
0.7104636211
 40
1.0
 40
1.0
 40
1.0
 40
1.0
 10
14.7442717925
 20
72.0798210974
 30
0.0
 10
14.7921001228
 20
72.1074371057
 30
0.0
 10
14.9019832735
 20
72.1474183266
 30
0.0
 10
15.0846425883
 20
72.151997982
 30
0.0
 10
15.2792182796
 20
72.1048657814
 30
0.0
 10
15.4058585207
 20
72.0446838971
 30
0.0
 10
15.4694627915
 20
72.0079545664
 30
0.0
  0
SPLINE
  5
3FF
100
AcDbEntity
  8
0
100
AcDbSpline
 62
7
  6
CONTINUOUS
 70
0
 71
3
 72
11
 73
7
 74
0
 42
0.0000001
 43
0.0000001
 44
0.0000000001
 40
0.0
 40
0.0
 40
0.0
 40
0.0
 40
0.2177155573
 40
0.4508666956
 40
0.7104706204
 40
1.0
 40
1.0
 40
1.0
 40
1.0
 10
14.7442727423
 20
75.1906937741
 30
0.0
 10
14.7921001391
 20
75.2183112597
 30
0.0
 10
14.9019849156
 20
75.2582911447
 30
0.0
 10
15.0846454623
 20
75.2628722993
 30
0.0
 10
15.2792203461
 20
75.2157373452
 30
0.0
 10
15.405859972
 20
75.1555573023
 30
0.0
 10
15.4694626031
 20
75.1188289185
 30
0.0
  0
SPLINE
  5
400
100
AcDbEntity
  8
0
100
AcDbSpline
 62
7
  6
CONTINUOUS
 70
0
 71
3
 72
11
 73
7
 74
0
 42
0.0000001
 43
0.0000001
 44
0.0000000001
 40
0.0
 40
0.0
 40
0.0
 40
0.0
 40
0.2177154825
 40
0.4508631649
 40
0.7104636211
 40
1.0
 40
1.0
 40
1.0
 40
1.0
 10
14.7442717924
 20
78.3015695154
 30
0.0
 10
14.7921001227
 20
78.3291855237
 30
0.0
 10
14.9019832735
 20
78.3691667445
 30
0.0
 10
15.0846425882
 20
78.3737463999
 30
0.0
 10
15.2792182795
 20
78.3266141994
 30
0.0
 10
15.4058585206
 20
78.266432315
 30
0.0
 10
15.4694627915
 20
78.2297029843
 30
0.0
  0
SPLINE
  5
401
100
AcDbEntity
  8
0
100
AcDbSpline
 62
7
  6
CONTINUOUS
 70
0
 71
3
 72
11
 73
7
 74
0
 42
0.0000001
 43
0.0000001
 44
0.0000000001
 40
0.0
 40
0.0
 40
0.0
 40
0.0
 40
0.2177231375
 40
0.4508717887
 40
0.7104673698
 40
1.0
 40
1.0
 40
1.0
 40
1.0
 10
64.7810686437
 20
96.1520951712
 30
0.0
 10
64.7386950629
 20
96.1765568431
 30
0.0
 10
64.6593455162
 20
96.2431445382
 30
0.0
 10
64.5749055637
 20
96.3812391332
 30
0.0
 10
64.5248561289
 20
96.5513842523
 30
0.0
 10
64.5149199345
 20
96.6751958721
 30
0.0
 10
64.5149199345
 20
96.7402605623
 30
0.0
  0
SPLINE
  5
402
100
AcDbEntity
  8
0
100
AcDbSpline
 62
7
  6
CONTINUOUS
 70
0
 71
3
 72
11
 73
7
 74
0
 42
0.0000001
 43
0.0000001
 44
0.0000000001
 40
0.0
 40
0.0
 40
0.0
 40
0.0
 40
0.2177231375
 40
0.4508717887
 40
0.7104673698
 40
1.0
 40
1.0
 40
1.0
 40
1.0
 10
64.7810686437
 20
29.1988969666
 30
0.0
 10
64.738695063
 20
29.2233586384
 30
0.0
 10
64.6593455164
 20
29.2899463334
 30
0.0
 10
64.5749055639
 20
29.4280409281
 30
0.0
 10
64.5248561291
 20
29.5981860469
 30
0.0
 10
64.5149199347
 20
29.7219976664
 30
0.0
 10
64.5149199347
 20
29.7870623565
 30
0.0
  0
SPLINE
  5
403
100
AcDbEntity
  8
0
100
AcDbSpline
 62
7
  6
CONTINUOUS
 70
0
 71
3
 72
11
 73
7
 74
0
 42
0.0000001
 43
0.0000001
 44
0.0000000001
 40
0.0
 40
0.0
 40
0.0
 40
0.0
 40
0.2177231375
 40
0.4508717887
 40
0.7104673698
 40
1.0
 40
1.0
 40
1.0
 40
1.0
 10
91.6684684662
 20
111.6956049263
 30
0.0
 10
91.6272461466
 20
111.7194019913
 30
0.0
 10
91.5500524728
 20
111.7841805443
 30
0.0
 10
91.4679066961
 20
111.9185232036
 30
0.0
 10
91.4192170702
 20
112.0840455961
 30
0.0
 10
91.4095508354
 20
112.2044933388
 30
0.0
 10
91.4095508354
 20
112.2677902658
 30
0.0
  0
SPLINE
  5
404
100
AcDbEntity
  8
0
100
AcDbSpline
 62
7
  6
CONTINUOUS
 70
0
 71
3
 72
11
 73
7
 74
0
 42
0.0000001
 43
0.0000001
 44
0.0000000001
 40
0.0
 40
0.0
 40
0.0
 40
0.0
 40
0.2177843137
 40
0.4509117637
 40
0.7102976701
 40
1.0
 40
1.0
 40
1.0
 40
1.0
 10
77.9808396088
 20
130.4236940449
 30
0.0
 10
78.0550578026
 20
130.4665436505
 30
0.0
 10
78.2255856414
 20
130.5284295998
 30
0.0
 10
78.5088294756
 20
130.5356012791
 30
0.0
 10
78.8107010216
 20
130.4627046823
 30
0.0
 10
79.0071016047
 20
130.3692731152
 30
0.0
 10
79.1058289588
 20
130.3122741402
 30
0.0
  0
SPLINE
  5
405
100
AcDbEntity
  8
0
100
AcDbSpline
 62
7
  6
CONTINUOUS
 70
0
 71
3
 72
11
 73
7
 74
0
 42
0.0000001
 43
0.0000001
 44
0.0000000001
 40
0.0
 40
0.0
 40
0.0
 40
0.0
 40
0.2177231375
 40
0.4508717887
 40
0.7104673698
 40
1.0
 40
1.0
 40
1.0
 40
1.0
 10
91.6684684662
 20
44.7424067217
 30
0.0
 10
91.6272461466
 20
44.7662037867
 30
0.0
 10
91.5500524728
 20
44.8309823397
 30
0.0
 10
91.4679066961
 20
44.9653249989
 30
0.0
 10
91.4192170702
 20
45.1308473915
 30
0.0
 10
91.4095508354
 20
45.2512951341
 30
0.0
 10
91.4095508354
 20
45.3145920612
 30
0.0
  0
SPLINE
  5
406
100
AcDbEntity
  8
0
100
AcDbSpline
 62
7
  6
CONTINUOUS
 70
0
 71
3
 72
11
 73
7
 74
0
 42
0.0000001
 43
0.0000001
 44
0.0000000001
 40
0.0
 40
0.0
 40
0.0
 40
0.0
 40
0.2177155805
 40
0.4508632676
 40
0.7104636547
 40
1.0
 40
1.0
 40
1.0
 40
1.0
 10
25.7751820525
 20
53.2677722381
 30
0.0
 10
25.8230103688
 20
53.2953882375
 30
0.0
 10
25.9328934156
 20
53.3353695082
 30
0.0
 10
26.1155525858
 20
53.339949481
 30
0.0
 10
26.3101281921
 20
53.2928176455
 30
0.0
 10
26.4367683858
 20
53.2326359502
 30
0.0
 10
26.5003726271
 20
53.1959066954
 30
0.0
  0
SPLINE
  5
407
100
AcDbEntity
  8
0
100
AcDbSpline
 62
7
  6
CONTINUOUS
 70
0
 71
3
 72
17
 73
13
 74
0
 42
0.0000001
 43
0.0000001
 44
0.0000000001
 40
0.0
 40
0.0
 40
0.0
 40
0.0
 40
0.1286880245
 40
0.270278509
 40
0.4174305517
 40
0.5617723386
 40
0.6954448884
 40
0.8127093339
 40
0.8646747764
 40
0.9125085238
 40
0.9571389706
 40
1.0
 40
1.0
 40
1.0
 40
1.0
 10
79.1058289588
 20
130.3122741402
 30
0.0
 10
79.2723827353
 20
130.2161164479
 30
0.0
 10
79.5956855633
 20
129.9673324948
 30
0.0
 10
80.0094805706
 20
129.4965587029
 30
0.0
 10
80.3500912355
 20
128.9425936592
 30
0.0
 10
80.5893499224
 20
128.3504393693
 30
0.0
 10
80.7081125097
 20
127.7682408625
 30
0.0
 10
80.697460272
 20
127.3094833634
 30
0.0
 10
80.6125356245
 20
126.9948411029
 30
0.0
 10
80.5179764974
 20
126.7991380122
 30
0.0
 10
80.391436434
 20
126.6391284626
 30
0.0
 10
80.2862856106
 20
126.5586293502
 30
0.0
 10
80.2308004707
 20
126.5266245587
 30
0.0
  0
SPLINE
  5
408
100
AcDbEntity
  8
0
100
AcDbSpline
 62
7
  6
CONTINUOUS
 70
0
 71
3
 72
17
 73
13
 74
0
 42
0.0000001
 43
0.0000001
 44
0.0000000001
 40
0.0
 40
0.0
 40
0.0
 40
0.0
 40
0.1286880332
 40
0.2703075656
 40
0.4174609816
 40
0.5617984237
 40
0.6954521534
 40
0.8127086144
 40
0.8646742686
 40
0.9125052427
 40
0.9571370945
 40
1.0
 40
1.0
 40
1.0
 40
1.0
 10
15.4694627905
 20
28.4557156357
 30
0.0
 10
15.5768026184
 20
28.3937582655
 30
0.0
 10
15.7851366027
 20
28.2333640521
 30
0.0
 10
16.0518562945
 20
27.9299923666
 30
0.0
 10
16.2713253368
 20
27.5729399909
 30
0.0
 10
16.4255110521
 20
27.1913609936
 30
0.0
 10
16.5020360506
 20
26.8161869147
 30
0.0
 10
16.4951239427
 20
26.5205897736
 30
0.0
 10
16.4404766524
 20
26.3178020512
 30
0.0
 10
16.3794753161
 20
26.1917223035
 30
0.0
 10
16.2979924523
 20
26.0885454389
 30
0.0
 10
16.2301721574
 20
26.0367384032
 30
0.0
 10
16.194423436
 20
26.0160956366
 30
0.0
  0
SPLINE
  5
409
100
AcDbEntity
  8
0
100
AcDbSpline
 62
7
  6
CONTINUOUS
 70
0
 71
3
 72
17
 73
13
 74
0
 42
0.0000001
 43
0.0000001
 44
0.0000000001
 40
0.0
 40
0.0
 40
0.0
 40
0.0
 40
0.1286863997
 40
0.2703048465
 40
0.4174436076
 40
0.5617816364
 40
0.6954486101
 40
0.8127125157
 40
0.864679139
 40
0.9125088261
 40
0.9571392336
 40
1.0
 40
1.0
 40
1.0
 40
1.0
 10
15.4694627924
 20
31.5665898446
 30
0.0
 10
15.5768012827
 20
31.5046332464
 30
0.0
 10
15.7851341721
 20
31.3442416109
 30
0.0
 10
16.0518406922
 20
31.0408810169
 30
0.0
 10
16.2713127101
 20
30.6838479774
 30
0.0
 10
16.4255007117
 20
30.3022704761
 30
0.0
 10
16.50203554
 20
29.9270766406
 30
0.0
 10
16.4951205713
 20
29.6314589123
 30
0.0
 10
16.4404750532
 20
29.4286630668
 30
0.0
 10
16.3794684452
 20
29.3025876952
 30
0.0
 10
16.2979898357
 20
29.1994140596
 30
0.0
 10
16.2301719846
 20
29.1476089253
 30
0.0
 10
16.1944243862
 20
29.1269683143
 30
0.0
  0
SPLINE
  5
40A
100
AcDbEntity
  8
0
100
AcDbSpline
 62
7
  6
CONTINUOUS
 70
0
 71
3
 72
17
 73
13
 74
0
 42
0.0000001
 43
0.0000001
 44
0.0000000001
 40
0.0
 40
0.0
 40
0.0
 40
0.0
 40
0.1286863997
 40
0.2703048465
 40
0.4174436075
 40
0.5617816364
 40
0.6954486101
 40
0.8127125157
 40
0.864679139
 40
0.9125088261
 40
0.9571392336
 40
1.0
 40
1.0
 40
1.0
 40
1.0
 10
15.4694627915
 20
34.6774640547
 30
0.0
 10
15.5768012819
 20
34.6155074564
 30
0.0
 10
15.7851341715
 20
34.455115821
 30
0.0
 10
16.0518406918
 20
34.1517552268
 30
0.0
 10
16.2713127098
 20
33.794722187
 30
0.0
 10
16.4255007115
 20
33.4131446854
 30
0.0
 10
16.5020355398
 20
33.0379508497
 30
0.0
 10
16.4951205711
 20
32.7423331213
 30
0.0
 10
16.440475053
 20
32.5395372756
 30
0.0
 10
16.379468445
 20
32.4134619039
 30
0.0
 10
16.2979898354
 20
32.3102882683
 30
0.0
 10
16.2301719842
 20
32.2584831339
 30
0.0
 10
16.1944243858
 20
32.2378425229
 30
0.0
  0
SPLINE
  5
40B
100
AcDbEntity
  8
0
100
AcDbSpline
 62
7
  6
CONTINUOUS
 70
0
 71
3
 72
17
 73
13
 74
0
 42
0.0000001
 43
0.0000001
 44
0.0000000001
 40
0.0
 40
0.0
 40
0.0
 40
0.0
 40
0.1286863997
 40
0.2703048465
 40
0.4174436075
 40
0.5617816364
 40
0.6954486101
 40
0.8127125157
 40
0.864679139
 40
0.9125088261
 40
0.9571392336
 40
1.0
 40
1.0
 40
1.0
 40
1.0
 10
15.4694627916
 20
37.7883382644
 30
0.0
 10
15.5768012819
 20
37.7263816661
 30
0.0
 10
15.7851341715
 20
37.5659900307
 30
0.0
 10
16.0518406918
 20
37.2626294365
 30
0.0
 10
16.2713127098
 20
36.9055963967
 30
0.0
 10
16.4255007115
 20
36.5240188952
 30
0.0
 10
16.5020355398
 20
36.1488250595
 30
0.0
 10
16.4951205711
 20
35.853207331
 30
0.0
 10
16.440475053
 20
35.6504114854
 30
0.0
 10
16.379468445
 20
35.5243361136
 30
0.0
 10
16.2979898354
 20
35.421162478
 30
0.0
 10
16.2301719842
 20
35.3693573436
 30
0.0
 10
16.1944243858
 20
35.3487167326
 30
0.0
  0
SPLINE
  5
40C
100
AcDbEntity
  8
0
100
AcDbSpline
 62
7
  6
CONTINUOUS
 70
0
 71
3
 72
17
 73
13
 74
0
 42
0.0000001
 43
0.0000001
 44
0.0000000001
 40
0.0
 40
0.0
 40
0.0
 40
0.0
 40
0.1286863956
 40
0.2703048373
 40
0.4174435971
 40
0.561781628
 40
0.6954486051
 40
0.812712514
 40
0.8646791384
 40
0.9125088261
 40
0.9571392337
 40
1.0
 40
1.0
 40
1.0
 40
1.0
 10
15.469462603
 20
40.8992126164
 30
0.0
 10
15.5768010988
 20
40.8372560151
 30
0.0
 10
15.7851340098
 20
40.6768643904
 30
0.0
 10
16.0518405767
 20
40.3735038054
 30
0.0
 10
16.2713126361
 20
40.0164707552
 30
0.0
 10
16.4255006756
 20
39.6348932281
 30
0.0
 10
16.5020355334
 20
39.2596993577
 30
0.0
 10
16.49512058
 20
38.9640815969
 30
0.0
 10
16.4404750661
 20
38.7612857274
 30
0.0
 10
16.3794684575
 20
38.6352103411
 30
0.0
 10
16.2979898437
 20
38.532036694
 30
0.0
 10
16.2301719874
 20
38.4802315545
 30
0.0
 10
16.1944243861
 20
38.4595909419
 30
0.0
  0
SPLINE
  5
40D
100
AcDbEntity
  8
0
100
AcDbSpline
 62
7
  6
CONTINUOUS
 70
0
 71
3
 72
17
 73
13
 74
0
 42
0.0000001
 43
0.0000001
 44
0.0000000001
 40
0.0
 40
0.0
 40
0.0
 40
0.0
 40
0.1286863997
 40
0.2703048465
 40
0.4174436076
 40
0.5617816364
 40
0.6954486101
 40
0.8127125157
 40
0.864679139
 40
0.9125088261
 40
0.9571392336
 40
1.0
 40
1.0
 40
1.0
 40
1.0
 10
15.4694627924
 20
44.0100866819
 30
0.0
 10
15.5768012827
 20
43.9481300837
 30
0.0
 10
15.7851341721
 20
43.7877384482
 30
0.0
 10
16.0518406922
 20
43.4843778542
 30
0.0
 10
16.2713127101
 20
43.1273448147
 30
0.0
 10
16.4255007117
 20
42.7457673134
 30
0.0
 10
16.5020355399
 20
42.3705734779
 30
0.0
 10
16.4951205712
 20
42.0749557497
 30
0.0
 10
16.4404750532
 20
41.8721599041
 30
0.0
 10
16.3794684452
 20
41.7460845325
 30
0.0
 10
16.2979898356
 20
41.6429108969
 30
0.0
 10
16.2301719845
 20
41.5911057626
 30
0.0
 10
16.1944243861
 20
41.5704651516
 30
0.0
  0
SPLINE
  5
40E
100
AcDbEntity
  8
0
100
AcDbSpline
 62
7
  6
CONTINUOUS
 70
0
 71
3
 72
17
 73
13
 74
0
 42
0.0000001
 43
0.0000001
 44
0.0000000001
 40
0.0
 40
0.0
 40
0.0
 40
0.0
 40
0.1286863997
 40
0.2703048465
 40
0.4174436075
 40
0.5617816364
 40
0.6954486101
 40
0.8127125157
 40
0.864679139
 40
0.9125088261
 40
0.9571392336
 40
1.0
 40
1.0
 40
1.0
 40
1.0
 10
15.4694627916
 20
47.1209608919
 30
0.0
 10
15.5768012819
 20
47.0590042936
 30
0.0
 10
15.7851341716
 20
46.8986126583
 30
0.0
 10
16.0518406918
 20
46.595252064
 30
0.0
 10
16.2713127098
 20
46.2382190243
 30
0.0
 10
16.4255007115
 20
45.8566415227
 30
0.0
 10
16.5020355398
 20
45.481447687
 30
0.0
 10
16.4951205711
 20
45.1858299586
 30
0.0
 10
16.440475053
 20
44.9830341129
 30
0.0
 10
16.379468445
 20
44.8569587412
 30
0.0
 10
16.2979898354
 20
44.7537851056
 30
0.0
 10
16.2301719842
 20
44.7019799712
 30
0.0
 10
16.1944243858
 20
44.6813393602
 30
0.0
  0
SPLINE
  5
40F
100
AcDbEntity
  8
0
100
AcDbSpline
 62
7
  6
CONTINUOUS
 70
0
 71
3
 72
17
 73
13
 74
0
 42
0.0000001
 43
0.0000001
 44
0.0000000001
 40
0.0
 40
0.0
 40
0.0
 40
0.0
 40
0.1286863997
 40
0.2703048465
 40
0.4174436076
 40
0.5617816364
 40
0.6954486101
 40
0.8127125157
 40
0.864679139
 40
0.9125088261
 40
0.9571392336
 40
1.0
 40
1.0
 40
1.0
 40
1.0
 10
15.4694627924
 20
50.2318350997
 30
0.0
 10
15.5768012827
 20
50.1698785015
 30
0.0
 10
15.7851341721
 20
50.009486866
 30
0.0
 10
16.0518406922
 20
49.706126272
 30
0.0
 10
16.2713127101
 20
49.3490932325
 30
0.0
 10
16.4255007117
 20
48.9675157312
 30
0.0
 10
16.50203554
 20
48.5923218957
 30
0.0
 10
16.4951205713
 20
48.2967041674
 30
0.0
 10
16.4404750532
 20
48.0939083219
 30
0.0
 10
16.3794684452
 20
47.9678329503
 30
0.0
 10
16.2979898357
 20
47.8646593147
 30
0.0
 10
16.2301719846
 20
47.8128541804
 30
0.0
 10
16.1944243862
 20
47.7922135694
 30
0.0
  0
SPLINE
  5
410
100
AcDbEntity
  8
0
100
AcDbSpline
 62
7
  6
CONTINUOUS
 70
0
 71
3
 72
17
 73
13
 74
0
 42
0.0000001
 43
0.0000001
 44
0.0000000001
 40
0.0
 40
0.0
 40
0.0
 40
0.0
 40
0.1286863997
 40
0.2703048465
 40
0.4174436076
 40
0.5617816364
 40
0.6954486101
 40
0.8127125157
 40
0.864679139
 40
0.9125088261
 40
0.9571392336
 40
1.0
 40
1.0
 40
1.0
 40
1.0
 10
15.4694627924
 20
53.3427093095
 30
0.0
 10
15.5768012827
 20
53.2807527113
 30
0.0
 10
15.7851341721
 20
53.1203610758
 30
0.0
 10
16.0518406922
 20
52.8170004818
 30
0.0
 10
16.2713127101
 20
52.4599674422
 30
0.0
 10
16.4255007117
 20
52.0783899409
 30
0.0
 10
16.50203554
 20
51.7031961055
 30
0.0
 10
16.4951205713
 20
51.4075783772
 30
0.0
 10
16.4404750532
 20
51.2047825316
 30
0.0
 10
16.3794684452
 20
51.07870716
 30
0.0
 10
16.2979898357
 20
50.9755335244
 30
0.0
 10
16.2301719846
 20
50.9237283901
 30
0.0
 10
16.1944243862
 20
50.9030877791
 30
0.0
  0
SPLINE
  5
411
100
AcDbEntity
  8
0
100
AcDbSpline
 62
7
  6
CONTINUOUS
 70
0
 71
3
 72
17
 73
13
 74
0
 42
0.0000001
 43
0.0000001
 44
0.0000000001
 40
0.0
 40
0.0
 40
0.0
 40
0.0
 40
0.1286863997
 40
0.2703048465
 40
0.4174436075
 40
0.5617816364
 40
0.6954486101
 40
0.8127125157
 40
0.864679139
 40
0.9125088261
 40
0.9571392336
 40
1.0
 40
1.0
 40
1.0
 40
1.0
 10
15.4694627915
 20
56.4535835195
 30
0.0
 10
15.5768012818
 20
56.3916269212
 30
0.0
 10
15.7851341715
 20
56.2312352859
 30
0.0
 10
16.0518406917
 20
55.9278746916
 30
0.0
 10
16.2713127097
 20
55.5708416519
 30
0.0
 10
16.4255007114
 20
55.1892641503
 30
0.0
 10
16.5020355398
 20
54.8140703146
 30
0.0
 10
16.495120571
 20
54.5184525861
 30
0.0
 10
16.4404750529
 20
54.3156567405
 30
0.0
 10
16.3794684449
 20
54.1895813688
 30
0.0
 10
16.2979898353
 20
54.0864077331
 30
0.0
 10
16.2301719841
 20
54.0346025988
 30
0.0
 10
16.1944243857
 20
54.0139619878
 30
0.0
  0
SPLINE
  5
412
100
AcDbEntity
  8
0
100
AcDbSpline
 62
7
  6
CONTINUOUS
 70
0
 71
3
 72
17
 73
13
 74
0
 42
0.0000001
 43
0.0000001
 44
0.0000000001
 40
0.0
 40
0.0
 40
0.0
 40
0.0
 40
0.1286863997
 40
0.2703048465
 40
0.4174436075
 40
0.5617816364
 40
0.6954486101
 40
0.8127125157
 40
0.864679139
 40
0.9125088261
 40
0.9571392336
 40
1.0
 40
1.0
 40
1.0
 40
1.0
 10
15.4694627915
 20
59.5644577292
 30
0.0
 10
15.5768012818
 20
59.5025011309
 30
0.0
 10
15.7851341715
 20
59.3421094955
 30
0.0
 10
16.0518406917
 20
59.0387489013
 30
0.0
 10
16.2713127097
 20
58.6817158615
 30
0.0
 10
16.4255007114
 20
58.30013836
 30
0.0
 10
16.5020355398
 20
57.9249445243
 30
0.0
 10
16.495120571
 20
57.6293267958
 30
0.0
 10
16.4404750529
 20
57.4265309502
 30
0.0
 10
16.3794684449
 20
57.3004555784
 30
0.0
 10
16.2979898353
 20
57.1972819428
 30
0.0
 10
16.2301719841
 20
57.1454768085
 30
0.0
 10
16.1944243857
 20
57.1248361974
 30
0.0
  0
SPLINE
  5
413
100
AcDbEntity
  8
0
100
AcDbSpline
 62
7
  6
CONTINUOUS
 70
0
 71
3
 72
17
 73
13
 74
0
 42
0.0000001
 43
0.0000001
 44
0.0000000001
 40
0.0
 40
0.0
 40
0.0
 40
0.0
 40
0.1286863997
 40
0.2703048465
 40
0.4174436076
 40
0.5617816364
 40
0.6954486101
 40
0.8127125157
 40
0.864679139
 40
0.9125088261
 40
0.9571392336
 40
1.0
 40
1.0
 40
1.0
 40
1.0
 10
15.4694627923
 20
62.675331937
 30
0.0
 10
15.5768012827
 20
62.6133753388
 30
0.0
 10
15.785134172
 20
62.4529837033
 30
0.0
 10
16.0518406922
 20
62.1496231094
 30
0.0
 10
16.2713127101
 20
61.7925900698
 30
0.0
 10
16.4255007116
 20
61.4110125685
 30
0.0
 10
16.5020355399
 20
61.035818733
 30
0.0
 10
16.4951205712
 20
60.7402010048
 30
0.0
 10
16.4404750532
 20
60.5374051592
 30
0.0
 10
16.3794684452
 20
60.4113297876
 30
0.0
 10
16.2979898356
 20
60.308156152
 30
0.0
 10
16.2301719845
 20
60.2563510177
 30
0.0
 10
16.1944243861
 20
60.2357104067
 30
0.0
  0
SPLINE
  5
414
100
AcDbEntity
  8
0
100
AcDbSpline
 62
7
  6
CONTINUOUS
 70
0
 71
3
 72
17
 73
13
 74
0
 42
0.0000001
 43
0.0000001
 44
0.0000000001
 40
0.0
 40
0.0
 40
0.0
 40
0.0
 40
0.1286863997
 40
0.2703048465
 40
0.4174436076
 40
0.5617816364
 40
0.6954486101
 40
0.8127125157
 40
0.864679139
 40
0.9125088261
 40
0.9571392336
 40
1.0
 40
1.0
 40
1.0
 40
1.0
 10
15.4694627924
 20
65.7862061467
 30
0.0
 10
15.5768012827
 20
65.7242495485
 30
0.0
 10
15.7851341721
 20
65.563857913
 30
0.0
 10
16.0518406922
 20
65.260497319
 30
0.0
 10
16.2713127101
 20
64.9034642795
 30
0.0
 10
16.4255007117
 20
64.5218867781
 30
0.0
 10
16.50203554
 20
64.1466929427
 30
0.0
 10
16.4951205713
 20
63.8510752144
 30
0.0
 10
16.4404750532
 20
63.6482793689
 30
0.0
 10
16.3794684452
 20
63.5222039972
 30
0.0
 10
16.2979898357
 20
63.4190303617
 30
0.0
 10
16.2301719846
 20
63.3672252273
 30
0.0
 10
16.1944243862
 20
63.3465846163
 30
0.0
  0
SPLINE
  5
415
100
AcDbEntity
  8
0
100
AcDbSpline
 62
7
  6
CONTINUOUS
 70
0
 71
3
 72
17
 73
13
 74
0
 42
0.0000001
 43
0.0000001
 44
0.0000000001
 40
0.0
 40
0.0
 40
0.0
 40
0.0
 40
0.1286863997
 40
0.2703048465
 40
0.4174436075
 40
0.5617816364
 40
0.6954486101
 40
0.8127125157
 40
0.864679139
 40
0.9125088261
 40
0.9571392336
 40
1.0
 40
1.0
 40
1.0
 40
1.0
 10
15.4694627916
 20
68.8970803567
 30
0.0
 10
15.5768012819
 20
68.8351237584
 30
0.0
 10
15.7851341716
 20
68.674732123
 30
0.0
 10
16.0518406918
 20
68.3713715288
 30
0.0
 10
16.2713127098
 20
68.014338489
 30
0.0
 10
16.4255007115
 20
67.6327609875
 30
0.0
 10
16.5020355398
 20
67.2575671518
 30
0.0
 10
16.4951205711
 20
66.9619494233
 30
0.0
 10
16.440475053
 20
66.7591535777
 30
0.0
 10
16.379468445
 20
66.633078206
 30
0.0
 10
16.2979898354
 20
66.5299045703
 30
0.0
 10
16.2301719842
 20
66.478099436
 30
0.0
 10
16.1944243858
 20
66.4574588249
 30
0.0
  0
SPLINE
  5
416
100
AcDbEntity
  8
0
100
AcDbSpline
 62
7
  6
CONTINUOUS
 70
0
 71
3
 72
17
 73
13
 74
0
 42
0.0000001
 43
0.0000001
 44
0.0000000001
 40
0.0
 40
0.0
 40
0.0
 40
0.0
 40
0.1286863997
 40
0.2703048465
 40
0.4174436075
 40
0.5617816364
 40
0.6954486101
 40
0.8127125157
 40
0.864679139
 40
0.9125088261
 40
0.9571392336
 40
1.0
 40
1.0
 40
1.0
 40
1.0
 10
15.4694627915
 20
72.0079545664
 30
0.0
 10
15.5768012819
 20
71.9459979681
 30
0.0
 10
15.7851341715
 20
71.7856063327
 30
0.0
 10
16.0518406918
 20
71.4822457385
 30
0.0
 10
16.2713127098
 20
71.1252126987
 30
0.0
 10
16.4255007115
 20
70.7436351972
 30
0.0
 10
16.5020355398
 20
70.3684413615
 30
0.0
 10
16.4951205711
 20
70.072823633
 30
0.0
 10
16.440475053
 20
69.8700277873
 30
0.0
 10
16.379468445
 20
69.7439524156
 30
0.0
 10
16.2979898354
 20
69.64077878
 30
0.0
 10
16.2301719842
 20
69.5889736456
 30
0.0
 10
16.1944243858
 20
69.5683330346
 30
0.0
  0
SPLINE
  5
417
100
AcDbEntity
  8
0
100
AcDbSpline
 62
7
  6
CONTINUOUS
 70
0
 71
3
 72
17
 73
13
 74
0
 42
0.0000001
 43
0.0000001
 44
0.0000000001
 40
0.0
 40
0.0
 40
0.0
 40
0.0
 40
0.1286863956
 40
0.2703048373
 40
0.4174435971
 40
0.561781628
 40
0.6954486051
 40
0.812712514
 40
0.8646791384
 40
0.9125088261
 40
0.9571392337
 40
1.0
 40
1.0
 40
1.0
 40
1.0
 10
15.4694626031
 20
75.1188289185
 30
0.0
 10
15.5768010988
 20
75.0568723172
 30
0.0
 10
15.7851340098
 20
74.8964806924
 30
0.0
 10
16.0518405767
 20
74.5931201075
 30
0.0
 10
16.2713126361
 20
74.2360870572
 30
0.0
 10
16.4255006756
 20
73.8545095301
 30
0.0
 10
16.5020355334
 20
73.4793156597
 30
0.0
 10
16.49512058
 20
73.183697899
 30
0.0
 10
16.4404750661
 20
72.9809020294
 30
0.0
 10
16.3794684575
 20
72.8548266432
 30
0.0
 10
16.2979898437
 20
72.751652996
 30
0.0
 10
16.2301719874
 20
72.6998478566
 30
0.0
 10
16.1944243861
 20
72.6792072439
 30
0.0
  0
SPLINE
  5
418
100
AcDbEntity
  8
0
100
AcDbSpline
 62
7
  6
CONTINUOUS
 70
0
 71
3
 72
17
 73
13
 74
0
 42
0.0000001
 43
0.0000001
 44
0.0000000001
 40
0.0
 40
0.0
 40
0.0
 40
0.0
 40
0.1286863997
 40
0.2703048465
 40
0.4174436075
 40
0.5617816364
 40
0.6954486101
 40
0.8127125157
 40
0.864679139
 40
0.9125088261
 40
0.9571392336
 40
1.0
 40
1.0
 40
1.0
 40
1.0
 10
15.4694627915
 20
78.2297029843
 30
0.0
 10
15.5768012818
 20
78.167746386
 30
0.0
 10
15.7851341715
 20
78.0073547506
 30
0.0
 10
16.0518406917
 20
77.7039941564
 30
0.0
 10
16.2713127097
 20
77.3469611167
 30
0.0
 10
16.4255007114
 20
76.9653836151
 30
0.0
 10
16.5020355398
 20
76.5901897794
 30
0.0
 10
16.495120571
 20
76.2945720509
 30
0.0
 10
16.4404750529
 20
76.0917762053
 30
0.0
 10
16.3794684449
 20
75.9657008335
 30
0.0
 10
16.2979898353
 20
75.8625271979
 30
0.0
 10
16.2301719841
 20
75.8107220635
 30
0.0
 10
16.1944243857
 20
75.7900814525
 30
0.0
  0
SPLINE
  5
419
100
AcDbEntity
  8
0
100
AcDbSpline
 62
7
  6
CONTINUOUS
 70
0
 71
3
 72
9
 73
5
 74
0
 42
0.0000001
 43
0.0000001
 44
0.0000000001
 40
0.0
 40
0.0
 40
0.0
 40
0.0
 40
0.5500408389
 40
1.0
 40
1.0
 40
1.0
 40
1.0
 10
12.3197699673
 20
84.2904461477
 30
0.0
 10
12.3032563121
 20
84.2809120414
 30
0.0
 10
12.2749609062
 20
84.2590798667
 30
0.0
 10
12.2611734617
 20
84.2243967528
 30
0.0
 10
12.2611734537
 20
84.2087979921
 30
0.0
  0
SPLINE
  5
41A
100
AcDbEntity
  8
0
100
AcDbSpline
 62
7
  6
CONTINUOUS
 70
0
 71
3
 72
11
 73
7
 74
0
 42
0.0000001
 43
0.0000001
 44
0.0000000001
 40
0.0
 40
0.0
 40
0.0
 40
0.0
 40
0.2369830799
 40
0.4994508753
 40
0.7622171952
 40
1.0
 40
1.0
 40
1.0
 40
1.0
 10
66.9124845583
 20
131.7638615981
 30
0.0
 10
66.9823424009
 20
131.8041938017
 30
0.0
 10
67.1447151075
 20
131.8631875057
 30
0.0
 10
67.4044823829
 20
131.8918901158
 30
0.0
 10
67.6646592421
 20
131.864432818
 30
0.0
 10
67.827699377
 20
131.8062860981
 30
0.0
 10
67.8980957721
 20
131.7663468656
 30
0.0
  0
SPLINE
  5
41B
100
AcDbEntity
  8
0
100
AcDbSpline
 62
7
  6
CONTINUOUS
 70
0
 71
3
 72
17
 73
13
 74
0
 42
0.0000001
 43
0.0000001
 44
0.0000000001
 40
0.0
 40
0.0
 40
0.0
 40
0.0
 40
0.1286863744
 40
0.2703048183
 40
0.4174435894
 40
0.5617816215
 40
0.6954486004
 40
0.8127125096
 40
0.8646791347
 40
0.9125088238
 40
0.9571392325
 40
1.0
 40
1.0
 40
1.0
 40
1.0
 10
26.5001459191
 20
44.6063948438
 30
0.0
 10
26.3928071764
 20
44.6683517234
 30
0.0
 10
26.1844734489
 20
44.8287435128
 30
0.0
 10
25.9177661852
 20
45.1321051547
 30
0.0
 10
25.6982934795
 20
45.489139283
 30
0.0
 10
25.5441049942
 20
45.8707179881
 30
0.0
 10
25.4675699307
 20
46.2459129953
 30
0.0
 10
25.4744849223
 20
46.5415316491
 30
0.0
 10
25.5291306135
 20
46.7443281282
 30
0.0
 10
25.5901374112
 20
46.8704038949
 30
0.0
 10
25.6716162775
 20
46.9735778521
 30
0.0
 10
25.7394343424
 20
47.0253831451
 30
0.0
 10
25.7751820525
 20
47.0460238203
 30
0.0
  0
SPLINE
  5
41C
100
AcDbEntity
  8
0
100
AcDbSpline
 62
7
  6
CONTINUOUS
 70
0
 71
3
 72
11
 73
7
 74
0
 42
0.0000001
 43
0.0000001
 44
0.0000000001
 40
0.0
 40
0.0
 40
0.0
 40
0.0
 40
0.2177154749
 40
0.4508631481
 40
0.7104636019
 40
1.0
 40
1.0
 40
1.0
 40
1.0
 10
16.1944243861
 20
41.5704651516
 30
0.0
 10
16.1465960558
 20
41.5428491437
 30
0.0
 10
16.0367129068
 20
41.5028679215
 30
0.0
 10
15.8540535906
 20
41.4982882615
 30
0.0
 10
15.6594778924
 20
41.5454204757
 30
0.0
 10
15.5328376534
 20
41.6056023884
 30
0.0
 10
15.4692333857
 20
41.6423317389
 30
0.0
  0
SPLINE
  5
41D
100
AcDbEntity
  8
0
100
AcDbSpline
 62
7
  6
CONTINUOUS
 70
0
 71
3
 72
11
 73
7
 74
0
 42
0.0000001
 43
0.0000001
 44
0.0000000001
 40
0.0
 40
0.0
 40
0.0
 40
0.0
 40
0.2177155993
 40
0.4508633096
 40
0.7104637028
 40
1.0
 40
1.0
 40
1.0
 40
1.0
 10
27.2253364933
 20
25.8692841838
 30
0.0
 10
27.1775081769
 20
25.8416681833
 30
0.0
 10
27.0676251253
 20
25.8016869158
 30
0.0
 10
26.8849659577
 20
25.7971069552
 30
0.0
 10
26.6903903681
 20
25.844238757
 30
0.0
 10
26.5637501684
 20
25.9044203819
 30
0.0
 10
26.5001459191
 20
25.9411495871
 30
0.0
  0
SPLINE
  5
41E
100
AcDbEntity
  8
0
100
AcDbSpline
 62
7
  6
CONTINUOUS
 70
0
 71
3
 72
9
 73
5
 74
0
 42
0.0000001
 43
0.0000001
 44
0.0000000001
 40
0.0
 40
0.0
 40
0.0
 40
0.0
 40
0.4499591045
 40
1.0
 40
1.0
 40
1.0
 40
1.0
 10
23.292085166
 20
59.174996966
 30
0.0
 10
23.2920851581
 20
59.1593980239
 30
0.0
 10
23.3058733028
 20
59.1247146706
 30
0.0
 10
23.3341689366
 20
59.1028822403
 30
0.0
 10
23.3506828563
 20
59.0933481399
 30
0.0
  0
SPLINE
  5
41F
100
AcDbEntity
  8
0
100
AcDbSpline
 62
7
  6
CONTINUOUS
 70
0
 71
3
 72
9
 73
5
 74
0
 42
0.0000001
 43
0.0000001
 44
0.0000000001
 40
0.0
 40
0.0
 40
0.0
 40
0.0
 40
0.4490948227
 40
1.0
 40
1.0
 40
1.0
 40
1.0
 10
26.651625408
 20
57.1337925254
 30
0.0
 10
26.6516146847
 20
57.1265367248
 30
0.0
 10
26.6579840891
 20
57.1103448946
 30
0.0
 10
26.6712115869
 20
57.1002016075
 30
0.0
 10
26.6789198707
 20
57.0957513282
 30
0.0
  0
SPLINE
  5
420
100
AcDbEntity
  8
0
100
AcDbSpline
 62
7
  6
CONTINUOUS
 70
0
 71
3
 72
17
 73
13
 74
0
 42
0.0000001
 43
0.0000001
 44
0.0000000001
 40
0.0
 40
0.0
 40
0.0
 40
0.0
 40
0.1286863744
 40
0.2703048183
 40
0.4174435894
 40
0.5617816215
 40
0.6954486004
 40
0.8127125096
 40
0.8646791347
 40
0.9125088238
 40
0.9571392325
 40
1.0
 40
1.0
 40
1.0
 40
1.0
 10
26.5001459191
 20
25.9411495871
 30
0.0
 10
26.3928071764
 20
26.0031064668
 30
0.0
 10
26.1844734489
 20
26.1634982562
 30
0.0
 10
25.9177661852
 20
26.4668598981
 30
0.0
 10
25.6982934795
 20
26.8238940263
 30
0.0
 10
25.5441049942
 20
27.2054727314
 30
0.0
 10
25.4675699307
 20
27.5806677386
 30
0.0
 10
25.4744849223
 20
27.8762863924
 30
0.0
 10
25.5291306135
 20
28.0790828716
 30
0.0
 10
25.5901374112
 20
28.2051586383
 30
0.0
 10
25.6716162775
 20
28.3083325954
 30
0.0
 10
25.7394343424
 20
28.3601378884
 30
0.0
 10
25.7751820525
 20
28.3807785636
 30
0.0
  0
SPLINE
  5
421
100
AcDbEntity
  8
0
100
AcDbSpline
 62
7
  6
CONTINUOUS
 70
0
 71
3
 72
11
 73
7
 74
0
 42
0.0000001
 43
0.0000001
 44
0.0000000001
 40
0.0
 40
0.0
 40
0.0
 40
0.0
 40
0.2178024095
 40
0.4509669671
 40
0.710778893
 40
1.0
 40
1.0
 40
1.0
 40
1.0
 10
25.2590782699
 20
54.7261112367
 30
0.0
 10
25.2590430547
 20
54.7070657236
 30
0.0
 10
25.266073061
 20
54.6673574939
 30
0.0
 10
25.2962047014
 20
54.6120188704
 30
0.0
 10
25.3438546843
 20
54.562109372
 30
0.0
 10
25.3836029291
 20
54.534634323
 30
0.0
 10
25.4055054353
 20
54.5219891911
 30
0.0
  0
SPLINE
  5
422
100
AcDbEntity
  8
0
100
AcDbSpline
 62
7
  6
CONTINUOUS
 70
0
 71
3
 72
11
 73
7
 74
0
 42
0.0000001
 43
0.0000001
 44
0.0000000001
 40
0.0
 40
0.0
 40
0.0
 40
0.0
 40
0.2177155993
 40
0.4508633096
 40
0.7104637028
 40
1.0
 40
1.0
 40
1.0
 40
1.0
 10
27.2253364933
 20
50.7562778583
 30
0.0
 10
27.1775081769
 20
50.7286618579
 30
0.0
 10
27.0676251253
 20
50.6886805903
 30
0.0
 10
26.8849659578
 20
50.6841006298
 30
0.0
 10
26.6903903682
 20
50.7312324315
 30
0.0
 10
26.5637501685
 20
50.7914140564
 30
0.0
 10
26.5001459192
 20
50.8281432616
 30
0.0
  0
SPLINE
  5
423
100
AcDbEntity
  8
0
100
AcDbSpline
 62
7
  6
CONTINUOUS
 70
0
 71
3
 72
11
 73
7
 74
0
 42
0.0000001
 43
0.0000001
 44
0.0000000001
 40
0.0
 40
0.0
 40
0.0
 40
0.0
 40
0.217715475
 40
0.4508631482
 40
0.710463602
 40
1.0
 40
1.0
 40
1.0
 40
1.0
 10
16.1944243858
 20
44.6813393602
 30
0.0
 10
16.1465960556
 20
44.6537233523
 30
0.0
 10
16.0367129067
 20
44.6137421302
 30
0.0
 10
15.8540535909
 20
44.6091624699
 30
0.0
 10
15.659477893
 20
44.6562946839
 30
0.0
 10
15.5328376543
 20
44.7164765963
 30
0.0
 10
15.4692333866
 20
44.7532059467
 30
0.0
  0
SPLINE
  5
424
100
AcDbEntity
  8
0
100
AcDbSpline
 62
7
  6
CONTINUOUS
 70
0
 71
3
 72
11
 73
7
 74
0
 42
0.0000001
 43
0.0000001
 44
0.0000000001
 40
0.0
 40
0.0
 40
0.0
 40
0.0
 40
0.2177154749
 40
0.4508631481
 40
0.7104636019
 40
1.0
 40
1.0
 40
1.0
 40
1.0
 10
16.1944243862
 20
47.7922135694
 30
0.0
 10
16.1465960559
 20
47.7645975614
 30
0.0
 10
16.0367129068
 20
47.7246163393
 30
0.0
 10
15.8540535907
 20
47.7200366792
 30
0.0
 10
15.6594778924
 20
47.7671688935
 30
0.0
 10
15.5328376535
 20
47.8273508062
 30
0.0
 10
15.4692333858
 20
47.8640801567
 30
0.0
  0
SPLINE
  5
425
100
AcDbEntity
  8
0
100
AcDbSpline
 62
7
  6
CONTINUOUS
 70
0
 71
3
 72
17
 73
13
 74
0
 42
0.0000001
 43
0.0000001
 44
0.0000000001
 40
0.0
 40
0.0
 40
0.0
 40
0.0
 40
0.1286863744
 40
0.2703048183
 40
0.4174435894
 40
0.5617816215
 40
0.6954486004
 40
0.8127125096
 40
0.8646791347
 40
0.9125088238
 40
0.9571392325
 40
1.0
 40
1.0
 40
1.0
 40
1.0
 10
26.5001459191
 20
22.830275379
 30
0.0
 10
26.3928071764
 20
22.8922322586
 30
0.0
 10
26.1844734489
 20
23.052624048
 30
0.0
 10
25.9177661852
 20
23.35598569
 30
0.0
 10
25.6982934795
 20
23.7130198182
 30
0.0
 10
25.5441049942
 20
24.0945985233
 30
0.0
 10
25.4675699307
 20
24.4697935305
 30
0.0
 10
25.4744849223
 20
24.7654121843
 30
0.0
 10
25.5291306135
 20
24.9682086635
 30
0.0
 10
25.5901374112
 20
25.0942844302
 30
0.0
 10
25.6716162775
 20
25.1974583873
 30
0.0
 10
25.7394343424
 20
25.2492636803
 30
0.0
 10
25.7751820525
 20
25.2699043555
 30
0.0
  0
SPLINE
  5
426
100
AcDbEntity
  8
0
100
AcDbSpline
 62
7
  6
CONTINUOUS
 70
0
 71
3
 72
17
 73
13
 74
0
 42
0.0000001
 43
0.0000001
 44
0.0000000001
 40
0.0
 40
0.0
 40
0.0
 40
0.0
 40
0.1286863744
 40
0.2703048183
 40
0.4174435894
 40
0.5617816215
 40
0.6954486004
 40
0.8127125096
 40
0.8646791347
 40
0.9125088238
 40
0.9571392325
 40
1.0
 40
1.0
 40
1.0
 40
1.0
 10
26.5001459192
 20
50.8281432616
 30
0.0
 10
26.3928071765
 20
50.8901001412
 30
0.0
 10
26.1844734489
 20
51.0504919306
 30
0.0
 10
25.9177661852
 20
51.3538535725
 30
0.0
 10
25.6982934796
 20
51.7108877008
 30
0.0
 10
25.5441049943
 20
52.0924664059
 30
0.0
 10
25.4675699308
 20
52.4676614131
 30
0.0
 10
25.4744849223
 20
52.7632800669
 30
0.0
 10
25.5291306136
 20
52.9660765461
 30
0.0
 10
25.5901374113
 20
53.0921523128
 30
0.0
 10
25.6716162776
 20
53.1953262699
 30
0.0
 10
25.7394343425
 20
53.2471315629
 30
0.0
 10
25.7751820525
 20
53.2677722381
 30
0.0
  0
SPLINE
  5
427
100
AcDbEntity
  8
0
100
AcDbSpline
 62
7
  6
CONTINUOUS
 70
0
 71
3
 72
11
 73
7
 74
0
 42
0.0000001
 43
0.0000001
 44
0.0000000001
 40
0.0
 40
0.0
 40
0.0
 40
0.0
 40
0.2177154749
 40
0.4508631481
 40
0.7104636019
 40
1.0
 40
1.0
 40
1.0
 40
1.0
 10
16.1944243862
 20
50.9030877791
 30
0.0
 10
16.1465960559
 20
50.8754717712
 30
0.0
 10
16.0367129068
 20
50.835490549
 30
0.0
 10
15.8540535907
 20
50.830910889
 30
0.0
 10
15.6594778924
 20
50.8780431033
 30
0.0
 10
15.5328376535
 20
50.9382250159
 30
0.0
 10
15.4692333858
 20
50.9749543664
 30
0.0
  0
SPLINE
  5
428
100
AcDbEntity
  8
0
100
AcDbSpline
 62
7
  6
CONTINUOUS
 70
0
 71
3
 72
11
 73
7
 74
0
 42
0.0000001
 43
0.0000001
 44
0.0000000001
 40
0.0
 40
0.0
 40
0.0
 40
0.0
 40
0.2177429854
 40
0.4508904432
 40
0.7104685308
 40
1.0
 40
1.0
 40
1.0
 40
1.0
 10
27.225333762
 20
28.9801629466
 30
0.0
 10
27.177499079
 20
28.9525438551
 30
0.0
 10
27.0676121815
 20
28.9125495507
 30
0.0
 10
26.8849497339
 20
28.9079858451
 30
0.0
 10
26.6903808059
 20
28.9551108955
 30
0.0
 10
26.5637486482
 20
29.0152955781
 30
0.0
 10
26.5001453304
 20
29.0520242454
 30
0.0
  0
SPLINE
  5
429
100
AcDbEntity
  8
0
100
AcDbSpline
 62
7
  6
CONTINUOUS
 70
0
 71
3
 72
17
 73
13
 74
0
 42
0.0000001
 43
0.0000001
 44
0.0000000001
 40
0.0
 40
0.0
 40
0.0
 40
0.0
 40
0.1286863744
 40
0.2703048183
 40
0.4174435894
 40
0.5617816215
 40
0.6954486004
 40
0.8127125096
 40
0.8646791347
 40
0.9125088238
 40
0.9571392325
 40
1.0
 40
1.0
 40
1.0
 40
1.0
 10
26.5001459192
 20
19.7194011692
 30
0.0
 10
26.3928071766
 20
19.7813580488
 30
0.0
 10
26.184473449
 20
19.9417498382
 30
0.0
 10
25.9177661853
 20
20.2451114801
 30
0.0
 10
25.6982934797
 20
20.6021456084
 30
0.0
 10
25.5441049944
 20
20.9837243135
 30
0.0
 10
25.4675699308
 20
21.3589193207
 30
0.0
 10
25.4744849224
 20
21.6545379745
 30
0.0
 10
25.5291306137
 20
21.8573344537
 30
0.0
 10
25.5901374114
 20
21.9834102204
 30
0.0
 10
25.6716162777
 20
22.0865841775
 30
0.0
 10
25.7394343426
 20
22.1383894705
 30
0.0
 10
25.7751820526
 20
22.1590301457
 30
0.0
  0
SPLINE
  5
42A
100
AcDbEntity
  8
0
100
AcDbSpline
 62
7
  6
CONTINUOUS
 70
0
 71
3
 72
17
 73
13
 74
0
 42
0.0000001
 43
0.0000001
 44
0.0000000001
 40
0.0
 40
0.0
 40
0.0
 40
0.0
 40
0.1286837603
 40
0.2702957045
 40
0.4174293831
 40
0.561764836
 40
0.6954322255
 40
0.8126979489
 40
0.8646661139
 40
0.9124988889
 40
0.95713345
 40
1.0
 40
1.0
 40
1.0
 40
1.0
 10
26.5001460183
 20
41.4955205952
 30
0.0
 10
26.3928094468
 20
41.5574762216
 30
0.0
 10
26.1844820697
 20
41.7178616512
 30
0.0
 10
25.9177818211
 20
42.021210956
 30
0.0
 10
25.6983103432
 20
42.3782296103
 30
0.0
 10
25.5441178005
 20
42.7597991591
 30
0.0
 10
25.4675739619
 20
43.1349916026
 30
0.0
 10
25.4744779388
 20
43.4306143271
 30
0.0
 10
25.5291190632
 20
43.6334183112
 30
0.0
 10
25.5901210838
 20
43.7595055558
 30
0.0
 10
25.6716036863
 20
43.8626937995
 30
0.0
 10
25.7394320586
 20
43.9145019235
 30
0.0
 10
25.7751847839
 20
43.9351450573
 30
0.0
  0
SPLINE
  5
42B
100
AcDbEntity
  8
0
100
AcDbSpline
 62
7
  6
CONTINUOUS
 70
0
 71
3
 72
11
 73
7
 74
0
 42
0.0000001
 43
0.0000001
 44
0.0000000001
 40
0.0
 40
0.0
 40
0.0
 40
0.0
 40
0.2897033281
 40
0.5490895198
 40
0.7822165953
 40
1.0
 40
1.0
 40
1.0
 40
1.0
 10
77.5148320772
 20
129.3936853994
 30
0.0
 10
77.5148320772
 20
129.5076887242
 30
0.0
 10
77.5321166586
 20
129.7244988863
 30
0.0
 10
77.619922173
 20
130.0223846872
 30
0.0
 10
77.7677574979
 20
130.2641021688
 30
0.0
 10
77.9066197406
 20
130.3808434726
 30
0.0
 10
77.9808396088
 20
130.4236940449
 30
0.0
  0
SPLINE
  5
42C
100
AcDbEntity
  8
0
100
AcDbSpline
 62
7
  6
CONTINUOUS
 70
0
 71
3
 72
13
 73
9
 74
0
 42
0.0000001
 43
0.0000001
 44
0.0000000001
 40
0.0
 40
0.0
 40
0.0
 40
0.0
 40
0.1142250362
 40
0.2375584228
 40
0.4999988469
 40
0.762439898
 40
0.8857740437
 40
1.0
 40
1.0
 40
1.0
 40
1.0
 10
79.1058289588
 20
126.6380132631
 30
0.0
 10
78.9969428937
 20
126.7008772399
 30
0.0
 10
78.7817962011
 20
126.8517251987
 30
0.0
 10
78.3789769338
 20
127.2286680729
 30
0.0
 10
77.9535315238
 20
127.8098463669
 30
0.0
 10
77.6629356877
 20
128.4688813898
 30
0.0
 10
77.537899244
 20
129.0062062004
 30
0.0
 10
77.5148320772
 20
129.2679542997
 30
0.0
 10
77.5148320772
 20
129.3936853994
 30
0.0
  0
SPLINE
  5
42D
100
AcDbEntity
  8
0
100
AcDbSpline
 62
7
  6
CONTINUOUS
 70
0
 71
3
 72
11
 73
7
 74
0
 42
0.0000001
 43
0.0000001
 44
0.0000000001
 40
0.0
 40
0.0
 40
0.0
 40
0.0
 40
0.217715475
 40
0.4508631482
 40
0.710463602
 40
1.0
 40
1.0
 40
1.0
 40
1.0
 10
16.1944243857
 20
54.0139619878
 30
0.0
 10
16.1465960555
 20
53.9863459799
 30
0.0
 10
16.0367129066
 20
53.9463647578
 30
0.0
 10
15.8540535908
 20
53.9417850975
 30
0.0
 10
15.6594778929
 20
53.9889173115
 30
0.0
 10
15.5328376541
 20
54.0490992239
 30
0.0
 10
15.4692333865
 20
54.0858285743
 30
0.0
  0
SPLINE
  5
42E
100
AcDbEntity
  8
0
100
AcDbSpline
 62
7
  6
CONTINUOUS
 70
0
 71
3
 72
11
 73
7
 74
0
 42
0.0000001
 43
0.0000001
 44
0.0000000001
 40
0.0
 40
0.0
 40
0.0
 40
0.0
 40
0.2177155993
 40
0.4508633096
 40
0.7104637028
 40
1.0
 40
1.0
 40
1.0
 40
1.0
 10
27.2253364933
 20
32.0910326032
 30
0.0
 10
27.1775081769
 20
32.0634166028
 30
0.0
 10
27.0676251253
 20
32.0234353352
 30
0.0
 10
26.8849659578
 20
32.0188553747
 30
0.0
 10
26.6903903682
 20
32.0659871764
 30
0.0
 10
26.5637501685
 20
32.1261688013
 30
0.0
 10
26.5001459192
 20
32.1628980065
 30
0.0
  0
SPLINE
  5
42F
100
AcDbEntity
  8
0
100
AcDbSpline
 62
7
  6
CONTINUOUS
 70
0
 71
3
 72
11
 73
7
 74
0
 42
0.0000001
 43
0.0000001
 44
0.0000000001
 40
0.0
 40
0.0
 40
0.0
 40
0.0
 40
0.217715475
 40
0.4508631482
 40
0.710463602
 40
1.0
 40
1.0
 40
1.0
 40
1.0
 10
16.1944243857
 20
57.1248361974
 30
0.0
 10
16.1465960555
 20
57.0972201895
 30
0.0
 10
16.0367129066
 20
57.0572389674
 30
0.0
 10
15.8540535908
 20
57.0526593072
 30
0.0
 10
15.6594778929
 20
57.0997915212
 30
0.0
 10
15.5328376542
 20
57.1599734336
 30
0.0
 10
15.4692333866
 20
57.196702784
 30
0.0
  0
SPLINE
  5
430
100
AcDbEntity
  8
0
100
AcDbSpline
 62
7
  6
CONTINUOUS
 70
0
 71
3
 72
11
 73
7
 74
0
 42
0.0000001
 43
0.0000001
 44
0.0000000001
 40
0.0
 40
0.0
 40
0.0
 40
0.0
 40
0.2177155993
 40
0.4508633096
 40
0.7104637028
 40
1.0
 40
1.0
 40
1.0
 40
1.0
 10
27.2253364933
 20
19.6475357659
 30
0.0
 10
27.1775081769
 20
19.6199197655
 30
0.0
 10
27.0676251254
 20
19.579938498
 30
0.0
 10
26.8849659578
 20
19.5753585374
 30
0.0
 10
26.6903903682
 20
19.6224903391
 30
0.0
 10
26.5637501686
 20
19.682671964
 30
0.0
 10
26.5001459192
 20
19.7194011692
 30
0.0
  0
SPLINE
  5
431
100
AcDbEntity
  8
0
100
AcDbSpline
 62
7
  6
CONTINUOUS
 70
0
 71
3
 72
11
 73
7
 74
0
 42
0.0000001
 43
0.0000001
 44
0.0000000001
 40
0.0
 40
0.0
 40
0.0
 40
0.0
 40
0.2177154749
 40
0.4508631481
 40
0.7104636019
 40
1.0
 40
1.0
 40
1.0
 40
1.0
 10
16.1944243861
 20
60.2357104067
 30
0.0
 10
16.1465960558
 20
60.2080943988
 30
0.0
 10
16.0367129068
 20
60.1681131766
 30
0.0
 10
15.8540535906
 20
60.1635335166
 30
0.0
 10
15.6594778924
 20
60.2106657308
 30
0.0
 10
15.5328376535
 20
60.2708476435
 30
0.0
 10
15.4692333858
 20
60.307576994
 30
0.0
  0
SPLINE
  5
432
100
AcDbEntity
  8
0
100
AcDbSpline
 62
7
  6
CONTINUOUS
 70
0
 71
3
 72
11
 73
7
 74
0
 42
0.0000001
 43
0.0000001
 44
0.0000000001
 40
0.0
 40
0.0
 40
0.0
 40
0.0
 40
0.2177155993
 40
0.4508633096
 40
0.7104637028
 40
1.0
 40
1.0
 40
1.0
 40
1.0
 10
27.2253364934
 20
35.2019068113
 30
0.0
 10
27.177508177
 20
35.1742908109
 30
0.0
 10
27.0676251254
 20
35.1343095433
 30
0.0
 10
26.8849659578
 20
35.1297295827
 30
0.0
 10
26.6903903682
 20
35.1768613845
 30
0.0
 10
26.5637501685
 20
35.2370430094
 30
0.0
 10
26.5001459192
 20
35.2737722147
 30
0.0
  0
SPLINE
  5
433
100
AcDbEntity
  8
0
100
AcDbSpline
 62
7
  6
CONTINUOUS
 70
0
 71
3
 72
11
 73
7
 74
0
 42
0.0000001
 43
0.0000001
 44
0.0000000001
 40
0.0
 40
0.0
 40
0.0
 40
0.0
 40
0.2177154749
 40
0.4508631481
 40
0.7104636019
 40
1.0
 40
1.0
 40
1.0
 40
1.0
 10
16.1944243862
 20
63.3465846163
 30
0.0
 10
16.1465960559
 20
63.3189686084
 30
0.0
 10
16.0367129068
 20
63.2789873862
 30
0.0
 10
15.8540535907
 20
63.2744077262
 30
0.0
 10
15.6594778924
 20
63.3215399405
 30
0.0
 10
15.5328376535
 20
63.3817218531
 30
0.0
 10
15.4692333858
 20
63.4184512037
 30
0.0
  0
SPLINE
  5
434
100
AcDbEntity
  8
0
100
AcDbSpline
 62
7
  6
CONTINUOUS
 70
0
 71
3
 72
11
 73
7
 74
0
 42
0.0000001
 43
0.0000001
 44
0.0000000001
 40
0.0
 40
0.0
 40
0.0
 40
0.0
 40
0.217715475
 40
0.4508631482
 40
0.710463602
 40
1.0
 40
1.0
 40
1.0
 40
1.0
 10
16.1944243858
 20
66.4574588249
 30
0.0
 10
16.1465960556
 20
66.4298428171
 30
0.0
 10
16.0367129067
 20
66.3898615949
 30
0.0
 10
15.8540535909
 20
66.3852819347
 30
0.0
 10
15.659477893
 20
66.4324141487
 30
0.0
 10
15.5328376543
 20
66.4925960611
 30
0.0
 10
15.4692333866
 20
66.5293254115
 30
0.0
  0
SPLINE
  5
435
100
AcDbEntity
  8
0
100
AcDbSpline
 62
7
  6
CONTINUOUS
 70
0
 71
3
 72
17
 73
13
 74
0
 42
0.0000001
 43
0.0000001
 44
0.0000000001
 40
0.0
 40
0.0
 40
0.0
 40
0.0
 40
0.1286863704
 40
0.2703048092
 40
0.4174435791
 40
0.5617816131
 40
0.6954485955
 40
0.8127125078
 40
0.8646791341
 40
0.9125088237
 40
0.9571392326
 40
1.0
 40
1.0
 40
1.0
 40
1.0
 10
26.5001461065
 20
38.3846462815
 30
0.0
 10
26.3928073585
 20
38.4466031642
 30
0.0
 10
26.1844736095
 20
38.606994943
 30
0.0
 10
25.9177662995
 20
38.910356576
 30
0.0
 10
25.6982935528
 20
39.2673907148
 30
0.0
 10
25.5441050299
 20
39.6489694454
 30
0.0
 10
25.4675699371
 20
40.0241644872
 30
0.0
 10
25.4744849136
 20
40.3197831732
 30
0.0
 10
25.5291306007
 20
40.5225796761
 30
0.0
 10
25.590137399
 20
40.6486554573
 30
0.0
 10
25.6716162695
 20
40.7518294259
 30
0.0
 10
25.7394343396
 20
40.803634724
 30
0.0
 10
25.7751820525
 20
40.8242754008
 30
0.0
  0
SPLINE
  5
436
100
AcDbEntity
  8
0
100
AcDbSpline
 62
7
  6
CONTINUOUS
 70
0
 71
3
 72
11
 73
7
 74
0
 42
0.0000001
 43
0.0000001
 44
0.0000000001
 40
0.0
 40
0.0
 40
0.0
 40
0.0
 40
0.217715475
 40
0.4508631482
 40
0.710463602
 40
1.0
 40
1.0
 40
1.0
 40
1.0
 10
16.1944243858
 20
69.5683330346
 30
0.0
 10
16.1465960556
 20
69.5407170267
 30
0.0
 10
16.0367129067
 20
69.5007358046
 30
0.0
 10
15.8540535909
 20
69.4961561444
 30
0.0
 10
15.659477893
 20
69.5432883583
 30
0.0
 10
15.5328376542
 20
69.6034702708
 30
0.0
 10
15.4692333866
 20
69.6401996212
 30
0.0
  0
SPLINE
  5
437
100
AcDbEntity
  8
0
100
AcDbSpline
 62
7
  6
CONTINUOUS
 70
0
 71
3
 72
11
 73
7
 74
0
 42
0.0000001
 43
0.0000001
 44
0.0000000001
 40
0.0
 40
0.0
 40
0.0
 40
0.0
 40
0.2177155497
 40
0.4508666788
 40
0.7104706013
 40
1.0
 40
1.0
 40
1.0
 40
1.0
 10
16.194423436
 20
26.0160956366
 30
0.0
 10
16.1465960393
 20
25.9884781514
 30
0.0
 10
16.0367112646
 20
25.948498265
 30
0.0
 10
15.8540507166
 20
25.9439171057
 30
0.0
 10
15.6594758261
 20
25.9910520735
 30
0.0
 10
15.5328362024
 20
26.0512321445
 30
0.0
 10
15.4692335745
 20
26.0879605481
 30
0.0
  0
SPLINE
  5
438
100
AcDbEntity
  8
0
100
AcDbSpline
 62
7
  6
CONTINUOUS
 70
0
 71
3
 72
11
 73
7
 74
0
 42
0.0000001
 43
0.0000001
 44
0.0000000001
 40
0.0
 40
0.0
 40
0.0
 40
0.0
 40
0.2177154749
 40
0.4508631481
 40
0.7104636019
 40
1.0
 40
1.0
 40
1.0
 40
1.0
 10
16.1944243862
 20
29.1269683143
 30
0.0
 10
16.1465960559
 20
29.0993523063
 30
0.0
 10
16.0367129068
 20
29.0593710842
 30
0.0
 10
15.8540535907
 20
29.0547914241
 30
0.0
 10
15.6594778924
 20
29.1019236384
 30
0.0
 10
15.5328376535
 20
29.1621055511
 30
0.0
 10
15.4692333858
 20
29.1988349016
 30
0.0
  0
SPLINE
  5
439
100
AcDbEntity
  8
0
100
AcDbSpline
 62
7
  6
CONTINUOUS
 70
0
 71
3
 72
11
 73
7
 74
0
 42
0.0000001
 43
0.0000001
 44
0.0000000001
 40
0.0
 40
0.0
 40
0.0
 40
0.0
 40
0.217715475
 40
0.4508631481
 40
0.7104636019
 40
1.0
 40
1.0
 40
1.0
 40
1.0
 10
16.1944243861
 20
72.6792072439
 30
0.0
 10
16.1465960559
 20
72.651591236
 30
0.0
 10
16.0367129072
 20
72.611610014
 30
0.0
 10
15.8540535916
 20
72.6070303537
 30
0.0
 10
15.6594778938
 20
72.6541625676
 30
0.0
 10
15.5328376552
 20
72.71434448
 30
0.0
 10
15.4692333877
 20
72.7510738305
 30
0.0
  0
SPLINE
  5
43A
100
AcDbEntity
  8
0
100
AcDbSpline
 62
7
  6
CONTINUOUS
 70
0
 71
3
 72
11
 73
7
 74
0
 42
0.0000001
 43
0.0000001
 44
0.0000000001
 40
0.0
 40
0.0
 40
0.0
 40
0.0
 40
0.217715475
 40
0.4508631482
 40
0.710463602
 40
1.0
 40
1.0
 40
1.0
 40
1.0
 10
16.1944243857
 20
75.7900814525
 30
0.0
 10
16.1465960555
 20
75.7624654446
 30
0.0
 10
16.0367129066
 20
75.7224842225
 30
0.0
 10
15.8540535908
 20
75.7179045623
 30
0.0
 10
15.6594778929
 20
75.7650367763
 30
0.0
 10
15.5328376541
 20
75.8252186887
 30
0.0
 10
15.4692333865
 20
75.8619480391
 30
0.0
  0
SPLINE
  5
43B
100
AcDbEntity
  8
0
100
AcDbSpline
 62
7
  6
CONTINUOUS
 70
0
 71
3
 72
11
 73
7
 74
0
 42
0.0000001
 43
0.0000001
 44
0.0000000001
 40
0.0
 40
0.0
 40
0.0
 40
0.0
 40
0.217715674
 40
0.4508668402
 40
0.7104707022
 40
1.0
 40
1.0
 40
1.0
 40
1.0
 10
27.2253355432
 20
38.312782553
 30
0.0
 10
27.1775081603
 20
38.2851650751
 30
0.0
 10
27.0676234829
 20
38.2451851431
 30
0.0
 10
26.884963083
 20
38.2406036837
 30
0.0
 10
26.6903883008
 20
38.2877382396
 30
0.0
 10
26.5637487162
 20
38.3479180231
 30
0.0
 10
26.5001461065
 20
38.3846462815
 30
0.0
  0
SPLINE
  5
43C
100
AcDbEntity
  8
0
100
AcDbSpline
 62
7
  6
CONTINUOUS
 70
0
 71
3
 72
11
 73
7
 74
0
 42
0.0000001
 43
0.0000001
 44
0.0000000001
 40
0.0
 40
0.0
 40
0.0
 40
0.0
 40
0.217715475
 40
0.4508631482
 40
0.710463602
 40
1.0
 40
1.0
 40
1.0
 40
1.0
 10
16.1944243858
 20
32.2378425229
 30
0.0
 10
16.1465960556
 20
32.210226515
 30
0.0
 10
16.0367129067
 20
32.1702452929
 30
0.0
 10
15.8540535909
 20
32.1656656326
 30
0.0
 10
15.6594778929
 20
32.2127978466
 30
0.0
 10
15.5328376542
 20
32.2729797591
 30
0.0
 10
15.4692333865
 20
32.3097091095
 30
0.0
  0
SPLINE
  5
43D
100
AcDbEntity
  8
0
100
AcDbSpline
 62
7
  6
CONTINUOUS
 70
0
 71
3
 72
11
 73
7
 74
0
 42
0.0000001
 43
0.0000001
 44
0.0000000001
 40
0.0
 40
0.0
 40
0.0
 40
0.0
 40
0.2178024095
 40
0.4509669671
 40
0.710778893
 40
1.0
 40
1.0
 40
1.0
 40
1.0
 10
14.2281665576
 20
79.7599122628
 30
0.0
 10
14.2281313424
 20
79.7408667496
 30
0.0
 10
14.2351613487
 20
79.70115852
 30
0.0
 10
14.2652929891
 20
79.6458198965
 30
0.0
 10
14.312942972
 20
79.5959103981
 30
0.0
 10
14.3526912168
 20
79.5684353491
 30
0.0
 10
14.374593723
 20
79.5557902172
 30
0.0
  0
SPLINE
  5
43E
100
AcDbEntity
  8
0
100
AcDbSpline
 62
7
  6
CONTINUOUS
 70
0
 71
3
 72
11
 73
7
 74
0
 42
0.0000001
 43
0.0000001
 44
0.0000000001
 40
0.0
 40
0.0
 40
0.0
 40
0.0
 40
0.2177155993
 40
0.4508633096
 40
0.7104637028
 40
1.0
 40
1.0
 40
1.0
 40
1.0
 10
27.2253364933
 20
22.7584099757
 30
0.0
 10
27.1775081769
 20
22.7307939752
 30
0.0
 10
27.0676251253
 20
22.6908127077
 30
0.0
 10
26.8849659577
 20
22.6862327471
 30
0.0
 10
26.6903903681
 20
22.7333645489
 30
0.0
 10
26.5637501684
 20
22.7935461738
 30
0.0
 10
26.5001459191
 20
22.830275379
 30
0.0
  0
SPLINE
  5
43F
100
AcDbEntity
  8
0
100
AcDbSpline
 62
7
  6
CONTINUOUS
 70
0
 71
3
 72
11
 73
7
 74
0
 42
0.0000001
 43
0.0000001
 44
0.0000000001
 40
0.0
 40
0.0
 40
0.0
 40
0.0
 40
0.217715475
 40
0.4508631482
 40
0.710463602
 40
1.0
 40
1.0
 40
1.0
 40
1.0
 10
16.1944243858
 20
35.3487167326
 30
0.0
 10
16.1465960556
 20
35.3211007247
 30
0.0
 10
16.0367129067
 20
35.2811195026
 30
0.0
 10
15.8540535909
 20
35.2765398424
 30
0.0
 10
15.659477893
 20
35.3236720564
 30
0.0
 10
15.5328376542
 20
35.3838539688
 30
0.0
 10
15.4692333866
 20
35.4205833192
 30
0.0
  0
SPLINE
  5
440
100
AcDbEntity
  8
0
100
AcDbSpline
 62
7
  6
CONTINUOUS
 70
0
 71
3
 72
9
 73
5
 74
0
 42
0.0000001
 43
0.0000001
 44
0.0000000001
 40
0.0
 40
0.0
 40
0.0
 40
0.0
 40
0.4490948228
 40
1.0
 40
1.0
 40
1.0
 40
1.0
 10
15.6207136957
 20
82.1675935515
 30
0.0
 10
15.6207029725
 20
82.1603377509
 30
0.0
 10
15.6270723768
 20
82.1441459207
 30
0.0
 10
15.6402998746
 20
82.1340026336
 30
0.0
 10
15.6480081584
 20
82.1295523542
 30
0.0
  0
SPLINE
  5
441
100
AcDbEntity
  8
0
100
AcDbSpline
 62
7
  6
CONTINUOUS
 70
0
 71
3
 72
9
 73
5
 74
0
 42
0.0000001
 43
0.0000001
 44
0.0000000001
 40
0.0
 40
0.0
 40
0.0
 40
0.0
 40
0.4499591046
 40
1.0
 40
1.0
 40
1.0
 40
1.0
 10
12.2611734537
 20
84.2087979921
 30
0.0
 10
12.2611734458
 20
84.19319905
 30
0.0
 10
12.2749615905
 20
84.1585156967
 30
0.0
 10
12.3032572243
 20
84.1366832664
 30
0.0
 10
12.3197711441
 20
84.1271491659
 30
0.0
  0
SPLINE
  5
442
100
AcDbEntity
  8
0
100
AcDbSpline
 62
7
  6
CONTINUOUS
 70
0
 71
3
 72
11
 73
7
 74
0
 42
0.0000001
 43
0.0000001
 44
0.0000000001
 40
0.0
 40
0.0
 40
0.0
 40
0.0
 40
0.217715475
 40
0.4508631481
 40
0.7104636019
 40
1.0
 40
1.0
 40
1.0
 40
1.0
 10
16.1944243861
 20
38.4595909419
 30
0.0
 10
16.1465960559
 20
38.431974934
 30
0.0
 10
16.0367129072
 20
38.3919937119
 30
0.0
 10
15.8540535916
 20
38.3874140516
 30
0.0
 10
15.6594778938
 20
38.4345462655
 30
0.0
 10
15.5328376552
 20
38.494728178
 30
0.0
 10
15.4692333877
 20
38.5314575284
 30
0.0
  0
SPLINE
  5
443
100
AcDbEntity
  8
0
100
AcDbSpline
 62
7
  6
CONTINUOUS
 70
0
 71
3
 72
11
 73
7
 74
0
 42
0.0000001
 43
0.0000001
 44
0.0000000001
 40
0.0
 40
0.0
 40
0.0
 40
0.0
 40
0.2177231375
 40
0.4508717887
 40
0.7104673698
 40
1.0
 40
1.0
 40
1.0
 40
1.0
 10
66.0659009919
 20
98.3775400509
 30
0.0
 10
66.1082745727
 20
98.353078379
 30
0.0
 10
66.1876241194
 20
98.2864906839
 30
0.0
 10
66.2720640719
 20
98.1483960889
 30
0.0
 10
66.3221135067
 20
97.9782509698
 30
0.0
 10
66.3320497011
 20
97.85443935
 30
0.0
 10
66.3320497011
 20
97.7893746598
 30
0.0
  0
SPLINE
  5
444
100
AcDbEntity
  8
0
100
AcDbSpline
 62
7
  6
CONTINUOUS
 70
0
 71
3
 72
11
 73
7
 74
0
 42
0.0000001
 43
0.0000001
 44
0.0000000001
 40
0.0
 40
0.0
 40
0.0
 40
0.0
 40
0.2383165703
 40
0.5010899889
 40
0.7632714532
 40
1.0
 40
1.0
 40
1.0
 40
1.0
 10
46.04143528
 20
89.2350477576
 30
0.0
 10
45.982038094
 20
89.199557795
 30
0.0
 10
45.8699426633
 20
89.1032976308
 30
0.0
 10
45.7392025851
 20
88.9223766226
 30
0.0
 10
45.6500773974
 20
88.7182306657
 30
0.0
 10
45.6245773758
 20
88.5732804913
 30
0.0
 10
45.6245773758
 20
88.5045493351
 30
0.0
  0
SPLINE
  5
445
100
AcDbEntity
  8
0
100
AcDbSpline
 62
7
  6
CONTINUOUS
 70
0
 71
3
 72
11
 73
7
 74
0
 42
0.0000001
 43
0.0000001
 44
0.0000000001
 40
0.0
 40
0.0
 40
0.0
 40
0.0
 40
0.2177231375
 40
0.4508717886
 40
0.7104673698
 40
1.0
 40
1.0
 40
1.0
 40
1.0
 10
66.0659009916
 20
31.4243418459
 30
0.0
 10
66.1082745725
 20
31.399880174
 30
0.0
 10
66.1876241193
 20
31.3332924787
 30
0.0
 10
66.2720640718
 20
31.1951978834
 30
0.0
 10
66.3221135065
 20
31.0250527641
 30
0.0
 10
66.3320497009
 20
30.9012411442
 30
0.0
 10
66.3320497009
 20
30.8361764539
 30
0.0
  0
SPLINE
  5
446
100
AcDbEntity
  8
0
100
AcDbSpline
 62
7
  6
CONTINUOUS
 70
0
 71
3
 72
17
 73
13
 74
0
 42
0.0000001
 43
0.0000001
 44
0.0000000001
 40
0.0
 40
0.0
 40
0.0
 40
0.0
 40
0.1286863744
 40
0.2703048183
 40
0.4174435894
 40
0.5617816215
 40
0.6954486004
 40
0.8127125096
 40
0.8646791347
 40
0.9125088238
 40
0.9571392325
 40
1.0
 40
1.0
 40
1.0
 40
1.0
 10
26.5001459192
 20
35.2737722147
 30
0.0
 10
26.3928071765
 20
35.3357290943
 30
0.0
 10
26.1844734489
 20
35.4961208836
 30
0.0
 10
25.9177661853
 20
35.7994825256
 30
0.0
 10
25.6982934796
 20
36.1565166538
 30
0.0
 10
25.5441049943
 20
36.5380953589
 30
0.0
 10
25.4675699308
 20
36.9132903661
 30
0.0
 10
25.4744849223
 20
37.2089090199
 30
0.0
 10
25.5291306136
 20
37.4117054991
 30
0.0
 10
25.5901374113
 20
37.5377812658
 30
0.0
 10
25.6716162776
 20
37.6409552229
 30
0.0
 10
25.7394343425
 20
37.6927605159
 30
0.0
 10
25.7751820525
 20
37.7134011911
 30
0.0
  0
SPLINE
  5
447
100
AcDbEntity
  8
0
100
AcDbSpline
 62
7
  6
CONTINUOUS
 70
0
 71
3
 72
9
 73
5
 74
0
 42
0.0000001
 43
0.0000001
 44
0.0000000001
 40
0.0
 40
0.0
 40
0.0
 40
0.0
 40
0.2380708056
 40
1.0
 40
1.0
 40
1.0
 40
1.0
 10
82.570739328
 20
106.1032449301
 30
0.0
 10
82.5632937727
 20
106.0989462624
 30
0.0
 10
82.5325854738
 20
106.0799141445
 30
0.0
 10
82.5041024555
 20
106.0573937348
 30
0.0
 10
82.4836994569
 20
106.0389327083
 30
0.0
  0
SPLINE
  5
448
100
AcDbEntity
  8
0
100
AcDbSpline
 62
7
  6
CONTINUOUS
 70
0
 71
3
 72
9
 73
5
 74
0
 42
0.0000001
 43
0.0000001
 44
0.0000000001
 40
0.0
 40
0.0
 40
0.0
 40
0.0
 40
0.2413883401
 40
1.0
 40
1.0
 40
1.0
 40
1.0
 10
82.4836994569
 20
106.0389327083
 30
0.0
 10
82.4704574448
 20
106.0269510805
 30
0.0
 10
82.4178090028
 20
105.9748988686
 30
0.0
 10
82.3738063099
 20
105.9143266402
 30
0.0
 10
82.3457451456
 20
105.8657230082
 30
0.0
  0
SPLINE
  5
449
100
AcDbEntity
  8
0
100
AcDbSpline
 62
7
  6
CONTINUOUS
 70
0
 71
3
 72
10
 73
6
 74
0
 42
0.0000001
 43
0.0000001
 44
0.0000000001
 40
0.0
 40
0.0
 40
0.0
 40
0.0
 40
0.2770401929
 40
0.6883100682
 40
1.0
 40
1.0
 40
1.0
 40
1.0
 10
86.0603085405
 20
105.256123875
 30
0.0
 10
86.0994884542
 20
105.2335038531
 30
0.0
 10
86.1962057514
 20
105.1762234616
 30
0.0
 10
86.3386708466
 20
105.0963824585
 30
0.0
 10
86.4404929826
 20
105.0366242815
 30
0.0
 10
86.4845726092
 20
105.0111741695
 30
0.0
  0
SPLINE
  5
44A
100
AcDbEntity
  8
0
100
AcDbSpline
 62
7
  6
CONTINUOUS
 70
0
 71
3
 72
11
 73
7
 74
0
 42
0.0000001
 43
0.0000001
 44
0.0000000001
 40
0.0
 40
0.0
 40
0.0
 40
0.0
 40
0.1950514903
 40
0.5780162189
 40
0.7961429444
 40
1.0
 40
1.0
 40
1.0
 40
1.0
 10
86.4845726092
 20
105.5663958132
 30
0.0
 10
86.4569881748
 20
105.5823221491
 30
0.0
 10
86.3755775775
 20
105.6300941586
 30
0.0
 10
86.2625171133
 20
105.6942861332
 30
0.0
 10
86.1484285587
 20
105.7595774959
 30
0.0
 10
86.0891386384
 20
105.7947008302
 30
0.0
 10
86.0603085405
 20
105.8113455184
 30
0.0
  0
SPLINE
  5
44B
100
AcDbEntity
  8
0
100
AcDbSpline
 62
7
  6
CONTINUOUS
 70
0
 71
3
 72
11
 73
7
 74
0
 42
0.0000001
 43
0.0000001
 44
0.0000000001
 40
0.0
 40
0.0
 40
0.0
 40
0.0
 40
0.1950514903
 40
0.5780162189
 40
0.7961429445
 40
1.0
 40
1.0
 40
1.0
 40
1.0
 10
85.1622884336
 20
104.2477576018
 30
0.0
 10
85.1347039993
 20
104.2636839377
 30
0.0
 10
85.053293402
 20
104.3114559473
 30
0.0
 10
84.9402329378
 20
104.3756479218
 30
0.0
 10
84.8261443831
 20
104.4409392842
 30
0.0
 10
84.7668544628
 20
104.4760626185
 30
0.0
 10
84.7380243649
 20
104.4927073067
 30
0.0
  0
SPLINE
  5
44C
100
AcDbEntity
  8
0
100
AcDbSpline
 62
7
  6
CONTINUOUS
 70
0
 71
3
 72
17
 73
13
 74
0
 42
0.0000001
 43
0.0000001
 44
0.0000000001
 40
0.0
 40
0.0
 40
0.0
 40
0.0
 40
0.1286863888
 40
0.2703048296
 40
0.4174435921
 40
0.5617816238
 40
0.6954486023
 40
0.8127125121
 40
0.864679137
 40
0.9125088251
 40
0.9571392332
 40
1.0
 40
1.0
 40
1.0
 40
1.0
 10
15.4692335745
 20
26.0879605481
 30
0.0
 10
15.3618951015
 20
26.1499171727
 30
0.0
 10
15.1535621412
 20
26.3103087036
 30
0.0
 10
14.8868555997
 20
26.6136693142
 30
0.0
 10
14.6673835408
 20
26.9707023557
 30
0.0
 10
14.5131955014
 20
27.3522798843
 30
0.0
 10
14.4366606451
 20
27.7274737529
 30
0.0
 10
14.4435755987
 20
28.0230915128
 30
0.0
 10
14.4982211129
 20
28.2258873814
 30
0.0
 10
14.5592277214
 20
28.3519627673
 30
0.0
 10
14.6407063351
 20
28.455136414
 30
0.0
 10
14.708524191
 20
28.506941554
 30
0.0
 10
14.7442717921
 20
28.5275821668
 30
0.0
  0
SPLINE
  5
44D
100
AcDbEntity
  8
0
100
AcDbSpline
 62
7
  6
CONTINUOUS
 70
0
 71
3
 72
11
 73
7
 74
0
 42
0.0000001
 43
0.0000001
 44
0.0000000001
 40
0.0
 40
0.0
 40
0.0
 40
0.0
 40
0.2177231993
 40
0.4508753011
 40
0.7104743705
 40
1.0
 40
1.0
 40
1.0
 40
1.0
 10
92.918392063
 20
113.8605846193
 30
0.0
 10
92.9596150952
 20
113.8367888861
 30
0.0
 10
93.0368085077
 20
113.772008541
 30
0.0
 10
93.1189559203
 20
113.6376655373
 30
0.0
 10
93.1676430985
 20
113.4721424932
 30
0.0
 10
93.1773104284
 20
113.3516959643
 30
0.0
 10
93.1773104284
 20
113.2884006505
 30
0.0
  0
SPLINE
  5
44E
100
AcDbEntity
  8
0
100
AcDbSpline
 62
7
  6
CONTINUOUS
 70
0
 71
3
 72
17
 73
13
 74
0
 42
0.0000001
 43
0.0000001
 44
0.0000000001
 40
0.0
 40
0.0
 40
0.0
 40
0.0
 40
0.1286863929
 40
0.2703048388
 40
0.4174436026
 40
0.5617816322
 40
0.6954486073
 40
0.8127125139
 40
0.8646791377
 40
0.9125088252
 40
0.9571392331
 40
1.0
 40
1.0
 40
1.0
 40
1.0
 10
15.4692333858
 20
29.1988349016
 30
0.0
 10
15.3618949182
 20
29.2607915231
 30
0.0
 10
15.1535619794
 20
29.4211830648
 30
0.0
 10
14.8868554845
 20
29.7245436843
 30
0.0
 10
14.667383467
 20
30.0815767152
 30
0.0
 10
14.5131954655
 20
30.463154218
 30
0.0
 10
14.4366606386
 20
30.8383480518
 30
0.0
 10
14.4435756074
 20
31.1339657793
 30
0.0
 10
14.4982211258
 20
31.336761624
 30
0.0
 10
14.5592277337
 20
31.4628369952
 30
0.0
 10
14.6407063432
 20
31.5660106304
 30
0.0
 10
14.7085241938
 20
31.6178157653
 30
0.0
 10
14.7442717921
 20
31.6384563765
 30
0.0
  0
SPLINE
  5
44F
100
AcDbEntity
  8
0
100
AcDbSpline
 62
7
  6
CONTINUOUS
 70
0
 71
3
 72
17
 73
13
 74
0
 42
0.0000001
 43
0.0000001
 44
0.0000000001
 40
0.0
 40
0.0
 40
0.0
 40
0.0
 40
0.1286863928
 40
0.2703048388
 40
0.4174436026
 40
0.5617816322
 40
0.6954486073
 40
0.8127125139
 40
0.8646791376
 40
0.9125088252
 40
0.9571392331
 40
1.0
 40
1.0
 40
1.0
 40
1.0
 10
15.4692333865
 20
32.3097091095
 30
0.0
 10
15.3618949189
 20
32.3716657311
 30
0.0
 10
15.1535619799
 20
32.5320572726
 30
0.0
 10
14.8868554849
 20
32.8354178924
 30
0.0
 10
14.6673834673
 20
33.1924509235
 30
0.0
 10
14.5131954657
 20
33.5740284265
 30
0.0
 10
14.4366606387
 20
33.9492222606
 30
0.0
 10
14.4435756075
 20
34.2448399883
 30
0.0
 10
14.498221126
 20
34.4476358331
 30
0.0
 10
14.5592277339
 20
34.5737112044
 30
0.0
 10
14.6407063435
 20
34.6768848397
 30
0.0
 10
14.7085241941
 20
34.7286899745
 30
0.0
 10
14.7442717924
 20
34.7493305858
 30
0.0
  0
SPLINE
  5
450
100
AcDbEntity
  8
0
100
AcDbSpline
 62
7
  6
CONTINUOUS
 70
0
 71
3
 72
11
 73
7
 74
0
 42
0.0000001
 43
0.0000001
 44
0.0000000001
 40
0.0
 40
0.0
 40
0.0
 40
0.0
 40
0.2177156022
 40
0.4508633117
 40
0.7104637021
 40
1.0
 40
1.0
 40
1.0
 40
1.0
 10
27.2253364933
 20
41.4236552309
 30
0.0
 10
27.1775081829
 20
41.396039234
 30
0.0
 10
27.067625148
 20
41.3560579691
 30
0.0
 10
26.8849660067
 20
41.351477997
 30
0.0
 10
26.690390442
 20
41.3986097812
 30
0.0
 10
26.5637502589
 20
41.458791395
 30
0.0
 10
26.5001460183
 20
41.4955205952
 30
0.0
  0
SPLINE
  5
451
100
AcDbEntity
  8
0
100
AcDbSpline
 62
7
  6
CONTINUOUS
 70
0
 71
3
 72
17
 73
13
 74
0
 42
0.0000001
 43
0.0000001
 44
0.0000000001
 40
0.0
 40
0.0
 40
0.0
 40
0.0
 40
0.1286863928
 40
0.2703048388
 40
0.4174436026
 40
0.5617816322
 40
0.6954486073
 40
0.8127125139
 40
0.8646791376
 40
0.9125088252
 40
0.9571392331
 40
1.0
 40
1.0
 40
1.0
 40
1.0
 10
15.4692333866
 20
35.4205833192
 30
0.0
 10
15.361894919
 20
35.4825399408
 30
0.0
 10
15.15356198
 20
35.6429314823
 30
0.0
 10
14.886855485
 20
35.9462921022
 30
0.0
 10
14.6673834673
 20
36.3033251332
 30
0.0
 10
14.5131954657
 20
36.6849026362
 30
0.0
 10
14.4366606387
 20
37.0600964703
 30
0.0
 10
14.4435756076
 20
37.355714198
 30
0.0
 10
14.4982211261
 20
37.5585100428
 30
0.0
 10
14.5592277339
 20
37.6845854141
 30
0.0
 10
14.6407063435
 20
37.7877590494
 30
0.0
 10
14.7085241942
 20
37.8395641843
 30
0.0
 10
14.7442717925
 20
37.8602047955
 30
0.0
  0
SPLINE
  5
452
100
AcDbEntity
  8
0
100
AcDbSpline
 62
7
  6
CONTINUOUS
 70
0
 71
3
 72
17
 73
13
 74
0
 42
0.0000001
 43
0.0000001
 44
0.0000000001
 40
0.0
 40
0.0
 40
0.0
 40
0.0
 40
0.1286880263
 40
0.270307558
 40
0.4174609766
 40
0.5617984195
 40
0.6954521506
 40
0.8127086126
 40
0.8646742672
 40
0.9125052418
 40
0.957137094
 40
1.0
 40
1.0
 40
1.0
 40
1.0
 10
15.4692333877
 20
38.5314575284
 30
0.0
 10
15.3618935825
 20
38.593414922
 30
0.0
 10
15.1535595489
 20
38.7538090414
 30
0.0
 10
14.8868398823
 20
39.0571807526
 30
0.0
 10
14.6673708404
 20
39.4142331196
 30
0.0
 10
14.5131851251
 20
39.7958121184
 30
0.0
 10
14.436660128
 20
40.1709861955
 30
0.0
 10
14.4435722359
 20
40.4665833359
 30
0.0
 10
14.4982195267
 20
40.6693710574
 30
0.0
 10
14.5592208628
 20
40.7954508048
 30
0.0
 10
14.6407037266
 20
40.898627669
 30
0.0
 10
14.708524021
 20
40.9504347052
 30
0.0
 10
14.7442727423
 20
40.971077472
 30
0.0
  0
SPLINE
  5
453
100
AcDbEntity
  8
0
100
AcDbSpline
 62
7
  6
CONTINUOUS
 70
0
 71
3
 72
17
 73
13
 74
0
 42
0.0000001
 43
0.0000001
 44
0.0000000001
 40
0.0
 40
0.0
 40
0.0
 40
0.0
 40
0.1286863929
 40
0.2703048388
 40
0.4174436026
 40
0.5617816322
 40
0.6954486073
 40
0.8127125139
 40
0.8646791377
 40
0.9125088252
 40
0.9571392331
 40
1.0
 40
1.0
 40
1.0
 40
1.0
 10
15.4692333857
 20
41.6423317389
 30
0.0
 10
15.3618949181
 20
41.7042883604
 30
0.0
 10
15.1535619794
 20
41.8646799021
 30
0.0
 10
14.8868554845
 20
42.1680405217
 30
0.0
 10
14.667383467
 20
42.5250735525
 30
0.0
 10
14.5131954655
 20
42.9066510553
 30
0.0
 10
14.4366606386
 20
43.2818448891
 30
0.0
 10
14.4435756074
 20
43.5774626166
 30
0.0
 10
14.4982211258
 20
43.7802584613
 30
0.0
 10
14.5592277337
 20
43.9063338325
 30
0.0
 10
14.6407063432
 20
44.0095074677
 30
0.0
 10
14.7085241938
 20
44.0613126026
 30
0.0
 10
14.7442717921
 20
44.0819532138
 30
0.0
  0
SPLINE
  5
454
100
AcDbEntity
  8
0
100
AcDbSpline
 62
7
  6
CONTINUOUS
 70
0
 71
3
 72
17
 73
13
 74
0
 42
0.0000001
 43
0.0000001
 44
0.0000000001
 40
0.0
 40
0.0
 40
0.0
 40
0.0
 40
0.1286863928
 40
0.2703048388
 40
0.4174436026
 40
0.5617816322
 40
0.6954486073
 40
0.8127125139
 40
0.8646791376
 40
0.9125088252
 40
0.9571392331
 40
1.0
 40
1.0
 40
1.0
 40
1.0
 10
15.4692333866
 20
44.7532059467
 30
0.0
 10
15.3618949191
 20
44.8151625684
 30
0.0
 10
15.15356198
 20
44.9755541098
 30
0.0
 10
14.886855485
 20
45.2789147297
 30
0.0
 10
14.6673834674
 20
45.6359477607
 30
0.0
 10
14.5131954658
 20
46.0175252638
 30
0.0
 10
14.4366606388
 20
46.3927190978
 30
0.0
 10
14.4435756077
 20
46.6883368255
 30
0.0
 10
14.4982211261
 20
46.8911326703
 30
0.0
 10
14.559227734
 20
47.0172080416
 30
0.0
 10
14.6407063436
 20
47.1203816769
 30
0.0
 10
14.7085241943
 20
47.1721868118
 30
0.0
 10
14.7442717926
 20
47.192827423
 30
0.0
  0
SPLINE
  5
455
100
AcDbEntity
  8
0
100
AcDbSpline
 62
7
  6
CONTINUOUS
 70
0
 71
3
 72
17
 73
13
 74
0
 42
0.0000001
 43
0.0000001
 44
0.0000000001
 40
0.0
 40
0.0
 40
0.0
 40
0.0
 40
0.1286863929
 40
0.2703048388
 40
0.4174436026
 40
0.5617816322
 40
0.6954486073
 40
0.8127125139
 40
0.8646791377
 40
0.9125088252
 40
0.9571392331
 40
1.0
 40
1.0
 40
1.0
 40
1.0
 10
15.4692333858
 20
47.8640801567
 30
0.0
 10
15.3618949182
 20
47.9260367782
 30
0.0
 10
15.1535619794
 20
48.0864283199
 30
0.0
 10
14.8868554845
 20
48.3897889394
 30
0.0
 10
14.667383467
 20
48.7468219703
 30
0.0
 10
14.5131954655
 20
49.1283994731
 30
0.0
 10
14.4366606386
 20
49.5035933069
 30
0.0
 10
14.4435756074
 20
49.7992110344
 30
0.0
 10
14.4982211258
 20
50.0020068791
 30
0.0
 10
14.5592277337
 20
50.1280822503
 30
0.0
 10
14.6407063432
 20
50.2312558855
 30
0.0
 10
14.7085241938
 20
50.2830610204
 30
0.0
 10
14.7442717921
 20
50.3037016316
 30
0.0
  0
SPLINE
  5
456
100
AcDbEntity
  8
0
100
AcDbSpline
 62
7
  6
CONTINUOUS
 70
0
 71
3
 72
17
 73
13
 74
0
 42
0.0000001
 43
0.0000001
 44
0.0000000001
 40
0.0
 40
0.0
 40
0.0
 40
0.0
 40
0.1286863929
 40
0.2703048388
 40
0.4174436026
 40
0.5617816322
 40
0.6954486073
 40
0.8127125139
 40
0.8646791377
 40
0.9125088252
 40
0.9571392331
 40
1.0
 40
1.0
 40
1.0
 40
1.0
 10
15.4692333858
 20
50.9749543664
 30
0.0
 10
15.3618949182
 20
51.0369109879
 30
0.0
 10
15.1535619794
 20
51.1973025296
 30
0.0
 10
14.8868554845
 20
51.5006631492
 30
0.0
 10
14.667383467
 20
51.85769618
 30
0.0
 10
14.5131954655
 20
52.2392736828
 30
0.0
 10
14.4366606386
 20
52.6144675166
 30
0.0
 10
14.4435756074
 20
52.9100852442
 30
0.0
 10
14.4982211258
 20
53.1128810888
 30
0.0
 10
14.5592277337
 20
53.2389564601
 30
0.0
 10
14.6407063432
 20
53.3421300953
 30
0.0
 10
14.7085241938
 20
53.3939352301
 30
0.0
 10
14.7442717921
 20
53.4145758413
 30
0.0
  0
SPLINE
  5
457
100
AcDbEntity
  8
0
100
AcDbSpline
 62
7
  6
CONTINUOUS
 70
0
 71
3
 72
17
 73
13
 74
0
 42
0.0000001
 43
0.0000001
 44
0.0000000001
 40
0.0
 40
0.0
 40
0.0
 40
0.0
 40
0.1286863928
 40
0.2703048388
 40
0.4174436026
 40
0.5617816322
 40
0.6954486073
 40
0.8127125139
 40
0.8646791376
 40
0.9125088252
 40
0.9571392331
 40
1.0
 40
1.0
 40
1.0
 40
1.0
 10
15.4692333865
 20
54.0858285743
 30
0.0
 10
15.3618949189
 20
54.1477851959
 30
0.0
 10
15.1535619799
 20
54.3081767374
 30
0.0
 10
14.8868554849
 20
54.6115373573
 30
0.0
 10
14.6673834673
 20
54.9685703883
 30
0.0
 10
14.5131954657
 20
55.3501478914
 30
0.0
 10
14.4366606387
 20
55.7253417254
 30
0.0
 10
14.4435756075
 20
56.0209594532
 30
0.0
 10
14.498221126
 20
56.2237552979
 30
0.0
 10
14.5592277339
 20
56.3498306693
 30
0.0
 10
14.6407063435
 20
56.4530043045
 30
0.0
 10
14.7085241941
 20
56.5048094394
 30
0.0
 10
14.7442717924
 20
56.5254500506
 30
0.0
  0
SPLINE
  5
458
100
AcDbEntity
  8
0
100
AcDbSpline
 62
7
  6
CONTINUOUS
 70
0
 71
3
 72
17
 73
13
 74
0
 42
0.0000001
 43
0.0000001
 44
0.0000000001
 40
0.0
 40
0.0
 40
0.0
 40
0.0
 40
0.1286863928
 40
0.2703048388
 40
0.4174436026
 40
0.5617816322
 40
0.6954486073
 40
0.8127125139
 40
0.8646791376
 40
0.9125088252
 40
0.9571392331
 40
1.0
 40
1.0
 40
1.0
 40
1.0
 10
15.4692333866
 20
57.196702784
 30
0.0
 10
15.361894919
 20
57.2586594056
 30
0.0
 10
15.15356198
 20
57.4190509471
 30
0.0
 10
14.886855485
 20
57.7224115669
 30
0.0
 10
14.6673834673
 20
58.079444598
 30
0.0
 10
14.5131954657
 20
58.461022101
 30
0.0
 10
14.4366606387
 20
58.8362159351
 30
0.0
 10
14.4435756076
 20
59.1318336628
 30
0.0
 10
14.4982211261
 20
59.3346295076
 30
0.0
 10
14.5592277339
 20
59.4607048789
 30
0.0
 10
14.6407063435
 20
59.5638785142
 30
0.0
 10
14.7085241942
 20
59.615683649
 30
0.0
 10
14.7442717925
 20
59.6363242602
 30
0.0
  0
SPLINE
  5
459
100
AcDbEntity
  8
0
100
AcDbSpline
 62
7
  6
CONTINUOUS
 70
0
 71
3
 72
17
 73
13
 74
0
 42
0.0000001
 43
0.0000001
 44
0.0000000001
 40
0.0
 40
0.0
 40
0.0
 40
0.0
 40
0.1286863929
 40
0.2703048388
 40
0.4174436026
 40
0.5617816322
 40
0.6954486073
 40
0.8127125139
 40
0.8646791377
 40
0.9125088252
 40
0.9571392331
 40
1.0
 40
1.0
 40
1.0
 40
1.0
 10
15.4692333858
 20
60.307576994
 30
0.0
 10
15.3618949182
 20
60.3695336155
 30
0.0
 10
15.1535619794
 20
60.5299251572
 30
0.0
 10
14.8868554845
 20
60.8332857767
 30
0.0
 10
14.667383467
 20
61.1903188076
 30
0.0
 10
14.5131954655
 20
61.5718963104
 30
0.0
 10
14.4366606386
 20
61.9470901442
 30
0.0
 10
14.4435756074
 20
62.2427078717
 30
0.0
 10
14.4982211258
 20
62.4455037164
 30
0.0
 10
14.5592277337
 20
62.5715790876
 30
0.0
 10
14.6407063432
 20
62.6747527228
 30
0.0
 10
14.7085241938
 20
62.7265578577
 30
0.0
 10
14.7442717921
 20
62.7471984689
 30
0.0
  0
SPLINE
  5
45A
100
AcDbEntity
  8
0
100
AcDbSpline
 62
7
  6
CONTINUOUS
 70
0
 71
3
 72
17
 73
13
 74
0
 42
0.0000001
 43
0.0000001
 44
0.0000000001
 40
0.0
 40
0.0
 40
0.0
 40
0.0
 40
0.1286863929
 40
0.2703048388
 40
0.4174436026
 40
0.5617816322
 40
0.6954486073
 40
0.8127125139
 40
0.8646791377
 40
0.9125088252
 40
0.9571392331
 40
1.0
 40
1.0
 40
1.0
 40
1.0
 10
15.4692333858
 20
63.4184512037
 30
0.0
 10
15.3618949182
 20
63.4804078252
 30
0.0
 10
15.1535619794
 20
63.6407993668
 30
0.0
 10
14.8868554845
 20
63.9441599864
 30
0.0
 10
14.667383467
 20
64.3011930173
 30
0.0
 10
14.5131954655
 20
64.68277052
 30
0.0
 10
14.4366606386
 20
65.0579643538
 30
0.0
 10
14.4435756074
 20
65.3535820814
 30
0.0
 10
14.4982211258
 20
65.556377926
 30
0.0
 10
14.5592277337
 20
65.6824532973
 30
0.0
 10
14.6407063432
 20
65.7856269325
 30
0.0
 10
14.7085241938
 20
65.8374320673
 30
0.0
 10
14.7442717921
 20
65.8580726785
 30
0.0
  0
SPLINE
  5
45B
100
AcDbEntity
  8
0
100
AcDbSpline
 62
7
  6
CONTINUOUS
 70
0
 71
3
 72
17
 73
13
 74
0
 42
0.0000001
 43
0.0000001
 44
0.0000000001
 40
0.0
 40
0.0
 40
0.0
 40
0.0
 40
0.1286863928
 40
0.2703048388
 40
0.4174436026
 40
0.5617816322
 40
0.6954486073
 40
0.8127125139
 40
0.8646791376
 40
0.9125088252
 40
0.9571392331
 40
1.0
 40
1.0
 40
1.0
 40
1.0
 10
15.4692333866
 20
66.5293254115
 30
0.0
 10
15.3618949191
 20
66.5912820331
 30
0.0
 10
15.15356198
 20
66.7516735746
 30
0.0
 10
14.886855485
 20
67.0550341945
 30
0.0
 10
14.6673834674
 20
67.4120672255
 30
0.0
 10
14.5131954658
 20
67.7936447285
 30
0.0
 10
14.4366606388
 20
68.1688385626
 30
0.0
 10
14.4435756077
 20
68.4644562903
 30
0.0
 10
14.4982211261
 20
68.6672521351
 30
0.0
 10
14.559227734
 20
68.7933275064
 30
0.0
 10
14.6407063436
 20
68.8965011417
 30
0.0
 10
14.7085241943
 20
68.9483062765
 30
0.0
 10
14.7442717926
 20
68.9689468877
 30
0.0
  0
SPLINE
  5
45C
100
AcDbEntity
  8
0
100
AcDbSpline
 62
7
  6
CONTINUOUS
 70
0
 71
3
 72
11
 73
7
 74
0
 42
0.0000001
 43
0.0000001
 44
0.0000000001
 40
0.0
 40
0.0
 40
0.0
 40
0.0
 40
0.2177155993
 40
0.4508633096
 40
0.7104637028
 40
1.0
 40
1.0
 40
1.0
 40
1.0
 10
27.2253364933
 20
44.5345294404
 30
0.0
 10
27.1775081769
 20
44.50691344
 30
0.0
 10
27.0676251253
 20
44.4669321724
 30
0.0
 10
26.8849659577
 20
44.4623522119
 30
0.0
 10
26.6903903681
 20
44.5094840136
 30
0.0
 10
26.5637501684
 20
44.5696656385
 30
0.0
 10
26.5001459191
 20
44.6063948438
 30
0.0
  0
SPLINE
  5
45D
100
AcDbEntity
  8
0
100
AcDbSpline
 62
7
  6
CONTINUOUS
 70
0
 71
3
 72
17
 73
13
 74
0
 42
0.0000001
 43
0.0000001
 44
0.0000000001
 40
0.0
 40
0.0
 40
0.0
 40
0.0
 40
0.1286863928
 40
0.2703048388
 40
0.4174436026
 40
0.5617816322
 40
0.6954486073
 40
0.8127125139
 40
0.8646791376
 40
0.9125088252
 40
0.9571392331
 40
1.0
 40
1.0
 40
1.0
 40
1.0
 10
15.4692333866
 20
69.6401996212
 30
0.0
 10
15.361894919
 20
69.7021562428
 30
0.0
 10
15.15356198
 20
69.8625477843
 30
0.0
 10
14.886855485
 20
70.1659084041
 30
0.0
 10
14.6673834673
 20
70.5229414352
 30
0.0
 10
14.5131954657
 20
70.9045189382
 30
0.0
 10
14.4366606387
 20
71.2797127723
 30
0.0
 10
14.4435756076
 20
71.5753305
 30
0.0
 10
14.4982211261
 20
71.7781263448
 30
0.0
 10
14.5592277339
 20
71.9042017161
 30
0.0
 10
14.6407063435
 20
72.0073753514
 30
0.0
 10
14.7085241942
 20
72.0591804862
 30
0.0
 10
14.7442717925
 20
72.0798210974
 30
0.0
  0
SPLINE
  5
45E
100
AcDbEntity
  8
0
100
AcDbSpline
 62
7
  6
CONTINUOUS
 70
0
 71
3
 72
17
 73
13
 74
0
 42
0.0000001
 43
0.0000001
 44
0.0000000001
 40
0.0
 40
0.0
 40
0.0
 40
0.0
 40
0.1286880263
 40
0.270307558
 40
0.4174609766
 40
0.5617984195
 40
0.6954521506
 40
0.8127086126
 40
0.8646742672
 40
0.9125052418
 40
0.957137094
 40
1.0
 40
1.0
 40
1.0
 40
1.0
 10
15.4692333877
 20
72.7510738305
 30
0.0
 10
15.3618935825
 20
72.8130312241
 30
0.0
 10
15.1535595488
 20
72.9734253435
 30
0.0
 10
14.8868398823
 20
73.2767970547
 30
0.0
 10
14.6673708404
 20
73.6338494217
 30
0.0
 10
14.5131851251
 20
74.0154284204
 30
0.0
 10
14.436660128
 20
74.3906024976
 30
0.0
 10
14.4435722359
 20
74.686199638
 30
0.0
 10
14.4982195267
 20
74.8889873595
 30
0.0
 10
14.5592208628
 20
75.0150671069
 30
0.0
 10
14.6407037266
 20
75.1182439711
 30
0.0
 10
14.708524021
 20
75.1700510073
 30
0.0
 10
14.7442727423
 20
75.1906937741
 30
0.0
  0
SPLINE
  5
45F
100
AcDbEntity
  8
0
100
AcDbSpline
 62
7
  6
CONTINUOUS
 70
0
 71
3
 72
17
 73
13
 74
0
 42
0.0000001
 43
0.0000001
 44
0.0000000001
 40
0.0
 40
0.0
 40
0.0
 40
0.0
 40
0.1286863928
 40
0.2703048388
 40
0.4174436026
 40
0.5617816322
 40
0.6954486073
 40
0.8127125139
 40
0.8646791376
 40
0.9125088252
 40
0.9571392331
 40
1.0
 40
1.0
 40
1.0
 40
1.0
 10
15.4692333865
 20
75.8619480391
 30
0.0
 10
15.3618949189
 20
75.9239046607
 30
0.0
 10
15.1535619799
 20
76.0842962022
 30
0.0
 10
14.8868554849
 20
76.3876568221
 30
0.0
 10
14.6673834673
 20
76.7446898531
 30
0.0
 10
14.5131954657
 20
77.1262673561
 30
0.0
 10
14.4366606387
 20
77.5014611902
 30
0.0
 10
14.4435756075
 20
77.7970789179
 30
0.0
 10
14.498221126
 20
77.9998747627
 30
0.0
 10
14.5592277339
 20
78.125950134
 30
0.0
 10
14.6407063435
 20
78.2291237693
 30
0.0
 10
14.7085241941
 20
78.2809289042
 30
0.0
 10
14.7442717924
 20
78.3015695154
 30
0.0
  0
SPLINE
  5
460
100
AcDbEntity
  8
0
100
AcDbSpline
 62
7
  6
CONTINUOUS
 70
0
 71
3
 72
16
 73
12
 74
0
 42
0.0000001
 43
0.0000001
 44
0.0000000001
 40
0.0
 40
0.0
 40
0.0
 40
0.0
 40
0.1287410646
 40
0.2704217334
 40
0.417626008
 40
0.5620272453
 40
0.6957527047
 40
0.8130676178
 40
0.9124709781
 40
0.9571206991
 40
1.0
 40
1.0
 40
1.0
 40
1.0
 10
66.3320497009
 20
30.8361764539
 30
0.0
 10
66.3320497009
 20
30.7263534171
 30
0.0
 10
66.3013007613
 20
30.4954098039
 30
0.0
 10
66.1866619026
 20
30.1563262736
 30
0.0
 10
66.0098791471
 20
29.8297048117
 30
0.0
 10
65.7854865309
 20
29.5423246569
 30
0.0
 10
65.5310709681
 20
29.3173062965
 30
0.0
 10
65.2663953529
 20
29.1721097045
 30
0.0
 10
65.041726387
 20
29.1282776553
 30
0.0
 10
64.8825514147
 20
29.1515231394
 30
0.0
 10
64.812747302
 20
29.180609323
 30
0.0
 10
64.7810686437
 20
29.1988969666
 30
0.0
  0
SPLINE
  5
461
100
AcDbEntity
  8
0
100
AcDbSpline
 62
7
  6
CONTINUOUS
 70
0
 71
3
 72
16
 73
12
 74
0
 42
0.0000001
 43
0.0000001
 44
0.0000000001
 40
0.0
 40
0.0
 40
0.0
 40
0.0
 40
0.1287410646
 40
0.2704217334
 40
0.4176260079
 40
0.5620272452
 40
0.6957527047
 40
0.8130676178
 40
0.9124709781
 40
0.9571206991
 40
1.0
 40
1.0
 40
1.0
 40
1.0
 10
66.3320497011
 20
97.7893746598
 30
0.0
 10
66.3320497011
 20
97.679551623
 30
0.0
 10
66.3013007616
 20
97.4486080098
 30
0.0
 10
66.1866619031
 20
97.1095244793
 30
0.0
 10
66.0098791476
 20
96.7829030171
 30
0.0
 10
65.7854865314
 20
96.495522862
 30
0.0
 10
65.5310709685
 20
96.2705045014
 30
0.0
 10
65.2663953532
 20
96.1253079093
 30
0.0
 10
65.0417263871
 20
96.0814758599
 30
0.0
 10
64.8825514148
 20
96.104721344
 30
0.0
 10
64.812747302
 20
96.1338075276
 30
0.0
 10
64.7810686437
 20
96.1520951712
 30
0.0
  0
SPLINE
  5
462
100
AcDbEntity
  8
0
100
AcDbSpline
 62
7
  6
CONTINUOUS
 70
0
 71
3
 72
16
 73
12
 74
0
 42
0.0000001
 43
0.0000001
 44
0.0000000001
 40
0.0
 40
0.0
 40
0.0
 40
0.0
 40
0.1287410646
 40
0.2704217334
 40
0.4176260079
 40
0.5620272452
 40
0.6957527047
 40
0.8130676178
 40
0.9124709781
 40
0.9571206991
 40
1.0
 40
1.0
 40
1.0
 40
1.0
 10
93.1773104284
 20
113.2884006505
 30
0.0
 10
93.1773104284
 20
113.1815614305
 30
0.0
 10
93.1473969166
 20
112.9568923974
 30
0.0
 10
93.0358727175
 20
112.6270215346
 30
0.0
 10
92.8638930287
 20
112.3092741543
 30
0.0
 10
92.6455970064
 20
112.0297019216
 30
0.0
 10
92.3980937405
 20
111.810797156
 30
0.0
 10
92.1406091807
 20
111.669545456
 30
0.0
 10
91.9220443168
 20
111.6269042935
 30
0.0
 10
91.7671940197
 20
111.6495182137
 30
0.0
 10
91.699286437
 20
111.6778141455
 30
0.0
 10
91.6684684662
 20
111.6956049263
 30
0.0
  0
SPLINE
  5
463
100
AcDbEntity
  8
0
100
AcDbSpline
 62
7
  6
CONTINUOUS
 70
0
 71
3
 72
16
 73
12
 74
0
 42
0.0000001
 43
0.0000001
 44
0.0000000001
 40
0.0
 40
0.0
 40
0.0
 40
0.0
 40
0.1287410646
 40
0.2704217334
 40
0.4176260079
 40
0.5620272452
 40
0.6957527047
 40
0.8130676178
 40
0.9124709781
 40
0.9571206991
 40
1.0
 40
1.0
 40
1.0
 40
1.0
 10
93.1773104284
 20
46.3352024459
 30
0.0
 10
93.1773104284
 20
46.2283632259
 30
0.0
 10
93.1473969166
 20
46.0036941928
 30
0.0
 10
93.0358727175
 20
45.67382333
 30
0.0
 10
92.8638930287
 20
45.3560759496
 30
0.0
 10
92.6455970064
 20
45.076503717
 30
0.0
 10
92.3980937405
 20
44.8575989513
 30
0.0
 10
92.1406091807
 20
44.7163472514
 30
0.0
 10
91.9220443168
 20
44.6737060889
 30
0.0
 10
91.7671940197
 20
44.6963200091
 30
0.0
 10
91.699286437
 20
44.7246159409
 30
0.0
 10
91.6684684662
 20
44.7424067217
 30
0.0
  0
SPLINE
  5
464
100
AcDbEntity
  8
0
100
AcDbSpline
 62
7
  6
CONTINUOUS
 70
0
 71
3
 72
11
 73
7
 74
0
 42
0.0000001
 43
0.0000001
 44
0.0000000001
 40
0.0
 40
0.0
 40
0.0
 40
0.0
 40
0.2177669599
 40
0.450898211
 40
0.7103709681
 40
1.0
 40
1.0
 40
1.0
 40
1.0
 10
80.2308004707
 20
126.5266245587
 30
0.0
 10
80.1565714401
 20
126.4838079658
 30
0.0
 10
79.9861052798
 20
126.4217999515
 30
0.0
 10
79.7028047545
 20
126.4146840155
 30
0.0
 10
79.400952727
 20
126.4876315686
 30
0.0
 10
79.2045310047
 20
126.5810288995
 30
0.0
 10
79.1058289588
 20
126.6380132631
 30
0.0
  0
SPLINE
  5
465
100
AcDbEntity
  8
0
100
AcDbSpline
 62
7
  6
CONTINUOUS
 70
0
 71
3
 72
11
 73
7
 74
0
 42
0.0000001
 43
0.0000001
 44
0.0000000001
 40
0.0
 40
0.0
 40
0.0
 40
0.0
 40
0.2177155993
 40
0.4508633096
 40
0.7104637028
 40
1.0
 40
1.0
 40
1.0
 40
1.0
 10
27.2253364933
 20
47.6454036486
 30
0.0
 10
27.1775081769
 20
47.6177876481
 30
0.0
 10
27.0676251253
 20
47.5778063806
 30
0.0
 10
26.8849659577
 20
47.57322642
 30
0.0
 10
26.6903903682
 20
47.6203582217
 30
0.0
 10
26.5637501685
 20
47.6805398466
 30
0.0
 10
26.5001459191
 20
47.7172690519
 30
0.0
  0
SPLINE
  5
466
100
AcDbEntity
  8
0
100
AcDbSpline
 62
7
  6
CONTINUOUS
 70
0
 71
3
 72
11
 73
7
 74
0
 42
0.0000001
 43
0.0000001
 44
0.0000000001
 40
0.0
 40
0.0
 40
0.0
 40
0.0
 40
0.2370457846
 40
0.4999986894
 40
0.7629530968
 40
1.0
 40
1.0
 40
1.0
 40
1.0
 10
28.8337217443
 20
52.5427523586
 30
0.0
 10
28.8537817332
 20
52.5311709805
 30
0.0
 10
28.9004930414
 20
52.5143480843
 30
0.0
 10
28.9751429462
 20
52.506068478
 30
0.0
 10
29.0497928781
 20
52.5143484721
 30
0.0
 10
29.096504455
 20
52.5311714605
 30
0.0
 10
29.1165644552
 20
52.5427530377
 30
0.0
  0
SPLINE
  5
467
100
AcDbEntity
  8
0
100
AcDbSpline
 62
7
  6
CONTINUOUS
 70
0
 71
3
 72
11
 73
7
 74
0
 42
0.0000001
 43
0.0000001
 44
0.0000000001
 40
0.0
 40
0.0
 40
0.0
 40
0.0
 40
0.2370457848
 40
0.4999986898
 40
0.7629530971
 40
1.0
 40
1.0
 40
1.0
 40
1.0
 10
17.802810032
 20
77.5765533847
 30
0.0
 10
17.8228700211
 20
77.5649720065
 30
0.0
 10
17.8695813298
 20
77.5481491102
 30
0.0
 10
17.9442312352
 20
77.5398695041
 30
0.0
 10
18.0188811678
 20
77.5481494986
 30
0.0
 10
18.0655927449
 20
77.5649724873
 30
0.0
 10
18.0856527452
 20
77.5765540645
 30
0.0
  0
SPLINE
  5
468
100
AcDbEntity
  8
0
100
AcDbSpline
 62
7
  6
CONTINUOUS
 70
0
 71
3
 72
17
 73
13
 74
0
 42
0.0000001
 43
0.0000001
 44
0.0000000001
 40
0.0
 40
0.0
 40
0.0
 40
0.0
 40
0.1286863744
 40
0.2703048183
 40
0.4174435894
 40
0.5617816215
 40
0.6954486004
 40
0.8127125096
 40
0.8646791347
 40
0.9125088238
 40
0.9571392325
 40
1.0
 40
1.0
 40
1.0
 40
1.0
 10
26.5001459192
 20
32.1628980065
 30
0.0
 10
26.3928071765
 20
32.2248548862
 30
0.0
 10
26.1844734489
 20
32.3852466755
 30
0.0
 10
25.9177661852
 20
32.6886083175
 30
0.0
 10
25.6982934796
 20
33.0456424457
 30
0.0
 10
25.5441049943
 20
33.4272211508
 30
0.0
 10
25.4675699308
 20
33.802416158
 30
0.0
 10
25.4744849223
 20
34.0980348118
 30
0.0
 10
25.5291306136
 20
34.300831291
 30
0.0
 10
25.5901374113
 20
34.4269070577
 30
0.0
 10
25.6716162776
 20
34.5300810148
 30
0.0
 10
25.7394343425
 20
34.5818863078
 30
0.0
 10
25.7751820525
 20
34.602526983
 30
0.0
  0
SPLINE
  5
469
100
AcDbEntity
  8
0
100
AcDbSpline
 62
7
  6
CONTINUOUS
 70
0
 71
3
 72
17
 73
13
 74
0
 42
0.0000001
 43
0.0000001
 44
0.0000000001
 40
0.0
 40
0.0
 40
0.0
 40
0.0
 40
0.1286863744
 40
0.2703048183
 40
0.4174435894
 40
0.5617816215
 40
0.6954486004
 40
0.8127125096
 40
0.8646791347
 40
0.9125088238
 40
0.9571392325
 40
1.0
 40
1.0
 40
1.0
 40
1.0
 10
26.5001459191
 20
47.7172690519
 30
0.0
 10
26.3928071765
 20
47.7792259315
 30
0.0
 10
26.1844734489
 20
47.9396177209
 30
0.0
 10
25.9177661852
 20
48.2429793628
 30
0.0
 10
25.6982934796
 20
48.6000134911
 30
0.0
 10
25.5441049943
 20
48.9815921961
 30
0.0
 10
25.4675699308
 20
49.3567872033
 30
0.0
 10
25.4744849223
 20
49.6524058572
 30
0.0
 10
25.5291306136
 20
49.8552023363
 30
0.0
 10
25.5901374113
 20
49.981278103
 30
0.0
 10
25.6716162776
 20
50.0844520602
 30
0.0
 10
25.7394343425
 20
50.1362573531
 30
0.0
 10
25.7751820525
 20
50.1568980283
 30
0.0
  0
SPLINE
  5
46A
100
AcDbEntity
  8
0
100
AcDbSpline
 62
7
  6
CONTINUOUS
 70
0
 71
3
 72
11
 73
7
 74
0
 42
0.0000001
 43
0.0000001
 44
0.0000000001
 40
0.0
 40
0.0
 40
0.0
 40
0.0
 40
0.2177231993
 40
0.4508753011
 40
0.7104743705
 40
1.0
 40
1.0
 40
1.0
 40
1.0
 10
92.918392063
 20
46.9073864147
 30
0.0
 10
92.9596150952
 20
46.8835906815
 30
0.0
 10
93.0368085077
 20
46.8188103364
 30
0.0
 10
93.1189559203
 20
46.6844673327
 30
0.0
 10
93.1676430985
 20
46.5189442885
 30
0.0
 10
93.1773104284
 20
46.3984977597
 30
0.0
 10
93.1773104284
 20
46.3352024459
 30
0.0
  0
SPLINE
  5
46B
100
AcDbEntity
  8
0
100
AcDbSpline
 62
7
  6
CONTINUOUS
 70
0
 71
3
 72
17
 73
13
 74
0
 42
0.0000001
 43
0.0000001
 44
0.0000000001
 40
0.0
 40
0.0
 40
0.0
 40
0.0
 40
0.1286863871
 40
0.270304847
 40
0.417443622
 40
0.5617816477
 40
0.6954486159
 40
0.8127125151
 40
0.8646791369
 40
0.9125088241
 40
0.9571392322
 40
1.0
 40
1.0
 40
1.0
 40
1.0
 10
26.5001453304
 20
29.0520242454
 30
0.0
 10
26.3928066048
 20
29.1139811153
 30
0.0
 10
26.1844729444
 20
29.2743729382
 30
0.0
 10
25.9177658261
 20
29.5777346081
 30
0.0
 10
25.6982932495
 20
29.9347687032
 30
0.0
 10
25.5441048824
 20
30.316347328
 30
0.0
 10
25.4675699105
 20
30.6915422266
 30
0.0
 10
25.4744849497
 20
30.9871607795
 30
0.0
 10
25.529130654
 20
31.1899571839
 30
0.0
 10
25.5901374497
 20
31.3160329051
 30
0.0
 10
25.6716163029
 20
31.4192068263
 30
0.0
 10
25.7394343516
 20
31.471012103
 30
0.0
 10
25.7751820527
 20
31.491652773
 30
0.0
  0
ELLIPSE
  5
46C
100
AcDbEntity
  8
0
100
AcDbEllipse
 62
7
  6
CONTINUOUS
 10
79.224839674
 20
133.4664915954
 30
0.0
 11
-0.300043439
 21
0.519616017
 31
0.0
 40
0.5773567973
 41
-0.6109312321
 42
-0.0061087526
  0
ELLIPSE
  5
46D
100
AcDbEntity
  8
0
100
AcDbEllipse
 62
7
  6
CONTINUOUS
 10
29.1137052459
 20
68.1769997986
 30
0.0
 11
-1.4999932728
 21
2.5980800953
 31
0.0
 40
0.5775326816
 41
0.785559103
 42
2.3560508426
  0
ELLIPSE
  5
46E
100
AcDbEntity
  8
0
100
AcDbEllipse
 62
7
  6
CONTINUOUS
 10
83.2294412669
 20
131.1544860922
 30
0.0
 11
-0.300043439
 21
0.519616017
 31
0.0
 40
0.5773567973
 41
-1.9722880489
 42
-0.9599970831
  0
ELLIPSE
  5
46F
100
AcDbEntity
  8
0
100
AcDbEllipse
 62
7
  6
CONTINUOUS
 10
40.5682365175
 20
61.5638726945
 30
0.0
 11
-1.5004502438
 21
2.5988715422
 31
0.0
 40
0.5771809715
 41
2.3563554182
 42
3.9268471577
  0
ELLIPSE
  5
470
100
AcDbEntity
  8
0
100
AcDbEllipse
 62
7
  6
CONTINUOUS
 10
29.1137052459
 20
92.6713260553
 30
0.0
 11
-1.5004502438
 21
2.5988715422
 31
0.0
 40
0.5771809715
 41
-0.7852372354
 42
0.7852545042
  0
ELLIPSE
  5
471
100
AcDbEntity
  8
0
100
AcDbEllipse
 62
7
  6
CONTINUOUS
 10
40.5682365175
 20
86.0581989511
 30
0.0
 11
-1.4999932728
 21
2.5980800953
 31
0.0
 40
0.5775326816
 41
3.9271517566
 42
5.4976434962
  0
ELLIPSE
  5
472
100
AcDbEntity
  8
0
100
AcDbEllipse
 62
7
  6
CONTINUOUS
 10
77.0776099477
 20
132.2567226834
 30
0.0
 11
-0.300043439
 21
0.519616017
 31
0.0
 40
0.5773567973
 41
-0.6109312322
 42
0.4013597337
  0
ELLIPSE
  5
473
100
AcDbEntity
  8
0
100
AcDbEllipse
 62
7
  6
CONTINUOUS
 10
81.1340479699
 20
129.914790081
 30
0.0
 11
-0.300043439
 21
0.519616017
 31
0.0
 40
0.5773567973
 41
-1.9722880489
 42
-0.959997083
  0
ELLIPSE
  5
474
100
AcDbEntity
  8
0
100
AcDbEllipse
 62
7
  6
CONTINUOUS
 10
42.9018817961
 20
62.9111953818
 30
0.0
 11
-1.5004502438
 21
2.5988715422
 31
0.0
 40
0.5771809715
 41
-3.1415840187
 42
-2.3563381494
  0
ELLIPSE
  5
475
100
AcDbEntity
  8
0
100
AcDbEllipse
 62
7
  6
CONTINUOUS
 10
42.9018817961
 20
87.4055216385
 30
0.0
 11
-1.4999932728
 21
2.5980800953
 31
0.0
 40
0.5775326816
 41
3.9271517566
 42
5.4976434962
  0
ELLIPSE
  5
476
100
AcDbEntity
  8
0
100
AcDbEllipse
 62
7
  6
CONTINUOUS
 10
31.4473505245
 20
94.0186487426
 30
0.0
 11
-1.5004502438
 21
2.5988715422
 31
0.0
 40
0.5771809715
 41
-0.7852372354
 42
-0.0000000275
  0
ENDSEC
  0
SECTION
  2
OBJECTS
  0
DICTIONARY
  5
C
100
AcDbDictionary
280
0
281
1
  3
ACAD_GROUP
350
D
  3
ACAD_MLINESTYLE
350
17
  3
ACAD_LAYOUT
350
1A
  3
ACAD_PLOTSETTINGS
350
19
  3
ACAD_PLOTSTYLENAME
350
E
  0
DICTIONARY
  5
D
102
{ACAD_REACTORS
330
C
102
}
100
AcDbDictionary
280
0
281
1
  0
ACDBDICTIONARYWDFLT
  5
E
102
{ACAD_REACTORS
330
C
102
}
100
AcDbDictionary
281
1
  3
Normal
350
F
100
AcDbDictionaryWithDefault
340
F
  0
DICTIONARY
  5
17
102
{ACAD_REACTORS
330
C
102
}
100
AcDbDictionary
280
0
281
1
  3
Standard
350
18
  0
DICTIONARY
  5
19
102
{ACAD_REACTORS
330
C
102
}
100
AcDbDictionary
281
1
  0
DICTIONARY
  5
1A
102
{ACAD_REACTORS
330
C
102
}
100
AcDbDictionary
281
1
  3
Model
350
477
  3
Layout1
350
478
  0
ACDBPLACEHOLDER
  5
F
102
{ACAD_REACTORS
330
E
102
}
  0
MLINESTYLE
  5
18
102
{ACAD_REACTORS
330
17
102
}
100
AcDbMlineStyle
  2
STANDARD
 70
0
  3

 62
256
 51
90.0
 52
90.0
 71
2
 49
0.5
 62
256
  6
BYLAYER
 49
-0.5
 62
256
  6
BYLAYER
  0
LAYOUT
  5
477
102
{ACAD_REACTORS
330
1A
102
}
100
AcDbPlotSettings
  1

  2
none_device
  4

  6

 40
0.0
 41
0.0
 42
0.0
 43
0.0
 44
210.0
 45
297.0
 46
0.0
 47
0.0
 48
0.0
 49
0.0
140
0.0
141
0.0
142
1.0
143
1.0
 70
1024
 72
1
 73
0
 74
0
  7

 75
0
147
1.0
148
0.0
149
0.0
100
AcDbLayout
  1
Model
 70
0
 71
0
 10
0.0
 20
0.0
 11
210.0
 21
297.0
 12
0.0
 22
0.0
 32
0.0
 14
0.0
 24
0.0
 34
0.0
 15
0.0
 25
0.0
 35
0.0
146
0.0
 13
0.0
 23
0.0
 33
0.0
 16
1.0
 26
0.0
 36
0.0
 17
0.0
 27
1.0
 37
0.0
 76
0
330
210
345
0
346
0
  0
LAYOUT
  5
478
102
{ACAD_REACTORS
330
1A
102
}
100
AcDbPlotSettings
  1

  2
none_device
  4

  6

 40
0.0
 41
0.0
 42
0.0
 43
0.0
 44
210.0
 45
297.0
 46
0.0
 47
0.0
 48
0.0
 49
0.0
140
0.0
141
0.0
142
1.0
143
1.0
 70
0
 72
1
 73
0
 74
0
  7

 75
0
147
1.0
148
0.0
149
0.0
100
AcDbLayout
  1
Layout1
 70
0
 71
1
 10
0.0
 20
0.0
 11
210.0
 21
297.0
 12
0.0
 22
0.0
 32
0.0
 14
0.0
 24
0.0
 34
0.0
 15
0.0
 25
0.0
 35
0.0
146
0.0
 13
0.0
 23
0.0
 33
0.0
 16
1.0
 26
0.0
 36
0.0
 17
0.0
 27
1.0
 37
0.0
 76
0
330
211
345
0
346
0
  0
ENDSEC
  0
EOF
