999
DXF file: C:\Gen2D\CAD\LC2D25BD_3D-CAD\drw0001_5.dxf
999
Pro/ENGINEER 2019471 by Parametric Technology Corporation
  0
SECTION
  2
HEADER
  9
$ACADVER
  1
AC1024
  9
$DWGCODEPAGE
  3
ANSI_1252
  9
$EXTMAX
 10
126.9252767325
 20
179.5086056645
 30
0.0
  9
$EXTMIN
 10
0.0
 20
0.0
 30
0.0
  9
$LIMMIN
 10
0.0
 20
0.0
  9
$LIMMAX
 10
126.9252767325
 20
179.5086056645
  9
$VIEWCTR
 10
63.4626383662
 20
89.7543028322
  9
$VIEWSIZE
 40
179.5086056645
  9
$CLAYER
  8
0
  9
$LTSCALE
 40
11.7013017026
  9
$CELTYPE
  6
BYLAYER
  9
$DIMSCALE
 40
1.0
  9
$DIMASZ
 40
1.5110151992
  9
$DIMEXO
 40
1.0
  9
$DIMDLI
 40
8.0845357218
  9
$DIMEXE
 40
1.0
  9
$DIMCEN
 40
1.9147584604
  9
$DIMLFAC
 40
1.0
  9
$DIMBLK
  1
_FILLED
  9
$DIMALT
 70
0
  9
$DIMALTF
 40
0.0393700787
  9
$DIMTXT
 40
2.1154212789
  9
$DIMTOL
 70
1
  9
$DIMLIM
 70
0
  9
$DIMTFAC
 40
1.0
  9
$DIMTP
 40
0.01
  9
$DIMTM
 40
0.01
  9
$DIMGAP
 40
0.625
  9
$DIMDSEP
 70
46
  9
$AUNITS
 70
0
  9
$PDMODE
 70
3
  9
$PDSIZE
 40
0.3125
  9
$HANDSEED
  5
297
  9
$TILEMODE
 70
1
  9
$MEASUREMENT
 70
1
  9
$INSUNITS
 70
4
  0
ENDSEC
  0
SECTION
  2
CLASSES
  0
CLASS
  1
ACDBDICTIONARYWDFLT
  2
AcDbDictionaryWithDefault
  3
AutoCAD 2000
 90
0
 91
1
280
0
281
0
  0
CLASS
  1
ACDBPLACEHOLDER
  2
AcDbPlaceHolder
  3
AutoCAD 2000
 90
0
 91
1
280
0
281
0
  0
CLASS
  1
LAYOUT
  2
AcDbLayout
  3
AutoCAD 2000
 90
0
 91
0
280
0
281
0
  0
ENDSEC
  0
SECTION
  2
TABLES
  0
TABLE
  2
VPORT
  5
8
100
AcDbSymbolTable
 70
2
  0
VPORT
  5
1F4
100
AcDbSymbolTableRecord
100
AcDbViewportTableRecord
  2
*ACTIVE
 70
0
 10
0.0
 20
0.0
 11
1.0
 21
1.0
 12
63.4626383662
 22
89.7543028322
 13
0.0
 23
0.0
 14
1.0
 24
1.0
 15
0.0
 25
0.0
 16
0.0
 26
0.0
 36
1.0
 17
0.0
 27
0.0
 37
0.0
 40
179.5086056645
 41
0.7070707071
 42
50.0
 43
0.0
 44
0.0
 50
0.0
 51
0.0
 71
0
 72
100
 73
1
 74
1
 75
0
 76
0
 77
0
 78
0
  0
ENDTAB
  0
TABLE
  2
LTYPE
  5
5
100
AcDbSymbolTable
 70
6
  0
LTYPE
  5
14
100
AcDbSymbolTableRecord
100
AcDbLinetypeTableRecord
  2
BYBLOCK
 70
0
  3

 72
65
 73
0
 40
0.0
  0
LTYPE
  5
15
100
AcDbSymbolTableRecord
100
AcDbLinetypeTableRecord
  2
BYLAYER
 70
0
  3

 72
65
 73
0
 40
0.0
  0
LTYPE
  5
16
100
AcDbSymbolTableRecord
100
AcDbLinetypeTableRecord
  2
CONTINUOUS
 70
64
  3
Solid line
 72
65
 73
0
 40
0.0
  0
LTYPE
  5
1F5
100
AcDbSymbolTableRecord
100
AcDbLinetypeTableRecord
  2
CENTER
 70
64
  3
____ _ ____ _ ____ _ ____ _ ____ _ ____ _ ____
 72
65
 73
4
 40
0.6
 49
0.375
 74
0
 49
-0.075
 74
0
 49
0.075
 74
0
 49
-0.075
 74
0
  0
LTYPE
  5
1F6
100
AcDbSymbolTableRecord
100
AcDbLinetypeTableRecord
  2
HIDDEN
 70
64
  3
- - - - - - - - - - - - - - - - - - - -
 72
65
 73
2
 40
0.2
 49
0.1
 74
0
 49
-0.1
 74
0
  0
LTYPE
  5
1F7
100
AcDbSymbolTableRecord
100
AcDbLinetypeTableRecord
  2
PHANTOM
 70
64
  3
_____ _ _ _____ _ _ _____ _ _ _____
 72
65
 73
6
 40
0.8
 49
0.45
 74
0
 49
-0.05
 74
0
 49
0.1
 74
0
 49
-0.05
 74
0
 49
0.1
 74
0
 49
-0.05
 74
0
  0
LTYPE
  5
1F8
100
AcDbSymbolTableRecord
100
AcDbLinetypeTableRecord
  2
DOT
 70
64
  3
. . . . . . . . . . . . . . . . . . . .
 72
65
 73
2
 40
0.2
 49
0.1
 74
0
 49
-0.1
 74
0
  0
LTYPE
  5
1F9
100
AcDbSymbolTableRecord
100
AcDbLinetypeTableRecord
  2
DASHED
 70
64
  3
- - - - - - - - - - - - - - - - - - - -
 72
65
 73
2
 40
0.2
 49
0.1
 74
0
 49
-0.1
 74
0
  0
ENDTAB
  0
TABLE
  2
LAYER
  5
2
100
AcDbSymbolTable
 70
36
  0
LAYER
  5
10
100
AcDbSymbolTableRecord
100
AcDbLayerTableRecord
  2
0
 70
0
 62
7
  6
CONTINUOUS
370
-3
390
F
  0
LAYER
  5
1FA
100
AcDbSymbolTableRecord
100
AcDbLayerTableRecord
  2
DEFAULT_1
 70
0
 62
7
  6
CENTER
370
-3
390
F
  0
LAYER
  5
1FB
100
AcDbSymbolTableRecord
100
AcDbLayerTableRecord
  2
DEFAULT_2
 70
0
 62
8
  6
HIDDEN
370
-3
390
F
  0
LAYER
  5
1FC
100
AcDbSymbolTableRecord
100
AcDbLayerTableRecord
  2
DEFAULT_3
 70
0
 62
7
  6
PHANTOM
370
-3
390
F
  0
LAYER
  5
1FD
100
AcDbSymbolTableRecord
100
AcDbLayerTableRecord
  2
00_COMPONENTS
 70
0
 62
7
  6
CONTINUOUS
370
-3
390
F
  0
LAYER
  5
1FE
100
AcDbSymbolTableRecord
100
AcDbLayerTableRecord
  2
01_1_DEFAULT_DATUMS
 70
0
 62
7
  6
CONTINUOUS
370
-3
390
F
  0
LAYER
  5
1FF
100
AcDbSymbolTableRecord
100
AcDbLayerTableRecord
  2
01_PLANES
 70
0
 62
7
  6
CONTINUOUS
370
-3
390
F
  0
LAYER
  5
200
100
AcDbSymbolTableRecord
100
AcDbLayerTableRecord
  2
02_COORD_SYS
 70
0
 62
7
  6
CONTINUOUS
370
-3
390
F
  0
LAYER
  5
201
100
AcDbSymbolTableRecord
100
AcDbLayerTableRecord
  2
03_AXES
 70
0
 62
7
  6
CONTINUOUS
370
-3
390
F
  0
LAYER
  5
202
100
AcDbSymbolTableRecord
100
AcDbLayerTableRecord
  2
04_POINTS
 70
0
 62
7
  6
CONTINUOUS
370
-3
390
F
  0
LAYER
  5
203
100
AcDbSymbolTableRecord
100
AcDbLayerTableRecord
  2
05_CURVES
 70
0
 62
7
  6
CONTINUOUS
370
-3
390
F
  0
LAYER
  5
204
100
AcDbSymbolTableRecord
100
AcDbLayerTableRecord
  2
06_SURFS
 70
0
 62
7
  6
CONTINUOUS
370
-3
390
F
  0
LAYER
  5
205
100
AcDbSymbolTableRecord
100
AcDbLayerTableRecord
  2
07_COSMETICS
 70
0
 62
7
  6
CONTINUOUS
370
-3
390
F
  0
LAYER
  5
206
100
AcDbSymbolTableRecord
100
AcDbLayerTableRecord
  2
10_NOTES
 70
0
 62
7
  6
CONTINUOUS
370
-3
390
F
  0
LAYER
  5
207
100
AcDbSymbolTableRecord
100
AcDbLayerTableRecord
  2
11_NOTES_PUB
 70
0
 62
7
  6
CONTINUOUS
370
-3
390
F
  0
LAYER
  5
208
100
AcDbSymbolTableRecord
100
AcDbLayerTableRecord
  2
13_REF_GTOL
 70
0
 62
7
  6
CONTINUOUS
370
-3
390
F
  0
LAYER
  5
209
100
AcDbSymbolTableRecord
100
AcDbLayerTableRecord
  2
16_MISC
 70
0
 62
7
  6
CONTINUOUS
370
-3
390
F
  0
LAYER
  5
20A
100
AcDbSymbolTableRecord
100
AcDbLayerTableRecord
  2
17_NO_PRINT
 70
0
 62
7
  6
CONTINUOUS
370
-3
390
F
  0
LAYER
  5
20B
100
AcDbSymbolTableRecord
100
AcDbLayerTableRecord
  2
18_DATUM_CAMS_JOINTS
 70
0
 62
7
  6
CONTINUOUS
370
-3
390
F
  0
LAYER
  5
20C
100
AcDbSymbolTableRecord
100
AcDbLayerTableRecord
  2
19_DATUM_FUNCTIONAL
 70
0
 62
7
  6
CONTINUOUS
370
-3
390
F
  0
LAYER
  5
20D
100
AcDbSymbolTableRecord
100
AcDbLayerTableRecord
  2
20_DATUM_KINEMATIC_SCHEME
 70
0
 62
7
  6
CONTINUOUS
370
-3
390
F
  0
LAYER
  5
20E
100
AcDbSymbolTableRecord
100
AcDbLayerTableRecord
  2
INTFCLR_65
 70
0
 62
7
  6
CONTINUOUS
370
-3
390
F
  0
LAYER
  5
20F
100
AcDbSymbolTableRecord
100
AcDbLayerTableRecord
  2
INTFCLR_74
 70
0
 62
7
  6
CONTINUOUS
370
-3
390
F
  0
LAYER
  5
210
100
AcDbSymbolTableRecord
100
AcDbLayerTableRecord
  2
INTFCLR_76
 70
0
 62
7
  6
CONTINUOUS
370
-3
390
F
  0
LAYER
  5
211
100
AcDbSymbolTableRecord
100
AcDbLayerTableRecord
  2
INTFCLR_77
 70
0
 62
7
  6
CONTINUOUS
370
-3
390
F
  0
ENDTAB
  0
TABLE
  2
STYLE
  5
3
100
AcDbSymbolTable
 70
1
  0
STYLE
  5
11
100
AcDbSymbolTableRecord
100
AcDbTextStyleTableRecord
  2
STANDARD
 70
0
 40
0.0
 41
0.8
 50
0.0
 71
0
 42
0.2
  3
txt
  4

  0
STYLE
  5
212
100
AcDbSymbolTableRecord
100
AcDbTextStyleTableRecord
  2
TEXTSTYLE_1
 70
0
 40
0.0
 41
0.8
 50
0.0
 71
0
 42
0.2
  3
gdt
  4

  0
ENDTAB
  0
TABLE
  2
VIEW
  5
6
100
AcDbSymbolTable
 70
0
  0
ENDTAB
  0
TABLE
  2
UCS
  5
7
100
AcDbSymbolTable
 70
0
  0
ENDTAB
  0
TABLE
  2
APPID
  5
9
100
AcDbSymbolTable
 70
1
  0
APPID
  5
213
100
AcDbSymbolTableRecord
100
AcDbRegAppTableRecord
  2
ACAD
 70
0
  0
ENDTAB
  0
TABLE
  2
BLOCK_RECORD
  5
1
100
AcDbSymbolTable
 70
0
  0
BLOCK_RECORD
  5
214
100
AcDbSymbolTableRecord
100
AcDbBlockTableRecord
  2
*Model_Space
  0
BLOCK_RECORD
  5
215
100
AcDbSymbolTableRecord
100
AcDbBlockTableRecord
  2
*Paper_Space
  0
BLOCK_RECORD
  5
216
100
AcDbSymbolTableRecord
100
AcDbBlockTableRecord
  2
_FILLED
  0
ENDTAB
  0
TABLE
  2
DIMSTYLE
  5
A
100
AcDbSymbolTable
 70
1
100
AcDbDimStyleTable
 71
0
  0
DIMSTYLE
105
217
100
AcDbSymbolTableRecord
100
AcDbDimStyleTableRecord
  2
STANDARD
 70
0
  3

  4

 40
1.0
 41
1.5110151992
 42
1.0
 43
0.38
 44
1.0
 45
0.0
 46
0.0
 47
0.01
 48
0.01
140
2.1154212789
141
0.09
142
0.0
143
25.4
144
1.0
145
0.0
146
1.0
147
0.625
 71
1
 72
0
 73
0
 74
0
 75
0
 76
0
 77
1
 78
8
 79
2
170
0
171
1
172
0
173
0
174
0
175
0
176
0
177
0
178
0
270
2
179
2
271
2
272
2
273
2
274
2
275
0
280
0
281
0
282
0
283
1
284
8
285
0
286
0
287
3
288
0
340
11
278
46
341
216
342
216
343
216
344
216
  0
ENDTAB
  0
ENDSEC
  0
SECTION
  2
BLOCKS
  0
BLOCK
  5
20
100
AcDbEntity
  8
0
100
AcDbBlockBegin
  2
*Model_Space
 70
0
 10
0.0
 20
0.0
 30
0.0
  3
*Model_Space
  1

  0
ENDBLK
  5
21
100
AcDbEntity
  8
0
100
AcDbBlockEnd
  0
BLOCK
  5
1C
100
AcDbEntity
  8
0
100
AcDbBlockBegin
  2
*Paper_Space
 70
0
 10
0.0
 20
0.0
 30
0.0
  3
*Paper_Space
  1

  0
ENDBLK
  5
1D
100
AcDbEntity
  8
0
100
AcDbBlockEnd
  0
BLOCK
  5
218
100
AcDbEntity
  8
0
100
AcDbBlockBegin
  2
_FILLED
 70
64
 10
0.0
 20
0.0
  3
_FILLED
  1

  0
SOLID
  5
219
100
AcDbEntity
  8
0
  6
BYBLOCK
 62
0
100
AcDbTrace
 10
0.0
 20
0.0
 11
-1.0
 21
0.25
 12
-1.0
 22
-0.25
 13
-1.0
 23
-0.25
  0
ENDBLK
  5
21A
100
AcDbEntity
  8
0
  6
BYBLOCK
 62
0
100
AcDbBlockEnd
  0
ENDSEC
  0
SECTION
  2
ENTITIES
  0
LINE
  5
21B
100
AcDbEntity
  8
0
100
AcDbLine
 62
7
  6
CONTINUOUS
 10
14.795372571
 20
52.0229453223
 11
14.795372571
 21
71.5730056323
  0
LINE
  5
21C
100
AcDbEntity
  8
0
100
AcDbLine
 62
7
  6
CONTINUOUS
 10
14.795372571
 20
107.522881023
 11
14.795372571
 21
129.0228167237
  0
LINE
  5
21D
100
AcDbEntity
  8
0
100
AcDbLine
 62
7
  6
CONTINUOUS
 10
17.195372571
 20
127.5228722817
 11
17.195372571
 21
127.3335945895
  0
LINE
  5
21E
100
AcDbEntity
  8
INTFCLR_76
100
AcDbLine
 62
7
420
3604575
  6
CONTINUOUS
 10
18.495372571
 20
126.4595645105
 11
18.495372571
 21
127.1218759915
  0
LINE
  5
21F
100
AcDbEntity
  8
0
100
AcDbLine
 62
7
  6
CONTINUOUS
 10
18.9953726599
 20
73.6213595389
 11
18.9953726599
 21
72.2215477483
  0
LINE
  5
220
100
AcDbEntity
  8
0
100
AcDbLine
 62
7
  6
CONTINUOUS
 10
19.296743381
 20
91.522881023
 11
19.296743381
 21
89.522881023
  0
LINE
  5
221
100
AcDbEntity
  8
0
100
AcDbLine
 62
7
  6
CONTINUOUS
 10
19.195372571
 20
110.222881023
 11
18.595372571
 21
106.322881023
  0
LINE
  5
222
100
AcDbEntity
  8
0
100
AcDbLine
 62
7
  6
CONTINUOUS
 10
20.296743381
 20
106.322881023
 11
20.4352049194
 21
107.222881023
  0
LINE
  5
223
100
AcDbEntity
  8
0
100
AcDbLine
 62
7
  6
CONTINUOUS
 10
20.296743381
 20
72.2215477483
 11
20.296743381
 21
106.322881023
  0
LINE
  5
224
100
AcDbEntity
  8
0
100
AcDbLine
 62
7
  6
CONTINUOUS
 10
20.995372571
 20
107.222881023
 11
20.995372571
 21
110.222881023
  0
LINE
  5
225
100
AcDbEntity
  8
0
100
AcDbLine
 62
7
  6
CONTINUOUS
 10
21.795372571
 20
52.0229453223
 11
21.795372571
 21
60.222881023
  0
LINE
  5
226
100
AcDbEntity
  8
0
100
AcDbLine
 62
7
  6
CONTINUOUS
 10
21.795372571
 20
120.822881023
 11
21.795372571
 21
129.0228167237
  0
LINE
  5
227
100
AcDbEntity
  8
0
100
AcDbLine
 62
7
  6
CONTINUOUS
 10
40.295372571
 20
46.322881023
 11
77.395372571
 21
46.322881023
  0
LINE
  5
228
100
AcDbEntity
  8
0
100
AcDbLine
 62
7
  6
CONTINUOUS
 10
60.895372571
 20
48.022881023
 11
94.2453672684
 21
48.022881023
  0
LINE
  5
229
100
AcDbEntity
  8
0
100
AcDbLine
 62
7
  6
CONTINUOUS
 10
71.133836064
 20
43.2773997009
 11
59.7679450365
 21
46.322881023
  0
LINE
  5
22A
100
AcDbEntity
  8
0
100
AcDbLine
 62
7
  6
CONTINUOUS
 10
65.9498703248
 20
46.322881023
 11
73.0934278582
 21
44.4087705508
  0
LINE
  5
22B
100
AcDbEntity
  8
0
100
AcDbLine
 62
7
  6
CONTINUOUS
 10
18.5940073045
 20
74.0227248943
 11
18.9953726599
 21
73.6213595389
  0
LINE
  5
22C
100
AcDbEntity
  8
0
100
AcDbLine
 62
7
  6
CONTINUOUS
 10
40.295372571
 20
50.222881023
 11
60.895372571
 21
50.222881023
  0
LINE
  5
22D
100
AcDbEntity
  8
0
100
AcDbLine
 62
7
  6
CONTINUOUS
 10
21.795372571
 20
52.022881023
 11
14.795372571
 21
52.022881023
  0
LINE
  5
22E
100
AcDbEntity
  8
0
100
AcDbLine
 62
7
  6
CONTINUOUS
 10
14.795372571
 20
53.3626269852
 11
21.795372571
 21
53.3626269852
  0
LINE
  5
22F
100
AcDbEntity
  8
0
100
AcDbLine
 62
7
  6
CONTINUOUS
 10
60.895372571
 20
54.422881023
 11
52.795372571
 21
54.422881023
  0
LINE
  5
230
100
AcDbEntity
  8
0
100
AcDbLine
 62
7
  6
CONTINUOUS
 10
52.795372571
 20
57.522881023
 11
21.795372571
 21
57.522881023
  0
LINE
  5
231
100
AcDbEntity
  8
INTFCLR_76
100
AcDbLine
 62
7
420
3604575
  6
CONTINUOUS
 10
93.0857278251
 20
58.022881023
 11
93.8884829346
 21
58.022881023
  0
LINE
  5
232
100
AcDbEntity
  8
INTFCLR_76
100
AcDbLine
 62
7
420
3604575
  6
CONTINUOUS
 10
94.1883312707
 20
58.022881023
 11
94.2456027303
 21
58.022881023
  0
LINE
  5
233
100
AcDbEntity
  8
0
100
AcDbLine
 62
7
  6
CONTINUOUS
 10
21.795372571
 20
60.222881023
 11
52.795372571
 21
60.222881023
  0
LINE
  5
234
100
AcDbEntity
  8
0
100
AcDbLine
 62
7
  6
CONTINUOUS
 10
107.095372571
 20
61.122881023
 11
100.025372571
 21
61.122881023
  0
LINE
  5
235
100
AcDbEntity
  8
0
100
AcDbLine
 62
7
  6
CONTINUOUS
 10
40.295372571
 20
46.322881023
 11
40.295372571
 21
50.222881023
  0
LINE
  5
236
100
AcDbEntity
  8
0
100
AcDbLine
 62
7
  6
CONTINUOUS
 10
92.445372571
 20
64.522881023
 11
94.6762978873
 21
64.522881023
  0
LINE
  5
237
100
AcDbEntity
  8
0
100
AcDbLine
 62
7
  6
CONTINUOUS
 10
107.095372571
 20
64.522881023
 11
108.7453681169
 21
64.522881023
  0
LINE
  5
238
100
AcDbEntity
  8
0
100
AcDbLine
 62
7
  6
CONTINUOUS
 10
94.995372571
 20
64.722881023
 11
107.095372571
 21
64.722881023
  0
LINE
  5
239
100
AcDbEntity
  8
0
100
AcDbLine
 62
7
  6
CONTINUOUS
 10
15.995372571
 20
106.322881023
 11
14.795372571
 21
107.522881023
  0
LINE
  5
23A
100
AcDbEntity
  8
INTFCLR_76
100
AcDbLine
 62
7
420
3604575
  6
CONTINUOUS
 10
108.4845667583
 20
71.222881023
 11
108.7303925633
 21
71.222881023
  0
LINE
  5
23B
100
AcDbEntity
  8
0
100
AcDbLine
 62
7
  6
CONTINUOUS
 10
19.5953726599
 20
71.6215477483
 11
19.696743381
 21
71.6215477483
  0
LINE
  5
23C
100
AcDbEntity
  8
0
100
AcDbLine
 62
7
  6
CONTINUOUS
 10
100.025372571
 20
61.122881023
 11
93.155372571
 21
62.8395460242
  0
LINE
  5
23D
100
AcDbEntity
  8
0
100
AcDbLine
 62
7
  6
CONTINUOUS
 10
14.795372571
 20
71.5730056323
 11
18.2940073045
 21
74.0227248943
  0
LINE
  5
23E
100
AcDbEntity
  8
0
100
AcDbLine
 62
7
  6
CONTINUOUS
 10
18.2940073045
 20
74.0227248943
 11
20.296743381
 21
74.0227248943
  0
LINE
  5
23F
100
AcDbEntity
  8
0
100
AcDbLine
 62
7
  6
CONTINUOUS
 10
106.945372571
 20
75.622881023
 11
108.995372571
 21
75.622881023
  0
LINE
  5
240
100
AcDbEntity
  8
0
100
AcDbLine
 62
7
  6
CONTINUOUS
 10
115.645372571
 20
75.722881023
 11
109.095372571
 21
75.722881023
  0
LINE
  5
241
100
AcDbEntity
  8
0
100
AcDbLine
 62
7
  6
CONTINUOUS
 10
52.795372571
 20
54.422881023
 11
52.795372571
 21
60.222881023
  0
LINE
  5
242
100
AcDbEntity
  8
0
100
AcDbLine
 62
7
  6
CONTINUOUS
 10
52.795372571
 20
120.822881023
 11
52.795372571
 21
126.422881023
  0
LINE
  5
243
100
AcDbEntity
  8
0
100
AcDbLine
 62
7
  6
CONTINUOUS
 10
53.195372571
 20
136.722881023
 11
53.195372571
 21
132.822881023
  0
LINE
  5
244
100
AcDbEntity
  8
0
100
AcDbLine
 62
7
  6
CONTINUOUS
 10
54.545372571
 20
46.322881023
 11
54.545372571
 21
50.222881023
  0
LINE
  5
245
100
AcDbEntity
  8
0
100
AcDbLine
 62
7
  6
CONTINUOUS
 10
54.995372571
 20
136.722881023
 11
54.995372571
 21
132.822881023
  0
LINE
  5
246
100
AcDbEntity
  8
0
100
AcDbLine
 62
7
  6
CONTINUOUS
 10
109.095372571
 20
79.722881023
 11
115.645372571
 21
79.722881023
  0
LINE
  5
247
100
AcDbEntity
  8
0
100
AcDbLine
 62
7
  6
CONTINUOUS
 10
60.895372571
 20
54.422881023
 11
60.895372571
 21
48.022881023
  0
LINE
  5
248
100
AcDbEntity
  8
0
100
AcDbLine
 62
7
  6
CONTINUOUS
 10
60.895372571
 20
126.422881023
 11
60.895372571
 21
132.822881023
  0
LINE
  5
249
100
AcDbEntity
  8
0
100
AcDbLine
 62
7
  6
CONTINUOUS
 10
19.296743381
 20
89.522881023
 11
20.296743381
 21
89.522881023
  0
LINE
  5
24A
100
AcDbEntity
  8
0
100
AcDbLine
 62
7
  6
CONTINUOUS
 10
19.296743381
 20
91.522881023
 11
20.296743381
 21
91.522881023
  0
LINE
  5
24B
100
AcDbEntity
  8
0
100
AcDbLine
 62
7
  6
CONTINUOUS
 10
77.395372571
 20
46.322881023
 11
77.395372571
 21
48.022881023
  0
LINE
  5
24C
100
AcDbEntity
  8
0
100
AcDbLine
 62
7
  6
CONTINUOUS
 10
115.645372571
 20
101.092881023
 11
109.095372571
 21
101.092881023
  0
LINE
  5
24D
100
AcDbEntity
  8
0
100
AcDbLine
 62
7
  6
CONTINUOUS
 10
109.095372571
 20
105.092881023
 11
115.645372571
 21
105.092881023
  0
LINE
  5
24E
100
AcDbEntity
  8
0
100
AcDbLine
 62
7
  6
CONTINUOUS
 10
106.945372571
 20
105.222881023
 11
108.995372571
 21
105.222881023
  0
LINE
  5
24F
100
AcDbEntity
  8
0
100
AcDbLine
 62
7
  6
CONTINUOUS
 10
18.595372571
 20
106.322881023
 11
15.995372571
 21
106.322881023
  0
LINE
  5
250
100
AcDbEntity
  8
0
100
AcDbLine
 62
7
  6
CONTINUOUS
 10
20.4352049194
 20
107.222881023
 11
20.995372571
 21
107.222881023
  0
LINE
  5
251
100
AcDbEntity
  8
0
100
AcDbLine
 62
7
  6
CONTINUOUS
 10
84.795372571
 20
136.722881023
 11
84.795372571
 21
132.822881023
  0
LINE
  5
252
100
AcDbEntity
  8
0
100
AcDbLine
 62
7
  6
CONTINUOUS
 10
86.595372571
 20
136.722881023
 11
86.595372571
 21
132.822881023
  0
LINE
  5
253
100
AcDbEntity
  8
0
100
AcDbLine
 62
7
  6
CONTINUOUS
 10
93.155372571
 20
118.2013749327
 11
100.025372571
 21
119.922881023
  0
LINE
  5
254
100
AcDbEntity
  8
INTFCLR_76
100
AcDbLine
 62
7
420
3604575
  6
CONTINUOUS
 10
108.4845667583
 20
109.822881023
 11
108.7303925633
 21
109.822881023
  0
LINE
  5
255
100
AcDbEntity
  8
0
100
AcDbLine
 62
7
  6
CONTINUOUS
 10
20.995372571
 20
110.222881023
 11
14.795372571
 21
110.222881023
  0
LINE
  5
256
100
AcDbEntity
  8
0
100
AcDbLine
 62
7
  6
CONTINUOUS
 10
92.445372571
 20
48.022881023
 11
92.445372571
 21
64.522881023
  0
LINE
  5
257
100
AcDbEntity
  8
0
100
AcDbLine
 62
7
  6
CONTINUOUS
 10
92.445372571
 20
116.322881023
 11
92.445372571
 21
132.822881023
  0
LINE
  5
258
100
AcDbEntity
  8
0
100
AcDbLine
 62
7
  6
CONTINUOUS
 10
93.155372571
 20
62.8395460242
 11
93.155372571
 21
63.5695460242
  0
LINE
  5
259
100
AcDbEntity
  8
0
100
AcDbLine
 62
7
  6
CONTINUOUS
 10
93.155372571
 20
117.4713749327
 11
93.155372571
 21
118.2013749327
  0
LINE
  5
25A
100
AcDbEntity
  8
0
100
AcDbLine
 62
7
  6
CONTINUOUS
 10
92.445372571
 20
116.322881023
 11
108.7453681169
 21
116.322881023
  0
LINE
  5
25B
100
AcDbEntity
  8
0
100
AcDbLine
 62
7
  6
CONTINUOUS
 10
94.2444814791
 20
116.7764666283
 11
94.2444814791
 21
116.322881023
  0
LINE
  5
25C
100
AcDbEntity
  8
0
100
AcDbLine
 62
7
  6
CONTINUOUS
 10
94.2444814791
 20
64.522881023
 11
94.2444814791
 21
64.2522131009
  0
LINE
  5
25D
100
AcDbEntity
  8
0
100
AcDbLine
 62
7
  6
CONTINUOUS
 10
94.245372571
 20
48.022881023
 11
94.245372571
 21
54.022881023
  0
LINE
  5
25E
100
AcDbEntity
  8
0
100
AcDbLine
 62
7
  6
CONTINUOUS
 10
94.245372571
 20
62.022881023
 11
94.245372571
 21
62.5671785059
  0
LINE
  5
25F
100
AcDbEntity
  8
0
100
AcDbLine
 62
7
  6
CONTINUOUS
 10
94.245372571
 20
118.4745105424
 11
94.245372571
 21
118.822881023
  0
LINE
  5
260
100
AcDbEntity
  8
0
100
AcDbLine
 62
7
  6
CONTINUOUS
 10
94.245372571
 20
126.822881023
 11
94.245372571
 21
132.822881023
  0
LINE
  5
261
100
AcDbEntity
  8
0
100
AcDbLine
 62
7
  6
CONTINUOUS
 10
100.025372571
 20
119.922881023
 11
107.095372571
 21
119.922881023
  0
LINE
  5
262
100
AcDbEntity
  8
0
100
AcDbLine
 62
7
  6
CONTINUOUS
 10
21.795372571
 20
120.822881023
 11
52.795372571
 21
120.822881023
  0
LINE
  5
263
100
AcDbEntity
  8
0
100
AcDbLine
 62
7
  6
CONTINUOUS
 10
93.155372571
 20
63.5695460242
 11
94.995372571
 21
64.722881023
  0
LINE
  5
264
100
AcDbEntity
  8
INTFCLR_76
100
AcDbLine
 62
7
420
3604575
  6
CONTINUOUS
 10
93.0857278251
 20
122.822881023
 11
93.8884829346
 21
122.822881023
  0
LINE
  5
265
100
AcDbEntity
  8
INTFCLR_76
100
AcDbLine
 62
7
420
3604575
  6
CONTINUOUS
 10
94.1883312707
 20
122.822881023
 11
94.2455866793
 21
122.822881023
  0
LINE
  5
266
100
AcDbEntity
  8
0
100
AcDbLine
 62
7
  6
CONTINUOUS
 10
52.795372571
 20
123.522881023
 11
21.795372571
 21
123.522881023
  0
LINE
  5
267
100
AcDbEntity
  8
0
100
AcDbLine
 62
7
  6
CONTINUOUS
 10
21.795372571
 20
124.322881023
 11
14.795372571
 21
124.322881023
  0
LINE
  5
268
100
AcDbEntity
  8
0
100
AcDbLine
 62
7
  6
CONTINUOUS
 10
60.895372571
 20
126.422881023
 11
52.795372571
 21
126.422881023
  0
LINE
  5
269
100
AcDbEntity
  8
0
100
AcDbLine
 62
7
  6
CONTINUOUS
 10
106.945372571
 20
64.722881023
 11
106.945372571
 21
75.622881023
  0
LINE
  5
26A
100
AcDbEntity
  8
0
100
AcDbLine
 62
7
  6
CONTINUOUS
 10
106.945372571
 20
105.222881023
 11
106.945372571
 21
116.322881023
  0
LINE
  5
26B
100
AcDbEntity
  8
0
100
AcDbLine
 62
7
  6
CONTINUOUS
 10
14.795372571
 20
127.3335945895
 11
17.195372571
 21
127.3335945895
  0
LINE
  5
26C
100
AcDbEntity
  8
0
100
AcDbLine
 62
7
  6
CONTINUOUS
 10
21.795372571
 20
127.522881023
 11
17.195372571
 21
127.522881023
  0
LINE
  5
26D
100
AcDbEntity
  8
0
100
AcDbLine
 62
7
  6
CONTINUOUS
 10
21.795372571
 20
127.8519516056
 11
14.795372571
 21
127.8519516056
  0
LINE
  5
26E
100
AcDbEntity
  8
0
100
AcDbLine
 62
7
  6
CONTINUOUS
 10
21.795372571
 20
128.8092192512
 11
14.795372571
 21
128.8092192512
  0
LINE
  5
26F
100
AcDbEntity
  8
0
100
AcDbLine
 62
7
  6
CONTINUOUS
 10
21.795372571
 20
129.022881023
 11
14.795372571
 21
129.022881023
  0
LINE
  5
270
100
AcDbEntity
  8
0
100
AcDbLine
 62
7
  6
CONTINUOUS
 10
94.955372571
 20
116.322881023
 11
93.155372571
 21
117.4713749327
  0
LINE
  5
271
100
AcDbEntity
  8
0
100
AcDbLine
 62
7
  6
CONTINUOUS
 10
107.095372571
 20
119.922881023
 11
107.095372571
 21
116.322881023
  0
LINE
  5
272
100
AcDbEntity
  8
0
100
AcDbLine
 62
7
  6
CONTINUOUS
 10
107.095372571
 20
64.722881023
 11
107.095372571
 21
61.122881023
  0
LINE
  5
273
100
AcDbEntity
  8
0
100
AcDbLine
 62
7
  6
CONTINUOUS
 10
108.745372571
 20
64.522881023
 11
108.745372571
 21
75.622881023
  0
LINE
  5
274
100
AcDbEntity
  8
0
100
AcDbLine
 62
7
  6
CONTINUOUS
 10
108.745372571
 20
105.222881023
 11
108.745372571
 21
116.322881023
  0
LINE
  5
275
100
AcDbEntity
  8
0
100
AcDbLine
 62
7
  6
CONTINUOUS
 10
108.995372571
 20
75.622881023
 11
108.995372571
 21
105.222881023
  0
LINE
  5
276
100
AcDbEntity
  8
0
100
AcDbLine
 62
7
  6
CONTINUOUS
 10
109.095372571
 20
75.722881023
 11
109.095372571
 21
105.092881023
  0
LINE
  5
277
100
AcDbEntity
  8
0
100
AcDbLine
 62
7
  6
CONTINUOUS
 10
94.2453672684
 20
132.822881023
 11
53.195372571
 21
132.822881023
  0
LINE
  5
278
100
AcDbEntity
  8
0
100
AcDbLine
 62
7
  6
CONTINUOUS
 10
115.645372571
 20
75.722881023
 11
115.645372571
 21
105.092881023
  0
LINE
  5
279
100
AcDbEntity
  8
0
100
AcDbLine
 62
7
  6
CONTINUOUS
 10
86.595372571
 20
136.722881023
 11
53.195372571
 21
136.722881023
  0
ARC
  5
27A
100
AcDbEntity
  8
0
100
AcDbCircle
 62
7
  6
CONTINUOUS
 10
71.5479465361
 20
44.822881023
 40
1.6
100
AcDbArc
 50
254.9999999998
 51
345.0
  0
ARC
  5
27B
100
AcDbEntity
  8
0
100
AcDbCircle
 62
7
  6
CONTINUOUS
 10
19.5953726599
 20
72.2215477483
 40
0.6
100
AcDbArc
 50
180.0
 51
270.0
  0
ARC
  5
27C
100
AcDbEntity
  8
0
100
AcDbCircle
 62
7
  6
CONTINUOUS
 10
19.696743381
 20
72.2215477483
 40
0.6
100
AcDbArc
 50
270.0
 51
360.0
  0
SPLINE
  5
27D
100
AcDbEntity
  8
0
100
AcDbSpline
 62
7
  6
CONTINUOUS
 70
0
 71
3
 72
20
 73
16
 74
0
 42
0.0000001
 43
0.0000001
 44
0.0000000001
 40
0.0
 40
0.0
 40
0.0
 40
0.0
 40
0.002240322
 40
0.0063809534
 40
0.0214191107
 40
0.0455870101
 40
0.0787044633
 40
0.1205624235
 40
0.1709246634
 40
0.2293279376
 40
0.2951302969
 40
0.4462400674
 40
0.6185124382
 40
0.8055930506
 40
1.0
 40
1.0
 40
1.0
 40
1.0
 10
108.6452140451
 20
113.0734084464
 30
0.0
 10
108.6427779672
 20
113.0734175062
 30
0.0
 10
108.6369712745
 20
113.0678260692
 30
0.0
 10
108.6282320593
 20
113.0468928753
 30
0.0
 10
108.6169203538
 20
113.0003015921
 30
0.0
 10
108.6044481859
 20
112.9230320659
 30
0.0
 10
108.5910914888
 20
112.8158676431
 30
0.0
 10
108.577647066
 20
112.6802977117
 30
0.0
 10
108.564263472
 20
112.5170309098
 30
0.0
 10
108.551228502
 20
112.3276596337
 30
0.0
 10
108.53377885
 20
112.0287872258
 30
0.0
 10
108.5148620506
 20
111.6059982543
 30
0.0
 10
108.4978367475
 20
111.0511736229
 30
0.0
 10
108.4870375105
 20
110.4491049063
 30
0.0
 10
108.4845667583
 20
110.0342764119
 30
0.0
 10
108.4845667583
 20
109.822881023
 30
0.0
  0
SPLINE
  5
27E
100
AcDbEntity
  8
0
100
AcDbSpline
 62
7
  6
CONTINUOUS
 70
0
 71
3
 72
20
 73
16
 74
0
 42
0.0000001
 43
0.0000001
 44
0.0000000001
 40
0.0
 40
0.0
 40
0.0
 40
0.0
 40
0.0022460577
 40
0.006392111
 40
0.0214262598
 40
0.04556384
 40
0.078640501
 40
0.1204859276
 40
0.1708857419
 40
0.229327211
 40
0.2951360873
 40
0.4461522954
 40
0.6184558319
 40
0.8056087736
 40
1.0
 40
1.0
 40
1.0
 40
1.0
 10
108.6452140654
 20
74.4733942558
 30
0.0
 10
108.6427717681
 20
74.4733869242
 30
0.0
 10
108.6369830466
 20
74.4677711677
 30
0.0
 10
108.6282326632
 20
74.4468349622
 30
0.0
 10
108.6169353557
 20
74.4002725179
 30
0.0
 10
108.6044468216
 20
74.3230899175
 30
0.0
 10
108.5910876671
 20
74.216017849
 30
0.0
 10
108.5776440512
 20
74.0804665013
 30
0.0
 10
108.564276528
 20
73.9171307975
 30
0.0
 10
108.551249735
 20
73.7276712032
 30
0.0
 10
108.5338024803
 20
73.4288548362
 30
0.0
 10
108.5148280866
 20
73.0061333142
 30
0.0
 10
108.4978387148
 20
72.4513016581
 30
0.0
 10
108.4870564783
 20
71.8491432777
 30
0.0
 10
108.4845667583
 20
71.4342572908
 30
0.0
 10
108.4845667583
 20
71.222881023
 30
0.0
  0
SPLINE
  5
27F
100
AcDbEntity
  8
0
100
AcDbSpline
 62
7
  6
CONTINUOUS
 70
0
 71
3
 72
16
 73
12
 74
0
 42
0.0000001
 43
0.0000001
 44
0.0000000001
 40
0.0
 40
0.0
 40
0.0
 40
0.0
 40
0.0317318593
 40
0.0581222538
 40
0.0924755022
 40
0.1349122005
 40
0.1852309048
 40
0.3078838533
 40
0.4563918747
 40
0.6255247809
 40
1.0
 40
1.0
 40
1.0
 40
1.0
 10
15.9955562315
 20
126.8308178201
 30
0.0
 10
15.995813563
 20
126.8036586516
 30
0.0
 10
16.0399951583
 20
126.7632361033
 30
0.0
 10
16.1075278695
 20
126.7279666668
 30
0.0
 10
16.1907795203
 20
126.6950822847
 30
0.0
 10
16.2946255954
 20
126.6636782291
 30
0.0
 10
16.4738872621
 20
126.6195820672
 30
0.0
 10
16.7448695882
 20
126.5710138577
 30
0.0
 10
17.1188864837
 20
126.5236190146
 30
0.0
 10
17.7092992203
 20
126.4737748046
 30
0.0
 10
18.174846378
 20
126.4595645105
 30
0.0
 10
18.495372571
 20
126.4595645105
 30
0.0
  0
SPLINE
  5
280
100
AcDbEntity
  8
0
100
AcDbSpline
 62
7
  6
CONTINUOUS
 70
0
 71
3
 72
20
 73
16
 74
0
 42
0.0000001
 43
0.0000001
 44
0.0000000001
 40
0.0
 40
0.0
 40
0.0
 40
0.0
 40
0.0108820672
 40
0.0186676176
 40
0.0283912927
 40
0.0539716303
 40
0.0878554158
 40
0.1299832022
 40
0.1802048835
 40
0.238166003
 40
0.3032997069
 40
0.4526388757
 40
0.6229087656
 40
0.8078538871
 40
1.0
 40
1.0
 40
1.0
 40
1.0
 10
93.5450105776
 20
126.8247263943
 30
0.0
 10
93.5302377813
 20
126.824892334
 30
0.0
 10
93.5062268599
 20
126.809218777
 30
0.0
 10
93.4829877705
 20
126.7791366283
 30
0.0
 10
93.453268286
 20
126.7282915257
 30
0.0
 10
93.4185315876
 20
126.6408100642
 30
0.0
 10
93.3789020293
 20
126.5085921684
 30
0.0
 10
93.3398353623
 20
126.3416485249
 30
0.0
 10
93.3017106927
 20
126.1411349351
 30
0.0
 10
93.2651860298
 20
125.9086559327
 30
0.0
 10
93.2170093933
 20
125.5419149285
 30
0.0
 10
93.1657861318
 20
125.0219601353
 30
0.0
 10
93.1206147476
 20
124.3383659568
 30
0.0
 10
93.0922661317
 20
123.5957124713
 30
0.0
 10
93.0857278251
 20
123.0837427143
 30
0.0
 10
93.0857278251
 20
122.822881023
 30
0.0
  0
SPLINE
  5
281
100
AcDbEntity
  8
0
100
AcDbSpline
 62
7
  6
CONTINUOUS
 70
0
 71
3
 72
20
 73
16
 74
0
 42
0.0000001
 43
0.0000001
 44
0.0000000001
 40
0.0
 40
0.0
 40
0.0
 40
0.0
 40
0.0108725509
 40
0.0185939903
 40
0.0282332983
 40
0.0536797019
 40
0.0875635893
 40
0.1297605341
 40
0.1800204643
 40
0.2379521363
 40
0.3030690417
 40
0.4525703098
 40
0.6229252038
 40
0.8078325753
 40
1.0
 40
1.0
 40
1.0
 40
1.0
 10
93.5450103592
 20
62.0234357355
 30
0.0
 10
93.5302533089
 20
62.0234437986
 30
0.0
 10
93.506346003
 20
62.0081175901
 30
0.0
 10
93.482970917
 20
61.9783544621
 30
0.0
 10
93.4532050903
 20
61.9280180016
 30
0.0
 10
93.418421792
 20
61.8408673265
 30
0.0
 10
93.3788940319
 20
61.7087536668
 30
0.0
 10
93.3398764728
 20
61.5416917312
 30
0.0
 10
93.3017472976
 20
61.3411261288
 30
0.0
 10
93.2651680908
 20
61.1087271763
 30
0.0
 10
93.2169516433
 20
60.7419266771
 30
0.0
 10
93.1658889573
 20
60.2217748849
 30
0.0
 10
93.1206355612
 20
59.5380793255
 30
0.0
 10
93.0921985339
 20
58.7955233466
 30
0.0
 10
93.0857278251
 20
58.2837052566
 30
0.0
 10
93.0857278251
 20
58.022881023
 30
0.0
  0
SPLINE
  5
282
100
AcDbEntity
  8
0
100
AcDbSpline
 62
7
  6
CONTINUOUS
 70
0
 71
3
 72
11
 73
7
 74
0
 42
0.0000001
 43
0.0000001
 44
0.0000000001
 40
0.0
 40
0.0
 40
0.0
 40
0.0
 40
0.07638876
 40
0.2929773416
 40
0.6173785947
 40
1.0
 40
1.0
 40
1.0
 40
1.0
 10
94.2453725451
 20
62.0234577899
 30
0.0
 10
94.2421249298
 20
61.9216297488
 30
0.0
 10
94.2322858213
 20
61.5310058178
 30
0.0
 10
94.2123156122
 20
60.707848498
 30
0.0
 10
94.1936170603
 20
59.4761460953
 30
0.0
 10
94.1883312707
 20
58.533183828
 30
0.0
 10
94.1883312707
 20
58.022881023
 30
0.0
  0
SPLINE
  5
283
100
AcDbEntity
  8
0
100
AcDbSpline
 62
7
  6
CONTINUOUS
 70
0
 71
3
 72
13
 73
9
 74
0
 42
0.0000001
 43
0.0000001
 44
0.0000000001
 40
0.0
 40
0.0
 40
0.0
 40
0.0
 40
0.0195743118
 40
0.0767506911
 40
0.16899367
 40
0.2932940373
 40
0.6174121482
 40
1.0
 40
1.0
 40
1.0
 40
1.0
 10
94.2453722739
 20
126.8247497362
 30
0.0
 10
94.245582643
 20
126.8508636145
 30
0.0
 10
94.2404863383
 20
126.6233562677
 30
0.0
 10
94.2364979516
 20
126.5157074047
 30
0.0
 10
94.2261811458
 20
126.086528988
 30
0.0
 10
94.2110099041
 20
125.4012462762
 30
0.0
 10
94.193343322
 20
124.2685233236
 30
0.0
 10
94.1883312707
 20
123.3333039113
 30
0.0
 10
94.1883312707
 20
122.822881023
 30
0.0
  0
SPLINE
  5
284
100
AcDbEntity
  8
0
100
AcDbSpline
 62
7
  6
CONTINUOUS
 70
0
 71
3
 72
13
 73
9
 74
0
 42
0.0000001
 43
0.0000001
 44
0.0000000001
 40
0.0
 40
0.0
 40
0.0
 40
0.0
 40
0.3825957017
 40
0.5554512375
 40
0.7069989402
 40
0.8312548901
 40
0.9236147394
 40
1.0
 40
1.0
 40
1.0
 40
1.0
 10
94.1883312707
 20
122.822881023
 30
0.0
 10
94.1883312707
 20
122.3126119894
 30
0.0
 10
94.1922750041
 20
121.5757041852
 30
0.0
 10
94.2051569466
 20
120.62339131
 30
0.0
 10
94.2152511168
 20
120.0475756573
 30
0.0
 10
94.2278888968
 20
119.4943156963
 30
0.0
 10
94.2329529114
 20
119.2630758171
 30
0.0
 10
94.2485187192
 20
118.720478072
 30
0.0
 10
94.2453725448
 20
118.8223047302
 30
0.0
  0
SPLINE
  5
285
100
AcDbEntity
  8
0
100
AcDbSpline
 62
7
  6
CONTINUOUS
 70
0
 71
3
 72
20
 73
16
 74
0
 42
0.0000001
 43
0.0000001
 44
0.0000000001
 40
0.0
 40
0.0
 40
0.0
 40
0.0
 40
0.1921700491
 40
0.3770792948
 40
0.547435821
 40
0.6969448951
 40
0.7620580783
 40
0.8199818134
 40
0.8702370386
 40
0.9124316521
 40
0.9463154639
 40
0.9717634511
 40
0.9814030572
 40
0.9891250617
 40
1.0
 40
1.0
 40
1.0
 40
1.0
 10
93.0857278251
 20
122.822881023
 30
0.0
 10
93.0857278251
 20
122.5620540033
 30
0.0
 10
93.092201294
 20
122.0502313507
 30
0.0
 10
93.1206416752
 20
121.3076693611
 30
0.0
 10
93.1658956432
 20
120.6239606952
 30
0.0
 10
93.2169450197
 20
120.1038012874
 30
0.0
 10
93.2651637053
 20
119.7370073521
 30
0.0
 10
93.3017493126
 20
119.5046325627
 30
0.0
 10
93.3398813425
 20
119.3040888886
 30
0.0
 10
93.3788986675
 20
119.1370373199
 30
0.0
 10
93.4184255614
 20
119.0049252525
 30
0.0
 10
93.4532063151
 20
118.9177709825
 30
0.0
 10
93.4829715051
 20
118.8674309578
 30
0.0
 10
93.5063495033
 20
118.8376632554
 30
0.0
 10
93.5302500955
 20
118.8223302092
 30
0.0
 10
93.5450103432
 20
118.8223243609
 30
0.0
  0
SPLINE
  5
286
100
AcDbEntity
  8
0
100
AcDbSpline
 62
7
  6
CONTINUOUS
 70
0
 71
3
 72
20
 73
16
 74
0
 42
0.0000001
 43
0.0000001
 44
0.0000000001
 40
0.0
 40
0.0
 40
0.0
 40
0.0
 40
0.194396534
 40
0.3815379452
 40
0.5538249057
 40
0.7048448677
 40
0.7706491988
 40
0.829079438
 40
0.8794654818
 40
0.9213225034
 40
0.9544261163
 40
0.9785831922
 40
0.9936182733
 40
0.9977591746
 40
1.0
 40
1.0
 40
1.0
 40
1.0
 10
108.4845667583
 20
109.822881023
 30
0.0
 10
108.4845667583
 20
109.6114979596
 30
0.0
 10
108.4870561154
 20
109.1966167378
 30
0.0
 10
108.4978373
 20
108.5944801759
 30
0.0
 10
108.5148308024
 20
108.0396725101
 30
0.0
 10
108.5337944663
 20
107.616967352
 30
0.0
 10
108.5512410065
 20
107.3181625835
 30
0.0
 10
108.564268467
 20
107.1287342561
 30
0.0
 10
108.5776435625
 20
106.965413093
 30
0.0
 10
108.5910878909
 20
106.8298339674
 30
0.0
 10
108.604447638
 20
106.7226982412
 30
0.0
 10
108.6169239116
 20
106.6454606732
 30
0.0
 10
108.6282335779
 20
106.5988838487
 30
0.0
 10
108.6369730775
 20
106.5779544219
 30
0.0
 10
108.6427774001
 20
106.5723600061
 30
0.0
 10
108.6452140185
 20
106.5723676886
 30
0.0
  0
SPLINE
  5
287
100
AcDbEntity
  8
0
100
AcDbSpline
 62
7
  6
CONTINUOUS
 70
0
 71
3
 72
20
 73
16
 74
0
 42
0.0000001
 43
0.0000001
 44
0.0000000001
 40
0.0
 40
0.0
 40
0.0
 40
0.0
 40
0.1944201196
 40
0.3815285349
 40
0.5537899979
 40
0.7048675744
 40
0.7706721241
 40
0.8290869147
 40
0.8794612191
 40
0.9213144071
 40
0.9544168971
 40
0.97857236
 40
0.9936097159
 40
0.9977547288
 40
1.0
 40
1.0
 40
1.0
 40
1.0
 10
108.4845667583
 20
71.222881023
 30
0.0
 10
108.4845667583
 20
71.0114722793
 30
0.0
 10
108.487041166
 20
70.59660115
 30
0.0
 10
108.497836234
 20
69.9945024595
 30
0.0
 10
108.5148591087
 20
69.4396968329
 30
0.0
 10
108.5337873502
 20
69.0169548809
 30
0.0
 10
108.5512333261
 20
68.7181037809
 30
0.0
 10
108.5642652825
 20
68.528705125
 30
0.0
 10
108.5776432046
 20
68.3654179933
 30
0.0
 10
108.5910883571
 20
68.2298572798
 30
0.0
 10
108.6044444381
 20
68.122728114
 30
0.0
 10
108.6169286263
 20
68.0454924367
 30
0.0
 10
108.6282292061
 20
67.9989085637
 30
0.0
 10
108.6369808706
 20
67.9779698947
 30
0.0
 10
108.6427725449
 20
67.972359408
 30
0.0
 10
108.6452140043
 20
67.972354083
 30
0.0
  0
SPLINE
  5
288
100
AcDbEntity
  8
0
100
AcDbSpline
 62
7
  6
CONTINUOUS
 70
0
 71
3
 72
14
 73
10
 74
0
 42
0.0000001
 43
0.0000001
 44
0.0000000001
 40
0.0
 40
0.0
 40
0.0
 40
0.0
 40
0.3826409051
 40
0.5554164737
 40
0.7067455917
 40
0.8310513179
 40
0.9232048772
 40
0.9802082507
 40
1.0
 40
1.0
 40
1.0
 40
1.0
 10
94.1883312707
 20
58.022881023
 30
0.0
 10
94.1883312707
 20
57.5123904701
 30
0.0
 10
94.1924284176
 20
56.7713879003
 30
0.0
 10
94.2049392971
 20
55.8285818528
 30
0.0
 10
94.2158438589
 20
55.2304437747
 30
0.0
 10
94.2263372963
 20
54.739880682
 30
0.0
 10
94.2360994456
 20
54.3751723669
 30
0.0
 10
94.2411252775
 20
54.1498381133
 30
0.0
 10
94.2451655359
 20
54.0474441111
 30
0.0
 10
94.2453722706
 20
54.0210402655
 30
0.0
  0
SPLINE
  5
289
100
AcDbEntity
  8
0
100
AcDbSpline
 62
7
  6
CONTINUOUS
 70
0
 71
3
 72
20
 73
16
 74
0
 42
0.0000001
 43
0.0000001
 44
0.0000000001
 40
0.0
 40
0.0
 40
0.0
 40
0.0
 40
0.1921651879
 40
0.3771750931
 40
0.5474754345
 40
0.6967969017
 40
0.7619361298
 40
0.8199050505
 40
0.8701190088
 40
0.912172046
 40
0.9459594731
 40
0.9714927106
 40
0.9812276321
 40
0.9890442805
 40
1.0
 40
1.0
 40
1.0
 40
1.0
 10
93.0857278251
 20
58.022881023
 30
0.0
 10
93.0857278251
 20
57.762017535
 30
0.0
 10
93.0923074941
 20
57.2499814894
 30
0.0
 10
93.1206551609
 20
56.5072426074
 30
0.0
 10
93.1657558393
 20
55.8236009108
 30
0.0
 10
93.2170149082
 20
55.3036730921
 30
0.0
 10
93.2651797518
 20
54.9369709854
 30
0.0
 10
93.3016985519
 20
54.7045058192
 30
0.0
 10
93.3397884168
 20
54.5041068195
 30
0.0
 10
93.3788747834
 20
54.3374333779
 30
0.0
 10
93.4185411408
 20
54.2055436581
 30
0.0
 10
93.4533430695
 20
54.1182976964
 30
0.0
 10
93.4830140314
 20
54.067445687
 30
0.0
 10
93.5063075397
 20
54.037204278
 30
0.0
 10
93.5301381415
 20
54.0211995766
 30
0.0
 10
93.5450095928
 20
54.0210364344
 30
0.0
  0
SPLINE
  5
28A
100
AcDbEntity
  8
0
100
AcDbSpline
 62
7
  6
CONTINUOUS
 70
0
 71
3
 72
16
 73
12
 74
0
 42
0.0000001
 43
0.0000001
 44
0.0000000001
 40
0.0
 40
0.0
 40
0.0
 40
0.0
 40
0.3744695258
 40
0.5435872848
 40
0.6921090368
 40
0.814766596
 40
0.8650829738
 40
0.9075118261
 40
0.9418695147
 40
0.9682680234
 40
1.0
 40
1.0
 40
1.0
 40
1.0
 10
18.495372571
 20
126.4595645105
 30
0.0
 10
18.8158993076
 20
126.4595645105
 30
0.0
 10
19.2814378437
 20
126.4737592826
 30
0.0
 10
19.8718513233
 20
126.5236378217
 30
0.0
 10
20.245879503
 20
126.571014203
 30
0.0
 10
20.5168812245
 20
126.6195779196
 30
0.0
 10
20.6961425855
 20
126.6636703049
 30
0.0
 10
20.7999826277
 20
126.6950823028
 30
0.0
 10
20.8832407142
 20
126.7279685014
 30
0.0
 10
20.9507872284
 20
126.7632250818
 30
0.0
 10
20.9949904729
 20
126.8036587545
 30
0.0
 10
20.9952338303
 20
126.8308186111
 30
0.0
  0
SPLINE
  5
28B
100
AcDbEntity
  8
0
100
AcDbSpline
 62
7
  6
CONTINUOUS
 70
0
 71
3
 72
20
 73
16
 74
0
 42
0.0000001
 43
0.0000001
 44
0.0000000001
 40
0.0
 40
0.0
 40
0.0
 40
0.0
 40
0.0106679494
 40
0.018264851
 40
0.0277869787
 40
0.0529748256
 40
0.0865232178
 40
0.1283993492
 40
0.1784662925
 40
0.2363685065
 40
0.3015297225
 40
0.4511359855
 40
0.6218536598
 40
0.807320937
 40
1.0
 40
1.0
 40
1.0
 40
1.0
 10
93.5450095928
 20
54.0210364344
 30
0.0
 10
93.5594343349
 20
54.0208781926
 30
0.0
 10
93.5828861989
 20
54.0364296048
 30
0.0
 10
93.6044173131
 20
54.0666282378
 30
0.0
 10
93.6313658123
 20
54.1175290372
 30
0.0
 10
93.6612348575
 20
54.2051086148
 30
0.0
 10
93.6936530024
 20
54.3373354628
 30
0.0
 10
93.7239747492
 20
54.5043776281
 30
0.0
 10
93.7521508828
 20
54.7050690544
 30
0.0
 10
93.7778734804
 20
54.9377918182
 30
0.0
 10
93.8103397103
 20
55.3050952314
 30
0.0
 10
93.8424483838
 20
55.8254562532
 30
0.0
 10
93.8690074609
 20
56.508926388
 30
0.0
 10
93.8849040877
 20
57.2509823437
 30
0.0
 10
93.8884829346
 20
57.7623330081
 30
0.0
 10
93.8884829346
 20
58.022881023
 30
0.0
  0
SPLINE
  5
28C
100
AcDbEntity
  8
0
100
AcDbSpline
 62
7
  6
CONTINUOUS
 70
0
 71
3
 72
17
 73
13
 74
0
 42
0.0000001
 43
0.0000001
 44
0.0000000001
 40
0.0
 40
0.0
 40
0.0
 40
0.0
 40
0.0307552583
 40
0.0566693238
 40
0.0906631058
 40
0.1328169745
 40
0.1829164469
 40
0.2406022061
 40
0.3054523695
 40
0.4542720621
 40
0.6240950183
 40
1.0
 40
1.0
 40
1.0
 40
1.0
 10
20.9952338303
 20
126.8308186111
 30
0.0
 10
20.9954684014
 20
126.8569978622
 30
0.0
 10
20.9512214963
 20
126.8962081075
 30
0.0
 10
20.8836020905
 20
126.9265130791
 30
0.0
 10
20.8000698097
 20
126.9545454388
 30
0.0
 10
20.6959515005
 20
126.9798351443
 30
0.0
 10
20.5704214492
 20
127.0038480263
 30
0.0
 10
20.4251337817
 20
127.0258236898
 30
0.0
 10
20.1957888053
 20
127.0536902897
 30
0.0
 10
19.8704449599
 20
127.0815379659
 30
0.0
 10
19.2800245562
 20
127.1134602726
 30
0.0
 10
18.8153603218
 20
127.1218759915
 30
0.0
 10
18.495372571
 20
127.1218759915
 30
0.0
  0
SPLINE
  5
28D
100
AcDbEntity
  8
0
100
AcDbSpline
 62
7
  6
CONTINUOUS
 70
0
 71
3
 72
20
 73
16
 74
0
 42
0.0000001
 43
0.0000001
 44
0.0000000001
 40
0.0
 40
0.0
 40
0.0
 40
0.0
 40
0.0106572749
 40
0.0181880779
 40
0.027623725
 40
0.0526758134
 40
0.0862257314
 40
0.1281724594
 40
0.1782772627
 40
0.2361486753
 40
0.3012935829
 40
0.4510666144
 40
0.6218699028
 40
0.8072995071
 40
1.0
 40
1.0
 40
1.0
 40
1.0
 10
93.5450103432
 20
118.8223243609
 30
0.0
 10
93.5594177634
 20
118.8223186525
 30
0.0
 10
93.5827659006
 20
118.8375194925
 30
0.0
 10
93.6044370192
 20
118.867402268
 30
0.0
 10
93.631429554
 20
118.917803062
 30
0.0
 10
93.6613262972
 20
119.0050633051
 30
0.0
 10
93.6936566963
 20
119.1371787534
 30
0.0
 10
93.7239460982
 20
119.3043352646
 30
0.0
 10
93.7521216252
 20
119.50507779
 30
0.0
 10
93.7778851215
 20
119.7377222708
 30
0.0
 10
93.8103785137
 20
120.1050898207
 30
0.0
 10
93.8423830148
 20
120.6256413332
 30
0.0
 10
93.8689988605
 20
121.3092200002
 30
0.0
 10
93.8849407671
 20
122.0511762003
 30
0.0
 10
93.8884829346
 20
122.5623719143
 30
0.0
 10
93.8884829346
 20
122.822881023
 30
0.0
  0
SPLINE
  5
28E
100
AcDbEntity
  8
0
100
AcDbSpline
 62
7
  6
CONTINUOUS
 70
0
 71
3
 72
20
 73
16
 74
0
 42
0.0000001
 43
0.0000001
 44
0.0000000001
 40
0.0
 40
0.0
 40
0.0
 40
0.0
 40
0.1946041508
 40
0.3818806777
 40
0.5542972325
 40
0.7054913338
 40
0.7713079345
 40
0.8297017006
 40
0.8800272264
 40
0.9218069307
 40
0.9548085499
 40
0.9788350952
 40
0.9937252272
 40
0.9977987334
 40
1.0
 40
1.0
 40
1.0
 40
1.0
 10
108.7303925633
 20
109.822881023
 30
0.0
 10
108.7303925633
 20
110.034212742
 30
0.0
 10
108.7298151118
 20
110.4489189511
 30
0.0
 10
108.7270917115
 20
111.0508569926
 30
0.0
 10
108.7221636135
 20
111.6056388894
 30
0.0
 10
108.7156582106
 20
112.0284949258
 30
0.0
 10
108.7084618717
 20
112.3274906742
 30
0.0
 10
108.702472949
 20
112.5169297564
 30
0.0
 10
108.6955869266
 20
112.6802457462
 30
0.0
 10
108.6878487187
 20
112.8158318377
 30
0.0
 10
108.6791869949
 20
112.922959522
 30
0.0
 10
108.6702215004
 20
113.0001877717
 30
0.0
 10
108.6609609479
 20
113.0467375656
 30
0.0
 10
108.6532394698
 20
113.067776961
 30
0.0
 10
108.6476045092
 20
113.0733995563
 30
0.0
 10
108.6452140451
 20
113.0734084464
 30
0.0
  0
SPLINE
  5
28F
100
AcDbEntity
  8
0
100
AcDbSpline
 62
7
  6
CONTINUOUS
 70
0
 71
3
 72
17
 73
13
 74
0
 42
0.0000001
 43
0.0000001
 44
0.0000000001
 40
0.0
 40
0.0
 40
0.0
 40
0.0
 40
0.3759092229
 40
0.5457291507
 40
0.6945779879
 40
0.7594344802
 40
0.8171151168
 40
0.8672051629
 40
0.9093521101
 40
0.9433490442
 40
0.9692622848
 40
1.0
 40
1.0
 40
1.0
 40
1.0
 10
18.495372571
 20
127.1218759915
 30
0.0
 10
18.1753828912
 20
127.1218759915
 30
0.0
 10
17.7107193988
 20
127.1134687036
 30
0.0
 10
17.1202780917
 20
127.0815154646
 30
0.0
 10
16.7949073618
 20
127.053680752
 30
0.0
 10
16.5655367953
 20
127.0258204119
 30
0.0
 10
16.4202567093
 20
127.0038451579
 30
0.0
 10
16.2947464787
 20
126.9798318311
 30
0.0
 10
16.1906399405
 20
126.9545375596
 30
0.0
 10
16.1071154415
 20
126.9265088241
 30
0.0
 10
16.0394871726
 20
126.8962321194
 30
0.0
 10
15.9953083285
 20
126.8569818766
 30
0.0
 10
15.9955562315
 20
126.8308178201
 30
0.0
  0
SPLINE
  5
290
100
AcDbEntity
  8
0
100
AcDbSpline
 62
7
  6
CONTINUOUS
 70
0
 71
3
 72
20
 73
16
 74
0
 42
0.0000001
 43
0.0000001
 44
0.0000000001
 40
0.0
 40
0.0
 40
0.0
 40
0.0
 40
0.1926983432
 40
0.3782308118
 40
0.5489808307
 40
0.6985704056
 40
0.7637360269
 40
0.8216451387
 40
0.8717051812
 40
0.9135060795
 40
0.9469560126
 40
0.9720947812
 40
0.9816283972
 40
0.9892574837
 40
1.0
 40
1.0
 40
1.0
 40
1.0
 10
93.8884829346
 20
122.822881023
 30
0.0
 10
93.8884829346
 20
123.0834310903
 30
0.0
 10
93.8848856119
 20
123.594848824
 30
0.0
 10
93.8689823056
 20
124.3369937637
 30
0.0
 10
93.842465239
 20
125.0205121466
 30
0.0
 10
93.8103369839
 20
125.5408509454
 30
0.0
 10
93.7778783142
 20
125.9081137562
 30
0.0
 10
93.7521552693
 20
126.1408202521
 30
0.0
 10
93.7240138227
 20
126.3413959922
 30
0.0
 10
93.6936714816
 20
126.5081700418
 30
0.0
 10
93.6612236741
 20
126.6400717285
 30
0.0
 10
93.631301978
 20
126.727422543
 30
0.0
 10
93.6043942603
 20
126.7783260367
 30
0.0
 10
93.5828031338
 20
126.8086753251
 30
0.0
 10
93.5595347647
 20
126.8245632473
 30
0.0
 10
93.5450105776
 20
126.8247263943
 30
0.0
  0
SPLINE
  5
291
100
AcDbEntity
  8
0
100
AcDbSpline
 62
7
  6
CONTINUOUS
 70
0
 71
3
 72
20
 73
16
 74
0
 42
0.0000001
 43
0.0000001
 44
0.0000000001
 40
0.0
 40
0.0
 40
0.0
 40
0.0
 40
0.0021968714
 40
0.0062677855
 40
0.0211602794
 40
0.0451883164
 40
0.0781832937
 40
0.1199562601
 40
0.1702833163
 40
0.2286831303
 40
0.2945023001
 40
0.445684127
 40
0.6181184784
 40
0.8054056999
 40
1.0
 40
1.0
 40
1.0
 40
1.0
 10
108.6452140043
 20
67.972354083
 30
0.0
 10
108.6475997145
 20
67.9723488797
 30
0.0
 10
108.6532495369
 20
67.9779588371
 30
0.0
 10
108.6609533006
 20
67.9989969622
 30
0.0
 10
108.6702237914
 20
68.0455467054
 30
0.0
 10
108.6791813497
 20
68.1227733884
 30
0.0
 10
108.6878478415
 20
68.2298878073
 30
0.0
 10
108.69558493
 20
68.3654617032
 30
0.0
 10
108.7024704434
 20
68.5287791392
 30
0.0
 10
108.7084589542
 20
68.718229928
 30
0.0
 10
108.7156560538
 20
69.0172227018
 30
0.0
 10
108.7221663042
 20
69.4400889137
 30
0.0
 10
108.7270925415
 20
69.9948903623
 30
0.0
 10
108.7298134512
 20
70.5968507232
 30
0.0
 10
108.7303925633
 20
71.0115592739
 30
0.0
 10
108.7303925633
 20
71.222881023
 30
0.0
  0
SPLINE
  5
292
100
AcDbEntity
  8
0
100
AcDbSpline
 62
7
  6
CONTINUOUS
 70
0
 71
3
 72
20
 73
16
 74
0
 42
0.0000001
 43
0.0000001
 44
0.0000000001
 40
0.0
 40
0.0
 40
0.0
 40
0.0
 40
0.1945796338
 40
0.3819008707
 40
0.5543441216
 40
0.7054616402
 40
0.7712813498
 40
0.8296996123
 40
0.8800425544
 40
0.9218231006
 40
0.954820002
 40
0.9788461723
 40
0.9937349827
 40
0.9978041296
 40
1.0
 40
1.0
 40
1.0
 40
1.0
 10
108.7303925633
 20
71.222881023
 30
0.0
 10
108.7303925633
 20
71.4341861583
 30
0.0
 10
108.7298091758
 20
71.8489143688
 30
0.0
 10
108.7270929638
 20
72.4509034483
 30
0.0
 10
108.7221741803
 20
73.0056799622
 30
0.0
 10
108.7156537794
 20
73.4284850537
 30
0.0
 10
108.7084573182
 20
73.7274276198
 30
0.0
 10
108.7024710089
 20
73.9169157512
 30
0.0
 10
108.6955865356
 20
74.0802782505
 30
0.0
 10
108.6878496064
 20
74.2158793754
 30
0.0
 10
108.6791826982
 20
74.3230016189
 30
0.0
 10
108.6702253061
 20
74.4002244608
 30
0.0
 10
108.6609530402
 20
74.4467650382
 30
0.0
 10
108.6532499596
 20
74.4677966142
 30
0.0
 10
108.6475986757
 20
74.4734014143
 30
0.0
 10
108.6452140654
 20
74.4733942558
 30
0.0
  0
SPLINE
  5
293
100
AcDbEntity
  8
0
100
AcDbSpline
 62
7
  6
CONTINUOUS
 70
0
 71
3
 72
20
 73
16
 74
0
 42
0.0000001
 43
0.0000001
 44
0.0000000001
 40
0.0
 40
0.0
 40
0.0
 40
0.0
 40
0.0022012345
 40
0.00627571
 40
0.021163812
 40
0.0451708453
 40
0.0781413039
 40
0.1199104671
 40
0.1702668569
 40
0.2286961689
 40
0.2945204575
 40
0.4456345989
 40
0.6180935919
 40
0.8054256083
 40
1.0
 40
1.0
 40
1.0
 40
1.0
 10
108.6452140185
 20
106.5723676886
 30
0.0
 10
108.6476044417
 20
106.5723752253
 30
0.0
 10
108.6532399424
 20
106.5780017192
 30
0.0
 10
108.6609562965
 20
106.5990389153
 30
0.0
 10
108.6702164289
 20
106.6455671498
 30
0.0
 10
108.6791830709
 20
106.7227366832
 30
0.0
 10
108.6878496027
 20
106.8297970897
 30
0.0
 10
108.6955874443
 20
106.9653707534
 30
0.0
 10
108.7024665518
 20
107.1287471005
 30
0.0
 10
108.7084538936
 20
107.3182658462
 30
0.0
 10
108.7156509119
 20
107.6172203385
 30
0.0
 10
108.7221747653
 20
108.0400417959
 30
0.0
 10
108.7270931942
 20
108.5948408824
 30
0.0
 10
108.7298087812
 20
109.196850268
 30
0.0
 10
108.7303925633
 20
109.6115825632
 30
0.0
 10
108.7303925633
 20
109.822881023
 30
0.0
  0
SPLINE
  5
294
100
AcDbEntity
  8
0
100
AcDbSpline
 62
7
  6
CONTINUOUS
 70
0
 71
3
 72
20
 73
16
 74
0
 42
0.0000001
 43
0.0000001
 44
0.0000000001
 40
0.0
 40
0.0
 40
0.0
 40
0.0
 40
0.1927032119
 40
0.378135614
 40
0.5489417548
 40
0.6987238797
 40
0.7638650455
 40
0.8217277068
 40
0.8718272946
 40
0.9137711246
 40
0.9473204227
 40
0.9723737549
 40
0.9818095001
 40
0.9893407012
 40
1.0
 40
1.0
 40
1.0
 40
1.0
 10
93.8884829346
 20
58.022881023
 30
0.0
 10
93.8884829346
 20
58.2833928542
 30
0.0
 10
93.8849398738
 20
58.7945941536
 30
0.0
 10
93.8689950541
 20
59.5365589143
 30
0.0
 10
93.8423782651
 20
60.2201548856
 30
0.0
 10
93.8103827364
 20
60.7407161874
 30
0.0
 10
93.7778873888
 20
61.1080776779
 30
0.0
 10
93.752117913
 20
61.3406965649
 30
0.0
 10
93.72394185
 20
61.5414151607
 30
0.0
 10
93.6936517614
 20
61.7085590463
 30
0.0
 10
93.6613206331
 20
61.8406702419
 30
0.0
 10
93.6314285815
 20
61.9279330837
 30
0.0
 10
93.604436012
 20
61.9783359465
 30
0.0
 10
93.5827613052
 20
62.0082214777
 30
0.0
 10
93.5594204617
 20
62.0234278619
 30
0.0
 10
93.5450103592
 20
62.0234357355
 30
0.0
  0
ENDSEC
  0
SECTION
  2
OBJECTS
  0
DICTIONARY
  5
C
100
AcDbDictionary
280
0
281
1
  3
ACAD_GROUP
350
D
  3
ACAD_MLINESTYLE
350
17
  3
ACAD_LAYOUT
350
1A
  3
ACAD_PLOTSETTINGS
350
19
  3
ACAD_PLOTSTYLENAME
350
E
  0
DICTIONARY
  5
D
102
{ACAD_REACTORS
330
C
102
}
100
AcDbDictionary
280
0
281
1
  0
ACDBDICTIONARYWDFLT
  5
E
102
{ACAD_REACTORS
330
C
102
}
100
AcDbDictionary
281
1
  3
Normal
350
F
100
AcDbDictionaryWithDefault
340
F
  0
DICTIONARY
  5
17
102
{ACAD_REACTORS
330
C
102
}
100
AcDbDictionary
280
0
281
1
  3
Standard
350
18
  0
DICTIONARY
  5
19
102
{ACAD_REACTORS
330
C
102
}
100
AcDbDictionary
281
1
  0
DICTIONARY
  5
1A
102
{ACAD_REACTORS
330
C
102
}
100
AcDbDictionary
281
1
  3
Model
350
295
  3
Layout1
350
296
  0
ACDBPLACEHOLDER
  5
F
102
{ACAD_REACTORS
330
E
102
}
  0
MLINESTYLE
  5
18
102
{ACAD_REACTORS
330
17
102
}
100
AcDbMlineStyle
  2
STANDARD
 70
0
  3

 62
256
 51
90.0
 52
90.0
 71
2
 49
0.5
 62
256
  6
BYLAYER
 49
-0.5
 62
256
  6
BYLAYER
  0
LAYOUT
  5
295
102
{ACAD_REACTORS
330
1A
102
}
100
AcDbPlotSettings
  1

  2
none_device
  4

  6

 40
0.0
 41
0.0
 42
0.0
 43
0.0
 44
210.0
 45
297.0
 46
0.0
 47
0.0
 48
0.0
 49
0.0
140
0.0
141
0.0
142
1.0
143
1.0
 70
1024
 72
1
 73
0
 74
0
  7

 75
0
147
1.0
148
0.0
149
0.0
100
AcDbLayout
  1
Model
 70
0
 71
0
 10
0.0
 20
0.0
 11
210.0
 21
297.0
 12
0.0
 22
0.0
 32
0.0
 14
0.0
 24
0.0
 34
0.0
 15
0.0
 25
0.0
 35
0.0
146
0.0
 13
0.0
 23
0.0
 33
0.0
 16
1.0
 26
0.0
 36
0.0
 17
0.0
 27
1.0
 37
0.0
 76
0
330
214
345
0
346
0
  0
LAYOUT
  5
296
102
{ACAD_REACTORS
330
1A
102
}
100
AcDbPlotSettings
  1

  2
none_device
  4

  6

 40
0.0
 41
0.0
 42
0.0
 43
0.0
 44
210.0
 45
297.0
 46
0.0
 47
0.0
 48
0.0
 49
0.0
140
0.0
141
0.0
142
1.0
143
1.0
 70
0
 72
1
 73
0
 74
0
  7

 75
0
147
1.0
148
0.0
149
0.0
100
AcDbLayout
  1
Layout1
 70
0
 71
1
 10
0.0
 20
0.0
 11
210.0
 21
297.0
 12
0.0
 22
0.0
 32
0.0
 14
0.0
 24
0.0
 34
0.0
 15
0.0
 25
0.0
 35
0.0
146
0.0
 13
0.0
 23
0.0
 33
0.0
 16
1.0
 26
0.0
 36
0.0
 17
0.0
 27
1.0
 37
0.0
 76
0
330
215
345
0
346
0
  0
ENDSEC
  0
EOF
