999
DXF file: C:\Users\sesa63760\Dev\_Creo\CAD\MCADID0005228_3D-CAD\drw0001_1.dxf
999
Pro/ENGINEER 2019471 by Parametric Technology Corporation
  0
SECTION
  2
HEADER
  9
$ACADVER
  1
AC1024
  9
$DWGCODEPAGE
  3
ANSI_1252
  9
$EXTMAX
 10
56.0835854136
 20
79.3182136564
 30
0.0
  9
$EXTMIN
 10
0.0
 20
0.0
 30
0.0
  9
$LIMMIN
 10
0.0
 20
0.0
  9
$LIMMAX
 10
56.0835854136
 20
79.3182136564
  9
$VIEWCTR
 10
28.0417927068
 20
39.6591068282
  9
$VIEWSIZE
 40
79.3182136564
  9
$CLAYER
  8
0
  9
$LTSCALE
 40
5.1703724457
  9
$CELTYPE
  6
BYLAYER
  9
$DIMSCALE
 40
1.0
  9
$DIMASZ
 40
0.6676617311
  9
$DIMEXO
 40
1.0
  9
$DIMDLI
 40
3.5722573262
  9
$DIMEXE
 40
1.0
  9
$DIMCEN
 40
0.8460609457
  9
$DIMLFAC
 40
1.0
  9
$DIMBLK
  1
_FILLED
  9
$DIMALT
 70
0
  9
$DIMALTF
 40
0.0393700787
  9
$DIMTXT
 40
0.9347264236
  9
$DIMTOL
 70
1
  9
$DIMLIM
 70
0
  9
$DIMTFAC
 40
1.0
  9
$DIMTP
 40
0.01
  9
$DIMTM
 40
0.01
  9
$DIMGAP
 40
0.625
  9
$DIMDSEP
 70
46
  9
$AUNITS
 70
0
  9
$PDMODE
 70
3
  9
$PDSIZE
 40
0.3125
  9
$HANDSEED
  5
262
  9
$TILEMODE
 70
1
  9
$MEASUREMENT
 70
1
  9
$INSUNITS
 70
4
  0
ENDSEC
  0
SECTION
  2
CLASSES
  0
CLASS
  1
ACDBDICTIONARYWDFLT
  2
AcDbDictionaryWithDefault
  3
AutoCAD 2000
 90
0
 91
1
280
0
281
0
  0
CLASS
  1
ACDBPLACEHOLDER
  2
AcDbPlaceHolder
  3
AutoCAD 2000
 90
0
 91
1
280
0
281
0
  0
CLASS
  1
LAYOUT
  2
AcDbLayout
  3
AutoCAD 2000
 90
0
 91
0
280
0
281
0
  0
ENDSEC
  0
SECTION
  2
TABLES
  0
TABLE
  2
VPORT
  5
8
100
AcDbSymbolTable
 70
2
  0
VPORT
  5
1F4
100
AcDbSymbolTableRecord
100
AcDbViewportTableRecord
  2
*ACTIVE
 70
0
 10
0.0
 20
0.0
 11
1.0
 21
1.0
 12
28.0417927068
 22
39.6591068282
 13
0.0
 23
0.0
 14
1.0
 24
1.0
 15
0.0
 25
0.0
 16
0.0
 26
0.0
 36
1.0
 17
0.0
 27
0.0
 37
0.0
 40
79.3182136564
 41
0.7070707071
 42
50.0
 43
0.0
 44
0.0
 50
0.0
 51
0.0
 71
0
 72
100
 73
1
 74
1
 75
0
 76
0
 77
0
 78
0
  0
ENDTAB
  0
TABLE
  2
LTYPE
  5
5
100
AcDbSymbolTable
 70
6
  0
LTYPE
  5
14
100
AcDbSymbolTableRecord
100
AcDbLinetypeTableRecord
  2
BYBLOCK
 70
0
  3

 72
65
 73
0
 40
0.0
  0
LTYPE
  5
15
100
AcDbSymbolTableRecord
100
AcDbLinetypeTableRecord
  2
BYLAYER
 70
0
  3

 72
65
 73
0
 40
0.0
  0
LTYPE
  5
16
100
AcDbSymbolTableRecord
100
AcDbLinetypeTableRecord
  2
CONTINUOUS
 70
64
  3
Solid line
 72
65
 73
0
 40
0.0
  0
LTYPE
  5
1F5
100
AcDbSymbolTableRecord
100
AcDbLinetypeTableRecord
  2
CENTER
 70
64
  3
____ _ ____ _ ____ _ ____ _ ____ _ ____ _ ____
 72
65
 73
4
 40
0.6
 49
0.375
 74
0
 49
-0.075
 74
0
 49
0.075
 74
0
 49
-0.075
 74
0
  0
LTYPE
  5
1F6
100
AcDbSymbolTableRecord
100
AcDbLinetypeTableRecord
  2
HIDDEN
 70
64
  3
- - - - - - - - - - - - - - - - - - - -
 72
65
 73
2
 40
0.2
 49
0.1
 74
0
 49
-0.1
 74
0
  0
LTYPE
  5
1F7
100
AcDbSymbolTableRecord
100
AcDbLinetypeTableRecord
  2
PHANTOM
 70
64
  3
_____ _ _ _____ _ _ _____ _ _ _____
 72
65
 73
6
 40
0.8
 49
0.45
 74
0
 49
-0.05
 74
0
 49
0.1
 74
0
 49
-0.05
 74
0
 49
0.1
 74
0
 49
-0.05
 74
0
  0
LTYPE
  5
1F8
100
AcDbSymbolTableRecord
100
AcDbLinetypeTableRecord
  2
DOT
 70
64
  3
. . . . . . . . . . . . . . . . . . . .
 72
65
 73
2
 40
0.2
 49
0.1
 74
0
 49
-0.1
 74
0
  0
LTYPE
  5
1F9
100
AcDbSymbolTableRecord
100
AcDbLinetypeTableRecord
  2
DASHED
 70
64
  3
- - - - - - - - - - - - - - - - - - - -
 72
65
 73
2
 40
0.2
 49
0.1
 74
0
 49
-0.1
 74
0
  0
ENDTAB
  0
TABLE
  2
LAYER
  5
2
100
AcDbSymbolTable
 70
36
  0
LAYER
  5
10
100
AcDbSymbolTableRecord
100
AcDbLayerTableRecord
  2
0
 70
0
 62
7
  6
CONTINUOUS
370
-3
390
F
  0
LAYER
  5
1FA
100
AcDbSymbolTableRecord
100
AcDbLayerTableRecord
  2
DEFAULT_1
 70
0
 62
7
  6
CENTER
370
-3
390
F
  0
LAYER
  5
1FB
100
AcDbSymbolTableRecord
100
AcDbLayerTableRecord
  2
DEFAULT_2
 70
0
 62
7
  6
HIDDEN
370
-3
390
F
  0
LAYER
  5
1FC
100
AcDbSymbolTableRecord
100
AcDbLayerTableRecord
  2
DEFAULT_3
 70
0
 62
7
  6
PHANTOM
370
-3
390
F
  0
LAYER
  5
1FD
100
AcDbSymbolTableRecord
100
AcDbLayerTableRecord
  2
00_COMPONENTS
 70
0
 62
7
  6
CONTINUOUS
370
-3
390
F
  0
LAYER
  5
1FE
100
AcDbSymbolTableRecord
100
AcDbLayerTableRecord
  2
00_COMPONENTS_2
 70
0
 62
7
  6
CONTINUOUS
370
-3
390
F
  0
LAYER
  5
1FF
100
AcDbSymbolTableRecord
100
AcDbLayerTableRecord
  2
00_COMPONENTS_3
 70
0
 62
7
  6
CONTINUOUS
370
-3
390
F
  0
LAYER
  5
200
100
AcDbSymbolTableRecord
100
AcDbLayerTableRecord
  2
01_1_DEFAULT_DATUMS
 70
0
 62
7
  6
CONTINUOUS
370
-3
390
F
  0
LAYER
  5
201
100
AcDbSymbolTableRecord
100
AcDbLayerTableRecord
  2
01_PLANES
 70
0
 62
7
  6
CONTINUOUS
370
-3
390
F
  0
LAYER
  5
202
100
AcDbSymbolTableRecord
100
AcDbLayerTableRecord
  2
02_COORD_SYS
 70
0
 62
7
  6
CONTINUOUS
370
-3
390
F
  0
LAYER
  5
203
100
AcDbSymbolTableRecord
100
AcDbLayerTableRecord
  2
03_AXES
 70
0
 62
7
  6
CONTINUOUS
370
-3
390
F
  0
LAYER
  5
204
100
AcDbSymbolTableRecord
100
AcDbLayerTableRecord
  2
03_AXES_2
 70
0
 62
7
  6
CONTINUOUS
370
-3
390
F
  0
LAYER
  5
205
100
AcDbSymbolTableRecord
100
AcDbLayerTableRecord
  2
03_AXES_3
 70
0
 62
7
  6
CONTINUOUS
370
-3
390
F
  0
LAYER
  5
206
100
AcDbSymbolTableRecord
100
AcDbLayerTableRecord
  2
04_POINTS
 70
0
 62
7
  6
CONTINUOUS
370
-3
390
F
  0
LAYER
  5
207
100
AcDbSymbolTableRecord
100
AcDbLayerTableRecord
  2
05_CURVES
 70
0
 62
7
  6
CONTINUOUS
370
-3
390
F
  0
LAYER
  5
208
100
AcDbSymbolTableRecord
100
AcDbLayerTableRecord
  2
06_SURFS
 70
0
 62
7
  6
CONTINUOUS
370
-3
390
F
  0
LAYER
  5
209
100
AcDbSymbolTableRecord
100
AcDbLayerTableRecord
  2
07_COSMETICS
 70
0
 62
7
  6
CONTINUOUS
370
-3
390
F
  0
LAYER
  5
20A
100
AcDbSymbolTableRecord
100
AcDbLayerTableRecord
  2
10_NOTES
 70
0
 62
7
  6
CONTINUOUS
370
-3
390
F
  0
LAYER
  5
20B
100
AcDbSymbolTableRecord
100
AcDbLayerTableRecord
  2
11_NOTES_PUB
 70
0
 62
7
  6
CONTINUOUS
370
-3
390
F
  0
LAYER
  5
20C
100
AcDbSymbolTableRecord
100
AcDbLayerTableRecord
  2
13_REF_GTOL
 70
0
 62
7
  6
CONTINUOUS
370
-3
390
F
  0
LAYER
  5
20D
100
AcDbSymbolTableRecord
100
AcDbLayerTableRecord
  2
16_MISC
 70
0
 62
7
  6
CONTINUOUS
370
-3
390
F
  0
LAYER
  5
20E
100
AcDbSymbolTableRecord
100
AcDbLayerTableRecord
  2
17_NO_PRINT
 70
0
 62
7
  6
CONTINUOUS
370
-3
390
F
  0
LAYER
  5
20F
100
AcDbSymbolTableRecord
100
AcDbLayerTableRecord
  2
18_DATUM_CAMS_JOINTS
 70
0
 62
7
  6
CONTINUOUS
370
-3
390
F
  0
LAYER
  5
210
100
AcDbSymbolTableRecord
100
AcDbLayerTableRecord
  2
19_DATUM_FUNCTIONAL
 70
0
 62
7
  6
CONTINUOUS
370
-3
390
F
  0
LAYER
  5
211
100
AcDbSymbolTableRecord
100
AcDbLayerTableRecord
  2
20_DATUM_KINEMATIC_SCHEME
 70
0
 62
7
  6
CONTINUOUS
370
-3
390
F
  0
LAYER
  5
212
100
AcDbSymbolTableRecord
100
AcDbLayerTableRecord
  2
INTFCLR_29054
 70
0
 62
7
  6
CONTINUOUS
370
-3
390
F
  0
LAYER
  5
213
100
AcDbSymbolTableRecord
100
AcDbLayerTableRecord
  2
INTFCLR_29802
 70
0
 62
7
  6
CONTINUOUS
370
-3
390
F
  0
LAYER
  5
214
100
AcDbSymbolTableRecord
100
AcDbLayerTableRecord
  2
INTFCLR_35
 70
0
 62
7
  6
CONTINUOUS
370
-3
390
F
  0
LAYER
  5
215
100
AcDbSymbolTableRecord
100
AcDbLayerTableRecord
  2
INTF_BLANK
 70
0
 62
7
  6
CONTINUOUS
370
-3
390
F
  0
LAYER
  5
216
100
AcDbSymbolTableRecord
100
AcDbLayerTableRecord
  2
_BLACK_HOLE
 70
0
 62
7
  6
CONTINUOUS
370
-3
390
F
  0
ENDTAB
  0
TABLE
  2
STYLE
  5
3
100
AcDbSymbolTable
 70
1
  0
STYLE
  5
11
100
AcDbSymbolTableRecord
100
AcDbTextStyleTableRecord
  2
STANDARD
 70
0
 40
0.0
 41
1.0
 50
0.0
 71
0
 42
0.2
  3
ARIAL.TTF
  4

  0
STYLE
  5
217
100
AcDbSymbolTableRecord
100
AcDbTextStyleTableRecord
  2
TEXTSTYLE_1
 70
0
 40
0.0
 41
0.8
 50
0.0
 71
0
 42
0.2
  3
gdt
  4

  0
ENDTAB
  0
TABLE
  2
VIEW
  5
6
100
AcDbSymbolTable
 70
0
  0
ENDTAB
  0
TABLE
  2
UCS
  5
7
100
AcDbSymbolTable
 70
0
  0
ENDTAB
  0
TABLE
  2
APPID
  5
9
100
AcDbSymbolTable
 70
1
  0
APPID
  5
218
100
AcDbSymbolTableRecord
100
AcDbRegAppTableRecord
  2
ACAD
 70
0
  0
ENDTAB
  0
TABLE
  2
BLOCK_RECORD
  5
1
100
AcDbSymbolTable
 70
0
  0
BLOCK_RECORD
  5
219
100
AcDbSymbolTableRecord
100
AcDbBlockTableRecord
  2
*Model_Space
  0
BLOCK_RECORD
  5
21A
100
AcDbSymbolTableRecord
100
AcDbBlockTableRecord
  2
*Paper_Space
  0
BLOCK_RECORD
  5
21B
100
AcDbSymbolTableRecord
100
AcDbBlockTableRecord
  2
_FILLED
  0
ENDTAB
  0
TABLE
  2
DIMSTYLE
  5
A
100
AcDbSymbolTable
 70
1
100
AcDbDimStyleTable
 71
0
  0
DIMSTYLE
105
21C
100
AcDbSymbolTableRecord
100
AcDbDimStyleTableRecord
  2
STANDARD
 70
0
  3

  4

 40
1.0
 41
0.6676617311
 42
1.0
 43
0.38
 44
1.0
 45
0.0
 46
0.0
 47
0.01
 48
0.01
140
0.9347264236
141
0.09
142
0.0
143
25.4
144
1.0
145
0.0
146
1.0
147
0.625
 71
1
 72
0
 73
0
 74
0
 75
0
 76
0
 77
1
 78
8
 79
2
170
0
171
1
172
0
173
0
174
0
175
0
176
0
177
0
178
0
270
2
179
2
271
2
272
2
273
2
274
2
275
0
280
0
281
0
282
0
283
1
284
8
285
0
286
0
287
3
288
0
340
11
278
46
341
21B
342
21B
343
21B
344
21B
  0
ENDTAB
  0
ENDSEC
  0
SECTION
  2
BLOCKS
  0
BLOCK
  5
20
100
AcDbEntity
  8
0
100
AcDbBlockBegin
  2
*Model_Space
 70
0
 10
0.0
 20
0.0
 30
0.0
  3
*Model_Space
  1

  0
ENDBLK
  5
21
100
AcDbEntity
  8
0
100
AcDbBlockEnd
  0
BLOCK
  5
1C
100
AcDbEntity
  8
0
100
AcDbBlockBegin
  2
*Paper_Space
 70
0
 10
0.0
 20
0.0
 30
0.0
  3
*Paper_Space
  1

  0
ENDBLK
  5
1D
100
AcDbEntity
  8
0
100
AcDbBlockEnd
  0
BLOCK
  5
21D
100
AcDbEntity
  8
0
100
AcDbBlockBegin
  2
_FILLED
 70
64
 10
0.0
 20
0.0
  3
_FILLED
  1

  0
SOLID
  5
21E
100
AcDbEntity
  8
0
  6
BYBLOCK
 62
0
100
AcDbTrace
 10
0.0
 20
0.0
 11
-1.0
 21
0.25
 12
-1.0
 22
-0.25
 13
-1.0
 23
-0.25
  0
ENDBLK
  5
21F
100
AcDbEntity
  8
0
  6
BYBLOCK
 62
0
100
AcDbBlockEnd
  0
ENDSEC
  0
SECTION
  2
ENTITIES
  0
LINE
  5
220
100
AcDbEntity
  8
00_COMPONENTS
100
AcDbLine
 62
7
  6
BYLAYER
 10
7.522341165
 20
44.3308268255
 11
7.522341165
 21
45.2640890883
  0
LWPOLYLINE
  5
221
100
AcDbEntity
  8
0
100
AcDbPolyline
 62
7
  6
BYLAYER
 90
9
 70
0
 10
7.0257153169
 20
35.4334796397
 10
7.2012854505
 20
34.2490363431
 10
8.9799962995
 20
31.0135107016
 10
12.2047360228
 20
28.1750280438
 10
14.288381489
 20
26.9720619878
 10
19.2048748054
 20
25.1103078921
 10
24.809064533
 20
24.0834103272
 10
30.6853135571
 20
23.9675295876
 10
36.3978073697
 20
24.7712600178
  0
LINE
  5
222
100
AcDbEntity
  8
00_COMPONENTS
100
AcDbLine
 62
7
  6
BYLAYER
 10
21.0210239735
 20
21.3121561444
 11
11.2380568417
 21
26.9602270749
  0
LINE
  5
223
100
AcDbEntity
  8
00_COMPONENTS
100
AcDbLine
 62
7
  6
BYLAYER
 10
11.0148699657
 20
27.2713072886
 11
11.0148699657
 21
28.2690433697
  0
LINE
  5
224
100
AcDbEntity
  8
00_COMPONENTS
100
AcDbLine
 62
7
  6
BYLAYER
 10
11.2380568417
 20
28.072623429
 11
11.2380568417
 21
26.9602270749
  0
LINE
  5
225
100
AcDbEntity
  8
00_COMPONENTS
100
AcDbLine
 62
7
  6
BYLAYER
 10
21.5598402699
 20
21.1833035739
 11
35.3949874666
 21
21.1833368295
  0
LWPOLYLINE
  5
226
100
AcDbEntity
  8
0
100
AcDbPolyline
 62
7
  6
BYLAYER
 90
9
 70
0
 10
24.6335098917
 20
23.4071778331
 10
18.9443439938
 20
24.4761124408
 10
13.9542717891
 20
26.4034362574
 10
11.8403230433
 20
27.649387917
 10
8.5797712979
 20
30.5909288847
 10
6.8061197001
 20
33.9321721631
 10
6.6305209524
 20
37.4256763325
 10
8.0666534775
 20
40.8268957574
 10
8.3063811973
 20
41.0739156373
  0
LINE
  5
227
100
AcDbEntity
  8
00_COMPONENTS
100
AcDbLine
 62
7
  6
BYLAYER
 10
13.396091165
 20
44.3308268255
 11
13.396091165
 21
35.9683013638
  0
LINE
  5
228
100
AcDbEntity
  8
00_COMPONENTS
100
AcDbLine
 62
7
  6
BYLAYER
 10
13.396091165
 20
35.2129462988
 11
13.396091165
 21
31.8873299885
  0
LINE
  5
229
100
AcDbEntity
  8
00_COMPONENTS
100
AcDbLine
 62
7
  6
BYLAYER
 10
13.396091165
 20
35.9683013638
 11
13.396091165
 21
35.2129462988
  0
LINE
  5
22A
100
AcDbEntity
  8
00_COMPONENTS
100
AcDbLine
 62
7
  6
BYLAYER
 10
14.4571352581
 20
35.3559550998
 11
14.4571352581
 21
33.0507924946
  0
LINE
  5
22B
100
AcDbEntity
  8
00_COMPONENTS
100
AcDbLine
 62
7
  6
BYLAYER
 10
21.0210239735
 20
21.3121561444
 11
21.0210239735
 21
23.8230868595
  0
LINE
  5
22C
100
AcDbEntity
  8
00_COMPONENTS
100
AcDbLine
 62
7
  6
BYLAYER
 10
21.5598402699
 20
23.7243221242
 11
21.5598402699
 21
21.1833035739
  0
LINE
  5
22D
100
AcDbEntity
  8
00_COMPONENTS
100
AcDbLine
 62
7
  6
BYLAYER
 10
22.9206667578
 20
28.4542121826
 11
22.9206667578
 21
32.7738142938
  0
LINE
  5
22E
100
AcDbEntity
  8
00_COMPONENTS
100
AcDbLine
 62
7
  6
BYLAYER
 10
35.3949874666
 20
21.1833368295
 11
35.3949874666
 21
23.6749135183
  0
LINE
  5
22F
100
AcDbEntity
  8
00_COMPONENTS
100
AcDbLine
 62
7
  6
BYLAYER
 10
35.9338019047
 20
23.7504242513
 11
35.9338019047
 21
21.3121919903
  0
LINE
  5
230
100
AcDbEntity
  8
00_COMPONENTS
100
AcDbLine
 62
7
  6
BYLAYER
 10
43.558591165
 20
44.3308268255
 11
43.558591165
 21
31.8873299885
  0
LWPOLYLINE
  5
231
100
AcDbEntity
  8
00_COMPONENTS
100
AcDbPolyline
 62
7
  6
BYLAYER
 90
3
 70
0
 10
41.9336304995
 20
32.4156722408
 10
42.7140635057
 20
33.6239033462
 10
43.0472445432
 20
35.4129874244
  0
LINE
  5
232
100
AcDbEntity
  8
00_COMPONENTS
100
AcDbLine
 62
7
  6
BYLAYER
 10
45.716687576
 20
26.9603099514
 11
45.716687576
 21
27.9183754831
  0
LINE
  5
233
100
AcDbEntity
  8
00_COMPONENTS
100
AcDbLine
 62
7
  6
BYLAYER
 10
45.9398699654
 20
28.1476081404
 11
45.9398699654
 21
27.2713912379
  0
LINE
  5
234
100
AcDbEntity
  8
0
100
AcDbLine
 62
7
  6
BYLAYER
 10
43.7438401309
 20
27.8848975421
 11
41.5218223914
 21
26.7663579528
  0
LWPOLYLINE
  5
235
100
AcDbEntity
  8
0
100
AcDbPolyline
 62
7
  6
BYLAYER
 90
10
 70
0
 10
41.5218223914
 20
26.7663579528
 10
36.3940878736
 20
25.1022413238
 10
30.6874486485
 20
24.2994856484
 10
24.8105838699
 20
24.4150899316
 10
19.2071110469
 20
25.4415264041
 10
14.2839648894
 20
27.3061202652
 10
12.200394573
 20
28.5097388917
 10
8.9783054265
 20
31.3474026893
 10
7.2026800527
 20
34.5762235521
 10
6.8874604222
 20
36.6988154207
  0
LWPOLYLINE
  5
236
100
AcDbEntity
  8
0
100
AcDbPolyline
 62
7
  6
BYLAYER
 90
3
 70
0
 10
36.3978073697
 20
24.7712600178
 10
41.5228764376
 20
26.4349926086
 10
43.7438401309
 20
27.5530709597
  0
LWPOLYLINE
  5
237
100
AcDbEntity
  8
0
100
AcDbPolyline
 62
7
  6
BYLAYER
 90
5
 70
0
 10
43.6566753584
 20
26.7723751798
 10
41.6583560807
 20
25.7673124427
 10
36.4227001547
 20
24.0751483746
 10
30.6046692333
 20
23.2701281525
 10
24.6335098917
 20
23.4071778331
  0
LWPOLYLINE
  5
238
100
AcDbEntity
  8
0
100
AcDbPolyline
 62
7
  6
BYLAYER
 90
3
 70
0
 10
48.4890569137
 20
41.1179640062
 10
49.7520022772
 20
38.8214073122
 10
50.0672219077
 20
36.6988154437
  0
LINE
  5
239
100
AcDbEntity
  8
00_COMPONENTS
100
AcDbLine
 62
7
  6
BYLAYER
 10
49.432341165
 20
44.3308268255
 11
49.432341165
 21
45.2640890883
  0
LINE
  5
23A
100
AcDbEntity
  8
00_COMPONENTS
100
AcDbLine
 62
7
  6
BYLAYER
 10
45.716687576
 20
26.9603099514
 11
35.9338019047
 21
21.3121919903
  0
ARC
  5
23B
100
AcDbEntity
  8
0
100
AcDbCircle
 62
7
  6
BYLAYER
 10
33.4834447023
 20
45.0142838696
 40
20.902461288
100
AcDbArc
 50
299.1715073666
 51
299.9989362985
  0
ARC
  5
23C
100
AcDbEntity
  8
0
100
AcDbCircle
 62
7
  6
BYLAYER
 10
33.7122133073
 20
43.9752328548
 40
20.0640122714
100
AcDbArc
 50
299.9987492567
 51
300.9738327242
  0
ARC
  5
23D
100
AcDbEntity
  8
00_COMPONENTS
100
AcDbCircle
 62
7
  6
BYLAYER
 10
33.3827243508
 20
53.8778589115
 40
19.8243685826
100
AcDbArc
 50
299.7730723805
 51
299.9997223829
  0
ARC
  5
23E
100
AcDbEntity
  8
0
100
AcDbCircle
 62
7
  6
BYLAYER
 10
17.2371652936
 20
34.5784565767
 40
11.0969965317
100
AcDbArc
 50
143.2700338928
 51
144.0770855737
  0
ARC
  5
23F
100
AcDbEntity
  8
0
100
AcDbCircle
 62
7
  6
BYLAYER
 10
42.8030126037
 20
36.7014526148
 40
7.2643120272
100
AcDbArc
 50
349.9504996407
 51
359.9791998414
  0
ARC
  5
240
100
AcDbEntity
  8
0
100
AcDbCircle
 62
7
  6
BYLAYER
 10
42.8185047132
 20
36.3690417971
 40
7.2488258737
100
AcDbArc
 50
352.4729687258
 51
359.9837732057
  0
ARC
  5
241
100
AcDbEntity
  8
0
100
AcDbCircle
 62
7
  6
BYLAYER
 10
14.105106577
 20
36.3670742493
 40
7.2177545439
100
AcDbArc
 50
180.0006779166
 51
187.4587902612
  0
ARC
  5
242
100
AcDbEntity
  8
00_COMPONENTS
100
AcDbCircle
 62
7
  6
BYLAYER
 10
14.5493978762
 20
45.265577796
 40
7.0270468552
100
AcDbArc
 50
180.0121383384
 51
187.5087181897
  0
ARC
  5
243
100
AcDbEntity
  8
00_COMPONENTS
100
AcDbCircle
 62
7
  6
BYLAYER
 10
42.4161582452
 20
45.2647893835
 40
7.016172941
100
AcDbArc
 50
352.4037266205
 51
359.9942812195
  0
ARC
  5
244
100
AcDbEntity
  8
0
100
AcDbCircle
 62
7
  6
BYLAYER
 10
18.2739785473
 20
35.4077259923
 40
5.2019598809
100
AcDbArc
 50
172.410252676
 51
174.582903045
  0
ARC
  5
245
100
AcDbEntity
  8
00_COMPONENTS
100
AcDbCircle
 62
7
  6
BYLAYER
 10
18.7718124862
 20
35.4129378001
 40
4.8645262143
100
AcDbArc
 50
177.2236889427
 51
179.9994154812
  0
ARC
  5
246
100
AcDbEntity
  8
00_COMPONENTS
100
AcDbCircle
 62
7
  6
BYLAYER
 10
38.1829761125
 20
35.4129285723
 40
4.8644199455
100
AcDbArc
 50
0.0006931924
 51
2.7287378115
  0
SPLINE
  5
247
100
AcDbEntity
  8
00_COMPONENTS
100
AcDbSpline
 62
7
  6
BYLAYER
 70
0
 71
3
 72
11
 73
7
 74
0
 42
0.0000001
 43
0.0000001
 44
0.0000000001
 40
0.0
 40
0.0
 40
0.0
 40
0.0
 40
0.2429281457
 40
0.4887860379
 40
0.7403275487
 40
1.0
 40
1.0
 40
1.0
 40
1.0
 10
13.9072862722
 20
35.4129874269
 30
0.0
 10
13.9072865393
 20
35.1934673907
 30
0.0
 10
13.9373883334
 20
34.7512089189
 30
0.0
 10
14.0723781638
 20
34.0940630639
 30
0.0
 10
14.295980751
 20
33.445638463
 30
0.0
 10
14.49943903
 20
33.0295023487
 30
0.0
 10
14.6141007406
 20
32.8247739118
 30
0.0
  0
SPLINE
  5
248
100
AcDbEntity
  8
00_COMPONENTS
100
AcDbSpline
 62
7
  6
BYLAYER
 70
0
 71
3
 72
11
 73
7
 74
0
 42
0.0000001
 43
0.0000001
 44
0.0000000001
 40
0.0
 40
0.0
 40
0.0
 40
0.0
 40
0.2177159471
 40
0.4509403815
 40
0.7102937689
 40
1.0
 40
1.0
 40
1.0
 40
1.0
 10
11.0148699657
 20
27.2713072886
 30
0.0
 10
11.0148701749
 20
27.2422928342
 30
0.0
 10
11.0256153309
 20
27.1818011815
 30
0.0
 10
11.0714417578
 20
27.0974960059
 30
0.0
 10
11.1439710406
 20
27.0213168943
 30
0.0
 10
11.2046207821
 20
26.9795309563
 30
0.0
 10
11.2380568417
 20
26.9602270749
 30
0.0
  0
SPLINE
  5
249
100
AcDbEntity
  8
00_COMPONENTS
100
AcDbSpline
 62
7
  6
BYLAYER
 70
0
 71
3
 72
11
 73
7
 74
0
 42
0.0000001
 43
0.0000001
 44
0.0000000001
 40
0.0
 40
0.0
 40
0.0
 40
0.0
 40
0.2282533583
 40
0.4746482491
 40
0.7340288625
 40
1.0
 40
1.0
 40
1.0
 40
1.0
 10
21.0210239735
 20
21.3121561444
 30
0.0
 10
21.0579011184
 20
21.2908655965
 30
0.0
 10
21.1385665991
 20
21.253329188
 30
0.0
 10
21.2699180648
 20
21.213360051
 30
0.0
 10
21.4121257029
 20
21.1888295883
 30
0.0
 10
21.5102220092
 20
21.1833034546
 30
0.0
 10
21.5598402699
 20
21.1833035739
 30
0.0
  0
SPLINE
  5
24A
100
AcDbEntity
  8
00_COMPONENTS
100
AcDbSpline
 62
7
  6
BYLAYER
 70
0
 71
3
 72
11
 73
7
 74
0
 42
0.0000001
 43
0.0000001
 44
0.0000000001
 40
0.0
 40
0.0
 40
0.0
 40
0.0
 40
0.2659715471
 40
0.5253522779
 40
0.7717470148
 40
1.0
 40
1.0
 40
1.0
 40
1.0
 10
35.3949874666
 20
21.1833368295
 30
0.0
 10
35.4446057003
 20
21.1833369487
 30
0.0
 10
35.5427018744
 20
21.188863545
 30
0.0
 10
35.6849091639
 20
21.2133946828
 30
0.0
 10
35.8162600637
 20
21.2533644443
 30
0.0
 10
35.8969250504
 20
21.2909012557
 30
0.0
 10
35.9338019047
 20
21.3121919903
 30
0.0
  0
SPLINE
  5
24B
100
AcDbEntity
  8
00_COMPONENTS
100
AcDbSpline
 62
7
  6
BYLAYER
 70
0
 71
3
 72
11
 73
7
 74
0
 42
0.0000001
 43
0.0000001
 44
0.0000000001
 40
0.0
 40
0.0
 40
0.0
 40
0.0
 40
0.2897060281
 40
0.5490591642
 40
0.7822835676
 40
1.0
 40
1.0
 40
1.0
 40
1.0
 10
45.716687576
 20
26.9603099514
 30
0.0
 10
45.7501233451
 20
26.9796139864
 30
0.0
 10
45.8107724839
 20
27.0214002105
 30
0.0
 10
45.8833007069
 20
27.0975797115
 30
0.0
 10
45.9291259323
 20
27.1818851816
 30
0.0
 10
45.9398701746
 20
27.2423768298
 30
0.0
 10
45.9398699654
 20
27.2713912379
 30
0.0
  0
SPLINE
  5
24C
100
AcDbEntity
  8
0
100
AcDbSpline
 62
7
  6
BYLAYER
 70
0
 71
3
 72
11
 73
7
 74
0
 42
0.0000001
 43
0.0000001
 44
0.0000000001
 40
0.0
 40
0.0
 40
0.0
 40
0.0
 40
0.2717785475
 40
0.5287731557
 40
0.771186766
 40
1.0
 40
1.0
 40
1.0
 40
1.0
 10
44.0380879721
 20
26.7722999412
 30
0.0
 10
44.5312424511
 20
27.0683499098
 30
0.0
 10
45.4664156706
 20
27.6865081966
 30
0.0
 10
46.7341033821
 20
28.7192699473
 30
0.0
 10
47.8154174103
 20
29.822214062
 30
0.0
 10
48.4209261111
 20
30.619116387
 30
0.0
 10
48.6852529268
 20
31.0248750278
 30
0.0
  0
SPLINE
  5
24D
100
AcDbEntity
  8
0
100
AcDbSpline
 62
7
  6
BYLAYER
 70
0
 71
3
 72
27
 73
23
 74
0
 42
0.0000001
 43
0.0000001
 44
0.0000000001
 40
0.0
 40
0.0
 40
0.0
 40
0.0
 40
0.021322707
 40
0.0430450302
 40
0.0653526579
 40
0.0884066437
 40
0.112337297
 40
0.1372457582
 40
0.1902053381
 40
0.24757167
 40
0.3092081251
 40
0.3746893291
 40
0.4433718279
 40
0.5144531662
 40
0.5870223296
 40
0.6601049554
 40
0.7327050772
 40
0.8038471992
 40
0.8726171683
 40
0.9382105832
 40
0.9696248772
 40
1.0
 40
1.0
 40
1.0
 40
1.0
 10
13.1047086926
 20
36.1218729437
 30
0.0
 10
13.128685953
 20
35.9088510974
 30
0.0
 10
13.2038687089
 20
35.4813897608
 30
0.0
 10
13.3948107804
 20
34.8512319793
 30
0.0
 10
13.6633543738
 20
34.2310352311
 30
0.0
 10
14.0079944657
 20
33.6241995606
 30
0.0
 10
14.4266580575
 20
33.0336266643
 30
0.0
 10
15.0941986259
 20
32.2562376116
 30
0.0
 10
16.1110865127
 20
31.3443304504
 30
0.0
 10
17.5545861526
 20
30.384250499
 30
0.0
 10
19.2173549814
 20
29.553214742
 30
0.0
 10
21.066085663
 20
28.8673124147
 30
0.0
 10
23.0640207775
 20
28.3398018559
 30
0.0
 10
25.1710862707
 20
27.9811796002
 30
0.0
 10
27.3448794128
 20
27.7986219357
 30
0.0
 10
29.5415431297
 20
27.7958151792
 30
0.0
 10
31.716708874
 20
27.9728022938
 30
0.0
 10
33.8265430369
 20
28.3260487164
 30
0.0
 10
35.8283784674
 20
28.8484045777
 30
0.0
 10
37.3958649626
 20
29.4242602554
 30
0.0
 10
38.5580670479
 20
29.9634592074
 30
0.0
 10
39.1059741807
 20
30.2571389055
 30
0.0
 10
39.3704371918
 20
30.4098257847
 30
0.0
  0
SPLINE
  5
24E
100
AcDbEntity
  8
0
100
AcDbSpline
 62
7
  6
BYLAYER
 70
0
 71
3
 72
15
 73
11
 74
0
 42
0.0000001
 43
0.0000001
 44
0.0000000001
 40
0.0
 40
0.0
 40
0.0
 40
0.0
 40
0.1469947626
 40
0.2871119917
 40
0.4202350068
 40
0.5466462507
 40
0.6668747871
 40
0.7817182826
 40
0.8922958422
 40
1.0
 40
1.0
 40
1.0
 40
1.0
 10
39.3704371918
 20
30.4098257847
 30
0.0
 10
39.6886862799
 20
30.5935658846
 30
0.0
 10
40.2970194652
 20
30.9762473819
 30
0.0
 10
41.1367114518
 20
31.6098430342
 30
0.0
 10
41.8754102003
 20
32.2850045395
 30
0.0
 10
42.5069520515
 20
32.9964250305
 30
0.0
 10
43.0262509744
 20
33.7387214343
 30
0.0
 10
43.4285176736
 20
34.5064363767
 30
0.0
 10
43.709975446
 20
35.2931444683
 30
0.0
 10
43.815933901
 20
35.8309989417
 30
0.0
 10
43.8472867654
 20
36.0984239982
 30
0.0
  0
SPLINE
  5
24F
100
AcDbEntity
  8
0
100
AcDbSpline
 62
7
  6
BYLAYER
 70
0
 71
3
 72
13
 73
9
 74
0
 42
0.0000001
 43
0.0000001
 44
0.0000000001
 40
0.0
 40
0.0
 40
0.0
 40
0.0
 40
0.1198747537
 40
0.2402723357
 40
0.3617056425
 40
0.4846640225
 40
0.7367818629
 40
1.0
 40
1.0
 40
1.0
 40
1.0
 10
6.8873581777
 20
36.6988154218
 30
0.0
 10
6.887364594
 20
36.8934838747
 30
0.0
 10
6.9032396098
 20
37.2838531341
 30
0.0
 10
6.9744918288
 20
37.8675043381
 30
0.0
 10
7.0931498518
 20
38.4485484594
 30
0.0
 10
7.3157930085
 20
39.2242332782
 30
0.0
 10
7.7157249808
 20
40.1848311415
 30
0.0
 10
8.1442737203
 20
40.9069567795
 30
0.0
 10
8.3848974103
 20
41.2602446865
 30
0.0
  0
SPLINE
  5
250
100
AcDbEntity
  8
0
100
AcDbSpline
 62
7
  6
BYLAYER
 70
0
 71
3
 72
24
 73
20
 74
0
 42
0.0000001
 43
0.0000001
 44
0.0000000001
 40
0.0
 40
0.0
 40
0.0
 40
0.0
 40
0.0478522688
 40
0.0991626909
 40
0.1261650031
 40
0.1540507615
 40
0.2123637401
 40
0.2738469989
 40
0.3380921447
 40
0.4045887419
 40
0.472750592
 40
0.541939088
 40
0.6114843948
 40
0.6807062744
 40
0.7489334891
 40
0.8155264159
 40
0.8798933982
 40
0.9415255919
 40
1.0
 40
1.0
 40
1.0
 40
1.0
 10
8.7251583592
 20
30.3805443539
 30
0.0
 10
9.0896484887
 20
29.9036609665
 30
0.0
 10
9.926712237
 20
28.9763743751
 30
0.0
 10
11.1412947469
 20
27.955311735
 30
0.0
 10
12.2328906675
 20
27.1908241701
 30
0.0
 10
13.4404896054
 20
26.4426482917
 30
0.0
 10
15.0911572262
 20
25.5945242378
 30
0.0
 10
17.2368894369
 20
24.7351889378
 30
0.0
 10
19.5458606555
 20
24.0313996639
 30
0.0
 10
21.9845203648
 20
23.4933241295
 30
0.0
 10
24.5175752546
 20
23.1286975324
 30
0.0
 10
27.1082188285
 20
22.942810895
 30
0.0
 10
29.7187844054
 20
22.9383582794
 30
0.0
 10
32.3112842864
 20
23.1154122476
 30
0.0
 10
34.8480371005
 20
23.4713816009
 30
0.0
 10
37.2921386513
 20
24.0011350173
 30
0.0
 10
39.6083264141
 20
24.6970132696
 30
0.0
 10
41.7627061939
 20
25.5489747075
 30
0.0
 10
43.1086421265
 20
26.2323399858
 30
0.0
 10
43.7438401309
 20
26.5990695356
 30
0.0
  0
SPLINE
  5
251
100
AcDbEntity
  8
0
100
AcDbSpline
 62
7
  6
BYLAYER
 70
0
 71
3
 72
23
 73
19
 74
0
 42
0.0000001
 43
0.0000001
 44
0.0000000001
 40
0.0
 40
0.0
 40
0.0
 40
0.0
 40
0.0625021053
 40
0.1228975198
 40
0.1815619575
 40
0.238939384
 40
0.2955255376
 40
0.3518503678
 40
0.4084556204
 40
0.4658693996
 40
0.5245874751
 40
0.5850500967
 40
0.647633031
 40
0.7126308415
 40
0.7802578571
 40
0.8506654511
 40
0.9239339555
 40
1.0
 40
1.0
 40
1.0
 40
1.0
 10
48.5929021683
 20
41.2396156377
 30
0.0
 10
48.8099092536
 20
40.950404226
 30
0.0
 10
49.2095603437
 20
40.3606498955
 30
0.0
 10
49.7039653646
 20
39.4316316002
 30
0.0
 10
50.0784981474
 20
38.4795755906
 30
0.0
 10
50.3294945977
 20
37.5103403333
 30
0.0
 10
50.4546964637
 20
36.5304887412
 30
0.0
 10
50.4523756867
 20
35.5470972936
 30
0.0
 10
50.3229441753
 20
34.5674794268
 30
0.0
 10
50.0674476216
 20
33.5987636566
 30
0.0
 10
49.6887891656
 20
32.6473987037
 30
0.0
 10
49.1901692997
 20
31.7192225172
 30
0.0
 10
48.5756794611
 20
30.8192923165
 30
0.0
 10
47.8496446176
 20
29.952181498
 30
0.0
 10
47.0167190159
 20
29.1220124184
 30
0.0
 10
46.0817160258
 20
28.3326195353
 30
0.0
 10
45.0501000038
 20
27.5879947248
 30
0.0
 10
44.315426096
 20
27.1320466312
 30
0.0
 10
43.934339278
 20
26.9120273676
 30
0.0
  0
SPLINE
  5
252
100
AcDbEntity
  8
0
100
AcDbSpline
 62
7
  6
BYLAYER
 70
0
 71
3
 72
15
 73
11
 74
0
 42
0.0000001
 43
0.0000001
 44
0.0000000001
 40
0.0
 40
0.0
 40
0.0
 40
0.0
 40
0.1077804443
 40
0.2187424913
 40
0.3340692109
 40
0.4546978799
 40
0.5812912716
 40
0.7142771447
 40
0.853882219
 40
1.0
 40
1.0
 40
1.0
 40
1.0
 10
49.9558709295
 20
35.4338379261
 30
0.0
 10
49.8928361534
 20
35.0770859811
 30
0.0
 10
49.7113528836
 20
34.3615349086
 30
0.0
 10
49.2859169028
 20
33.3189031351
 30
0.0
 10
48.7081263584
 20
32.3025240415
 30
0.0
 10
47.9828703162
 20
31.319990726
 30
0.0
 10
47.116001996
 20
30.3779115876
 30
0.0
 10
46.1138424369
 20
29.4827856687
 30
0.0
 10
44.9839454824
 20
28.6409973682
 30
0.0
 10
44.1691802158
 20
28.1304662887
 30
0.0
 10
43.7438401309
 20
27.8848975421
 30
0.0
  0
SPLINE
  5
253
100
AcDbEntity
  8
0
100
AcDbSpline
 62
7
  6
BYLAYER
 70
0
 71
3
 72
15
 73
11
 74
0
 42
0.0000001
 43
0.0000001
 44
0.0000000001
 40
0.0
 40
0.0
 40
0.0
 40
0.0
 40
0.1467886397
 40
0.2867738753
 40
0.4198654615
 40
0.5463301821
 40
0.6666601937
 40
0.7816239458
 40
0.8922910453
 40
1.0
 40
1.0
 40
1.0
 40
1.0
 10
43.7438401309
 20
27.5530709597
 30
0.0
 10
44.1847172726
 20
27.8076099768
 30
0.0
 10
45.027863858
 20
28.337458407
 30
0.0
 10
46.192998303
 20
29.2138670265
 30
0.0
 10
47.2201282884
 20
30.1472373125
 30
0.0
 10
48.1009257704
 20
31.1304597007
 30
0.0
 10
48.8283726617
 20
32.1563016917
 30
0.0
 10
49.3961225112
 20
33.2172777024
 30
0.0
 10
49.7987744385
 20
34.3048638204
 30
0.0
 10
49.9559812424
 20
35.0491551307
 30
0.0
 10
50.0048686923
 20
35.4194896353
 30
0.0
  0
SPLINE
  5
254
100
AcDbEntity
  8
00_COMPONENTS
100
AcDbSpline
 62
7
  6
BYLAYER
 70
0
 71
3
 72
16
 73
12
 74
0
 42
0.0000001
 43
0.0000001
 44
0.0000000001
 40
0.0
 40
0.0
 40
0.0
 40
0.0
 40
0.1485756603
 40
0.2894795125
 40
0.4226819923
 40
0.5485908734
 40
0.6679373375
 40
0.7818630938
 40
0.8919015504
 40
0.9460798939
 40
1.0
 40
1.0
 40
1.0
 40
1.0
 10
43.2948254554
 20
35.7761418146
 30
0.0
 10
43.7674469874
 20
36.0490083545
 30
0.0
 10
44.6669236517
 20
36.6191194079
 30
0.0
 10
45.8966057123
 20
37.57091642
 30
0.0
 10
46.9602074931
 20
38.5890106749
 30
0.0
 10
47.8471656591
 20
39.6640172246
 30
0.0
 10
48.5483688083
 20
40.7865901443
 30
0.0
 10
49.0559273012
 20
41.946132247
 30
0.0
 10
49.3135861369
 20
42.9399659655
 30
0.0
 10
49.4153708098
 20
43.7354889842
 30
0.0
 10
49.4323185996
 20
44.1327720745
 30
0.0
 10
49.4323252022
 20
44.3308268383
 30
0.0
  0
SPLINE
  5
255
100
AcDbEntity
  8
00_COMPONENTS
100
AcDbSpline
 62
7
  6
BYLAYER
 70
0
 71
3
 72
32
 73
28
 74
0
 42
0.0000001
 43
0.0000001
 44
0.0000000001
 40
0.0
 40
0.0
 40
0.0
 40
0.0
 40
0.0213264252
 40
0.0428812341
 40
0.0648808621
 40
0.08751962
 40
0.1109632008
 40
0.1353437131
 40
0.1607606082
 40
0.1872793643
 40
0.214936605
 40
0.2437401175
 40
0.2736746444
 40
0.3047023799
 40
0.3367676968
 40
0.3697982627
 40
0.4383785953
 40
0.5096473289
 40
0.582653396
 40
0.6563665506
 40
0.7297255049
 40
0.8016838862
 40
0.8712597955
 40
0.9048850449
 40
0.9376037792
 40
0.9693376884
 40
1.0
 40
1.0
 40
1.0
 40
1.0
 10
7.5223571277
 20
44.3308268128
 30
0.0
 10
7.5223472175
 20
44.0335575552
 30
0.0
 10
7.5607372155
 20
43.4351491773
 30
0.0
 10
7.7326383416
 20
42.5449810466
 30
0.0
 10
8.0178545567
 20
41.6651480012
 30
0.0
 10
8.4143529035
 20
40.8007375945
 30
0.0
 10
8.919759428
 20
39.956452283
 30
0.0
 10
9.5309056846
 20
39.1366745294
 30
0.0
 10
10.2444317137
 20
38.3457836605
 30
0.0
 10
11.0562349237
 20
37.5877539758
 30
0.0
 10
11.9619900805
 20
36.8666490144
 30
0.0
 10
12.9567066532
 20
36.1861140393
 30
0.0
 10
14.0350928587
 20
35.5498208801
 30
0.0
 10
15.1913032395
 20
34.9610603293
 30
0.0
 10
16.4191718535
 20
34.4229833488
 30
0.0
 10
18.1647161379
 20
33.7688745216
 30
0.0
 10
20.4843858561
 20
33.1004001426
 30
0.0
 10
23.4034351971
 20
32.5479385403
 30
0.0
 10
26.4308526456
 20
32.2468788295
 30
0.0
 10
29.5018584662
 20
32.2036664833
 30
0.0
 10
32.5510743083
 20
32.419228533
 30
0.0
 10
35.5132434767
 20
32.8889244545
 30
0.0
 10
37.8837196358
 20
33.4906522871
 30
0.0
 10
39.6804639438
 20
34.0938749238
 30
0.0
 10
40.952543172
 20
34.5965741669
 30
0.0
 10
42.1571737323
 20
35.1519332455
 30
0.0
 10
42.9246836781
 20
35.5624416354
 30
0.0
 10
43.2948254554
 20
35.7761418146
 30
0.0
  0
SPLINE
  5
256
100
AcDbEntity
  8
00_COMPONENTS
100
AcDbSpline
 62
7
  6
BYLAYER
 70
0
 71
3
 72
29
 73
25
 74
0
 42
0.0000001
 43
0.0000001
 44
0.0000000001
 40
0.0
 40
0.0
 40
0.0
 40
0.0
 40
0.0247664619
 40
0.0495867811
 40
0.0746135899
 40
0.0999269937
 40
0.1256259424
 40
0.1518183738
 40
0.1786055053
 40
0.2060705808
 40
0.2342837193
 40
0.263293786
 40
0.323760263
 40
0.3874681455
 40
0.4540731197
 40
0.5229867329
 40
0.5934442915
 40
0.6645712621
 40
0.7354472031
 40
0.8051684977
 40
0.8729129794
 40
0.9380011222
 40
0.9694208421
 40
1.0
 40
1.0
 40
1.0
 40
1.0
 10
49.432341165
 20
45.2640890883
 30
0.0
 10
49.432341165
 20
45.6111326561
 30
0.0
 10
49.3897004473
 20
46.3067213892
 30
0.0
 10
49.1990799883
 20
47.3371649423
 30
0.0
 10
48.8861229015
 20
48.3452880847
 30
0.0
 10
48.4565356942
 20
49.3227139342
 30
0.0
 10
47.9167154974
 20
50.2624946139
 30
0.0
 10
47.2738276894
 20
51.1602452666
 30
0.0
 10
46.5342501306
 20
52.0129438589
 30
0.0
 10
45.7039685999
 20
52.8185307188
 30
0.0
 10
44.7884272506
 20
53.5754035965
 30
0.0
 10
43.4426913478
 20
54.5307761644
 30
0.0
 10
41.5680711941
 20
55.5895513345
 30
0.0
 10
39.0971719356
 20
56.6235049626
 30
0.0
 10
36.4188261742
 20
57.4273958287
 30
0.0
 10
33.5838009936
 20
57.990201174
 30
0.0
 10
30.6470166437
 20
58.3033997247
 30
0.0
 10
27.6667759971
 20
58.3618574367
 30
0.0
 10
24.7028094853
 20
58.1645943493
 30
0.0
 10
21.8141952259
 20
57.7148883977
 30
0.0
 10
19.0579957078
 20
57.0199004654
 30
0.0
 10
16.8891120752
 20
56.2353387786
 30
0.0
 10
15.2710242549
 20
55.4896641768
 30
0.0
 10
14.5044027559
 20
55.0795192008
 30
0.0
 10
14.1333148233
 20
54.8652727618
 30
0.0
  0
SPLINE
  5
257
100
AcDbEntity
  8
00_COMPONENTS
100
AcDbSpline
 62
7
  6
BYLAYER
 70
0
 71
3
 72
16
 73
12
 74
0
 42
0.0000001
 43
0.0000001
 44
0.0000000001
 40
0.0
 40
0.0
 40
0.0
 40
0.0
 40
0.1390344375
 40
0.2729217573
 40
0.4019022501
 40
0.5266387683
 40
0.6479082568
 40
0.7075648459
 40
0.7667147724
 40
0.8837236517
 40
1.0
 40
1.0
 40
1.0
 40
1.0
 10
14.1333148233
 20
54.8652727618
 30
0.0
 10
13.6432814553
 20
54.5823535537
 30
0.0
 10
12.7043828103
 20
53.9855364828
 30
0.0
 10
11.4121468967
 20
52.9784334146
 30
0.0
 10
10.2760702356
 20
51.8791339221
 30
0.0
 10
9.3105056883
 20
50.6923325766
 30
0.0
 10
8.6572908944
 20
49.6284700948
 30
0.0
 10
8.2397758667
 20
48.7441964557
 30
0.0
 10
7.8965351607
 20
47.8470991324
 30
0.0
 10
7.6020364903
 20
46.6885283685
 30
0.0
 10
7.522341165
 20
45.7373093963
 30
0.0
 10
7.522341165
 20
45.2640890883
 30
0.0
  0
SPLINE
  5
258
100
AcDbEntity
  8
00_COMPONENTS
100
AcDbSpline
 62
7
  6
BYLAYER
 70
0
 71
3
 72
43
 73
39
 74
0
 42
0.0000001
 43
0.0000001
 44
0.0000000001
 40
0.0
 40
0.0
 40
0.0
 40
0.0
 40
0.0325426134
 40
0.0665538938
 40
0.1018762331
 40
0.1383468683
 40
0.1757649185
 40
0.213910157
 40
0.2525491425
 40
0.2914371786
 40
0.3303251541
 40
0.3689641005
 40
0.4071095968
 40
0.4445274429
 40
0.4809982145
 40
0.5163225211
 40
0.5503279355
 40
0.5828748238
 40
0.6138635765
 40
0.6432443247
 40
0.6710255174
 40
0.6843431334
 40
0.6972962544
 40
0.7221858572
 40
0.7459452638
 40
0.7688936536
 40
0.7801925147
 40
0.7914374957
 40
0.8026824791
 40
0.8139813568
 40
0.8369297178
 40
0.8606888915
 40
0.8855787299
 40
0.8985320484
 40
0.911849347
 40
0.9396286903
 40
0.9690154615
 40
1.0
 40
1.0
 40
1.0
 40
1.0
 10
41.6783726193
 20
39.5091669703
 30
0.0
 10
41.2361464094
 20
39.253849073
 30
0.0
 10
40.3087136872
 20
38.770807675
 30
0.0
 10
38.8370051089
 20
38.1432190741
 30
0.0
 10
37.2661613547
 20
37.6017646779
 30
0.0
 10
35.6114635738
 20
37.1515816001
 30
0.0
 10
33.8885308299
 20
36.796892489
 30
0.0
 10
32.1138488665
 20
36.5410858009
 30
0.0
 10
30.3043776087
 20
36.3866234272
 30
0.0
 10
28.4774204559
 20
36.3349806303
 30
0.0
 10
26.6504637289
 20
36.3866156739
 30
0.0
 10
24.8409891915
 20
36.5410682359
 30
0.0
 10
23.0663062592
 20
36.7968739193
 30
0.0
 10
21.3433696639
 20
37.1515458117
 30
0.0
 10
19.6886309301
 20
37.6017265691
 30
0.0
 10
18.1178802622
 20
38.143179853
 30
0.0
 10
16.6460483084
 20
38.7707468134
 30
0.0
 10
15.2871239895
 20
39.4785454834
 30
0.0
 10
14.0540007423
 20
40.2600936759
 30
0.0
 10
12.9584861846
 20
41.1080920762
 30
0.0
 10
12.1577090775
 20
41.8745195176
 30
0.0
 10
11.5994944917
 20
42.513737393
 30
0.0
 10
11.1097685106
 20
43.1503518147
 30
0.0
 10
10.5959100209
 20
43.9730010823
 30
0.0
 10
10.1436998883
 20
45.0059884622
 30
0.0
 10
9.9141828142
 20
45.8914105364
 30
0.0
 10
9.823446008
 20
46.600184226
 30
0.0
 10
9.8008490059
 20
47.1305530155
 30
0.0
 10
9.823433018
 20
47.6609227562
 30
0.0
 10
9.9141598458
 20
48.3696976423
 30
0.0
 10
10.1436561272
 20
49.2551204044
 30
0.0
 10
10.5958393545
 20
50.2881199945
 30
0.0
 10
11.1096971265
 20
51.1107739401
 30
0.0
 10
11.5994199064
 20
51.7473935273
 30
0.0
 10
12.1575971709
 20
52.3865991625
 30
0.0
 10
12.958399001
 20
53.1531180669
 30
0.0
 10
14.0538842593
 20
54.0010183199
 30
0.0
 10
14.8552564021
 20
54.5089664675
 30
0.0
 10
15.2763097106
 20
54.7520602574
 30
0.0
  0
SPLINE
  5
259
100
AcDbEntity
  8
00_COMPONENTS
100
AcDbSpline
 62
7
  6
BYLAYER
 70
0
 71
3
 72
29
 73
25
 74
0
 42
0.0000001
 43
0.0000001
 44
0.0000000001
 40
0.0
 40
0.0
 40
0.0
 40
0.0
 40
0.0303892161
 40
0.0618018601
 40
0.0941564377
 40
0.1273801076
 40
0.1960763659
 40
0.2671140698
 40
0.339593237
 40
0.4125525944
 40
0.4850114831
 40
0.5560096349
 40
0.6246482217
 40
0.6901335446
 40
0.7518259119
 40
0.8092966946
 40
0.8364082241
 40
0.8624364596
 40
0.8874203888
 40
0.9114251456
 40
0.9345462741
 40
0.9569085472
 40
0.9786664897
 40
1.0
 40
1.0
 40
1.0
 40
1.0
 10
43.2268332978
 20
36.6703283292
 30
0.0
 10
42.8679402873
 20
36.4650112225
 30
0.0
 10
42.1248845813
 20
36.0701503589
 30
0.0
 10
40.9606292488
 20
35.5342034241
 30
0.0
 10
39.7333858412
 20
35.0473730277
 30
0.0
 10
38.0025927665
 20
34.4605498877
 30
0.0
 10
35.7211726528
 20
33.8685926312
 30
0.0
 10
32.8697408468
 20
33.3932452095
 30
0.0
 10
29.9306739604
 20
33.1544287887
 30
0.0
 10
26.9626965186
 20
33.1569376979
 30
0.0
 10
24.0248867119
 20
33.4007054618
 30
0.0
 10
21.1757383854
 20
33.8808967515
 30
0.0
 10
18.4718712032
 20
34.5879891683
 30
0.0
 10
15.9666616359
 20
35.5082130328
 30
0.0
 10
13.7097929632
 20
36.6235813957
 30
0.0
 10
12.0406823245
 20
37.7194378205
 30
0.0
 10
10.8786953425
 20
38.6778048247
 30
0.0
 10
10.1126486103
 20
39.4163944736
 30
0.0
 10
9.4390080296
 20
40.1849174402
 30
0.0
 10
8.8613779698
 20
40.9797963003
 30
0.0
 10
8.3827288869
 20
41.7970337522
 30
0.0
 10
8.0058500688
 20
42.6327182132
 30
0.0
 10
7.7328428831
 20
43.4823795137
 30
0.0
 10
7.6204975751
 20
44.0595263008
 30
0.0
 10
7.5826080258
 20
44.3473040423
 30
0.0
  0
SPLINE
  5
25A
100
AcDbEntity
  8
00_COMPONENTS
100
AcDbSpline
 62
7
  6
BYLAYER
 70
0
 71
3
 72
15
 73
11
 74
0
 42
0.0000001
 43
0.0000001
 44
0.0000000001
 40
0.0
 40
0.0
 40
0.0
 40
0.0
 40
0.1077096549
 40
0.2183831404
 40
0.3333552327
 40
0.4536922966
 40
0.5801603633
 40
0.7132498136
 40
0.8532264117
 40
1.0
 40
1.0
 40
1.0
 40
1.0
 10
49.3707582372
 20
44.3373080146
 30
0.0
 10
49.3229776661
 20
43.9781678013
 30
0.0
 10
49.1698225166
 20
43.2564091146
 30
0.0
 10
48.7784675611
 20
42.2018222904
 30
0.0
 10
48.2271621778
 20
41.1730577498
 30
0.0
 10
47.5211395432
 20
40.1783646432
 30
0.0
 10
46.6665450266
 20
39.2249902988
 30
0.0
 10
45.6701765347
 20
38.3199360727
 30
0.0
 10
44.5400982942
 20
37.4700849041
 30
0.0
 10
43.7223868572
 20
36.9562552943
 30
0.0
 10
43.2948254554
 20
36.7094040773
 30
0.0
  0
SPLINE
  5
25B
100
AcDbEntity
  8
00_COMPONENTS
100
AcDbSpline
 62
7
  6
BYLAYER
 70
0
 71
3
 72
43
 73
39
 74
0
 42
0.0000001
 43
0.0000001
 44
0.0000000001
 40
0.0
 40
0.0
 40
0.0
 40
0.0
 40
0.0325426134
 40
0.0665538938
 40
0.1018762331
 40
0.1383468683
 40
0.1757649185
 40
0.213910157
 40
0.2525491425
 40
0.2914371786
 40
0.3303251541
 40
0.3689641005
 40
0.4071095968
 40
0.4445274429
 40
0.4809982145
 40
0.5163225211
 40
0.5503279355
 40
0.5828748238
 40
0.6138635765
 40
0.6432443247
 40
0.6710255174
 40
0.6843431334
 40
0.6972962544
 40
0.7221858572
 40
0.7459452638
 40
0.7688936536
 40
0.7801925147
 40
0.7914374957
 40
0.8026824791
 40
0.8139813568
 40
0.8369297178
 40
0.8606888915
 40
0.8855787299
 40
0.8985320484
 40
0.911849347
 40
0.9396286903
 40
0.9690154615
 40
1.0
 40
1.0
 40
1.0
 40
1.0
 10
15.2763097106
 20
54.7520602574
 30
0.0
 10
15.7185359205
 20
55.0073781547
 30
0.0
 10
16.6459686427
 20
55.4904195528
 30
0.0
 10
18.1176772211
 20
56.1180081537
 30
0.0
 10
19.6885209752
 20
56.6594625498
 30
0.0
 10
21.3432187561
 20
57.1096456276
 30
0.0
 10
23.0661515
 20
57.4643347387
 30
0.0
 10
24.8408334634
 20
57.7201414269
 30
0.0
 10
26.6503047212
 20
57.8746038005
 30
0.0
 10
28.477261874
 20
57.9262465974
 30
0.0
 10
30.304218601
 20
57.8746115538
 30
0.0
 10
32.1136931384
 20
57.7201589918
 30
0.0
 10
33.8883760707
 20
57.4643533084
 30
0.0
 10
35.611312666
 20
57.1096814161
 30
0.0
 10
37.2660513998
 20
56.6595006586
 30
0.0
 10
38.8368020677
 20
56.1180473747
 30
0.0
 10
40.3086340215
 20
55.4904804143
 30
0.0
 10
41.6675583404
 20
54.7826817443
 30
0.0
 10
42.9006815876
 20
54.0011335518
 30
0.0
 10
43.9961961453
 20
53.1531351516
 30
0.0
 10
44.7969732524
 20
52.3867077102
 30
0.0
 10
45.3551878382
 20
51.7474898347
 30
0.0
 10
45.8449138193
 20
51.1108754131
 30
0.0
 10
46.3587723091
 20
50.2882261455
 30
0.0
 10
46.8109824416
 20
49.2552387655
 30
0.0
 10
47.0404995157
 20
48.3698166914
 30
0.0
 10
47.1312363219
 20
47.6610430017
 30
0.0
 10
47.153833324
 20
47.1306742122
 30
0.0
 10
47.131249312
 20
46.6003044715
 30
0.0
 10
47.0405224841
 20
45.8915295854
 30
0.0
 10
46.8110262027
 20
45.0061068233
 30
0.0
 10
46.3588429754
 20
43.9731072333
 30
0.0
 10
45.8449852034
 20
43.1504532877
 30
0.0
 10
45.3552624235
 20
42.5138337004
 30
0.0
 10
44.797085159
 20
41.8746280652
 30
0.0
 10
43.9962833289
 20
41.1081091609
 30
0.0
 10
42.9007980706
 20
40.2602089078
 30
0.0
 10
42.0994259278
 20
39.7522607602
 30
0.0
 10
41.6783726193
 20
39.5091669703
 30
0.0
  0
SPLINE
  5
25C
100
AcDbEntity
  8
00_COMPONENTS
100
AcDbSpline
 62
7
  6
BYLAYER
 70
0
 71
3
 72
28
 73
24
 74
0
 42
0.0000001
 43
0.0000001
 44
0.0000000001
 40
0.0
 40
0.0
 40
0.0
 40
0.0
 40
0.0465862849
 40
0.0894382595
 40
0.1287766251
 40
0.1652401356
 40
0.1999085158
 40
0.2341981628
 40
0.2696037848
 40
0.3073969087
 40
0.3484400315
 40
0.3931551872
 40
0.441581017
 40
0.4934527429
 40
0.5482759191
 40
0.6053880404
 40
0.6640101481
 40
0.7232918823
 40
0.7823528805
 40
0.8403227441
 40
0.8963814733
 40
0.9498023787
 40
1.0
 40
1.0
 40
1.0
 40
1.0
 10
39.1414397073
 20
38.1740459464
 30
0.0
 10
39.6525417499
 20
38.4691290869
 30
0.0
 10
40.6005093481
 20
39.0974031349
 30
0.0
 10
41.814865767
 20
40.197337504
 30
0.0
 10
42.7369297115
 20
41.3966019384
 30
0.0
 10
43.3412461596
 20
42.6725092805
 30
0.0
 10
43.6055869347
 20
43.9965884182
 30
0.0
 10
43.517052936
 20
45.3310396126
 30
0.0
 10
43.0802595941
 20
46.6351797853
 30
0.0
 10
42.3140459844
 20
47.8758121218
 30
0.0
 10
41.2424655975
 20
49.0280823991
 30
0.0
 10
39.8918561826
 20
50.0707927689
 30
0.0
 10
38.2921225738
 20
50.9841067392
 30
0.0
 10
36.4778240411
 20
51.7496827855
 30
0.0
 10
34.4882217517
 20
52.3515100187
 30
0.0
 10
32.3666511853
 20
52.7766815437
 30
0.0
 10
30.1595725337
 20
53.0159462588
 30
0.0
 10
27.9154835385
 20
53.0640604115
 30
0.0
 10
25.6837509471
 20
52.9199609597
 30
0.0
 10
23.5134911293
 20
52.5868321873
 30
0.0
 10
21.4522002438
 20
52.0718857262
 30
0.0
 10
19.5453379163
 20
51.3864977677
 30
0.0
 10
18.3639649399
 20
50.8055654849
 30
0.0
 10
17.8132426226
 20
50.4876077047
 30
0.0
  0
SPLINE
  5
25D
100
AcDbEntity
  8
00_COMPONENTS
100
AcDbSpline
 62
7
  6
BYLAYER
 70
0
 71
3
 72
28
 73
24
 74
0
 42
0.0000001
 43
0.0000001
 44
0.0000000001
 40
0.0
 40
0.0
 40
0.0
 40
0.0
 40
0.0465862849
 40
0.0894382595
 40
0.1287766251
 40
0.1652401356
 40
0.1999085158
 40
0.2341981628
 40
0.2696037848
 40
0.3073969087
 40
0.3484400315
 40
0.3931551872
 40
0.441581017
 40
0.4934527429
 40
0.5482759191
 40
0.6053880404
 40
0.6640101481
 40
0.7232918823
 40
0.7823528805
 40
0.8403227441
 40
0.8963814733
 40
0.9498023787
 40
1.0
 40
1.0
 40
1.0
 40
1.0
 10
17.8132426226
 20
50.4876077047
 30
0.0
 10
17.30214058
 20
50.1925245642
 30
0.0
 10
16.3541729818
 20
49.5642505162
 30
0.0
 10
15.1398165629
 20
48.4643161471
 30
0.0
 10
14.2177526184
 20
47.2650517127
 30
0.0
 10
13.6134361703
 20
45.9891443706
 30
0.0
 10
13.3490953952
 20
44.6650652329
 30
0.0
 10
13.4376293939
 20
43.3306140385
 30
0.0
 10
13.8744227358
 20
42.0264738658
 30
0.0
 10
14.6406363455
 20
40.7858415293
 30
0.0
 10
15.7122167324
 20
39.6335712519
 30
0.0
 10
17.0628261473
 20
38.5908608822
 30
0.0
 10
18.6625597562
 20
37.6775469119
 30
0.0
 10
20.4768582889
 20
36.9119708656
 30
0.0
 10
22.4664605782
 20
36.3101436324
 30
0.0
 10
24.5880311446
 20
35.8849721074
 30
0.0
 10
26.7951097962
 20
35.6457073922
 30
0.0
 10
29.0391987915
 20
35.5975932396
 30
0.0
 10
31.2709313828
 20
35.7416926914
 30
0.0
 10
33.4411912006
 20
36.0748214637
 30
0.0
 10
35.5024820861
 20
36.5897679249
 30
0.0
 10
37.4093444136
 20
37.2751558834
 30
0.0
 10
38.59071739
 20
37.8560881662
 30
0.0
 10
39.1414397073
 20
38.1740459464
 30
0.0
  0
SPLINE
  5
25E
100
AcDbEntity
  8
00_COMPONENTS
100
AcDbSpline
 62
7
  6
BYLAYER
 70
0
 71
3
 72
28
 73
24
 74
0
 42
0.0000001
 43
0.0000001
 44
0.0000000001
 40
0.0
 40
0.0
 40
0.0
 40
0.0
 40
0.0466275214
 40
0.0895208887
 40
0.1288584461
 40
0.1652267167
 40
0.1999230302
 40
0.234243051
 40
0.2696338807
 40
0.3073736113
 40
0.3483611883
 40
0.3930321403
 40
0.4414134835
 40
0.4932302485
 40
0.5479841933
 40
0.6050178614
 40
0.663568054
 40
0.7228045499
 40
0.7818666053
 40
0.8397675015
 40
0.8959937752
 40
0.9496417292
 40
1.0
 40
1.0
 40
1.0
 40
1.0
 10
17.8132426226
 20
38.0441108676
 30
0.0
 10
17.3016882594
 20
37.7487665813
 30
0.0
 10
16.3528723657
 20
37.1198564221
 30
0.0
 10
15.1379781572
 20
36.0189378043
 30
0.0
 10
14.2168205731
 20
34.8198301724
 30
0.0
 10
13.6132185808
 20
33.5446286617
 30
0.0
 10
13.3489599986
 20
32.2209864182
 30
0.0
 10
13.4378448062
 20
30.8859719342
 30
0.0
 10
13.8748155245
 20
29.5824215437
 30
0.0
 10
14.6401828154
 20
28.3431628554
 30
0.0
 10
15.7101494024
 20
27.1920775548
 30
0.0
 10
17.058940804
 20
26.1500216529
 30
0.0
 10
18.65673097
 20
25.2369897435
 30
0.0
 10
20.4687279253
 20
24.4714760998
 30
0.0
 10
22.4555790009
 20
23.8694512656
 30
0.0
 10
24.5741833482
 20
23.4436851048
 30
0.0
 10
26.7786438728
 20
23.2033417955
 30
0.0
 10
29.0212230249
 20
23.1537464785
 30
0.0
 10
31.2516257946
 20
23.2961603719
 30
0.0
 10
33.4233877197
 20
23.6277312048
 30
0.0
 10
35.4891197098
 20
24.1419994912
 30
0.0
 10
37.4030199222
 20
24.8287078226
 30
0.0
 10
38.588954986
 20
25.4115738108
 30
0.0
 10
39.1414397073
 20
25.7305491094
 30
0.0
  0
SPLINE
  5
25F
100
AcDbEntity
  8
00_COMPONENTS
100
AcDbSpline
 62
7
  6
BYLAYER
 70
0
 71
3
 72
28
 73
24
 74
0
 42
0.0000001
 43
0.0000001
 44
0.0000000001
 40
0.0
 40
0.0
 40
0.0
 40
0.0
 40
0.0466275214
 40
0.0895208887
 40
0.1288584461
 40
0.1652267167
 40
0.1999230302
 40
0.234243051
 40
0.2696338807
 40
0.3073736113
 40
0.3483611883
 40
0.3930321403
 40
0.4414134835
 40
0.4932302485
 40
0.5479841933
 40
0.6050178614
 40
0.663568054
 40
0.7228045499
 40
0.7818666053
 40
0.8397675015
 40
0.8959937752
 40
0.9496417292
 40
1.0
 40
1.0
 40
1.0
 40
1.0
 10
39.1414397073
 20
25.7305491094
 30
0.0
 10
39.6529940705
 20
26.0258933957
 30
0.0
 10
40.6018099642
 20
26.6548035549
 30
0.0
 10
41.8167041727
 20
27.7557221726
 30
0.0
 10
42.7378617568
 20
28.9548298046
 30
0.0
 10
43.3414637491
 20
30.2300313153
 30
0.0
 10
43.6057223313
 20
31.5536735588
 30
0.0
 10
43.5168375237
 20
32.8886880428
 30
0.0
 10
43.0798668054
 20
34.1922384333
 30
0.0
 10
42.3144995145
 20
35.4314971216
 30
0.0
 10
41.2445329275
 20
36.5825824222
 30
0.0
 10
39.8957415259
 20
37.6246383241
 30
0.0
 10
38.2979513599
 20
38.5376702334
 30
0.0
 10
36.4859544046
 20
39.3031838772
 30
0.0
 10
34.499103329
 20
39.9052087114
 30
0.0
 10
32.3804989817
 20
40.3309748722
 30
0.0
 10
30.1760384571
 20
40.5713181815
 30
0.0
 10
27.9334593051
 20
40.6209134985
 30
0.0
 10
25.7030565353
 20
40.4784996051
 30
0.0
 10
23.5312946102
 20
40.1469287722
 30
0.0
 10
21.4655626201
 20
39.6326604857
 30
0.0
 10
19.5516624077
 20
38.9459521544
 30
0.0
 10
18.3657273439
 20
38.3630861661
 30
0.0
 10
17.8132426226
 20
38.0441108676
 30
0.0
  0
ENDSEC
  0
SECTION
  2
OBJECTS
  0
DICTIONARY
  5
C
100
AcDbDictionary
280
0
281
1
  3
ACAD_GROUP
350
D
  3
ACAD_MLINESTYLE
350
17
  3
ACAD_LAYOUT
350
1A
  3
ACAD_PLOTSETTINGS
350
19
  3
ACAD_PLOTSTYLENAME
350
E
  0
DICTIONARY
  5
D
102
{ACAD_REACTORS
330
C
102
}
100
AcDbDictionary
280
0
281
1
  0
ACDBDICTIONARYWDFLT
  5
E
102
{ACAD_REACTORS
330
C
102
}
100
AcDbDictionary
281
1
  3
Normal
350
F
100
AcDbDictionaryWithDefault
340
F
  0
DICTIONARY
  5
17
102
{ACAD_REACTORS
330
C
102
}
100
AcDbDictionary
280
0
281
1
  3
Standard
350
18
  0
DICTIONARY
  5
19
102
{ACAD_REACTORS
330
C
102
}
100
AcDbDictionary
281
1
  0
DICTIONARY
  5
1A
102
{ACAD_REACTORS
330
C
102
}
100
AcDbDictionary
281
1
  3
Model
350
260
  3
Layout1
350
261
  0
ACDBPLACEHOLDER
  5
F
102
{ACAD_REACTORS
330
E
102
}
  0
MLINESTYLE
  5
18
102
{ACAD_REACTORS
330
17
102
}
100
AcDbMlineStyle
  2
STANDARD
 70
0
  3

 62
256
 51
90.0
 52
90.0
 71
2
 49
0.5
 62
256
  6
BYLAYER
 49
-0.5
 62
256
  6
BYLAYER
  0
LAYOUT
  5
260
102
{ACAD_REACTORS
330
1A
102
}
100
AcDbPlotSettings
  1

  2
none_device
  4

  6

 40
0.0
 41
0.0
 42
0.0
 43
0.0
 44
210.0
 45
297.0
 46
0.0
 47
0.0
 48
0.0
 49
0.0
140
0.0
141
0.0
142
1.0
143
1.0
 70
1024
 72
1
 73
0
 74
0
  7

 75
0
147
1.0
148
0.0
149
0.0
100
AcDbLayout
  1
Model
 70
0
 71
0
 10
0.0
 20
0.0
 11
210.0
 21
297.0
 12
0.0
 22
0.0
 32
0.0
 14
0.0
 24
0.0
 34
0.0
 15
0.0
 25
0.0
 35
0.0
146
0.0
 13
0.0
 23
0.0
 33
0.0
 16
1.0
 26
0.0
 36
0.0
 17
0.0
 27
1.0
 37
0.0
 76
0
330
219
345
0
346
0
  0
LAYOUT
  5
261
102
{ACAD_REACTORS
330
1A
102
}
100
AcDbPlotSettings
  1

  2
none_device
  4

  6

 40
0.0
 41
0.0
 42
0.0
 43
0.0
 44
210.0
 45
297.0
 46
0.0
 47
0.0
 48
0.0
 49
0.0
140
0.0
141
0.0
142
1.0
143
1.0
 70
0
 72
1
 73
0
 74
0
  7

 75
0
147
1.0
148
0.0
149
0.0
100
AcDbLayout
  1
Layout1
 70
0
 71
1
 10
0.0
 20
0.0
 11
210.0
 21
297.0
 12
0.0
 22
0.0
 32
0.0
 14
0.0
 24
0.0
 34
0.0
 15
0.0
 25
0.0
 35
0.0
146
0.0
 13
0.0
 23
0.0
 33
0.0
 16
1.0
 26
0.0
 36
0.0
 17
0.0
 27
1.0
 37
0.0
 76
0
330
21A
345
0
346
0
  0
ENDSEC
  0
EOF
