  0
SECTION
  2
HEADER
  9
$ACADVER
  1
AC1014
  9
$ACADMAINTVER
 70
     0
  9
$DWGCODEPAGE
  3
ANSI_1252
  9
$INSBASE
 10
0.0
 20
0.0
 30
0.0
  9
$EXTMIN
 10
-1623.30013
 20
-89.988024
 30
0.0
  9
$EXTMAX
 10
16.69997
 20
949.952176
 30
0.0
  9
$LIMMIN
 10
0.0
 20
0.0
  9
$LIMMAX
 10
17.0
 20
11.0
  9
$ORTHOMODE
 70
     0
  9
$REGENMODE
 70
     1
  9
$FILLMODE
 70
     1
  9
$QTEXTMODE
 70
     0
  9
$MIRRTEXT
 70
     1
  9
$DRAGMODE
 70
     2
  9
$LTSCALE
 40
1.0
  9
$OSMODE
 70
    55
  9
$ATTMODE
 70
     1
  9
$TEXTSIZE
 40
0.2
  9
$TRACEWID
 40
0.05
  9
$TEXTSTYLE
  7
STANDARD
  9
$CLAYER
  8
0
  9
$CELTYPE
  6
BYLAYER
  9
$CECOLOR
 62
   256
  9
$CELTSCALE
 40
1.0
  9
$DELOBJ
 70
     1
  9
$DISPSILH
 70
     0
  9
$DIMSCALE
 40
1.0
  9
$DIMASZ
 40
0.18
  9
$DIMEXO
 40
0.0625
  9
$DIMDLI
 40
0.38
  9
$DIMRND
 40
0.0
  9
$DIMDLE
 40
0.0
  9
$DIMEXE
 40
0.18
  9
$DIMTP
 40
0.0
  9
$DIMTM
 40
0.0
  9
$DIMTXT
 40
0.18
  9
$DIMCEN
 40
0.09
  9
$DIMTSZ
 40
0.0
  9
$DIMTOL
 70
     0
  9
$DIMLIM
 70
     0
  9
$DIMTIH
 70
     1
  9
$DIMTOH
 70
     1
  9
$DIMSE1
 70
     0
  9
$DIMSE2
 70
     0
  9
$DIMTAD
 70
     0
  9
$DIMZIN
 70
     0
  9
$DIMBLK
  1

  9
$DIMASO
 70
     1
  9
$DIMSHO
 70
     1
  9
$DIMPOST
  1

  9
$DIMAPOST
  1

  9
$DIMALT
 70
     0
  9
$DIMALTD
 70
     2
  9
$DIMALTF
 40
25.4
  9
$DIMLFAC
 40
1.0
  9
$DIMTOFL
 70
     0
  9
$DIMTVP
 40
0.0
  9
$DIMTIX
 70
     0
  9
$DIMSOXD
 70
     0
  9
$DIMSAH
 70
     0
  9
$DIMBLK1
  1

  9
$DIMBLK2
  1

  9
$DIMSTYLE
  2
STANDARD
  9
$DIMCLRD
 70
     0
  9
$DIMCLRE
 70
     0
  9
$DIMCLRT
 70
     0
  9
$DIMTFAC
 40
1.0
  9
$DIMGAP
 40
0.09
  9
$DIMJUST
 70
     0
  9
$DIMSD1
 70
     0
  9
$DIMSD2
 70
     0
  9
$DIMTOLJ
 70
     1
  9
$DIMTZIN
 70
     0
  9
$DIMALTZ
 70
     0
  9
$DIMALTTZ
 70
     0
  9
$DIMFIT
 70
     3
  9
$DIMUPT
 70
     0
  9
$DIMUNIT
 70
     2
  9
$DIMDEC
 70
     4
  9
$DIMTDEC
 70
     4
  9
$DIMALTU
 70
     2
  9
$DIMALTTD
 70
     2
  9
$DIMTXSTY
  7
STANDARD
  9
$DIMAUNIT
 70
     0
  9
$LUNITS
 70
     2
  9
$LUPREC
 70
     4
  9
$SKETCHINC
 40
0.1
  9
$FILLETRAD
 40
0.5
  9
$AUNITS
 70
     0
  9
$AUPREC
 70
     0
  9
$MENU
  1
acad
  9
$ELEVATION
 40
0.0
  9
$PELEVATION
 40
0.0
  9
$THICKNESS
 40
0.0
  9
$LIMCHECK
 70
     0
  9
$BLIPMODE
 70
     0
  9
$CHAMFERA
 40
0.5
  9
$CHAMFERB
 40
0.5
  9
$CHAMFERC
 40
1.0
  9
$CHAMFERD
 40
0.0
  9
$SKPOLY
 70
     1
  9
$TDCREATE
 40
2444971.833333333
  9
$TDUPDATE
 40
2451771.556362292
  9
$TDINDWG
 40
0.0052101505
  9
$TDUSRTIMER
 40
0.0052101505
  9
$USRTIMER
 70
     1
  9
$ANGBASE
 50
0.0
  9
$ANGDIR
 70
     0
  9
$PDMODE
 70
     0
  9
$PDSIZE
 40
0.0
  9
$PLINEWID
 40
0.0
  9
$COORDS
 70
     0
  9
$SPLFRAME
 70
     0
  9
$SPLINETYPE
 70
     6
  9
$SPLINESEGS
 70
     8
  9
$ATTDIA
 70
     1
  9
$ATTREQ
 70
     1
  9
$HANDLING
 70
     1
  9
$HANDSEED
  5
757
  9
$SURFTAB1
 70
     6
  9
$SURFTAB2
 70
     6
  9
$SURFTYPE
 70
     6
  9
$SURFU
 70
     6
  9
$SURFV
 70
     6
  9
$UCSNAME
  2

  9
$UCSORG
 10
0.0
 20
0.0
 30
0.0
  9
$UCSXDIR
 10
1.0
 20
0.0
 30
0.0
  9
$UCSYDIR
 10
0.0
 20
1.0
 30
0.0
  9
$PUCSNAME
  2

  9
$PUCSORG
 10
0.0
 20
0.0
 30
0.0
  9
$PUCSXDIR
 10
1.0
 20
0.0
 30
0.0
  9
$PUCSYDIR
 10
0.0
 20
1.0
 30
0.0
  9
$USERI1
 70
     0
  9
$USERI2
 70
     0
  9
$USERI3
 70
     0
  9
$USERI4
 70
     0
  9
$USERI5
 70
     0
  9
$USERR1
 40
0.0
  9
$USERR2
 40
0.0
  9
$USERR3
 40
0.0
  9
$USERR4
 40
0.0
  9
$USERR5
 40
0.0
  9
$WORLDVIEW
 70
     1
  9
$SHADEDGE
 70
     3
  9
$SHADEDIF
 70
    70
  9
$TILEMODE
 70
     0
  9
$MAXACTVP
 70
    48
  9
$PINSBASE
 10
0.0
 20
0.0
 30
0.0
  9
$PLIMCHECK
 70
     0
  9
$PEXTMIN
 10
0.0
 20
0.0
 30
0.0
  9
$PEXTMAX
 10
16.400001
 20
10.608967
 30
0.0
  9
$PLIMMIN
 10
-0.28125
 20
-0.28125
  9
$PLIMMAX
 10
16.71875
 20
10.71875
  9
$UNITMODE
 70
     0
  9
$VISRETAIN
 70
     1
  9
$PLINEGEN
 70
     0
  9
$PSLTSCALE
 70
     1
  9
$TREEDEPTH
 70
  3020
  9
$PICKSTYLE
 70
     1
  9
$CMLSTYLE
  2
STANDARD
  9
$CMLJUST
 70
     0
  9
$CMLSCALE
 40
1.0
  9
$PROXYGRAPHICS
 70
     1
  9
$MEASUREMENT
 70
     0
  0
ENDSEC
  0
SECTION
  2
CLASSES
  0
CLASS
  1
LWPOLYLINE
  2
AcDbPolyline
  3
"AutoCAD"
 90
        0
280
     0
281
     1
  0
CLASS
  1
IMAGE
  2
AcDbRasterImage
  3
ISM
 90
      127
280
     0
281
     1
  0
CLASS
  1
OLE2FRAME
  2
AcDbOle2Frame
  3
""
 90
        0
280
     0
281
     1
  0
CLASS
  1
HATCH
  2
AcDbHatch
  3
"ACAD_SEDONA"
 90
        0
280
     0
281
     1
  0
CLASS
  1
DICTIONARYVAR
  2
AcDbDictionaryVar
  3
"AutoCAD"
 90
        0
280
     0
281
     0
  0
CLASS
  1
RASTERVARIABLES
  2
AcDbRasterVariables
  3
ISM
 90
        0
280
     0
281
     0
  0
CLASS
  1
IMAGEDEF
  2
AcDbRasterImageDef
  3
ISM
 90
        0
280
     0
281
     0
  0
CLASS
  1
IMAGEDEF_REACTOR
  2
AcDbRasterImageDefReactor
  3
ISM
 90
        1
280
     0
281
     0
  0
CLASS
  1
IDBUFFER
  2
AcDbIdBuffer
  3
"Acad"
 90
        0
280
     0
281
     0
  0
CLASS
  1
SPATIAL_FILTER
  2
AcDbSpatialFilter
  3
"Acad"
 90
        0
280
     0
281
     0
  0
CLASS
  1
XRECORD
  2
AcDbXrecord
  3
"<Built In>"
 90
        0
280
     0
281
     0
  0
CLASS
  1
SORTENTSTABLE
  2
AcDbSortentsTable
  3
"AutoCAD"
 90
        0
280
     0
281
     0
  0
CLASS
  1
LAYER_INDEX
  2
AcDbLayerIndex
  3
"Acad"
 90
        0
280
     0
281
     0
  0
CLASS
  1
SPATIAL_INDEX
  2
AcDbSpatialIndex
  3
"Acad"
 90
        0
280
     0
281
     0
  0
CLASS
  1
OBJECT_PTR
  2
CAseDLPNTableRecord
  3
ASE-LPNTableRecord
 90
        1
280
     0
281
     0
  0
CLASS
  1
ACDBDICTIONARYWDFLT
  2
AcDbDictionaryWithDefault
  3
AutoCAD 2000
 90
        0
280
     0
281
     0
  0
CLASS
  1
ACDBPLACEHOLDER
  2
AcDbPlaceHolder
  3
AutoCAD 2000
 90
        0
280
     0
281
     0
  0
CLASS
  1
LAYOUT
  2
AcDbLayout
  3
AutoCAD 2000
 90
        0
280
     0
281
     0
  0
CLASS
  1
ACME_DOCUMENT
  2
AcMeDbDoc
  3
AcMeServices
 90
        0
280
     0
281
     0
  0
CLASS
  1
AMGSETTINGSOBJ
  2
AmgSettingsObj
  3
"AcadM|Product Description: AutoCAD Mechanical 2000|Company: Autodesk"
 90
        0
280
     0
281
     0
  0
CLASS
  1
ACMESCOPE
  2
AcMeScope
  3
AcMeServices
 90
        0
280
     0
281
     0
  0
CLASS
  1
ACMECOMMANDHISTORY
  2
AcMeCommandHistory
  3
AcMeServices
 90
        0
280
     0
281
     0
  0
CLASS
  1
ACIMSYSVARMAN
  2
AcImSysVarManager
  3
AcMeServices
 90
        0
280
     0
281
     0
  0
CLASS
  1
ACIMREALSYSVAR
  2
AcImRealSysVar
  3
AcMeServices
 90
        0
280
     0
281
     0
  0
CLASS
  1
ACIMINTSYSVAR
  2
AcImIntSysVar
  3
AcMeServices
 90
        0
280
     0
281
     0
  0
CLASS
  1
ACMEDRAWINGMAN
  2
AcMeDrawingMan
  3
AcMeServices
 90
        0
280
     0
281
     0
  0
CLASS
  1
ACMEVIEW
  2
AcMeView
  3
AcMeServices
 90
        0
280
     0
281
     0
  0
CLASS
  1
ACDBENTITYCACHE
  2
AcMeEntityCache
  3
AcMeServices
 90
        0
280
     0
281
     0
  0
CLASS
  1
GSMANAGER
  2
AcMeGSManager
  3
AcMeServices
 90
        0
280
     0
281
     0
  0
CLASS
  1
AmdtInternalReactor
  2
AmdtInternalReactor
  3
AcMeServices
 90
        0
280
     0
281
     0
  0
CLASS
  1
ACMESTATEMGR
  2
AcMeStateMgr
  3
AcMeServices
 90
        0
280
     0
281
     0
  0
CLASS
  1
ACME_DATABASE
  2
AcMeDbDatabase
  3
AcMeServices
 90
        0
280
     0
281
     0
  0
CLASS
  1
ACRFINSADJUSTERMGR
  2
AcRfInsAdjusterMgr
  3
AcMeServices
 90
        0
280
     0
281
     0
  0
CLASS
  1
ACMDATADICTIONARY
  2
AcmDataDictionary
  3
"AcmSymBB|Product Description: AutoCAD Mechanical 2000|Company: Autodesk"
 90
        0
280
     0
281
     0
  0
CLASS
  1
ACMDATAENTRYBLOCK
  2
AcmDataEntryBlock
  3
"AcmSymBB|Product Description: AutoCAD Mechanical 2000|Company: Autodesk"
 90
        0
280
     0
281
     0
  0
CLASS
  1
AMGOBJPROPCFG
  2
AmgObjPropCfg
  3
"AmgLay|Product Description: AutoCAD Mechanical 2000|Company: Autodesk"
 90
        1
280
     0
281
     0
  0
CLASS
  1
ACAMGFILTERDAT
  2
AcAmgFilterDat
  3
"AcadM|Product Description: AutoCAD Mechanical 2000|Company: Autodesk"
 90
        0
280
     0
281
     0
  0
CLASS
  1
LONG_TRANSACTION
  2
AcDbLongTransaction
  3
AutoCAD 2000
 90
        0
280
     0
281
     0
  0
CLASS
  1
LWPOLYLINE
  2
AcDbPolyline
  3
"AutoCAD"
 90
        0
280
     0
281
     1
  0
CLASS
  1
HATCH
  2
AcDbHatch
  3
"ACAD_SEDONA"
 90
        0
280
     0
281
     1
  0
CLASS
  1
XRECORD
  2
AcDbXrecord
  3
"<Built In>"
 90
        0
280
     0
281
     0
  0
ENDSEC
  0
SECTION
  2
TABLES
  0
TABLE
  2
VPORT
  5
7
100
AcDbSymbolTable
 70
     2
  0
VPORT
  5
1E
102
{ACAD_XDICTIONARY
360
73E
102
}
100
AcDbSymbolTableRecord
100
AcDbViewportTableRecord
  2
M_SHEET
 70
     0
 10
0.0
 20
0.0
 11
1.0
 21
1.0
 12
8.5
 22
5.5
 13
0.0
 23
0.0
 14
0.19685
 24
0.19685
 15
0.19685
 25
0.19685
 16
0.0
 26
0.0
 36
1.0
 17
0.0
 27
0.0
 37
0.0
 40
11.0
 41
1.545455
 42
50.0
 43
0.0
 44
0.0
 50
0.0
 51
0.0
 71
     0
 72
   100
 73
     1
 74
     1
 75
     0
 76
     0
 77
     0
 78
     0
  0
VPORT
  5
6B6
102
{ACAD_XDICTIONARY
360
715
102
}
100
AcDbSymbolTableRecord
100
AcDbViewportTableRecord
  2
*ACTIVE
 70
     0
 10
0.0
 20
0.0
 11
1.0
 21
1.0
 12
8.501363
 22
5.842029
 13
0.0
 23
0.0
 14
0.19685
 24
0.19685
 15
0.19685
 25
0.19685
 16
0.0
 26
0.0
 36
1.0
 17
0.0
 27
0.0
 37
0.0
 40
12.004903
 41
1.434509
 42
50.0
 43
0.0
 44
0.0
 50
0.0
 51
0.0
 71
     0
 72
   100
 73
     1
 74
     0
 75
     0
 76
     0
 77
     0
 78
     0
  0
ENDTAB
  0
TABLE
  2
LTYPE
  5
4
100
AcDbSymbolTable
 70
    18
  0
LTYPE
  5
11
100
AcDbSymbolTableRecord
100
AcDbLinetypeTableRecord
  2
BYBLOCK
 70
     0
  3

 72
    65
 73
     0
 40
0.0
  0
LTYPE
  5
12
100
AcDbSymbolTableRecord
100
AcDbLinetypeTableRecord
  2
BYLAYER
 70
     0
  3

 72
    65
 73
     0
 40
0.0
  0
LTYPE
  5
13
100
AcDbSymbolTableRecord
100
AcDbLinetypeTableRecord
  2
CONTINUOUS
 70
     0
  3
Solid line
 72
    65
 73
     0
 40
0.0
  0
LTYPE
  5
432
100
AcDbSymbolTableRecord
100
AcDbLinetypeTableRecord
  2
M_LT25
 70
     0
  3
Medusa Standard Line Style 25
 72
    65
 73
     4
 40
2.0
 49
0.5
 74
     0
 49
-0.5
 74
     0
 49
0.5
 74
     0
 49
-0.5
 74
     0
  0
LTYPE
  5
633
100
AcDbSymbolTableRecord
100
AcDbLinetypeTableRecord
  2
AM_ISO02W050
 70
     0
  3
__ __ __ __ __ __ __ __ __ __ __ __ __ __ __
 72
    65
 73
     2
 40
7.5
 49
6.0
 74
     0
 49
-1.5
 74
     0
  0
LTYPE
  5
634
100
AcDbSymbolTableRecord
100
AcDbLinetypeTableRecord
  2
AM_ISO08W050
 70
     0
  3
____ . ____ . ____ . ____ . ____ . ____ . ____
 72
    65
 73
     4
 40
18.0
 49
12.0
 74
     0
 49
-1.5
 74
     0
 49
3.0
 74
     0
 49
-1.5
 74
     0
  0
LTYPE
  5
635
100
AcDbSymbolTableRecord
100
AcDbLinetypeTableRecord
  2
AM_ISO09W050
 70
     0
  3
_____ . . _____ . . _____ . . ____ .. ____
 72
    65
 73
     6
 40
22.5
 49
12.0
 74
     0
 49
-1.5
 74
     0
 49
3.0
 74
     0
 49
-1.5
 74
     0
 49
3.0
 74
     0
 49
-1.5
 74
     0
  0
LTYPE
  5
636
102
{ACAD_XDICTIONARY
360
70B
102
}
100
AcDbSymbolTableRecord
100
AcDbLinetypeTableRecord
  2
AMCONSTR
 70
     0
  3
_______________________
 72
    65
 73
     2
 40
9999.0
 49
9999.0
 74
     0
 49
0.0
 74
     0
  0
LTYPE
  5
637
102
{ACAD_XDICTIONARY
360
70D
102
}
100
AcDbSymbolTableRecord
100
AcDbLinetypeTableRecord
  2
AM_ISO02W050X2
 70
     0
  3
 _ _ _ _ _ _ _ _ _ _ _ _
 72
    65
 73
     2
 40
3.75
 49
3.0
 74
     0
 49
-0.75
 74
     0
  0
LTYPE
  5
638
102
{ACAD_XDICTIONARY
360
70F
102
}
100
AcDbSymbolTableRecord
100
AcDbLinetypeTableRecord
  2
AM_ISO08W050X2
 70
     0
  3
__ . __ . __ . __ . __ . __
 72
    65
 73
     4
 40
9.0
 49
6.0
 74
     0
 49
-0.75
 74
     0
 49
1.5
 74
     0
 49
-0.75
 74
     0
  0
LTYPE
  5
63B
102
{ACAD_XDICTIONARY
360
711
102
}
100
AcDbSymbolTableRecord
100
AcDbLinetypeTableRecord
  2
AMZIGZAG
 70
     0
  3
/\/-/\/-/\/-/\/-/\/-/\/
 72
    65
 73
     2
 40
11.0001
 49
0.0001
 74
     4
 75
   135
340
63A
 46
0.04
 50
0.0
 44
0.0
 45
0.0
 49
-11.0
 74
     0
  0
LTYPE
  5
63C
100
AcDbSymbolTableRecord
100
AcDbLinetypeTableRecord
  2
HIDDEN
 70
     0
  3
Hidden __ __ __ __ __ __ __ __ __ __ __ __ __ _
 72
    65
 73
     2
 40
0.375
 49
0.25
 74
     0
 49
-0.125
 74
     0
  0
LTYPE
  5
63D
100
AcDbSymbolTableRecord
100
AcDbLinetypeTableRecord
  2
CENTER
 70
     0
  3
Center ____ _ ____ _ ____ _ ____ _ ____ _ ____
 72
    65
 73
     4
 40
2.0
 49
1.25
 74
     0
 49
-0.25
 74
     0
 49
0.25
 74
     0
 49
-0.25
 74
     0
  0
LTYPE
  5
63E
100
AcDbSymbolTableRecord
100
AcDbLinetypeTableRecord
  2
PHANTOM2
 70
     0
  3
Phantom (.5x) ___ _ _ ___ _ _ ___ _ _ ___ _ _
 72
    65
 73
     6
 40
1.25
 49
0.625
 74
     0
 49
-0.125
 74
     0
 49
0.125
 74
     0
 49
-0.125
 74
     0
 49
0.125
 74
     0
 49
-0.125
 74
     0
  0
LTYPE
  5
63F
100
AcDbSymbolTableRecord
100
AcDbLinetypeTableRecord
  2
HIDDEN2
 70
     0
  3
Hidden (.5x) _ _ _ _ _ _ _ _ _ _ _ _ _ _ _ _ _
 72
    65
 73
     2
 40
0.1875
 49
0.125
 74
     0
 49
-0.0625
 74
     0
  0
LTYPE
  5
640
100
AcDbSymbolTableRecord
100
AcDbLinetypeTableRecord
  2
CENTER2
 70
     0
  3
Center (.5x) ___ _ ___ _ ___ _ ___ _ ___ _ ___
 72
    65
 73
     4
 40
1.125
 49
0.75
 74
     0
 49
-0.125
 74
     0
 49
0.125
 74
     0
 49
-0.125
 74
     0
  0
LTYPE
  5
641
102
{ACAD_XDICTIONARY
360
713
102
}
100
AcDbSymbolTableRecord
100
AcDbLinetypeTableRecord
  2
AMZIGZAG2
 70
     0
  3
/\/-/\/-/\/-/\/-/\/-/\/
 72
    65
 73
     2
 40
0.4401
 49
0.0001
 74
     4
 75
   135
340
63A
 46
0.0016
 50
0.0
 44
0.0
 45
0.0
 49
-0.44
 74
     0
  0
LTYPE
  5
643
100
AcDbSymbolTableRecord
100
AcDbLinetypeTableRecord
  2
DASHDOT
 70
     0
  3
Dash dot __ . __ . __ . __ . __ . __ . __ . __
 72
    65
 73
     4
 40
1.0
 49
0.5
 74
     0
 49
-0.25
 74
     0
 49
0.0
 74
     0
 49
-0.25
 74
     0
  0
LTYPE
  5
644
100
AcDbSymbolTableRecord
100
AcDbLinetypeTableRecord
  2
DOT
 70
     0
  3
Dot . . . . . . . . . . . . . . . . . . . . . .
 72
    65
 73
     2
 40
0.25
 49
0.0
 74
     0
 49
-0.25
 74
     0
  0
LTYPE
  5
645
100
AcDbSymbolTableRecord
100
AcDbLinetypeTableRecord
  2
PHANTOM
 70
     0
  3
Phantom ______  __  __  ______  __  __  ______
 72
    65
 73
     6
 40
2.5
 49
1.25
 74
     0
 49
-0.25
 74
     0
 49
0.25
 74
     0
 49
-0.25
 74
     0
 49
0.25
 74
     0
 49
-0.25
 74
     0
  0
ENDTAB
  0
TABLE
  2
LAYER
  5
2
100
AcDbSymbolTable
 70
    20
  0
LAYER
  5
14
100
AcDbSymbolTableRecord
100
AcDbLayerTableRecord
  2
0
 70
     0
 62
     7
  6
CONTINUOUS
  0
LAYER
  5
1F
100
AcDbSymbolTableRecord
100
AcDbLayerTableRecord
  2
10
 70
     0
 62
     7
  6
CONTINUOUS
  0
LAYER
  5
2B2
100
AcDbSymbolTableRecord
100
AcDbLayerTableRecord
  2
6
 70
     0
 62
     7
  6
CONTINUOUS
  0
LAYER
  5
3F8
100
AcDbSymbolTableRecord
100
AcDbLayerTableRecord
  2
M_KOMPAKTSCHRAFFUR
 70
     0
 62
     7
  6
CONTINUOUS
  0
LAYER
  5
400
100
AcDbSymbolTableRecord
100
AcDbLayerTableRecord
  2
M_SCHRAFFUR
 70
     0
 62
     5
  6
CONTINUOUS
  0
LAYER
  5
433
100
AcDbSymbolTableRecord
100
AcDbLayerTableRecord
  2
11
 70
     0
 62
     7
  6
CONTINUOUS
  0
LAYER
  5
530
100
AcDbSymbolTableRecord
100
AcDbLayerTableRecord
  2
M_BEMASSUNG
 70
     0
 62
     7
  6
CONTINUOUS
  0
LAYER
  5
537
100
AcDbSymbolTableRecord
100
AcDbLayerTableRecord
  2
4
 70
     0
 62
     7
  6
CONTINUOUS
  0
LAYER
  5
5D8
100
AcDbSymbolTableRecord
100
AcDbLayerTableRecord
  2
M_ERR
 70
     0
 62
     6
  6
CONTINUOUS
  0
LAYER
  5
646
100
AcDbSymbolTableRecord
100
AcDbLayerTableRecord
  2
BORDER
 70
     0
 62
     7
  6
CONTINUOUS
  0
LAYER
  5
647
100
AcDbSymbolTableRecord
100
AcDbLayerTableRecord
  2
CENTER1
 70
     0
 62
     5
  6
CENTER
  0
LAYER
  5
648
100
AcDbSymbolTableRecord
100
AcDbLayerTableRecord
  2
DASHDOT1
 70
     0
 62
     6
  6
DASHDOT
  0
LAYER
  5
649
100
AcDbSymbolTableRecord
100
AcDbLayerTableRecord
  2
DIM
 70
     0
 62
     2
  6
CONTINUOUS
  0
LAYER
  5
64A
100
AcDbSymbolTableRecord
100
AcDbLayerTableRecord
  2
DOT1
 70
     0
 62
   211
  6
DOT
  0
LAYER
  5
64B
100
AcDbSymbolTableRecord
100
AcDbLayerTableRecord
  2
HATCH
 70
     0
 62
    13
  6
CONTINUOUS
  0
LAYER
  5
64C
100
AcDbSymbolTableRecord
100
AcDbLayerTableRecord
  2
HIDDEN1
 70
     0
 62
     4
  6
HIDDEN
  0
LAYER
  5
64D
100
AcDbSymbolTableRecord
100
AcDbLayerTableRecord
  2
OBJECT1
 70
     0
 62
     1
  6
CONTINUOUS
  0
LAYER
  5
64E
100
AcDbSymbolTableRecord
100
AcDbLayerTableRecord
  2
PHANTOM1
 70
     0
 62
   220
  6
PHANTOM
  0
LAYER
  5
64F
100
AcDbSymbolTableRecord
100
AcDbLayerTableRecord
  2
TEXT1
 70
     0
 62
     3
  6
CONTINUOUS
  0
LAYER
  5
6E0
102
{ACAD_XDICTIONARY
360
74C
102
}
100
AcDbSymbolTableRecord
100
AcDbLayerTableRecord
  2
AM_VIEWS
 70
     0
 62
     1
  6
CONTINUOUS
  0
ENDTAB
  0
TABLE
  2
STYLE
  5
3
100
AcDbSymbolTable
 70
     5
  0
STYLE
  5
17
100
AcDbSymbolTableRecord
100
AcDbTextStyleTableRecord
  2
STANDARD
 70
     0
 40
0.0
 41
1.0
 50
0.0
 71
     0
 42
0.0
  3
TXT.SHX
  4

  0
STYLE
  5
1D
100
AcDbSymbolTableRecord
100
AcDbTextStyleTableRecord
  2
M_STANDARD
 70
     0
 40
0.0
 41
0.8
 50
0.0
 71
     0
 42
0.0
  3
MEDUSA.SHX
  4

  0
STYLE
  5
533
100
AcDbSymbolTableRecord
100
AcDbTextStyleTableRecord
  2
M_DIMENSION
 70
     0
 40
0.0
 41
1.0
 50
0.0
 71
     0
 42
0.0
  3

  4

  0
STYLE
  5
5D9
100
AcDbSymbolTableRecord
100
AcDbTextStyleTableRecord
  2
M_ERR
 70
     0
 40
0.0
 41
1.0
 50
0.0
 71
     0
 42
0.0
  3
ISOCP.SHX
  4

  0
STYLE
  5
63A
100
AcDbSymbolTableRecord
100
AcDbTextStyleTableRecord
  2

 70
     1
 40
0.0
 41
1.0
 50
0.0
 71
     0
 42
0.2
  3
ltypeshp.shx
  4

  0
ENDTAB
  0
TABLE
  2
VIEW
  5
5
100
AcDbSymbolTable
 70
     0
  0
ENDTAB
  0
TABLE
  2
UCS
  5
6
100
AcDbSymbolTable
 70
     0
  0
ENDTAB
  0
TABLE
  2
APPID
  5
8
100
AcDbSymbolTable
 70
    10
  0
APPID
  5
16
100
AcDbSymbolTableRecord
100
AcDbRegAppTableRecord
  2
ACAD
 70
     0
  0
APPID
  5
2B0
100
AcDbSymbolTableRecord
100
AcDbRegAppTableRecord
  2
MED_PRIMTYPE
 70
     0
  0
APPID
  5
61B
100
AcDbSymbolTableRecord
100
AcDbRegAppTableRecord
  2
MCAD_NO_VIS
 70
     0
  0
APPID
  5
61C
100
AcDbSymbolTableRecord
100
AcDbRegAppTableRecord
  2
ACAD_TEMP_GRAPHIC
 70
     0
  0
APPID
  5
6E1
100
AcDbSymbolTableRecord
100
AcDbRegAppTableRecord
  2
GENIUS_GENSCREG_15
 70
     0
  0
APPID
  5
6E3
100
AcDbSymbolTableRecord
100
AcDbRegAppTableRecord
  2
GENIUS_GENODEF_13
 70
     0
  0
APPID
  5
6E4
100
AcDbSymbolTableRecord
100
AcDbRegAppTableRecord
  2
GENIUS_GENOBJ-N-SDF_13
 70
     0
  0
APPID
  5
6E5
100
AcDbSymbolTableRecord
100
AcDbRegAppTableRecord
  2
GENIUS_GENOENT_13
 70
     0
  0
APPID
  5
6E6
100
AcDbSymbolTableRecord
100
AcDbRegAppTableRecord
  2
GENIUS_GENOREF_13
 70
     0
  0
APPID
  5
6E7
100
AcDbSymbolTableRecord
100
AcDbRegAppTableRecord
  2
GENIUS_GENOLIS_13
 70
     0
  0
ENDTAB
  0
TABLE
  2
DIMSTYLE
  5
9
100
AcDbSymbolTable
 70
     2
  0
DIMSTYLE
105
18
102
{ACAD_XDICTIONARY
360
73A
102
}
100
AcDbSymbolTableRecord
100
AcDbDimStyleTableRecord
  2
STANDARD
 70
     0
  3

  4

  5

  6

  7

 40
1.0
 41
0.18
 42
0.0625
 43
0.38
 44
0.18
 45
0.0
 46
0.0
 47
0.0
 48
0.0
140
0.18
141
0.09
142
0.0
143
25.4
144
1.0
145
0.0
146
1.0
147
0.09
 71
     0
 72
     0
 73
     1
 74
     1
 75
     0
 76
     0
 77
     0
 78
     0
170
     0
171
     2
172
     0
173
     0
174
     0
175
     0
176
     0
177
     0
178
     0
270
     2
271
     4
272
     4
273
     2
274
     2
340
17
275
     0
280
     0
281
     0
282
     0
283
     1
284
     0
285
     0
286
     0
287
     0
288
     0
  0
DIMSTYLE
105
532
100
AcDbSymbolTableRecord
100
AcDbDimStyleTableRecord
  2
MED-ANSI
 70
     0
  3

  4
mm
  5

  6

  7

 40
1.0
 41
0.1378
 42
0.05
 43
0.5
 44
0.1
 45
0.0
 46
0.0
 47
0.1
 48
0.1
140
0.12
141
0.0
142
0.0
143
25.4
144
1.0
145
0.0
146
0.71
147
0.11
 71
     0
 72
     0
 73
     1
 74
     1
 75
     0
 76
     0
 77
     0
 78
     7
170
     0
171
     2
172
     0
173
     1
174
     0
175
     0
176
   256
177
   256
178
   256
270
     2
271
     4
272
     4
273
     2
274
     4
340
533
275
     0
280
     0
281
     0
282
     0
283
     1
284
     0
285
     0
286
     0
287
     3
288
     0
  0
ENDTAB
  0
TABLE
  2
BLOCK_RECORD
  5
1
100
AcDbSymbolTable
 70
    22
  0
BLOCK_RECORD
  5
A
102
{ACAD_XDICTIONARY
360
6F2
102
}
100
AcDbSymbolTableRecord
100
AcDbBlockTableRecord
  2
*MODEL_SPACE
  0
BLOCK_RECORD
  5
B
102
{ACAD_XDICTIONARY
360
738
102
}
100
AcDbSymbolTableRecord
100
AcDbBlockTableRecord
  2
*PAPER_SPACE
  0
BLOCK_RECORD
  5
20
100
AcDbSymbolTableRecord
100
AcDbBlockTableRecord
  2
M_PIC_H94
  0
BLOCK_RECORD
  5
401
100
AcDbSymbolTableRecord
100
AcDbBlockTableRecord
  2
*X1
  0
BLOCK_RECORD
  5
503
100
AcDbSymbolTableRecord
100
AcDbBlockTableRecord
  2
M_PFN_100
  0
BLOCK_RECORD
  5
539
100
AcDbSymbolTableRecord
100
AcDbBlockTableRecord
  2
M_PFN_2
  0
BLOCK_RECORD
  5
546
100
AcDbSymbolTableRecord
100
AcDbBlockTableRecord
  2
M_PFN_101
  0
BLOCK_RECORD
  5
57A
100
AcDbSymbolTableRecord
100
AcDbBlockTableRecord
  2
M_PFN_3
  0
BLOCK_RECORD
  5
650
102
{ACAD_XDICTIONARY
360
709
102
}
100
AcDbSymbolTableRecord
100
AcDbBlockTableRecord
  2
LAYERS1
  0
ENDTAB
  0
ENDSEC
  0
SECTION
  2
BLOCKS
  0
BLOCK
  5
D
100
AcDbEntity
  8
0
100
AcDbBlockBegin
  2
*MODEL_SPACE
 70
     0
 10
0.0
 20
0.0
 30
0.0
  3
*MODEL_SPACE
  1

  0
ENDBLK
  5
E
100
AcDbEntity
  8
0
100
AcDbBlockEnd
  0
BLOCK
  5
F
100
AcDbEntity
 67
     1
  8
0
100
AcDbBlockBegin
  2
*PAPER_SPACE
 70
     0
 10
0.0
 20
0.0
 30
0.0
  3
*PAPER_SPACE
  1

  0
ENDBLK
  5
10
100
AcDbEntity
 67
     1
  8
0
100
AcDbBlockEnd
  0
BLOCK
  5
21
100
AcDbEntity
  8
0
100
AcDbBlockBegin
  2
M_PIC_H94
 70
     0
 10
0.0
 20
0.0
 30
0.0
  3
M_PIC_H94
  1

  0
LWPOLYLINE
  5
22
100
AcDbEntity
  8
0
  6
CONTINUOUS
 62
     7
100
AcDbPolyline
 90
       22
 70
   128
 43
0.0
 10
-5.11339
 20
-0.301445
 10
-4.810833
 20
-0.301445
 42
-0.199003
 10
-4.783699
 20
-0.312714
 42
-0.198673
 10
-4.772459
 20
-0.33989
 10
-4.772459
 20
-0.605909
 10
-4.929823
 20
-0.492928
 42
0.231527
 10
-4.94663
 20
-0.490172
 42
0.114949
 10
-4.954186
 20
-0.494512
 42
0.115493
 10
-4.959024
 20
-0.501734
 10
-4.986414
 20
-0.57379
 42
0.166181
 10
-4.986897
 20
-0.586213
 42
0.167547
 10
-4.979664
 20
-0.59626
 10
-4.801939
 20
-0.72377
 42
-0.032184
 10
-4.806118
 20
-0.724464
 42
-0.025916
 10
-4.810833
 20
-0.724695
 10
-5.368751
 20
-0.724695
 42
-0.198815
 10
-5.396047
 20
-0.713426
 42
-0.199202
 10
-5.407353
 20
-0.68618
 10
-5.407353
 20
-0.33989
 42
-0.199515
 10
-5.396047
 20
-0.312721
 42
-0.19831
 10
-5.368751
 20
-0.301467
 10
-5.11339
 20
-0.301467
  0
LWPOLYLINE
  5
23
100
AcDbEntity
  8
0
  6
CONTINUOUS
 62
     7
100
AcDbPolyline
 90
       19
 70
   128
 43
0.0
 10
-5.11339
 20
-0.186008
 10
-5.368751
 20
-0.186008
 42
0.198729
 10
-5.477663
 20
-0.231094
 42
0.199033
 10
-5.522776
 20
-0.33989
 10
-5.522776
 20
-0.68618
 42
0.414214
 10
-5.368751
 20
-0.840156
 10
-4.810833
 20
-0.840156
 42
0.198222
 10
-4.702351
 20
-0.79524
 10
-4.660149
 20
-0.825516
 42
0.233776
 10
-4.643412
 20
-0.828333
 42
0.232317
 10
-4.630945
 20
-0.816729
 10
-4.603556
 20
-0.744642
 42
0.164432
 10
-4.603153
 20
-0.732287
 42
0.163812
 10
-4.610317
 20
-0.722183
 10
-4.656948
 20
-0.688578
 10
-4.656948
 20
-0.68618
 10
-4.656948
 20
-0.33989
 42
0.414384
 10
-4.810833
 20
-0.186059
 10
-5.11339
 20
-0.186059
  0
LINE
  5
24
100
AcDbEntity
  8
0
  6
CONTINUOUS
 62
     7
100
AcDbLine
 10
-4.630794
 20
-0.707455
 30
0.0
 11
-4.630794
 21
-0.816225
 31
0.0
  0
LINE
  5
25
100
AcDbEntity
  8
0
  6
CONTINUOUS
 62
     7
100
AcDbLine
 10
-4.672884
 20
-0.816414
 30
0.0
 11
-4.672884
 21
-0.27178
 31
0.0
  0
LINE
  5
26
100
AcDbEntity
  8
0
  6
CONTINUOUS
 62
     7
100
AcDbLine
 10
-4.714954
 20
-0.219568
 30
0.0
 11
-4.714954
 21
-0.806457
 31
0.0
  0
LINE
  5
27
100
AcDbEntity
  8
0
  6
CONTINUOUS
 62
     7
100
AcDbLine
 10
-4.757036
 20
-0.830362
 30
0.0
 11
-4.757036
 21
-0.195751
 31
0.0
  0
LINE
  5
28
100
AcDbEntity
  8
0
  6
CONTINUOUS
 62
     7
100
AcDbLine
 10
-4.799107
 20
-0.18648
 30
0.0
 11
-4.799107
 21
-0.303289
 31
0.0
  0
LINE
  5
29
100
AcDbEntity
  8
0
  6
CONTINUOUS
 62
     7
100
AcDbLine
 10
-4.799107
 20
-0.586763
 30
0.0
 11
-4.799107
 21
-0.839691
 31
0.0
  0
LINE
  5
2A
100
AcDbEntity
  8
0
  6
CONTINUOUS
 62
     7
100
AcDbLine
 10
-4.841187
 20
-0.840132
 30
0.0
 11
-4.841187
 21
-0.724695
 31
0.0
  0
LINE
  5
2B
100
AcDbEntity
  8
0
  6
CONTINUOUS
 62
     7
100
AcDbLine
 10
-4.841187
 20
-0.695654
 30
0.0
 11
-4.841187
 21
-0.55657
 31
0.0
  0
LINE
  5
2C
100
AcDbEntity
  8
0
  6
CONTINUOUS
 62
     7
100
AcDbLine
 10
-4.841187
 20
-0.301445
 30
0.0
 11
-4.841187
 21
-0.186028
 31
0.0
  0
LINE
  5
2D
100
AcDbEntity
  8
0
  6
CONTINUOUS
 62
     7
100
AcDbLine
 10
-4.883257
 20
-0.186028
 30
0.0
 11
-4.883257
 21
-0.301445
 31
0.0
  0
LINE
  5
2E
100
AcDbEntity
  8
0
  6
CONTINUOUS
 62
     7
100
AcDbLine
 10
-4.883257
 20
-0.526375
 30
0.0
 11
-4.883257
 21
-0.665461
 31
0.0
  0
LINE
  5
2F
100
AcDbEntity
  8
0
  6
CONTINUOUS
 62
     7
100
AcDbLine
 10
-4.883257
 20
-0.724695
 30
0.0
 11
-4.883257
 21
-0.840132
 31
0.0
  0
LINE
  5
30
100
AcDbEntity
  8
0
  6
CONTINUOUS
 62
     7
100
AcDbLine
 10
-4.925337
 20
-0.840132
 30
0.0
 11
-4.925337
 21
-0.724695
 31
0.0
  0
LINE
  5
31
100
AcDbEntity
  8
0
  6
CONTINUOUS
 62
     7
100
AcDbLine
 10
-4.925337
 20
-0.635273
 30
0.0
 11
-4.925337
 21
-0.496182
 31
0.0
  0
LINE
  5
32
100
AcDbEntity
  8
0
  6
CONTINUOUS
 62
     7
100
AcDbLine
 10
-4.925337
 20
-0.301445
 30
0.0
 11
-4.925337
 21
-0.186028
 31
0.0
  0
LINE
  5
33
100
AcDbEntity
  8
0
  6
CONTINUOUS
 62
     7
100
AcDbLine
 10
-4.967409
 20
-0.186028
 30
0.0
 11
-4.967409
 21
-0.301445
 31
0.0
  0
LINE
  5
34
100
AcDbEntity
  8
0
  6
CONTINUOUS
 62
     7
100
AcDbLine
 10
-4.967409
 20
-0.523687
 30
0.0
 11
-4.967409
 21
-0.60508
 31
0.0
  0
LINE
  5
35
100
AcDbEntity
  8
0
  6
CONTINUOUS
 62
     7
100
AcDbLine
 10
-4.967409
 20
-0.724695
 30
0.0
 11
-4.967409
 21
-0.840132
 31
0.0
  0
LINE
  5
36
100
AcDbEntity
  8
0
  6
CONTINUOUS
 62
     7
100
AcDbLine
 10
-5.009499
 20
-0.840132
 30
0.0
 11
-5.009499
 21
-0.724695
 31
0.0
  0
LINE
  5
37
100
AcDbEntity
  8
0
  6
CONTINUOUS
 62
     7
100
AcDbLine
 10
-5.009499
 20
-0.301445
 30
0.0
 11
-5.009499
 21
-0.186028
 31
0.0
  0
LINE
  5
38
100
AcDbEntity
  8
0
  6
CONTINUOUS
 62
     7
100
AcDbLine
 10
-5.051578
 20
-0.186028
 30
0.0
 11
-5.051578
 21
-0.301445
 31
0.0
  0
LINE
  5
39
100
AcDbEntity
  8
0
  6
CONTINUOUS
 62
     7
100
AcDbLine
 10
-5.051578
 20
-0.724695
 30
0.0
 11
-5.051578
 21
-0.840132
 31
0.0
  0
LINE
  5
3A
100
AcDbEntity
  8
0
  6
CONTINUOUS
 62
     7
100
AcDbLine
 10
-5.093668
 20
-0.840132
 30
0.0
 11
-5.093668
 21
-0.724695
 31
0.0
  0
LINE
  5
3B
100
AcDbEntity
  8
0
  6
CONTINUOUS
 62
     7
100
AcDbLine
 10
-5.093668
 20
-0.301445
 30
0.0
 11
-5.093668
 21
-0.186028
 31
0.0
  0
LINE
  5
3C
100
AcDbEntity
  8
0
  6
CONTINUOUS
 62
     7
100
AcDbLine
 10
-5.135738
 20
-0.186014
 30
0.0
 11
-5.135738
 21
-0.301456
 31
0.0
  0
LINE
  5
3D
100
AcDbEntity
  8
0
  6
CONTINUOUS
 62
     7
100
AcDbLine
 10
-5.135738
 20
-0.724695
 30
0.0
 11
-5.135738
 21
-0.840132
 31
0.0
  0
LINE
  5
3E
100
AcDbEntity
  8
0
  6
CONTINUOUS
 62
     7
100
AcDbLine
 10
-5.177818
 20
-0.840132
 30
0.0
 11
-5.177818
 21
-0.724695
 31
0.0
  0
LINE
  5
3F
100
AcDbEntity
  8
0
  6
CONTINUOUS
 62
     7
100
AcDbLine
 10
-5.177818
 20
-0.301456
 30
0.0
 11
-5.177818
 21
-0.186014
 31
0.0
  0
LINE
  5
40
100
AcDbEntity
  8
0
  6
CONTINUOUS
 62
     7
100
AcDbLine
 10
-5.219889
 20
-0.186014
 30
0.0
 11
-5.219889
 21
-0.301456
 31
0.0
  0
LINE
  5
41
100
AcDbEntity
  8
0
  6
CONTINUOUS
 62
     7
100
AcDbLine
 10
-5.219889
 20
-0.724695
 30
0.0
 11
-5.219889
 21
-0.840132
 31
0.0
  0
LINE
  5
42
100
AcDbEntity
  8
0
  6
CONTINUOUS
 62
     7
100
AcDbLine
 10
-5.261971
 20
-0.840132
 30
0.0
 11
-5.261971
 21
-0.724695
 31
0.0
  0
LINE
  5
43
100
AcDbEntity
  8
0
  6
CONTINUOUS
 62
     7
100
AcDbLine
 10
-5.261971
 20
-0.301456
 30
0.0
 11
-5.261971
 21
-0.186014
 31
0.0
  0
LINE
  5
44
100
AcDbEntity
  8
0
  6
CONTINUOUS
 62
     7
100
AcDbLine
 10
-5.304041
 20
-0.186014
 30
0.0
 11
-5.304041
 21
-0.301456
 31
0.0
  0
LINE
  5
45
100
AcDbEntity
  8
0
  6
CONTINUOUS
 62
     7
100
AcDbLine
 10
-5.304041
 20
-0.724695
 30
0.0
 11
-5.304041
 21
-0.840132
 31
0.0
  0
LINE
  5
46
100
AcDbEntity
  8
0
  6
CONTINUOUS
 62
     7
100
AcDbLine
 10
-5.346121
 20
-0.840132
 30
0.0
 11
-5.346121
 21
-0.724695
 31
0.0
  0
LINE
  5
47
100
AcDbEntity
  8
0
  6
CONTINUOUS
 62
     7
100
AcDbLine
 10
-5.346121
 20
-0.301456
 30
0.0
 11
-5.346121
 21
-0.186014
 31
0.0
  0
LINE
  5
48
100
AcDbEntity
  8
0
  6
CONTINUOUS
 62
     7
100
AcDbLine
 10
-5.388191
 20
-0.187241
 30
0.0
 11
-5.388191
 21
-0.306694
 31
0.0
  0
LINE
  5
49
100
AcDbEntity
  8
0
  6
CONTINUOUS
 62
     7
100
AcDbLine
 10
-5.388191
 20
-0.719446
 30
0.0
 11
-5.388191
 21
-0.838903
 31
0.0
  0
LINE
  5
4A
100
AcDbEntity
  8
0
  6
CONTINUOUS
 62
     7
100
AcDbLine
 10
-5.43028
 20
-0.827322
 30
0.0
 11
-5.43028
 21
-0.19883
 31
0.0
  0
LINE
  5
4B
100
AcDbEntity
  8
0
  6
CONTINUOUS
 62
     7
100
AcDbLine
 10
-5.47237
 20
-0.226059
 30
0.0
 11
-5.47237
 21
-0.800076
 31
0.0
  0
LINE
  5
4C
100
AcDbEntity
  8
0
  6
CONTINUOUS
 62
     7
100
AcDbLine
 10
-5.51445
 20
-0.736031
 30
0.0
 11
-5.51445
 21
-0.290071
 31
0.0
  0
LWPOLYLINE
  5
4D
100
AcDbEntity
  8
0
  6
CONTINUOUS
 62
     7
100
AcDbPolyline
 90
       14
 70
   129
 43
0.0
 10
-6.444588
 20
-1.051706
 42
-0.200808
 10
-6.439001
 20
-1.038146
 42
-0.098683
 10
-6.432749
 20
-1.033989
 42
-0.097926
 10
-6.425354
 20
-1.032529
 10
8.225342
 20
-1.032529
 42
-0.199134
 10
8.238079
 20
-1.037814
 42
-0.198689
 10
8.243355
 20
-1.050573
 10
8.243355
 20
-1.091461
 42
-0.196933
 10
8.238036
 20
-1.104249
 42
-0.098339
 10
8.232204
 20
-1.108169
 42
-0.099142
 10
8.225342
 20
-1.109545
 10
-6.425354
 20
-1.109545
 42
-0.199686
 10
-6.438954
 20
-1.103878
 42
-0.198135
 10
-6.444588
 20
-1.090197
  0
LINE
  5
4E
100
AcDbEntity
  8
0
  6
CONTINUOUS
 62
     7
100
AcDbLine
 10
-6.44453
 20
-1.091763
 30
0.0
 11
8.243355
 21
-1.091763
 31
0.0
  0
LINE
  5
4F
100
AcDbEntity
  8
0
  6
CONTINUOUS
 62
     7
100
AcDbLine
 10
8.243355
 20
-1.055735
 30
0.0
 11
-6.444588
 21
-1.055735
 31
0.0
  0
LWPOLYLINE
  5
50
100
AcDbEntity
  8
0
  6
CONTINUOUS
 62
     7
100
AcDbPolyline
 90
       32
 70
   129
 43
0.0
 10
7.756069
 20
-0.565123
 42
-0.196195
 10
7.761685
 20
-0.578901
 10
7.761685
 20
-0.82089
 42
0.199759
 10
7.767373
 20
-0.834533
 42
0.198058
 10
7.781105
 20
-0.840183
 10
7.858063
 20
-0.840183
 42
0.099524
 10
7.865361
 20
-0.838715
 42
0.098914
 10
7.871548
 20
-0.834533
 42
0.197419
 10
7.877134
 20
-0.82089
 10
7.877134
 20
-0.578901
 42
-0.000302
 10
7.877125
 20
-0.565123
 10
8.237858
 20
-0.219021
 42
0.304686
 10
8.242201
 20
-0.198034
 42
0.304943
 10
8.224434
 20
-0.186069
 10
8.114228
 20
-0.186069
 42
0.026102
 10
8.112439
 20
-0.186162
 42
0.032383
 10
8.110854
 20
-0.18643
 42
0.040523
 10
8.109487
 20
-0.186873
 10
8.10889
 20
-0.187157
 10
8.108351
 20
-0.187484
 42
0.059464
 10
8.107456
 20
-0.188259
 42
0.064817
 10
8.106811
 20
-0.18919
 42
0.063275
 10
8.106421
 20
-0.190268
 10
8.106324
 20
-0.19086
 10
8.106291
 20
-0.191484
 10
7.832466
 20
-0.453274
 42
-0.42128
 10
7.806637
 20
-0.453274
 10
7.538379
 20
-0.191484
 10
7.534152
 20
-0.187456
 10
7.53267
 20
-0.186033
 10
7.414742
 20
-0.186033
 42
0.672929
 10
7.401314
 20
-0.219034
  0
LINE
  5
51
100
AcDbEntity
  8
0
  6
CONTINUOUS
 62
     7
100
AcDbLine
 10
8.202805
 20
-0.253193
 30
0.0
 11
8.202805
 21
-0.186052
 31
0.0
  0
LINE
  5
52
100
AcDbEntity
  8
0
  6
CONTINUOUS
 62
     7
100
AcDbLine
 10
8.160732
 20
-0.186052
 30
0.0
 11
8.160732
 21
-0.294243
 31
0.0
  0
LINE
  5
53
100
AcDbEntity
  8
0
  6
CONTINUOUS
 62
     7
100
AcDbLine
 10
8.118645
 20
-0.335295
 30
0.0
 11
8.118645
 21
-0.186052
 31
0.0
  0
LINE
  5
54
100
AcDbEntity
  8
0
  6
CONTINUOUS
 62
     7
100
AcDbLine
 10
8.076561
 20
-0.215075
 30
0.0
 11
8.076561
 21
-0.376347
 31
0.0
  0
LINE
  5
55
100
AcDbEntity
  8
0
  6
CONTINUOUS
 62
     7
100
AcDbLine
 10
8.034493
 20
-0.417385
 30
0.0
 11
8.034493
 21
-0.256126
 31
0.0
  0
LINE
  5
56
100
AcDbEntity
  8
0
  6
CONTINUOUS
 62
     7
100
AcDbLine
 10
7.992382
 20
-0.297176
 30
0.0
 11
7.992382
 21
-0.458448
 31
0.0
  0
LINE
  5
57
100
AcDbEntity
  8
0
  6
CONTINUOUS
 62
     7
100
AcDbLine
 10
7.950313
 20
-0.499498
 30
0.0
 11
7.950313
 21
-0.338228
 31
0.0
  0
LINE
  5
58
100
AcDbEntity
  8
0
  6
CONTINUOUS
 62
     7
100
AcDbLine
 10
7.908234
 20
-0.379278
 30
0.0
 11
7.908234
 21
-0.540556
 31
0.0
  0
LINE
  5
59
100
AcDbEntity
  8
0
  6
CONTINUOUS
 62
     7
100
AcDbLine
 10
7.866146
 20
-0.83835
 30
0.0
 11
7.866146
 21
-0.42033
 31
0.0
  0
LINE
  5
5A
100
AcDbEntity
  8
0
  6
CONTINUOUS
 62
     7
100
AcDbLine
 10
7.824074
 20
-0.458128
 30
0.0
 11
7.824074
 21
-0.84017
 31
0.0
  0
LINE
  5
5B
100
AcDbEntity
  8
0
  6
CONTINUOUS
 62
     7
100
AcDbLine
 10
7.78199
 20
-0.84017
 30
0.0
 11
7.78199
 21
-0.429312
 31
0.0
  0
LINE
  5
5C
100
AcDbEntity
  8
0
  6
CONTINUOUS
 62
     7
100
AcDbLine
 10
7.739922
 20
-0.388243
 30
0.0
 11
7.739922
 21
-0.549463
 31
0.0
  0
LINE
  5
5D
100
AcDbEntity
  8
0
  6
CONTINUOUS
 62
     7
100
AcDbLine
 10
7.697811
 20
-0.508411
 30
0.0
 11
7.697811
 21
-0.347178
 31
0.0
  0
LINE
  5
5E
100
AcDbEntity
  8
0
  6
CONTINUOUS
 62
     7
100
AcDbLine
 10
7.655742
 20
-0.306128
 30
0.0
 11
7.655742
 21
-0.467361
 31
0.0
  0
LINE
  5
5F
100
AcDbEntity
  8
0
  6
CONTINUOUS
 62
     7
100
AcDbLine
 10
7.613663
 20
-0.42631
 30
0.0
 11
7.613663
 21
-0.265057
 31
0.0
  0
LINE
  5
60
100
AcDbEntity
  8
0
  6
CONTINUOUS
 62
     7
100
AcDbLine
 10
7.571575
 20
-0.223988
 30
0.0
 11
7.571575
 21
-0.385258
 31
0.0
  0
LINE
  5
61
100
AcDbEntity
  8
0
  6
CONTINUOUS
 62
     7
100
AcDbLine
 10
7.529503
 20
-0.344194
 30
0.0
 11
7.529503
 21
-0.186619
 31
0.0
  0
LINE
  5
62
100
AcDbEntity
  8
0
  6
CONTINUOUS
 62
     7
100
AcDbLine
 10
7.487419
 20
-0.186033
 30
0.0
 11
7.487419
 21
-0.303156
 31
0.0
  0
LINE
  5
63
100
AcDbEntity
  8
0
  6
CONTINUOUS
 62
     7
100
AcDbLine
 10
7.445351
 20
-0.262106
 30
0.0
 11
7.445351
 21
-0.186033
 31
0.0
  0
LINE
  5
64
100
AcDbEntity
  8
0
  6
CONTINUOUS
 62
     7
100
AcDbLine
 10
7.403271
 20
-0.189772
 30
0.0
 11
7.403271
 21
-0.221041
 31
0.0
  0
LWPOLYLINE
  5
65
100
AcDbEntity
  8
0
  6
CONTINUOUS
 62
     7
100
AcDbPolyline
 90
       50
 70
   129
 43
0.0
 10
7.099693
 20
-0.20525
 42
-0.201328
 10
7.105263
 20
-0.191683
 42
-0.098817
 10
7.111519
 20
-0.187525
 42
-0.097853
 10
7.118927
 20
-0.186064
 10
7.19587
 20
-0.186064
 42
-0.199225
 10
7.209384
 20
-0.191689
 42
-0.198418
 10
7.214982
 20
-0.20525
 10
7.214982
 20
-0.82089
 42
-0.197477
 10
7.209377
 20
-0.834533
 42
-0.200133
 10
7.19587
 20
-0.840183
 10
7.068707
 20
-0.840183
 42
-0.025621
 10
7.066981
 20
-0.840098
 42
-0.031939
 10
7.065454
 20
-0.839846
 42
-0.040183
 10
7.06414
 20
-0.83943
 10
7.063565
 20
-0.839161
 10
7.063048
 20
-0.838852
 10
7.062589
 20
-0.838505
 10
7.062189
 20
-0.838119
 42
-0.06536
 10
7.06157
 20
-0.837236
 42
-0.063885
 10
7.061197
 20
-0.836211
 10
7.061103
 20
-0.835648
 10
7.061072
 20
-0.835052
 10
6.516304
 20
-0.339676
 42
0.145077
 10
6.506378
 20
-0.33488
 42
0.144593
 10
6.495421
 20
-0.336253
 42
0.145334
 10
6.486997
 20
-0.343348
 42
0.146426
 10
6.483848
 20
-0.353857
 10
6.483848
 20
-0.82089
 42
-0.097783
 10
6.482418
 20
-0.828273
 42
-0.09845
 10
6.478297
 20
-0.834533
 42
-0.200587
 10
6.464802
 20
-0.840183
 10
6.387871
 20
-0.840183
 42
-0.198356
 10
6.37417
 20
-0.834533
 42
-0.199465
 10
6.368495
 20
-0.82089
 10
6.368495
 20
-0.20525
 42
-0.200189
 10
6.37417
 20
-0.191683
 42
-0.197632
 10
6.387871
 20
-0.186064
 10
6.515049
 20
-0.186064
 42
-0.026006
 10
6.516715
 20
-0.186146
 42
-0.032398
 10
6.518189
 20
-0.186392
 42
-0.040686
 10
6.519459
 20
-0.1868
 10
6.520014
 20
-0.187063
 10
6.520513
 20
-0.187365
 42
-0.059852
 10
6.521343
 20
-0.188083
 42
-0.065063
 10
6.52194
 20
-0.188948
 42
-0.063191
 10
6.522301
 20
-0.189953
 10
6.522391
 20
-0.190504
 10
6.522422
 20
-0.191088
 10
7.067433
 20
-0.686476
 42
0.653089
 10
7.099693
 20
-0.672314
  0
LINE
  5
66
100
AcDbEntity
  8
0
  6
CONTINUOUS
 62
     7
100
AcDbLine
 10
7.192963
 20
-0.186045
 30
0.0
 11
7.192963
 21
-0.84017
 31
0.0
  0
LINE
  5
67
100
AcDbEntity
  8
0
  6
CONTINUOUS
 62
     7
100
AcDbLine
 10
7.150894
 20
-0.84017
 30
0.0
 11
7.150894
 21
-0.186045
 31
0.0
  0
LINE
  5
68
100
AcDbEntity
  8
0
  6
CONTINUOUS
 62
     7
100
AcDbLine
 10
7.108807
 20
-0.188896
 30
0.0
 11
7.108807
 21
-0.84017
 31
0.0
  0
LINE
  5
69
100
AcDbEntity
  8
0
  6
CONTINUOUS
 62
     7
100
AcDbLine
 10
7.066712
 20
-0.840069
 30
0.0
 11
7.066712
 21
-0.685871
 31
0.0
  0
LINE
  5
6A
100
AcDbEntity
  8
0
  6
CONTINUOUS
 62
     7
100
AcDbLine
 10
7.024635
 20
-0.647224
 30
0.0
 11
7.024635
 21
-0.806589
 31
0.0
  0
LINE
  5
6B
100
AcDbEntity
  8
0
  6
CONTINUOUS
 62
     7
100
AcDbLine
 10
6.982563
 20
-0.767942
 30
0.0
 11
6.982563
 21
-0.608572
 31
0.0
  0
LINE
  5
6C
100
AcDbEntity
  8
0
  6
CONTINUOUS
 62
     7
100
AcDbLine
 10
6.940483
 20
-0.569939
 30
0.0
 11
6.940483
 21
-0.729301
 31
0.0
  0
LINE
  5
6D
100
AcDbEntity
  8
0
  6
CONTINUOUS
 62
     7
100
AcDbLine
 10
6.898414
 20
-0.690655
 30
0.0
 11
6.898414
 21
-0.531284
 31
0.0
  0
LINE
  5
6E
100
AcDbEntity
  8
0
  6
CONTINUOUS
 62
     7
100
AcDbLine
 10
6.856334
 20
-0.492645
 30
0.0
 11
6.856334
 21
-0.652021
 31
0.0
  0
LINE
  5
6F
100
AcDbEntity
  8
0
  6
CONTINUOUS
 62
     7
100
AcDbLine
 10
6.814244
 20
-0.613361
 30
0.0
 11
6.814244
 21
-0.453999
 31
0.0
  0
LINE
  5
70
100
AcDbEntity
  8
0
  6
CONTINUOUS
 62
     7
100
AcDbLine
 10
6.772156
 20
-0.415344
 30
0.0
 11
6.772156
 21
-0.574728
 31
0.0
  0
LINE
  5
71
100
AcDbEntity
  8
0
  6
CONTINUOUS
 62
     7
100
AcDbLine
 10
6.730084
 20
-0.536076
 30
0.0
 11
6.730084
 21
-0.376705
 31
0.0
  0
LINE
  5
72
100
AcDbEntity
  8
0
  6
CONTINUOUS
 62
     7
100
AcDbLine
 10
6.688004
 20
-0.338058
 30
0.0
 11
6.688004
 21
-0.497429
 31
0.0
  0
LINE
  5
73
100
AcDbEntity
  8
0
  6
CONTINUOUS
 62
     7
100
AcDbLine
 10
6.645931
 20
-0.458788
 30
0.0
 11
6.645931
 21
-0.299418
 31
0.0
  0
LINE
  5
74
100
AcDbEntity
  8
0
  6
CONTINUOUS
 62
     7
100
AcDbLine
 10
6.603844
 20
-0.260771
 30
0.0
 11
6.603844
 21
-0.420141
 31
0.0
  0
LINE
  5
75
100
AcDbEntity
  8
0
  6
CONTINUOUS
 62
     7
100
AcDbLine
 10
6.561763
 20
-0.3815
 30
0.0
 11
6.561763
 21
-0.222118
 31
0.0
  0
LINE
  5
76
100
AcDbEntity
  8
0
  6
CONTINUOUS
 62
     7
100
AcDbLine
 10
6.519691
 20
-0.18663
 30
0.0
 11
6.519691
 21
-0.342848
 31
0.0
  0
LINE
  5
77
100
AcDbEntity
  8
0
  6
CONTINUOUS
 62
     7
100
AcDbLine
 10
6.477611
 20
-0.835222
 30
0.0
 11
6.477611
 21
-0.186045
 31
0.0
  0
LINE
  5
78
100
AcDbEntity
  8
0
  6
CONTINUOUS
 62
     7
100
AcDbLine
 10
6.435539
 20
-0.186045
 30
0.0
 11
6.435539
 21
-0.84017
 31
0.0
  0
LINE
  5
79
100
AcDbEntity
  8
0
  6
CONTINUOUS
 62
     7
100
AcDbLine
 10
6.393452
 20
-0.84017
 30
0.0
 11
6.393452
 21
-0.186045
 31
0.0
  0
LWPOLYLINE
  5
7A
100
AcDbEntity
  8
0
  6
CONTINUOUS
 62
     7
100
AcDbPolyline
 90
       53
 70
   129
 43
0.0
 10
4.272854
 20
-0.820871
 42
0.200163
 10
4.278433
 20
-0.834527
 42
0.199439
 10
4.292088
 20
-0.840183
 10
4.369053
 20
-0.840183
 42
0.200133
 10
4.382568
 20
-0.834533
 42
0.197691
 10
4.388166
 20
-0.82089
 10
4.388166
 20
-0.205236
 42
0.198558
 10
4.382565
 20
-0.19168
 42
0.199265
 10
4.369045
 20
-0.186064
 10
4.244163
 20
-0.186064
 42
0.031263
 10
4.241967
 20
-0.186201
 42
0.03752
 10
4.239999
 20
-0.186597
 42
0.044963
 10
4.238285
 20
-0.187249
 42
0.052655
 10
4.236849
 20
-0.188147
 42
0.058565
 10
4.235711
 20
-0.189278
 42
0.060292
 10
4.234887
 20
-0.190627
 42
0.056989
 10
4.234388
 20
-0.192175
 42
0.050217
 10
4.234221
 20
-0.193901
 10
3.884388
 20
-0.664957
 42
-0.11737
 10
3.877529
 20
-0.670776
 42
-0.117966
 10
3.868805
 20
-0.672867
 42
-0.240739
 10
3.853317
 20
-0.664957
 10
3.509075
 20
-0.193888
 42
0.115246
 10
3.502195
 20
-0.188131
 42
0.117226
 10
3.493545
 20
-0.186062
 10
3.368664
 20
-0.186062
 42
0.197338
 10
3.354962
 20
-0.191685
 42
0.098834
 10
3.350761
 20
-0.197903
 42
0.099476
 10
3.349286
 20
-0.205236
 10
3.349286
 20
-0.820866
 42
0.19933
 10
3.354962
 20
-0.834523
 42
0.198495
 10
3.368664
 20
-0.840181
 10
3.445602
 20
-0.840181
 42
0.20007
 10
3.459122
 20
-0.834531
 42
0.197756
 10
3.464722
 20
-0.82089
 10
3.464722
 20
-0.387928
 42
-0.158655
 10
3.468402
 20
-0.37664
 42
-0.157919
 10
3.478036
 20
-0.369651
 42
-0.157583
 10
3.489952
 20
-0.369625
 42
-0.158107
 10
3.499607
 20
-0.376572
 10
3.832584
 20
-0.832232
 42
0.121214
 10
3.839334
 20
-0.838078
 42
0.118857
 10
3.848107
 20
-0.840179
 10
3.88958
 20
-0.840179
 42
0.032804
 10
3.891709
 20
-0.840046
 42
0.039254
 10
3.893618
 20
-0.839648
 42
0.04666
 10
3.895279
 20
-0.838989
 42
0.053842
 10
3.896672
 20
-0.83808
 42
0.118153
 10
3.898574
 20
-0.835562
 42
0.054885
 10
3.899058
 20
-0.833988
 42
0.047931
 10
3.89922
 20
-0.832232
 10
4.238083
 20
-0.376572
 42
-0.725453
 10
4.272854
 20
-0.387928
  0
LINE
  5
7B
100
AcDbEntity
  8
0
  6
CONTINUOUS
 62
     7
100
AcDbLine
 10
4.373783
 20
-0.186638
 30
0.0
 11
4.373783
 21
-0.83956
 31
0.0
  0
LINE
  5
7C
100
AcDbEntity
  8
0
  6
CONTINUOUS
 62
     7
100
AcDbLine
 10
4.331696
 20
-0.840162
 30
0.0
 11
4.331696
 21
-0.186033
 31
0.0
  0
LINE
  5
7D
100
AcDbEntity
  8
0
  6
CONTINUOUS
 62
     7
100
AcDbLine
 10
4.289604
 20
-0.186033
 30
0.0
 11
4.289604
 21
-0.840012
 31
0.0
  0
LINE
  5
7E
100
AcDbEntity
  8
0
  6
CONTINUOUS
 62
     7
100
AcDbLine
 10
4.247532
 20
-0.369667
 30
0.0
 11
4.247532
 21
-0.186033
 31
0.0
  0
LINE
  5
7F
100
AcDbEntity
  8
0
  6
CONTINUOUS
 62
     7
100
AcDbLine
 10
4.205452
 20
-0.225536
 30
0.0
 11
4.205452
 21
-0.421173
 31
0.0
  0
LINE
  5
80
100
AcDbEntity
  8
0
  6
CONTINUOUS
 62
     7
100
AcDbLine
 10
4.16338
 20
-0.478754
 30
0.0
 11
4.16338
 21
-0.28311
 31
0.0
  0
LINE
  5
81
100
AcDbEntity
  8
0
  6
CONTINUOUS
 62
     7
100
AcDbLine
 10
4.121292
 20
-0.340702
 30
0.0
 11
4.121292
 21
-0.536327
 31
0.0
  0
LINE
  5
82
100
AcDbEntity
  8
0
  6
CONTINUOUS
 62
     7
100
AcDbLine
 10
4.079212
 20
-0.593912
 30
0.0
 11
4.079212
 21
-0.398275
 31
0.0
  0
LINE
  5
83
100
AcDbEntity
  8
0
  6
CONTINUOUS
 62
     7
100
AcDbLine
 10
4.03714
 20
-0.455862
 30
0.0
 11
4.03714
 21
-0.651487
 31
0.0
  0
LINE
  5
84
100
AcDbEntity
  8
0
  6
CONTINUOUS
 62
     7
100
AcDbLine
 10
3.99506
 20
-0.709066
 30
0.0
 11
3.99506
 21
-0.513435
 31
0.0
  0
LINE
  5
85
100
AcDbEntity
  8
0
  6
CONTINUOUS
 62
     7
100
AcDbLine
 10
3.952991
 20
-0.571014
 30
0.0
 11
3.952991
 21
-0.766653
 31
0.0
  0
LINE
  5
86
100
AcDbEntity
  8
0
  6
CONTINUOUS
 62
     7
100
AcDbLine
 10
3.9109
 20
-0.824226
 30
0.0
 11
3.9109
 21
-0.628601
 31
0.0
  0
LINE
  5
87
100
AcDbEntity
  8
0
  6
CONTINUOUS
 62
     7
100
AcDbLine
 10
3.868809
 20
-0.672869
 30
0.0
 11
3.868809
 21
-0.840151
 31
0.0
  0
LINE
  5
88
100
AcDbEntity
  8
0
  6
CONTINUOUS
 62
     7
100
AcDbLine
 10
3.826732
 20
-0.824339
 30
0.0
 11
3.826732
 21
-0.628683
 31
0.0
  0
LINE
  5
89
100
AcDbEntity
  8
0
  6
CONTINUOUS
 62
     7
100
AcDbLine
 10
3.78466
 20
-0.571102
 30
0.0
 11
3.78466
 21
-0.766752
 31
0.0
  0
LINE
  5
8A
100
AcDbEntity
  8
0
  6
CONTINUOUS
 62
     7
100
AcDbLine
 10
3.74258
 20
-0.709173
 30
0.0
 11
3.74258
 21
-0.513517
 31
0.0
  0
LINE
  5
8B
100
AcDbEntity
  8
0
  6
CONTINUOUS
 62
     7
100
AcDbLine
 10
3.700508
 20
-0.455936
 30
0.0
 11
3.700508
 21
-0.651587
 31
0.0
  0
LINE
  5
8C
100
AcDbEntity
  8
0
  6
CONTINUOUS
 62
     7
100
AcDbLine
 10
3.658428
 20
-0.594013
 30
0.0
 11
3.658428
 21
-0.398363
 31
0.0
  0
LINE
  5
8D
100
AcDbEntity
  8
0
  6
CONTINUOUS
 62
     7
100
AcDbLine
 10
3.616341
 20
-0.340776
 30
0.0
 11
3.616341
 21
-0.536434
 31
0.0
  0
LINE
  5
8E
100
AcDbEntity
  8
0
  6
CONTINUOUS
 62
     7
100
AcDbLine
 10
3.574249
 20
-0.478842
 30
0.0
 11
3.574249
 21
-0.283203
 31
0.0
  0
LINE
  5
8F
100
AcDbEntity
  8
0
  6
CONTINUOUS
 62
     7
100
AcDbLine
 10
3.532181
 20
-0.225611
 30
0.0
 11
3.532181
 21
-0.421268
 31
0.0
  0
LINE
  5
90
100
AcDbEntity
  8
0
  6
CONTINUOUS
 62
     7
100
AcDbLine
 10
3.490097
 20
-0.369699
 30
0.0
 11
3.490097
 21
-0.186033
 31
0.0
  0
LINE
  5
91
100
AcDbEntity
  8
0
  6
CONTINUOUS
 62
     7
100
AcDbLine
 10
3.448029
 20
-0.186033
 30
0.0
 11
3.448029
 21
-0.84
 31
0.0
  0
LINE
  5
92
100
AcDbEntity
  8
0
  6
CONTINUOUS
 62
     7
100
AcDbLine
 10
3.405949
 20
-0.840151
 30
0.0
 11
3.405949
 21
-0.186033
 31
0.0
  0
LINE
  5
93
100
AcDbEntity
  8
0
  6
CONTINUOUS
 62
     7
100
AcDbLine
 10
3.363876
 20
-0.18663
 30
0.0
 11
3.363876
 21
-0.839584
 31
0.0
  0
LWPOLYLINE
  5
94
100
AcDbEntity
  8
0
  6
CONTINUOUS
 62
     7
100
AcDbPolyline
 90
       31
 70
   129
 43
0.0
 10
1.524818
 20
-0.518616
 10
1.524818
 20
-0.339909
 42
-0.19989
 10
1.536039
 20
-0.312741
 42
-0.198727
 10
1.563293
 20
-0.301488
 10
2.025024
 20
-0.301488
 42
-0.199067
 10
2.05214
 20
-0.312747
 42
-0.198667
 10
2.063372
 20
-0.339909
 42
0.199288
 10
2.069042
 20
-0.353557
 42
0.198536
 10
2.082729
 20
-0.35921
 10
2.159687
 20
-0.35921
 42
0.199959
 10
2.173216
 20
-0.353561
 42
0.197866
 10
2.178821
 20
-0.339922
 42
0.414265
 10
2.025024
 20
-0.186064
 10
1.563293
 20
-0.186064
 42
0.198781
 10
1.454389
 20
-0.231128
 42
0.199044
 10
1.40928
 20
-0.339922
 10
1.40928
 20
-0.686193
 42
0.414214
 10
1.563293
 20
-0.840181
 10
2.025024
 20
-0.840181
 42
0.199069
 10
2.133775
 20
-0.79508
 42
0.198756
 10
2.178821
 20
-0.686199
 42
0.198335
 10
2.173205
 20
-0.672648
 42
0.199124
 10
2.159687
 20
-0.667035
 10
2.082729
 20
-0.667035
 42
0.197611
 10
2.069042
 20
-0.672648
 42
0.200214
 10
2.063372
 20
-0.686199
 42
-0.198268
 10
2.05214
 20
-0.71345
 42
-0.199557
 10
2.025024
 20
-0.724737
 10
1.563293
 20
-0.724737
 42
-0.198731
 10
1.536005
 20
-0.71345
 42
-0.199094
 10
1.524701
 20
-0.686199
  0
LINE
  5
95
100
AcDbEntity
  8
0
  6
CONTINUOUS
 62
     7
100
AcDbLine
 10
2.143673
 20
-0.241957
 30
0.0
 11
2.143673
 21
-0.359188
 31
0.0
  0
LINE
  5
96
100
AcDbEntity
  8
0
  6
CONTINUOUS
 62
     7
100
AcDbLine
 10
2.143673
 20
-0.667007
 30
0.0
 11
2.143673
 21
-0.78422
 31
0.0
  0
LINE
  5
97
100
AcDbEntity
  8
0
  6
CONTINUOUS
 62
     7
100
AcDbLine
 10
2.101593
 20
-0.819733
 30
0.0
 11
2.101593
 21
-0.667007
 31
0.0
  0
LINE
  5
98
100
AcDbEntity
  8
0
  6
CONTINUOUS
 62
     7
100
AcDbLine
 10
2.101593
 20
-0.359188
 30
0.0
 11
2.101593
 21
-0.206457
 31
0.0
  0
LINE
  5
99
100
AcDbEntity
  8
0
  6
CONTINUOUS
 62
     7
100
AcDbLine
 10
2.059521
 20
-0.189974
 30
0.0
 11
2.059521
 21
-0.322971
 31
0.0
  0
LINE
  5
9A
100
AcDbEntity
  8
0
  6
CONTINUOUS
 62
     7
100
AcDbLine
 10
2.059521
 20
-0.703175
 30
0.0
 11
2.059521
 21
-0.836235
 31
0.0
  0
LINE
  5
9B
100
AcDbEntity
  8
0
  6
CONTINUOUS
 62
     7
100
AcDbLine
 10
2.017433
 20
-0.840151
 30
0.0
 11
2.017433
 21
-0.72472
 31
0.0
  0
LINE
  5
9C
100
AcDbEntity
  8
0
  6
CONTINUOUS
 62
     7
100
AcDbLine
 10
2.017433
 20
-0.301476
 30
0.0
 11
2.017433
 21
-0.186045
 31
0.0
  0
LINE
  5
9D
100
AcDbEntity
  8
0
  6
CONTINUOUS
 62
     7
100
AcDbLine
 10
1.975353
 20
-0.186045
 30
0.0
 11
1.975353
 21
-0.301476
 31
0.0
  0
LINE
  5
9E
100
AcDbEntity
  8
0
  6
CONTINUOUS
 62
     7
100
AcDbLine
 10
1.975353
 20
-0.72472
 30
0.0
 11
1.975353
 21
-0.840151
 31
0.0
  0
LINE
  5
9F
100
AcDbEntity
  8
0
  6
CONTINUOUS
 62
     7
100
AcDbLine
 10
1.933281
 20
-0.840151
 30
0.0
 11
1.933281
 21
-0.72472
 31
0.0
  0
LINE
  5
A0
100
AcDbEntity
  8
0
  6
CONTINUOUS
 62
     7
100
AcDbLine
 10
1.933281
 20
-0.301476
 30
0.0
 11
1.933281
 21
-0.186045
 31
0.0
  0
LINE
  5
A1
100
AcDbEntity
  8
0
  6
CONTINUOUS
 62
     7
100
AcDbLine
 10
1.891201
 20
-0.186045
 30
0.0
 11
1.891201
 21
-0.301476
 31
0.0
  0
LINE
  5
A2
100
AcDbEntity
  8
0
  6
CONTINUOUS
 62
     7
100
AcDbLine
 10
1.891201
 20
-0.72472
 30
0.0
 11
1.891201
 21
-0.840151
 31
0.0
  0
LINE
  5
A3
100
AcDbEntity
  8
0
  6
CONTINUOUS
 62
     7
100
AcDbLine
 10
1.84911
 20
-0.840151
 30
0.0
 11
1.84911
 21
-0.72472
 31
0.0
  0
LINE
  5
A4
100
AcDbEntity
  8
0
  6
CONTINUOUS
 62
     7
100
AcDbLine
 10
1.84911
 20
-0.301476
 30
0.0
 11
1.84911
 21
-0.186045
 31
0.0
  0
LINE
  5
A5
100
AcDbEntity
  8
0
  6
CONTINUOUS
 62
     7
100
AcDbLine
 10
1.807022
 20
-0.186045
 30
0.0
 11
1.807022
 21
-0.301464
 31
0.0
  0
LINE
  5
A6
100
AcDbEntity
  8
0
  6
CONTINUOUS
 62
     7
100
AcDbLine
 10
1.807022
 20
-0.72472
 30
0.0
 11
1.807022
 21
-0.840151
 31
0.0
  0
LINE
  5
A7
100
AcDbEntity
  8
0
  6
CONTINUOUS
 62
     7
100
AcDbLine
 10
1.76495
 20
-0.840151
 30
0.0
 11
1.76495
 21
-0.72472
 31
0.0
  0
LINE
  5
A8
100
AcDbEntity
  8
0
  6
CONTINUOUS
 62
     7
100
AcDbLine
 10
1.76495
 20
-0.301464
 30
0.0
 11
1.76495
 21
-0.186045
 31
0.0
  0
LINE
  5
A9
100
AcDbEntity
  8
0
  6
CONTINUOUS
 62
     7
100
AcDbLine
 10
1.722874
 20
-0.186045
 30
0.0
 11
1.722874
 21
-0.301464
 31
0.0
  0
LINE
  5
AA
100
AcDbEntity
  8
0
  6
CONTINUOUS
 62
     7
100
AcDbLine
 10
1.722874
 20
-0.72472
 30
0.0
 11
1.722874
 21
-0.840151
 31
0.0
  0
LINE
  5
AB
100
AcDbEntity
  8
0
  6
CONTINUOUS
 62
     7
100
AcDbLine
 10
1.680801
 20
-0.840151
 30
0.0
 11
1.680801
 21
-0.72472
 31
0.0
  0
LINE
  5
AC
100
AcDbEntity
  8
0
  6
CONTINUOUS
 62
     7
100
AcDbLine
 10
1.680801
 20
-0.301464
 30
0.0
 11
1.680801
 21
-0.186045
 31
0.0
  0
LINE
  5
AD
100
AcDbEntity
  8
0
  6
CONTINUOUS
 62
     7
100
AcDbLine
 10
1.638721
 20
-0.186045
 30
0.0
 11
1.638721
 21
-0.301464
 31
0.0
  0
LINE
  5
AE
100
AcDbEntity
  8
0
  6
CONTINUOUS
 62
     7
100
AcDbLine
 10
1.638721
 20
-0.72472
 30
0.0
 11
1.638721
 21
-0.840151
 31
0.0
  0
LINE
  5
AF
100
AcDbEntity
  8
0
  6
CONTINUOUS
 62
     7
100
AcDbLine
 10
1.59663
 20
-0.840151
 30
0.0
 11
1.59663
 21
-0.72472
 31
0.0
  0
LINE
  5
B0
100
AcDbEntity
  8
0
  6
CONTINUOUS
 62
     7
100
AcDbLine
 10
1.59663
 20
-0.301464
 30
0.0
 11
1.59663
 21
-0.186045
 31
0.0
  0
LINE
  5
B1
100
AcDbEntity
  8
0
  6
CONTINUOUS
 62
     7
100
AcDbLine
 10
1.554558
 20
-0.186291
 30
0.0
 11
1.554558
 21
-0.302464
 31
0.0
  0
LINE
  5
B2
100
AcDbEntity
  8
0
  6
CONTINUOUS
 62
     7
100
AcDbLine
 10
1.554558
 20
-0.723732
 30
0.0
 11
1.554558
 21
-0.839918
 31
0.0
  0
LINE
  5
B3
100
AcDbEntity
  8
0
  6
CONTINUOUS
 62
     7
100
AcDbLine
 10
1.51247
 20
-0.831539
 30
0.0
 11
1.51247
 21
-0.194656
 31
0.0
  0
LINE
  5
B4
100
AcDbEntity
  8
0
  6
CONTINUOUS
 62
     7
100
AcDbLine
 10
1.47039
 20
-0.21719
 30
0.0
 11
1.47039
 21
-0.808994
 31
0.0
  0
LINE
  5
B5
100
AcDbEntity
  8
0
  6
CONTINUOUS
 62
     7
100
AcDbLine
 10
1.428318
 20
-0.760326
 30
0.0
 11
1.428318
 21
-0.26585
 31
0.0
  0
LWPOLYLINE
  5
B6
100
AcDbEntity
  8
0
  6
CONTINUOUS
 62
     7
100
AcDbPolyline
 90
       25
 70
   128
 43
0.0
 10
-0.108934
 20
-0.5158
 10
-0.108934
 20
-0.320662
 42
0.197803
 10
-0.114613
 20
-0.307104
 42
0.198515
 10
-0.128166
 20
-0.301488
 10
-0.205124
 20
-0.301488
 42
-0.198608
 10
-0.218811
 20
-0.295832
 42
-0.199217
 10
-0.224481
 20
-0.282177
 10
-0.224481
 20
-0.205217
 42
-0.200159
 10
-0.218811
 20
-0.191661
 42
-0.197667
 10
-0.205124
 20
-0.186045
 10
0.545181
 20
-0.186045
 42
-0.414242
 10
0.737452
 20
-0.378386
 10
0.737452
 20
-0.647717
 42
-0.198762
 10
0.681127
 20
-0.783809
 42
-0.199038
 10
0.545174
 20
-0.840181
 10
-0.205124
 20
-0.840181
 42
-0.198631
 10
-0.218811
 20
-0.834523
 42
-0.199194
 10
-0.224481
 20
-0.820866
 10
-0.224481
 20
-0.743917
 42
-0.200104
 10
-0.218811
 20
-0.730355
 42
-0.197721
 10
-0.205124
 20
-0.724737
 10
-0.128166
 20
-0.724737
 42
0.200196
 10
-0.114655
 20
-0.719085
 42
0.19763
 10
-0.109059
 20
-0.705441
 10
-0.109059
 20
-0.5158
  0
LWPOLYLINE
  5
B7
100
AcDbEntity
  8
0
  6
CONTINUOUS
 62
     7
100
AcDbPolyline
 90
       14
 70
   128
 43
0.0
 10
0.006504
 20
-0.5158
 10
0.006504
 20
-0.320662
 42
-0.201
 10
0.01209
 20
-0.307104
 42
-0.098683
 10
0.018345
 20
-0.302948
 42
-0.097851
 10
0.025745
 20
-0.301488
 10
0.545181
 20
-0.301488
 42
-0.414214
 10
0.622012
 20
-0.378386
 10
0.622012
 20
-0.647717
 42
-0.198603
 10
0.599506
 20
-0.702178
 42
-0.199221
 10
0.545174
 20
-0.724737
 10
0.025745
 20
-0.724737
 42
-0.198477
 10
0.012055
 20
-0.719085
 42
-0.199344
 10
0.006384
 20
-0.705441
 10
0.006384
 20
-0.5158
  0
LINE
  5
B8
100
AcDbEntity
  8
0
  6
CONTINUOUS
 62
     7
100
AcDbLine
 10
0.713051
 20
-0.28447
 30
0.0
 11
0.713051
 21
-0.741676
 31
0.0
  0
LINE
  5
B9
100
AcDbEntity
  8
0
  6
CONTINUOUS
 62
     7
100
AcDbLine
 10
0.670959
 20
-0.793303
 30
0.0
 11
0.670959
 21
-0.232862
 31
0.0
  0
LINE
  5
BA
100
AcDbEntity
  8
0
  6
CONTINUOUS
 62
     7
100
AcDbLine
 10
0.628872
 20
-0.205212
 30
0.0
 11
0.628872
 21
-0.820978
 31
0.0
  0
LINE
  5
BB
100
AcDbEntity
  8
0
  6
CONTINUOUS
 62
     7
100
AcDbLine
 10
0.586792
 20
-0.835581
 30
0.0
 11
0.586792
 21
-0.712465
 31
0.0
  0
LINE
  5
BC
100
AcDbEntity
  8
0
  6
CONTINUOUS
 62
     7
100
AcDbLine
 10
0.586792
 20
-0.313711
 30
0.0
 11
0.586792
 21
-0.190596
 31
0.0
  0
LINE
  5
BD
100
AcDbEntity
  8
0
  6
CONTINUOUS
 62
     7
100
AcDbLine
 10
0.54472
 20
-0.186028
 30
0.0
 11
0.54472
 21
-0.301464
 31
0.0
  0
LINE
  5
BE
100
AcDbEntity
  8
0
  6
CONTINUOUS
 62
     7
100
AcDbLine
 10
0.54472
 20
-0.724714
 30
0.0
 11
0.54472
 21
-0.840151
 31
0.0
  0
LINE
  5
BF
100
AcDbEntity
  8
0
  6
CONTINUOUS
 62
     7
100
AcDbLine
 10
0.50264
 20
-0.840151
 30
0.0
 11
0.50264
 21
-0.724714
 31
0.0
  0
LINE
  5
C0
100
AcDbEntity
  8
0
  6
CONTINUOUS
 62
     7
100
AcDbLine
 10
0.50264
 20
-0.301464
 30
0.0
 11
0.50264
 21
-0.186028
 31
0.0
  0
LINE
  5
C1
100
AcDbEntity
  8
0
  6
CONTINUOUS
 62
     7
100
AcDbLine
 10
0.460567
 20
-0.186028
 30
0.0
 11
0.460567
 21
-0.301464
 31
0.0
  0
LINE
  5
C2
100
AcDbEntity
  8
0
  6
CONTINUOUS
 62
     7
100
AcDbLine
 10
0.460567
 20
-0.724714
 30
0.0
 11
0.460567
 21
-0.840151
 31
0.0
  0
LINE
  5
C3
100
AcDbEntity
  8
0
  6
CONTINUOUS
 62
     7
100
AcDbLine
 10
0.41848
 20
-0.840151
 30
0.0
 11
0.41848
 21
-0.724714
 31
0.0
  0
LINE
  5
C4
100
AcDbEntity
  8
0
  6
CONTINUOUS
 62
     7
100
AcDbLine
 10
0.41848
 20
-0.301464
 30
0.0
 11
0.41848
 21
-0.186028
 31
0.0
  0
LINE
  5
C5
100
AcDbEntity
  8
0
  6
CONTINUOUS
 62
     7
100
AcDbLine
 10
0.3764
 20
-0.186028
 30
0.0
 11
0.3764
 21
-0.301464
 31
0.0
  0
LINE
  5
C6
100
AcDbEntity
  8
0
  6
CONTINUOUS
 62
     7
100
AcDbLine
 10
0.3764
 20
-0.724714
 30
0.0
 11
0.3764
 21
-0.840151
 31
0.0
  0
LINE
  5
C7
100
AcDbEntity
  8
0
  6
CONTINUOUS
 62
     7
100
AcDbLine
 10
0.334328
 20
-0.840151
 30
0.0
 11
0.334328
 21
-0.724714
 31
0.0
  0
LINE
  5
C8
100
AcDbEntity
  8
0
  6
CONTINUOUS
 62
     7
100
AcDbLine
 10
0.334328
 20
-0.301464
 30
0.0
 11
0.334328
 21
-0.186028
 31
0.0
  0
LINE
  5
C9
100
AcDbEntity
  8
0
  6
CONTINUOUS
 62
     7
100
AcDbLine
 10
0.292248
 20
-0.186028
 30
0.0
 11
0.292248
 21
-0.301464
 31
0.0
  0
LINE
  5
CA
100
AcDbEntity
  8
0
  6
CONTINUOUS
 62
     7
100
AcDbLine
 10
0.292248
 20
-0.724714
 30
0.0
 11
0.292248
 21
-0.840151
 31
0.0
  0
LINE
  5
CB
100
AcDbEntity
  8
0
  6
CONTINUOUS
 62
     7
100
AcDbLine
 10
0.250156
 20
-0.840151
 30
0.0
 11
0.250156
 21
-0.724714
 31
0.0
  0
LINE
  5
CC
100
AcDbEntity
  8
0
  6
CONTINUOUS
 62
     7
100
AcDbLine
 10
0.250156
 20
-0.301464
 30
0.0
 11
0.250156
 21
-0.186028
 31
0.0
  0
LINE
  5
CD
100
AcDbEntity
  8
0
  6
CONTINUOUS
 62
     7
100
AcDbLine
 10
0.208088
 20
-0.186028
 30
0.0
 11
0.208088
 21
-0.301464
 31
0.0
  0
LINE
  5
CE
100
AcDbEntity
  8
0
  6
CONTINUOUS
 62
     7
100
AcDbLine
 10
0.208088
 20
-0.724714
 30
0.0
 11
0.208088
 21
-0.840151
 31
0.0
  0
LINE
  5
CF
100
AcDbEntity
  8
0
  6
CONTINUOUS
 62
     7
100
AcDbLine
 10
0.165997
 20
-0.840151
 30
0.0
 11
0.165997
 21
-0.724714
 31
0.0
  0
LINE
  5
D0
100
AcDbEntity
  8
0
  6
CONTINUOUS
 62
     7
100
AcDbLine
 10
0.165997
 20
-0.301464
 30
0.0
 11
0.165997
 21
-0.186028
 31
0.0
  0
LINE
  5
D1
100
AcDbEntity
  8
0
  6
CONTINUOUS
 62
     7
100
AcDbLine
 10
0.123917
 20
-0.186028
 30
0.0
 11
0.123917
 21
-0.301464
 31
0.0
  0
LINE
  5
D2
100
AcDbEntity
  8
0
  6
CONTINUOUS
 62
     7
100
AcDbLine
 10
0.123917
 20
-0.724714
 30
0.0
 11
0.123917
 21
-0.840151
 31
0.0
  0
LINE
  5
D3
100
AcDbEntity
  8
0
  6
CONTINUOUS
 62
     7
100
AcDbLine
 10
0.081848
 20
-0.840151
 30
0.0
 11
0.081848
 21
-0.724714
 31
0.0
  0
LINE
  5
D4
100
AcDbEntity
  8
0
  6
CONTINUOUS
 62
     7
100
AcDbLine
 10
0.081848
 20
-0.301464
 30
0.0
 11
0.081848
 21
-0.186028
 31
0.0
  0
LINE
  5
D5
100
AcDbEntity
  8
0
  6
CONTINUOUS
 62
     7
100
AcDbLine
 10
0.039768
 20
-0.186028
 30
0.0
 11
0.039768
 21
-0.301464
 31
0.0
  0
LINE
  5
D6
100
AcDbEntity
  8
0
  6
CONTINUOUS
 62
     7
100
AcDbLine
 10
0.039768
 20
-0.724714
 30
0.0
 11
0.039768
 21
-0.840151
 31
0.0
  0
LINE
  5
D7
100
AcDbEntity
  8
0
  6
CONTINUOUS
 62
     7
100
AcDbLine
 10
-0.002304
 20
-0.840151
 30
0.0
 11
-0.002304
 21
-0.186028
 31
0.0
  0
LINE
  5
D8
100
AcDbEntity
  8
0
  6
CONTINUOUS
 62
     7
100
AcDbLine
 10
-0.044382
 20
-0.186028
 30
0.0
 11
-0.044382
 21
-0.840151
 31
0.0
  0
LINE
  5
D9
100
AcDbEntity
  8
0
  6
CONTINUOUS
 62
     7
100
AcDbLine
 10
-0.086483
 20
-0.840151
 30
0.0
 11
-0.086483
 21
-0.186028
 31
0.0
  0
LINE
  5
DA
100
AcDbEntity
  8
0
  6
CONTINUOUS
 62
     7
100
AcDbLine
 10
-0.128561
 20
-0.186028
 30
0.0
 11
-0.128561
 21
-0.301456
 31
0.0
  0
LINE
  5
DB
100
AcDbEntity
  8
0
  6
CONTINUOUS
 62
     7
100
AcDbLine
 10
-0.128561
 20
-0.724714
 30
0.0
 11
-0.128561
 21
-0.840151
 31
0.0
  0
LINE
  5
DC
100
AcDbEntity
  8
0
  6
CONTINUOUS
 62
     7
100
AcDbLine
 10
-0.170633
 20
-0.840151
 30
0.0
 11
-0.170633
 21
-0.724714
 31
0.0
  0
LINE
  5
DD
100
AcDbEntity
  8
0
  6
CONTINUOUS
 62
     7
100
AcDbLine
 10
-0.170633
 20
-0.301456
 30
0.0
 11
-0.170633
 21
-0.186028
 31
0.0
  0
LINE
  5
DE
100
AcDbEntity
  8
0
  6
CONTINUOUS
 62
     7
100
AcDbLine
 10
-0.212713
 20
-0.187555
 30
0.0
 11
-0.212713
 21
-0.299927
 31
0.0
  0
LINE
  5
DF
100
AcDbEntity
  8
0
  6
CONTINUOUS
 62
     7
100
AcDbLine
 10
-0.212713
 20
-0.726231
 30
0.0
 11
-0.212713
 21
-0.838621
 31
0.0
  0
LWPOLYLINE
  5
E0
100
AcDbEntity
  8
0
  6
CONTINUOUS
 62
     7
100
AcDbPolyline
 90
       38
 70
   129
 43
0.0
 10
-1.550293
 20
-0.570749
 10
-1.550293
 20
-0.205217
 42
-0.200604
 10
-1.544698
 20
-0.191661
 42
-0.098627
 10
-1.538448
 20
-0.187505
 42
-0.097951
 10
-1.531059
 20
-0.186045
 10
-0.915417
 20
-0.186045
 42
-0.199198
 10
-0.90189
 20
-0.191661
 42
-0.198626
 10
-0.896287
 20
-0.205217
 10
-0.896287
 20
-0.282177
 42
-0.19774
 10
-0.90189
 20
-0.295827
 42
-0.200085
 10
-0.915417
 20
-0.30148
 10
-1.415621
 20
-0.30148
 42
0.197774
 10
-1.429303
 20
-0.307098
 42
0.200051
 10
-1.434971
 20
-0.320662
 10
-1.434971
 20
-0.436079
 42
0.199202
 10
-1.429303
 20
-0.449731
 42
0.198622
 10
-1.415621
 20
-0.455386
 10
-0.915417
 20
-0.455386
 42
-0.19904
 10
-0.90189
 20
-0.461008
 42
-0.198601
 10
-0.896287
 20
-0.474562
 10
-0.896287
 20
-0.551527
 42
-0.197767
 10
-0.90189
 20
-0.565174
 42
-0.200058
 10
-0.915417
 20
-0.570826
 10
-1.415621
 20
-0.570826
 42
0.197749
 10
-1.429303
 20
-0.576443
 42
0.200075
 10
-1.434971
 20
-0.590004
 10
-1.434971
 20
-0.705435
 42
0.199231
 10
-1.429303
 20
-0.719084
 42
0.198594
 10
-1.415621
 20
-0.724737
 10
-0.915417
 20
-0.724737
 42
-0.199252
 10
-0.90189
 20
-0.730355
 42
-0.198572
 10
-0.896287
 20
-0.743917
 10
-0.896287
 20
-0.820866
 42
-0.197663
 10
-0.90189
 20
-0.834523
 42
-0.200163
 10
-0.915417
 20
-0.840181
 10
-1.531059
 20
-0.840181
 42
-0.198568
 10
-1.544737
 20
-0.834519
 42
-0.199101
 10
-1.550402
 20
-0.820866
  0
LINE
  5
E1
100
AcDbEntity
  8
0
  6
CONTINUOUS
 62
     7
100
AcDbLine
 10
-0.927982
 20
-0.186028
 30
0.0
 11
-0.927982
 21
-0.301456
 31
0.0
  0
LINE
  5
E2
100
AcDbEntity
  8
0
  6
CONTINUOUS
 62
     7
100
AcDbLine
 10
-0.927982
 20
-0.45537
 30
0.0
 11
-0.927982
 21
-0.570807
 31
0.0
  0
LINE
  5
E3
100
AcDbEntity
  8
0
  6
CONTINUOUS
 62
     7
100
AcDbLine
 10
-0.927982
 20
-0.724701
 30
0.0
 11
-0.927982
 21
-0.840151
 31
0.0
  0
LINE
  5
E4
100
AcDbEntity
  8
0
  6
CONTINUOUS
 62
     7
100
AcDbLine
 10
-0.970053
 20
-0.840151
 30
0.0
 11
-0.970053
 21
-0.724701
 31
0.0
  0
LINE
  5
E5
100
AcDbEntity
  8
0
  6
CONTINUOUS
 62
     7
100
AcDbLine
 10
-0.970053
 20
-0.570807
 30
0.0
 11
-0.970053
 21
-0.45537
 31
0.0
  0
LINE
  5
E6
100
AcDbEntity
  8
0
  6
CONTINUOUS
 62
     7
100
AcDbLine
 10
-0.970053
 20
-0.301456
 30
0.0
 11
-0.970053
 21
-0.186028
 31
0.0
  0
LINE
  5
E7
100
AcDbEntity
  8
0
  6
CONTINUOUS
 62
     7
100
AcDbLine
 10
-1.012142
 20
-0.186028
 30
0.0
 11
-1.012142
 21
-0.301456
 31
0.0
  0
LINE
  5
E8
100
AcDbEntity
  8
0
  6
CONTINUOUS
 62
     7
100
AcDbLine
 10
-1.012142
 20
-0.45537
 30
0.0
 11
-1.012142
 21
-0.570807
 31
0.0
  0
LINE
  5
E9
100
AcDbEntity
  8
0
  6
CONTINUOUS
 62
     7
100
AcDbLine
 10
-1.012142
 20
-0.724701
 30
0.0
 11
-1.012142
 21
-0.840151
 31
0.0
  0
LINE
  5
EA
100
AcDbEntity
  8
0
  6
CONTINUOUS
 62
     7
100
AcDbLine
 10
-1.054224
 20
-0.840151
 30
0.0
 11
-1.054224
 21
-0.724701
 31
0.0
  0
LINE
  5
EB
100
AcDbEntity
  8
0
  6
CONTINUOUS
 62
     7
100
AcDbLine
 10
-1.054224
 20
-0.570807
 30
0.0
 11
-1.054224
 21
-0.45537
 31
0.0
  0
LINE
  5
EC
100
AcDbEntity
  8
0
  6
CONTINUOUS
 62
     7
100
AcDbLine
 10
-1.054224
 20
-0.301456
 30
0.0
 11
-1.054224
 21
-0.186028
 31
0.0
  0
LINE
  5
ED
100
AcDbEntity
  8
0
  6
CONTINUOUS
 62
     7
100
AcDbLine
 10
-1.096294
 20
-0.186028
 30
0.0
 11
-1.096294
 21
-0.301456
 31
0.0
  0
LINE
  5
EE
100
AcDbEntity
  8
0
  6
CONTINUOUS
 62
     7
100
AcDbLine
 10
-1.096294
 20
-0.45537
 30
0.0
 11
-1.096294
 21
-0.570807
 31
0.0
  0
LINE
  5
EF
100
AcDbEntity
  8
0
  6
CONTINUOUS
 62
     7
100
AcDbLine
 10
-1.096294
 20
-0.724701
 30
0.0
 11
-1.096294
 21
-0.840151
 31
0.0
  0
LINE
  5
F0
100
AcDbEntity
  8
0
  6
CONTINUOUS
 62
     7
100
AcDbLine
 10
-1.138384
 20
-0.840151
 30
0.0
 11
-1.138384
 21
-0.724701
 31
0.0
  0
LINE
  5
F1
100
AcDbEntity
  8
0
  6
CONTINUOUS
 62
     7
100
AcDbLine
 10
-1.138384
 20
-0.570807
 30
0.0
 11
-1.138384
 21
-0.45537
 31
0.0
  0
LINE
  5
F2
100
AcDbEntity
  8
0
  6
CONTINUOUS
 62
     7
100
AcDbLine
 10
-1.138384
 20
-0.301456
 30
0.0
 11
-1.138384
 21
-0.186028
 31
0.0
  0
LINE
  5
F3
100
AcDbEntity
  8
0
  6
CONTINUOUS
 62
     7
100
AcDbLine
 10
-1.180464
 20
-0.186028
 30
0.0
 11
-1.180464
 21
-0.301456
 31
0.0
  0
LINE
  5
F4
100
AcDbEntity
  8
0
  6
CONTINUOUS
 62
     7
100
AcDbLine
 10
-1.180464
 20
-0.45537
 30
0.0
 11
-1.180464
 21
-0.570807
 31
0.0
  0
LINE
  5
F5
100
AcDbEntity
  8
0
  6
CONTINUOUS
 62
     7
100
AcDbLine
 10
-1.180464
 20
-0.724701
 30
0.0
 11
-1.180464
 21
-0.840151
 31
0.0
  0
LINE
  5
F6
100
AcDbEntity
  8
0
  6
CONTINUOUS
 62
     7
100
AcDbLine
 10
-1.222534
 20
-0.840151
 30
0.0
 11
-1.222534
 21
-0.724701
 31
0.0
  0
LINE
  5
F7
100
AcDbEntity
  8
0
  6
CONTINUOUS
 62
     7
100
AcDbLine
 10
-1.222534
 20
-0.570807
 30
0.0
 11
-1.222534
 21
-0.45537
 31
0.0
  0
LINE
  5
F8
100
AcDbEntity
  8
0
  6
CONTINUOUS
 62
     7
100
AcDbLine
 10
-1.222534
 20
-0.301456
 30
0.0
 11
-1.222534
 21
-0.186028
 31
0.0
  0
LINE
  5
F9
100
AcDbEntity
  8
0
  6
CONTINUOUS
 62
     7
100
AcDbLine
 10
-1.264616
 20
-0.186028
 30
0.0
 11
-1.264616
 21
-0.301456
 31
0.0
  0
LINE
  5
FA
100
AcDbEntity
  8
0
  6
CONTINUOUS
 62
     7
100
AcDbLine
 10
-1.264616
 20
-0.45537
 30
0.0
 11
-1.264616
 21
-0.570807
 31
0.0
  0
LINE
  5
FB
100
AcDbEntity
  8
0
  6
CONTINUOUS
 62
     7
100
AcDbLine
 10
-1.264616
 20
-0.724701
 30
0.0
 11
-1.264616
 21
-0.840151
 31
0.0
  0
LINE
  5
FC
100
AcDbEntity
  8
0
  6
CONTINUOUS
 62
     7
100
AcDbLine
 10
-1.306686
 20
-0.840151
 30
0.0
 11
-1.306686
 21
-0.724701
 31
0.0
  0
LINE
  5
FD
100
AcDbEntity
  8
0
  6
CONTINUOUS
 62
     7
100
AcDbLine
 10
-1.306686
 20
-0.570807
 30
0.0
 11
-1.306686
 21
-0.45537
 31
0.0
  0
LINE
  5
FE
100
AcDbEntity
  8
0
  6
CONTINUOUS
 62
     7
100
AcDbLine
 10
-1.306686
 20
-0.301456
 30
0.0
 11
-1.306686
 21
-0.186028
 31
0.0
  0
LINE
  5
FF
100
AcDbEntity
  8
0
  6
CONTINUOUS
 62
     7
100
AcDbLine
 10
-1.348764
 20
-0.186028
 30
0.0
 11
-1.348764
 21
-0.301456
 31
0.0
  0
LINE
  5
100
100
AcDbEntity
  8
0
  6
CONTINUOUS
 62
     7
100
AcDbLine
 10
-1.348764
 20
-0.45537
 30
0.0
 11
-1.348764
 21
-0.570807
 31
0.0
  0
LINE
  5
101
100
AcDbEntity
  8
0
  6
CONTINUOUS
 62
     7
100
AcDbLine
 10
-1.348764
 20
-0.724701
 30
0.0
 11
-1.348764
 21
-0.840151
 31
0.0
  0
LINE
  5
102
100
AcDbEntity
  8
0
  6
CONTINUOUS
 62
     7
100
AcDbLine
 10
-1.390865
 20
-0.840151
 30
0.0
 11
-1.390865
 21
-0.724701
 31
0.0
  0
LINE
  5
103
100
AcDbEntity
  8
0
  6
CONTINUOUS
 62
     7
100
AcDbLine
 10
-1.390865
 20
-0.570807
 30
0.0
 11
-1.390865
 21
-0.45537
 31
0.0
  0
LINE
  5
104
100
AcDbEntity
  8
0
  6
CONTINUOUS
 62
     7
100
AcDbLine
 10
-1.390865
 20
-0.301456
 30
0.0
 11
-1.390865
 21
-0.186028
 31
0.0
  0
LINE
  5
105
100
AcDbEntity
  8
0
  6
CONTINUOUS
 62
     7
100
AcDbLine
 10
-1.432945
 20
-0.186028
 30
0.0
 11
-1.432945
 21
-0.312164
 31
0.0
  0
LINE
  5
106
100
AcDbEntity
  8
0
  6
CONTINUOUS
 62
     7
100
AcDbLine
 10
-1.432945
 20
-0.444626
 30
0.0
 11
-1.432945
 21
-0.581512
 31
0.0
  0
LINE
  5
107
100
AcDbEntity
  8
0
  6
CONTINUOUS
 62
     7
100
AcDbLine
 10
-1.432945
 20
-0.71397
 30
0.0
 11
-1.432945
 21
-0.840151
 31
0.0
  0
LINE
  5
108
100
AcDbEntity
  8
0
  6
CONTINUOUS
 62
     7
100
AcDbLine
 10
-1.475016
 20
-0.840151
 30
0.0
 11
-1.475016
 21
-0.186028
 31
0.0
  0
LINE
  5
109
100
AcDbEntity
  8
0
  6
CONTINUOUS
 62
     7
100
AcDbLine
 10
-1.517097
 20
-0.186028
 30
0.0
 11
-1.517097
 21
-0.840151
 31
0.0
  0
LWPOLYLINE
  5
10A
100
AcDbEntity
  8
0
  6
CONTINUOUS
 62
     7
100
AcDbPolyline
 90
       31
 70
   128
 43
0.0
 10
-2.491427
 20
-0.394573
 10
-2.491427
 20
-0.205217
 42
-0.201099
 10
-2.485848
 20
-0.191661
 42
-0.098731
 10
-2.479595
 20
-0.187505
 42
-0.097859
 10
-2.472195
 20
-0.186045
 10
-1.87582
 20
-0.186045
 42
-0.41425
 10
-1.722009
 20
-0.33989
 10
-1.722009
 20
-0.472668
 42
-0.198627
 10
-1.744519
 20
-0.527132
 42
-0.199198
 10
-1.798864
 20
-0.549692
 10
-1.798864
 20
-0.54962
 42
-0.413937
 10
-1.722009
 20
-0.626579
 10
-1.722009
 20
-0.820866
 42
-0.197672
 10
-1.727612
 20
-0.834523
 42
-0.200154
 10
-1.74114
 20
-0.840181
 10
-1.818096
 20
-0.840181
 42
-0.198472
 10
-1.831781
 20
-0.834518
 42
-0.199171
 10
-1.83745
 20
-0.820866
 10
-1.83745
 20
-0.647717
 42
0.198737
 10
-1.848688
 20
-0.620548
 42
0.199088
 10
-1.87582
 20
-0.609294
 10
-2.356773
 20
-0.609294
 42
0.197615
 10
-2.370465
 20
-0.614914
 42
0.200138
 10
-2.376136
 20
-0.628475
 10
-2.376136
 20
-0.820866
 42
-0.197684
 10
-2.381736
 20
-0.834514
 42
-0.200142
 10
-2.395256
 20
-0.840167
 10
-2.472195
 20
-0.840167
 42
-0.198496
 10
-2.485887
 20
-0.834514
 42
-0.199329
 10
-2.491558
 20
-0.820866
 10
-2.491558
 20
-0.394573
  0
LWPOLYLINE
  5
10B
100
AcDbEntity
  8
0
  6
CONTINUOUS
 62
     7
100
AcDbPolyline
 90
       13
 70
   128
 43
0.0
 10
-2.376024
 20
-0.394573
 10
-2.376024
 20
-0.45532
 42
0.415065
 10
-2.337542
 20
-0.49388
 10
-1.87582
 20
-0.49388
 42
0.199489
 10
-1.848688
 20
-0.482592
 42
0.198337
 10
-1.83745
 20
-0.455339
 10
-1.83745
 20
-0.33989
 42
0.198782
 10
-1.848688
 20
-0.31273
 42
0.199043
 10
-1.87582
 20
-0.30148
 10
-2.337542
 20
-0.30148
 42
0.198286
 10
-2.364832
 20
-0.31273
 42
0.199538
 10
-2.376136
 20
-0.33989
 10
-2.376136
 20
-0.394573
  0
LINE
  5
10C
100
AcDbEntity
  8
0
  6
CONTINUOUS
 62
     7
100
AcDbLine
 10
-1.72744
 20
-0.299116
 30
0.0
 11
-1.72744
 21
-0.50128
 31
0.0
  0
LINE
  5
10D
100
AcDbEntity
  8
0
  6
CONTINUOUS
 62
     7
100
AcDbLine
 10
-1.72744
 20
-0.597998
 30
0.0
 11
-1.72744
 21
-0.834372
 31
0.0
  0
LINE
  5
10E
100
AcDbEntity
  8
0
  6
CONTINUOUS
 62
     7
100
AcDbLine
 10
-1.769529
 20
-0.840143
 30
0.0
 11
-1.769529
 21
-0.555454
 31
0.0
  0
LINE
  5
10F
100
AcDbEntity
  8
0
  6
CONTINUOUS
 62
     7
100
AcDbLine
 10
-1.769529
 20
-0.543842
 30
0.0
 11
-1.769529
 21
-0.228632
 31
0.0
  0
LINE
  5
110
100
AcDbEntity
  8
0
  6
CONTINUOUS
 62
     7
100
AcDbLine
 10
-1.811619
 20
-0.200064
 30
0.0
 11
-1.811619
 21
-0.840143
 31
0.0
  0
LINE
  5
111
100
AcDbEntity
  8
0
  6
CONTINUOUS
 62
     7
100
AcDbLine
 10
-1.853701
 20
-0.616276
 30
0.0
 11
-1.853701
 21
-0.486835
 31
0.0
  0
LINE
  5
112
100
AcDbEntity
  8
0
  6
CONTINUOUS
 62
     7
100
AcDbLine
 10
-1.853701
 20
-0.308481
 30
0.0
 11
-1.853701
 21
-0.187632
 31
0.0
  0
LINE
  5
113
100
AcDbEntity
  8
0
  6
CONTINUOUS
 62
     7
100
AcDbLine
 10
-1.895771
 20
-0.186028
 30
0.0
 11
-1.895771
 21
-0.301456
 31
0.0
  0
LINE
  5
114
100
AcDbEntity
  8
0
  6
CONTINUOUS
 62
     7
100
AcDbLine
 10
-1.895771
 20
-0.493853
 30
0.0
 11
-1.895771
 21
-0.60927
 31
0.0
  0
LINE
  5
115
100
AcDbEntity
  8
0
  6
CONTINUOUS
 62
     7
100
AcDbLine
 10
-1.937851
 20
-0.60927
 30
0.0
 11
-1.937851
 21
-0.493853
 31
0.0
  0
LINE
  5
116
100
AcDbEntity
  8
0
  6
CONTINUOUS
 62
     7
100
AcDbLine
 10
-1.937851
 20
-0.301456
 30
0.0
 11
-1.937851
 21
-0.186028
 31
0.0
  0
LINE
  5
117
100
AcDbEntity
  8
0
  6
CONTINUOUS
 62
     7
100
AcDbLine
 10
-1.979921
 20
-0.186028
 30
0.0
 11
-1.979921
 21
-0.301456
 31
0.0
  0
LINE
  5
118
100
AcDbEntity
  8
0
  6
CONTINUOUS
 62
     7
100
AcDbLine
 10
-1.979921
 20
-0.493853
 30
0.0
 11
-1.979921
 21
-0.60927
 31
0.0
  0
LINE
  5
119
100
AcDbEntity
  8
0
  6
CONTINUOUS
 62
     7
100
AcDbLine
 10
-2.022011
 20
-0.60927
 30
0.0
 11
-2.022011
 21
-0.493853
 31
0.0
  0
LINE
  5
11A
100
AcDbEntity
  8
0
  6
CONTINUOUS
 62
     7
100
AcDbLine
 10
-2.022011
 20
-0.301456
 30
0.0
 11
-2.022011
 21
-0.186028
 31
0.0
  0
LINE
  5
11B
100
AcDbEntity
  8
0
  6
CONTINUOUS
 62
     7
100
AcDbLine
 10
-2.064091
 20
-0.186028
 30
0.0
 11
-2.064091
 21
-0.301456
 31
0.0
  0
LINE
  5
11C
100
AcDbEntity
  8
0
  6
CONTINUOUS
 62
     7
100
AcDbLine
 10
-2.064091
 20
-0.493853
 30
0.0
 11
-2.064091
 21
-0.60927
 31
0.0
  0
LINE
  5
11D
100
AcDbEntity
  8
0
  6
CONTINUOUS
 62
     7
100
AcDbLine
 10
-2.106161
 20
-0.60927
 30
0.0
 11
-2.106161
 21
-0.493853
 31
0.0
  0
LINE
  5
11E
100
AcDbEntity
  8
0
  6
CONTINUOUS
 62
     7
100
AcDbLine
 10
-2.106161
 20
-0.301456
 30
0.0
 11
-2.106161
 21
-0.186014
 31
0.0
  0
LINE
  5
11F
100
AcDbEntity
  8
0
  6
CONTINUOUS
 62
     7
100
AcDbLine
 10
-2.148241
 20
-0.186014
 30
0.0
 11
-2.148241
 21
-0.301456
 31
0.0
  0
LINE
  5
120
100
AcDbEntity
  8
0
  6
CONTINUOUS
 62
     7
100
AcDbLine
 10
-2.148241
 20
-0.493853
 30
0.0
 11
-2.148241
 21
-0.60927
 31
0.0
  0
LINE
  5
121
100
AcDbEntity
  8
0
  6
CONTINUOUS
 62
     7
100
AcDbLine
 10
-2.190332
 20
-0.60927
 30
0.0
 11
-2.190332
 21
-0.493853
 31
0.0
  0
LINE
  5
122
100
AcDbEntity
  8
0
  6
CONTINUOUS
 62
     7
100
AcDbLine
 10
-2.190332
 20
-0.301456
 30
0.0
 11
-2.190332
 21
-0.186014
 31
0.0
  0
LINE
  5
123
100
AcDbEntity
  8
0
  6
CONTINUOUS
 62
     7
100
AcDbLine
 10
-2.232403
 20
-0.186014
 30
0.0
 11
-2.232403
 21
-0.301456
 31
0.0
  0
LINE
  5
124
100
AcDbEntity
  8
0
  6
CONTINUOUS
 62
     7
100
AcDbLine
 10
-2.232403
 20
-0.493853
 30
0.0
 11
-2.232403
 21
-0.60927
 31
0.0
  0
LINE
  5
125
100
AcDbEntity
  8
0
  6
CONTINUOUS
 62
     7
100
AcDbLine
 10
-2.274483
 20
-0.60927
 30
0.0
 11
-2.274483
 21
-0.493853
 31
0.0
  0
LINE
  5
126
100
AcDbEntity
  8
0
  6
CONTINUOUS
 62
     7
100
AcDbLine
 10
-2.274483
 20
-0.301456
 30
0.0
 11
-2.274483
 21
-0.186014
 31
0.0
  0
LINE
  5
127
100
AcDbEntity
  8
0
  6
CONTINUOUS
 62
     7
100
AcDbLine
 10
-2.316553
 20
-0.186014
 30
0.0
 11
-2.316553
 21
-0.301456
 31
0.0
  0
LINE
  5
128
100
AcDbEntity
  8
0
  6
CONTINUOUS
 62
     7
100
AcDbLine
 10
-2.316553
 20
-0.493853
 30
0.0
 11
-2.316553
 21
-0.60927
 31
0.0
  0
LINE
  5
129
100
AcDbEntity
  8
0
  6
CONTINUOUS
 62
     7
100
AcDbLine
 10
-2.358643
 20
-0.60936
 30
0.0
 11
-2.358643
 21
-0.487572
 31
0.0
  0
LINE
  5
12A
100
AcDbEntity
  8
0
  6
CONTINUOUS
 62
     7
100
AcDbLine
 10
-2.358643
 20
-0.307713
 30
0.0
 11
-2.358643
 21
-0.186014
 31
0.0
  0
LINE
  5
12B
100
AcDbEntity
  8
0
  6
CONTINUOUS
 62
     7
100
AcDbLine
 10
-2.400703
 20
-0.186014
 30
0.0
 11
-2.400703
 21
-0.840143
 31
0.0
  0
LINE
  5
12C
100
AcDbEntity
  8
0
  6
CONTINUOUS
 62
     7
100
AcDbLine
 10
-2.442795
 20
-0.840143
 30
0.0
 11
-2.442795
 21
-0.186014
 31
0.0
  0
LINE
  5
12D
100
AcDbEntity
  8
0
  6
CONTINUOUS
 62
     7
100
AcDbLine
 10
-2.484875
 20
-0.190729
 30
0.0
 11
-2.484875
 21
-0.835423
 31
0.0
  0
LWPOLYLINE
  5
12E
100
AcDbEntity
  8
0
  6
CONTINUOUS
 62
     7
100
AcDbPolyline
 90
       20
 70
   128
 43
0.0
 10
4.559917
 20
-0.394592
 10
4.559917
 20
-0.205236
 42
-0.201384
 10
4.565488
 20
-0.19168
 42
-0.098782
 10
4.571744
 20
-0.187524
 42
-0.097796
 10
4.579151
 20
-0.186064
 10
5.175545
 20
-0.186064
 42
-0.414213
 10
5.329312
 20
-0.339922
 10
5.329312
 20
-0.455351
 42
-0.198757
 10
5.284269
 20
-0.564224
 42
-0.199068
 10
5.175526
 20
-0.609321
 10
4.694584
 20
-0.609321
 42
0.197919
 10
4.680884
 20
-0.614931
 42
0.200195
 10
4.675209
 20
-0.628506
 10
4.675209
 20
-0.820871
 42
-0.197629
 10
4.669609
 20
-0.834525
 42
-0.200198
 10
4.65609
 20
-0.840181
 10
4.579151
 20
-0.840181
 42
-0.198402
 10
4.565444
 20
-0.834525
 42
-0.199425
 10
4.559766
 20
-0.820871
 10
4.559766
 20
-0.394592
  0
LWPOLYLINE
  5
12F
100
AcDbEntity
  8
0
  6
CONTINUOUS
 62
     7
100
AcDbPolyline
 90
       14
 70
   128
 43
0.0
 10
4.67535
 20
-0.394592
 10
4.67535
 20
-0.455339
 42
0.199631
 10
4.686563
 20
-0.4826
 42
0.199145
 10
4.713833
 20
-0.493891
 10
5.175526
 20
-0.493891
 42
0.199517
 10
5.202652
 20
-0.482603
 42
0.198309
 10
5.213887
 20
-0.455351
 10
5.213887
 20
-0.339922
 42
0.198715
 10
5.202652
 20
-0.312755
 42
0.199111
 10
5.175526
 20
-0.301502
 10
4.713833
 20
-0.301502
 42
0.198179
 10
4.686522
 20
-0.312751
 42
0.199645
 10
4.675209
 20
-0.339909
 10
4.675209
 20
-0.394592
  0
LINE
  5
130
100
AcDbEntity
  8
0
  6
CONTINUOUS
 62
     7
100
AcDbLine
 10
5.299492
 20
-0.248743
 30
0.0
 11
5.299492
 21
-0.546574
 31
0.0
  0
LINE
  5
131
100
AcDbEntity
  8
0
  6
CONTINUOUS
 62
     7
100
AcDbLine
 10
5.257401
 20
-0.585686
 30
0.0
 11
5.257401
 21
-0.209637
 31
0.0
  0
LINE
  5
132
100
AcDbEntity
  8
0
  6
CONTINUOUS
 62
     7
100
AcDbLine
 10
5.215321
 20
-0.191277
 30
0.0
 11
5.215321
 21
-0.604053
 31
0.0
  0
LINE
  5
133
100
AcDbEntity
  8
0
  6
CONTINUOUS
 62
     7
100
AcDbLine
 10
5.173249
 20
-0.609289
 30
0.0
 11
5.173249
 21
-0.49386
 31
0.0
  0
LINE
  5
134
100
AcDbEntity
  8
0
  6
CONTINUOUS
 62
     7
100
AcDbLine
 10
5.173249
 20
-0.301476
 30
0.0
 11
5.173249
 21
-0.186033
 31
0.0
  0
LINE
  5
135
100
AcDbEntity
  8
0
  6
CONTINUOUS
 62
     7
100
AcDbLine
 10
5.131172
 20
-0.186033
 30
0.0
 11
5.131172
 21
-0.301476
 31
0.0
  0
LINE
  5
136
100
AcDbEntity
  8
0
  6
CONTINUOUS
 62
     7
100
AcDbLine
 10
5.131172
 20
-0.49386
 30
0.0
 11
5.131172
 21
-0.609289
 31
0.0
  0
LINE
  5
137
100
AcDbEntity
  8
0
  6
CONTINUOUS
 62
     7
100
AcDbLine
 10
5.089069
 20
-0.609289
 30
0.0
 11
5.089069
 21
-0.49386
 31
0.0
  0
LINE
  5
138
100
AcDbEntity
  8
0
  6
CONTINUOUS
 62
     7
100
AcDbLine
 10
5.089069
 20
-0.301476
 30
0.0
 11
5.089069
 21
-0.186033
 31
0.0
  0
LINE
  5
139
100
AcDbEntity
  8
0
  6
CONTINUOUS
 62
     7
100
AcDbLine
 10
5.046989
 20
-0.186033
 30
0.0
 11
5.046989
 21
-0.301476
 31
0.0
  0
LINE
  5
13A
100
AcDbEntity
  8
0
  6
CONTINUOUS
 62
     7
100
AcDbLine
 10
5.046989
 20
-0.49386
 30
0.0
 11
5.046989
 21
-0.609289
 31
0.0
  0
LINE
  5
13B
100
AcDbEntity
  8
0
  6
CONTINUOUS
 62
     7
100
AcDbLine
 10
5.004921
 20
-0.609289
 30
0.0
 11
5.004921
 21
-0.49386
 31
0.0
  0
LINE
  5
13C
100
AcDbEntity
  8
0
  6
CONTINUOUS
 62
     7
100
AcDbLine
 10
5.004921
 20
-0.301476
 30
0.0
 11
5.004921
 21
-0.186033
 31
0.0
  0
LINE
  5
13D
100
AcDbEntity
  8
0
  6
CONTINUOUS
 62
     7
100
AcDbLine
 10
4.962837
 20
-0.186033
 30
0.0
 11
4.962837
 21
-0.301476
 31
0.0
  0
LINE
  5
13E
100
AcDbEntity
  8
0
  6
CONTINUOUS
 62
     7
100
AcDbLine
 10
4.962837
 20
-0.49386
 30
0.0
 11
4.962837
 21
-0.609289
 31
0.0
  0
LINE
  5
13F
100
AcDbEntity
  8
0
  6
CONTINUOUS
 62
     7
100
AcDbLine
 10
4.920769
 20
-0.609289
 30
0.0
 11
4.920769
 21
-0.49386
 31
0.0
  0
LINE
  5
140
100
AcDbEntity
  8
0
  6
CONTINUOUS
 62
     7
100
AcDbLine
 10
4.920769
 20
-0.301476
 30
0.0
 11
4.920769
 21
-0.186033
 31
0.0
  0
LINE
  5
141
100
AcDbEntity
  8
0
  6
CONTINUOUS
 62
     7
100
AcDbLine
 10
4.878689
 20
-0.186033
 30
0.0
 11
4.878689
 21
-0.301476
 31
0.0
  0
LINE
  5
142
100
AcDbEntity
  8
0
  6
CONTINUOUS
 62
     7
100
AcDbLine
 10
4.878689
 20
-0.49386
 30
0.0
 11
4.878689
 21
-0.609289
 31
0.0
  0
LINE
  5
143
100
AcDbEntity
  8
0
  6
CONTINUOUS
 62
     7
100
AcDbLine
 10
4.836601
 20
-0.609289
 30
0.0
 11
4.836601
 21
-0.49386
 31
0.0
  0
LINE
  5
144
100
AcDbEntity
  8
0
  6
CONTINUOUS
 62
     7
100
AcDbLine
 10
4.836601
 20
-0.301476
 30
0.0
 11
4.836601
 21
-0.186033
 31
0.0
  0
LINE
  5
145
100
AcDbEntity
  8
0
  6
CONTINUOUS
 62
     7
100
AcDbLine
 10
4.794529
 20
-0.186033
 30
0.0
 11
4.794529
 21
-0.301476
 31
0.0
  0
LINE
  5
146
100
AcDbEntity
  8
0
  6
CONTINUOUS
 62
     7
100
AcDbLine
 10
4.794529
 20
-0.49386
 30
0.0
 11
4.794529
 21
-0.609289
 31
0.0
  0
LINE
  5
147
100
AcDbEntity
  8
0
  6
CONTINUOUS
 62
     7
100
AcDbLine
 10
4.752438
 20
-0.609283
 30
0.0
 11
4.752438
 21
-0.49386
 31
0.0
  0
LINE
  5
148
100
AcDbEntity
  8
0
  6
CONTINUOUS
 62
     7
100
AcDbLine
 10
4.752438
 20
-0.301476
 30
0.0
 11
4.752438
 21
-0.186033
 31
0.0
  0
LINE
  5
149
100
AcDbEntity
  8
0
  6
CONTINUOUS
 62
     7
100
AcDbLine
 10
4.710358
 20
-0.186033
 30
0.0
 11
4.710358
 21
-0.301626
 31
0.0
  0
LINE
  5
14A
100
AcDbEntity
  8
0
  6
CONTINUOUS
 62
     7
100
AcDbLine
 10
4.710358
 20
-0.493721
 30
0.0
 11
4.710358
 21
-0.609283
 31
0.0
  0
LINE
  5
14B
100
AcDbEntity
  8
0
  6
CONTINUOUS
 62
     7
100
AcDbLine
 10
4.668285
 20
-0.835732
 30
0.0
 11
4.668285
 21
-0.186033
 31
0.0
  0
LINE
  5
14C
100
AcDbEntity
  8
0
  6
CONTINUOUS
 62
     7
100
AcDbLine
 10
4.626209
 20
-0.186033
 30
0.0
 11
4.626209
 21
-0.840151
 31
0.0
  0
LINE
  5
14D
100
AcDbEntity
  8
0
  6
CONTINUOUS
 62
     7
100
AcDbLine
 10
4.584118
 20
-0.840151
 30
0.0
 11
4.584118
 21
-0.186033
 31
0.0
  0
LWPOLYLINE
  5
14E
100
AcDbEntity
  8
0
  6
CONTINUOUS
 62
     7
100
AcDbPolyline
 90
       15
 70
   128
 43
0.0
 10
-3.133875
 20
-0.570763
 10
-3.240534
 20
-0.570763
 42
-0.132207
 10
-3.250214
 20
-0.568179
 42
-0.132697
 10
-3.257267
 20
-0.561091
 42
-0.132654
 10
-3.259791
 20
-0.551414
 42
-0.132122
 10
-3.257103
 20
-0.541759
 10
-3.12212
 20
-0.312296
 42
-0.130955
 10
-3.115107
 20
-0.305368
 42
-0.130505
 10
-3.105562
 20
-0.302835
 42
-0.264937
 10
-3.088953
 20
-0.312296
 10
-2.953987
 20
-0.541765
 42
-0.267773
 10
-2.953899
 20
-0.561113
 42
-0.131974
 10
-2.960933
 20
-0.568218
 42
-0.132677
 10
-2.970558
 20
-0.570821
 10
-3.133875
 20
-0.570821
  0
LWPOLYLINE
  5
14F
100
AcDbEntity
  8
0
  6
CONTINUOUS
 62
     7
100
AcDbPolyline
 90
       42
 70
   128
 43
0.0
 10
-3.50713
 20
-0.840094
 10
-3.443617
 20
-0.840094
 42
0.035763
 10
-3.441243
 20
-0.839945
 42
0.041906
 10
-3.439098
 20
-0.839471
 42
0.048563
 10
-3.437218
 20
-0.83868
 42
0.054455
 10
-3.435635
 20
-0.837586
 42
0.115166
 10
-3.433459
 20
-0.834564
 42
0.052712
 10
-3.432903
 20
-0.832687
 42
0.046379
 10
-3.432717
 20
-0.830608
 10
-3.347656
 20
-0.695679
 42
-0.131877
 10
-3.340652
 20
-0.688768
 42
-0.130008
 10
-3.331066
 20
-0.686243
 10
-2.880033
 20
-0.686243
 42
-0.035205
 10
-2.877654
 20
-0.686404
 42
-0.041234
 10
-2.875504
 20
-0.686885
 42
-0.047851
 10
-2.87362
 20
-0.687677
 42
-0.053864
 10
-2.872033
 20
-0.688767
 42
-0.115046
 10
-2.869852
 20
-0.691763
 42
-0.053199
 10
-2.869295
 20
-0.693619
 42
-0.047017
 10
-2.869109
 20
-0.695673
 10
-2.784071
 20
-0.830608
 42
0.132869
 10
-2.777086
 20
-0.837603
 42
0.131292
 10
-2.767473
 20
-0.84016
 10
-2.67746
 20
-0.84016
 42
0.132614
 10
-2.667834
 20
-0.837555
 42
0.131904
 10
-2.660799
 20
-0.830451
 42
0.267833
 10
-2.660881
 20
-0.81111
 10
-3.023014
 20
-0.195475
 42
0.128713
 10
-3.030084
 20
-0.188572
 42
0.130034
 10
-3.039583
 20
-0.186049
 10
-3.171507
 20
-0.186049
 42
0.034665
 10
-3.173921
 20
-0.186211
 42
0.040652
 10
-3.176103
 20
-0.186692
 42
0.04732
 10
-3.178015
 20
-0.187484
 42
0.053542
 10
-3.179625
 20
-0.188574
 42
0.115524
 10
-3.181838
 20
-0.191568
 42
0.053873
 10
-3.182403
 20
-0.193423
 42
0.047734
 10
-3.182593
 20
-0.195475
 10
-3.550211
 20
-0.811102
 42
0.268888
 10
-3.550358
 20
-0.830455
 42
0.269412
 10
-3.533642
 20
-0.840166
 10
-3.50713
 20
-0.840166
  0
LINE
  5
150
100
AcDbEntity
  8
0
  6
CONTINUOUS
 62
     7
100
AcDbLine
 10
-2.695238
 20
-0.840132
 30
0.0
 11
-2.695238
 21
-0.752773
 31
0.0
  0
LINE
  5
151
100
AcDbEntity
  8
0
  6
CONTINUOUS
 62
     7
100
AcDbLine
 10
-2.737308
 20
-0.681232
 30
0.0
 11
-2.737308
 21
-0.840132
 31
0.0
  0
LINE
  5
152
100
AcDbEntity
  8
0
  6
CONTINUOUS
 62
     7
100
AcDbLine
 10
-2.779388
 20
-0.836016
 30
0.0
 11
-2.779388
 21
-0.609705
 31
0.0
  0
LINE
  5
153
100
AcDbEntity
  8
0
  6
CONTINUOUS
 62
     7
100
AcDbLine
 10
-2.821459
 20
-0.538177
 30
0.0
 11
-2.821459
 21
-0.767105
 31
0.0
  0
LINE
  5
154
100
AcDbEntity
  8
0
  6
CONTINUOUS
 62
     7
100
AcDbLine
 10
-2.863548
 20
-0.695583
 30
0.0
 11
-2.863548
 21
-0.466642
 31
0.0
  0
LINE
  5
155
100
AcDbEntity
  8
0
  6
CONTINUOUS
 62
     7
100
AcDbLine
 10
-2.905628
 20
-0.395115
 30
0.0
 11
-2.905628
 21
-0.686218
 31
0.0
  0
LINE
  5
156
100
AcDbEntity
  8
0
  6
CONTINUOUS
 62
     7
100
AcDbLine
 10
-2.9477
 20
-0.686218
 30
0.0
 11
-2.9477
 21
-0.323587
 31
0.0
  0
LINE
  5
157
100
AcDbEntity
  8
0
  6
CONTINUOUS
 62
     7
100
AcDbLine
 10
-2.98978
 20
-0.25206
 30
0.0
 11
-2.98978
 21
-0.480982
 31
0.0
  0
LINE
  5
158
100
AcDbEntity
  8
0
  6
CONTINUOUS
 62
     7
100
AcDbLine
 10
-2.98978
 20
-0.570787
 30
0.0
 11
-2.98978
 21
-0.686218
 31
0.0
  0
LINE
  5
159
100
AcDbEntity
  8
0
  6
CONTINUOUS
 62
     7
100
AcDbLine
 10
-3.03187
 20
-0.686218
 30
0.0
 11
-3.03187
 21
-0.570787
 31
0.0
  0
LINE
  5
15A
100
AcDbEntity
  8
0
  6
CONTINUOUS
 62
     7
100
AcDbLine
 10
-3.03187
 20
-0.409454
 30
0.0
 11
-3.03187
 21
-0.18767
 31
0.0
  0
LINE
  5
15B
100
AcDbEntity
  8
0
  6
CONTINUOUS
 62
     7
100
AcDbLine
 10
-3.07394
 20
-0.186033
 30
0.0
 11
-3.07394
 21
-0.337919
 31
0.0
  0
LINE
  5
15C
100
AcDbEntity
  8
0
  6
CONTINUOUS
 62
     7
100
AcDbLine
 10
-3.07394
 20
-0.570787
 30
0.0
 11
-3.07394
 21
-0.686218
 31
0.0
  0
LINE
  5
15D
100
AcDbEntity
  8
0
  6
CONTINUOUS
 62
     7
100
AcDbLine
 10
-3.11602
 20
-0.686218
 30
0.0
 11
-3.11602
 21
-0.570801
 31
0.0
  0
LINE
  5
15E
100
AcDbEntity
  8
0
  6
CONTINUOUS
 62
     7
100
AcDbLine
 10
-3.11602
 20
-0.305901
 30
0.0
 11
-3.11602
 21
-0.186033
 31
0.0
  0
LINE
  5
15F
100
AcDbEntity
  8
0
  6
CONTINUOUS
 62
     7
100
AcDbLine
 10
-3.158091
 20
-0.186033
 30
0.0
 11
-3.158091
 21
-0.373369
 31
0.0
  0
LINE
  5
160
100
AcDbEntity
  8
0
  6
CONTINUOUS
 62
     7
100
AcDbLine
 10
-3.158091
 20
-0.570763
 30
0.0
 11
-3.158091
 21
-0.686218
 31
0.0
  0
LINE
  5
161
100
AcDbEntity
  8
0
  6
CONTINUOUS
 62
     7
100
AcDbLine
 10
-3.200172
 20
-0.686218
 30
0.0
 11
-3.200172
 21
-0.570763
 31
0.0
  0
LINE
  5
162
100
AcDbEntity
  8
0
  6
CONTINUOUS
 62
     7
100
AcDbLine
 10
-3.200172
 20
-0.444891
 30
0.0
 11
-3.200172
 21
-0.215956
 31
0.0
  0
LINE
  5
163
100
AcDbEntity
  8
0
  6
CONTINUOUS
 62
     7
100
AcDbLine
 10
-3.242243
 20
-0.287491
 30
0.0
 11
-3.242243
 21
-0.516424
 31
0.0
  0
LINE
  5
164
100
AcDbEntity
  8
0
  6
CONTINUOUS
 62
     7
100
AcDbLine
 10
-3.242243
 20
-0.570686
 30
0.0
 11
-3.242243
 21
-0.686218
 31
0.0
  0
LINE
  5
165
100
AcDbEntity
  8
0
  6
CONTINUOUS
 62
     7
100
AcDbLine
 10
-3.284323
 20
-0.686218
 30
0.0
 11
-3.284323
 21
-0.359018
 31
0.0
  0
LINE
  5
166
100
AcDbEntity
  8
0
  6
CONTINUOUS
 62
     7
100
AcDbLine
 10
-3.326412
 20
-0.430546
 30
0.0
 11
-3.326412
 21
-0.686218
 31
0.0
  0
LINE
  5
167
100
AcDbEntity
  8
0
  6
CONTINUOUS
 62
     7
100
AcDbLine
 10
-3.368483
 20
-0.731028
 30
0.0
 11
-3.368483
 21
-0.502087
 31
0.0
  0
LINE
  5
168
100
AcDbEntity
  8
0
  6
CONTINUOUS
 62
     7
100
AcDbLine
 10
-3.410572
 20
-0.573614
 30
0.0
 11
-3.410572
 21
-0.802549
 31
0.0
  0
LINE
  5
169
100
AcDbEntity
  8
0
  6
CONTINUOUS
 62
     7
100
AcDbLine
 10
-3.452652
 20
-0.840094
 30
0.0
 11
-3.452652
 21
-0.645142
 31
0.0
  0
LINE
  5
16A
100
AcDbEntity
  8
0
  6
CONTINUOUS
 62
     7
100
AcDbLine
 10
-3.494724
 20
-0.716677
 30
0.0
 11
-3.494724
 21
-0.840094
 31
0.0
  0
LINE
  5
16B
100
AcDbEntity
  8
0
  6
CONTINUOUS
 62
     7
100
AcDbLine
 10
-3.536804
 20
-0.839867
 30
0.0
 11
-3.536804
 21
-0.788204
 31
0.0
  0
LWPOLYLINE
  5
16C
100
AcDbEntity
  8
0
  6
CONTINUOUS
 62
     7
100
AcDbPolyline
 90
       15
 70
   128
 43
0.0
 10
5.745434
 20
-0.570787
 10
5.638783
 20
-0.570787
 42
-0.132112
 10
5.629092
 20
-0.568204
 42
-0.132801
 10
5.622035
 20
-0.561116
 42
-0.132853
 10
5.619516
 20
-0.551439
 42
-0.132214
 10
5.622215
 20
-0.541784
 10
5.757187
 20
-0.312315
 42
-0.130948
 10
5.764199
 20
-0.30539
 42
-0.13047
 10
5.773743
 20
-0.302859
 42
-0.264914
 10
5.790348
 20
-0.312315
 10
5.925319
 20
-0.541784
 42
-0.267468
 10
5.925396
 20
-0.561136
 42
-0.131892
 10
5.918365
 20
-0.568243
 42
-0.132783
 10
5.908749
 20
-0.570846
 10
5.745434
 20
-0.570846
  0
LWPOLYLINE
  5
16D
100
AcDbEntity
  8
0
  6
CONTINUOUS
 62
     7
100
AcDbPolyline
 90
       42
 70
   128
 43
0.0
 10
5.372181
 20
-0.840126
 10
5.4357
 20
-0.840126
 42
0.036007
 10
5.438061
 20
-0.839978
 42
0.042172
 10
5.440194
 20
-0.839505
 42
0.048807
 10
5.442063
 20
-0.838714
 42
0.054605
 10
5.443638
 20
-0.837618
 42
0.11497
 10
5.445802
 20
-0.834593
 42
0.052426
 10
5.446354
 20
-0.832715
 42
0.046074
 10
5.446539
 20
-0.830633
 10
5.531662
 20
-0.695698
 42
-0.133461
 10
5.538633
 20
-0.68879
 42
-0.065168
 10
5.543264
 20
-0.686907
 42
-0.064214
 10
5.54826
 20
-0.686265
 10
5.999294
 20
-0.686265
 42
-0.035376
 10
6.001663
 20
-0.686426
 42
-0.041416
 10
6.003803
 20
-0.686907
 42
-0.048013
 10
6.005679
 20
-0.687699
 42
-0.053956
 10
6.007258
 20
-0.68879
 42
-0.114876
 10
6.009429
 20
-0.691787
 42
-0.052983
 10
6.009983
 20
-0.693643
 42
-0.046791
 10
6.010169
 20
-0.695698
 10
6.095234
 20
-0.830633
 42
0.133463
 10
6.102207
 20
-0.837624
 42
0.131209
 10
6.111835
 20
-0.840179
 10
6.201866
 20
-0.840179
 42
0.132769
 10
6.211479
 20
-0.837574
 42
0.131827
 10
6.218509
 20
-0.830468
 42
0.267429
 10
6.218437
 20
-0.811121
 10
5.856293
 20
-0.195494
 42
0.128152
 10
5.849211
 20
-0.188593
 42
0.130013
 10
5.839725
 20
-0.186071
 10
5.70781
 20
-0.186071
 42
0.034479
 10
5.705384
 20
-0.186236
 42
0.040436
 10
5.703193
 20
-0.18672
 42
0.047101
 10
5.701272
 20
-0.187514
 42
0.053371
 10
5.699654
 20
-0.188605
 42
0.115548
 10
5.697432
 20
-0.191601
 42
0.054064
 10
5.696864
 20
-0.193454
 42
0.047967
 10
5.696674
 20
-0.195505
 10
5.329098
 20
-0.811127
 42
0.580734
 10
5.345688
 20
-0.840191
 10
5.372181
 20
-0.840191
  0
LINE
  5
16E
100
AcDbEntity
  8
0
  6
CONTINUOUS
 62
     7
100
AcDbLine
 10
6.183098
 20
-0.840151
 30
0.0
 11
6.183098
 21
-0.751118
 31
0.0
  0
LINE
  5
16F
100
AcDbEntity
  8
0
  6
CONTINUOUS
 62
     7
100
AcDbLine
 10
6.141026
 20
-0.67959
 30
0.0
 11
6.141026
 21
-0.840151
 31
0.0
  0
LINE
  5
170
100
AcDbEntity
  8
0
  6
CONTINUOUS
 62
     7
100
AcDbLine
 10
6.098938
 20
-0.835222
 30
0.0
 11
6.098938
 21
-0.608057
 31
0.0
  0
LINE
  5
171
100
AcDbEntity
  8
0
  6
CONTINUOUS
 62
     7
100
AcDbLine
 10
6.056858
 20
-0.536516
 30
0.0
 11
6.056858
 21
-0.765469
 31
0.0
  0
LINE
  5
172
100
AcDbEntity
  8
0
  6
CONTINUOUS
 62
     7
100
AcDbLine
 10
6.014786
 20
-0.69413
 30
0.0
 11
6.014786
 21
-0.464989
 31
0.0
  0
LINE
  5
173
100
AcDbEntity
  8
0
  6
CONTINUOUS
 62
     7
100
AcDbLine
 10
5.972706
 20
-0.393459
 30
0.0
 11
5.972706
 21
-0.686249
 31
0.0
  0
LINE
  5
174
100
AcDbEntity
  8
0
  6
CONTINUOUS
 62
     7
100
AcDbLine
 10
5.930614
 20
-0.686249
 30
0.0
 11
5.930614
 21
-0.321932
 31
0.0
  0
LINE
  5
175
100
AcDbEntity
  8
0
  6
CONTINUOUS
 62
     7
100
AcDbLine
 10
5.888527
 20
-0.250399
 30
0.0
 11
5.888527
 21
-0.479351
 31
0.0
  0
LINE
  5
176
100
AcDbEntity
  8
0
  6
CONTINUOUS
 62
     7
100
AcDbLine
 10
5.888527
 20
-0.57082
 30
0.0
 11
5.888527
 21
-0.686249
 31
0.0
  0
LINE
  5
177
100
AcDbEntity
  8
0
  6
CONTINUOUS
 62
     7
100
AcDbLine
 10
5.846455
 20
-0.686249
 30
0.0
 11
5.846455
 21
-0.57082
 31
0.0
  0
LINE
  5
178
100
AcDbEntity
  8
0
  6
CONTINUOUS
 62
     7
100
AcDbLine
 10
5.846455
 20
-0.40781
 30
0.0
 11
5.846455
 21
-0.187298
 31
0.0
  0
LINE
  5
179
100
AcDbEntity
  8
0
  6
CONTINUOUS
 62
     7
100
AcDbLine
 10
5.804375
 20
-0.186052
 30
0.0
 11
5.804375
 21
-0.336283
 31
0.0
  0
LINE
  5
17A
100
AcDbEntity
  8
0
  6
CONTINUOUS
 62
     7
100
AcDbLine
 10
5.804375
 20
-0.57082
 30
0.0
 11
5.804375
 21
-0.686249
 31
0.0
  0
LINE
  5
17B
100
AcDbEntity
  8
0
  6
CONTINUOUS
 62
     7
100
AcDbLine
 10
5.762306
 20
-0.686237
 30
0.0
 11
5.762306
 21
-0.57082
 31
0.0
  0
LINE
  5
17C
100
AcDbEntity
  8
0
  6
CONTINUOUS
 62
     7
100
AcDbLine
 10
5.762306
 20
-0.306599
 30
0.0
 11
5.762306
 21
-0.186052
 31
0.0
  0
LINE
  5
17D
100
AcDbEntity
  8
0
  6
CONTINUOUS
 62
     7
100
AcDbLine
 10
5.720223
 20
-0.186052
 30
0.0
 11
5.720223
 21
-0.375061
 31
0.0
  0
LINE
  5
17E
100
AcDbEntity
  8
0
  6
CONTINUOUS
 62
     7
100
AcDbLine
 10
5.720223
 20
-0.570787
 30
0.0
 11
5.720223
 21
-0.686237
 31
0.0
  0
LINE
  5
17F
100
AcDbEntity
  8
0
  6
CONTINUOUS
 62
     7
100
AcDbLine
 10
5.678154
 20
-0.686237
 30
0.0
 11
5.678154
 21
-0.570787
 31
0.0
  0
LINE
  5
180
100
AcDbEntity
  8
0
  6
CONTINUOUS
 62
     7
100
AcDbLine
 10
5.678154
 20
-0.44659
 30
0.0
 11
5.678154
 21
-0.217642
 31
0.0
  0
LINE
  5
181
100
AcDbEntity
  8
0
  6
CONTINUOUS
 62
     7
100
AcDbLine
 10
5.636074
 20
-0.289183
 30
0.0
 11
5.636074
 21
-0.518105
 31
0.0
  0
LINE
  5
182
100
AcDbEntity
  8
0
  6
CONTINUOUS
 62
     7
100
AcDbLine
 10
5.636074
 20
-0.570612
 30
0.0
 11
5.636074
 21
-0.686237
 31
0.0
  0
LINE
  5
183
100
AcDbEntity
  8
0
  6
CONTINUOUS
 62
     7
100
AcDbLine
 10
5.593975
 20
-0.686237
 30
0.0
 11
5.593975
 21
-0.36071
 31
0.0
  0
LINE
  5
184
100
AcDbEntity
  8
0
  6
CONTINUOUS
 62
     7
100
AcDbLine
 10
5.551895
 20
-0.432245
 30
0.0
 11
5.551895
 21
-0.686237
 31
0.0
  0
LINE
  5
185
100
AcDbEntity
  8
0
  6
CONTINUOUS
 62
     7
100
AcDbLine
 10
5.509823
 20
-0.732719
 30
0.0
 11
5.509823
 21
-0.503773
 31
0.0
  0
LINE
  5
186
100
AcDbEntity
  8
0
  6
CONTINUOUS
 62
     7
100
AcDbLine
 10
5.467743
 20
-0.575314
 30
0.0
 11
5.467743
 21
-0.804249
 31
0.0
  0
LINE
  5
187
100
AcDbEntity
  8
0
  6
CONTINUOUS
 62
     7
100
AcDbLine
 10
5.425675
 20
-0.840132
 30
0.0
 11
5.425675
 21
-0.646841
 31
0.0
  0
LINE
  5
188
100
AcDbEntity
  8
0
  6
CONTINUOUS
 62
     7
100
AcDbLine
 10
5.383595
 20
-0.718369
 30
0.0
 11
5.383595
 21
-0.840132
 31
0.0
  0
LINE
  5
189
100
AcDbEntity
  8
0
  6
CONTINUOUS
 62
     7
100
AcDbLine
 10
5.341526
 20
-0.839716
 30
0.0
 11
5.341526
 21
-0.789904
 31
0.0
  0
LWPOLYLINE
  5
18A
100
AcDbEntity
  8
0
  6
CONTINUOUS
 62
     7
100
AcDbPolyline
 90
       24
 70
   129
 43
0.0
 10
-4.090408
 20
-0.724663
 10
-4.312178
 20
-0.724663
 42
-0.414779
 10
-4.350767
 20
-0.68618
 10
-4.350767
 20
-0.205212
 42
0.198822
 10
-4.356366
 20
-0.191653
 42
0.199182
 10
-4.369902
 20
-0.186037
 10
-4.446857
 20
-0.186037
 42
0.197565
 10
-4.460527
 20
-0.191662
 42
0.199969
 10
-4.466189
 20
-0.205212
 10
-4.466189
 20
-0.68618
 42
0.414214
 10
-4.312178
 20
-0.840156
 10
-3.831215
 20
-0.840156
 42
0.199084
 10
-3.722466
 20
-0.795062
 42
0.198758
 10
-3.677421
 20
-0.68618
 10
-3.677421
 20
-0.205212
 42
0.198491
 10
-3.683019
 20
-0.191653
 42
0.199333
 10
-3.696533
 20
-0.186037
 10
-3.773489
 20
-0.186037
 42
0.197416
 10
-3.787174
 20
-0.191662
 42
0.098772
 10
-3.791369
 20
-0.19788
 42
0.099382
 10
-3.792842
 20
-0.205212
 10
-3.792842
 20
-0.68618
 42
-0.198289
 10
-3.804081
 20
-0.713444
 42
-0.199536
 10
-3.831215
 20
-0.724737
  0
LINE
  5
18B
100
AcDbEntity
  8
0
  6
CONTINUOUS
 62
     7
100
AcDbLine
 10
-3.705088
 20
-0.186014
 30
0.0
 11
-3.705088
 21
-0.774376
 31
0.0
  0
LINE
  5
18C
100
AcDbEntity
  8
0
  6
CONTINUOUS
 62
     7
100
AcDbLine
 10
-3.747168
 20
-0.815144
 30
0.0
 11
-3.747168
 21
-0.186014
 31
0.0
  0
LINE
  5
18D
100
AcDbEntity
  8
0
  6
CONTINUOUS
 62
     7
100
AcDbLine
 10
-3.789238
 20
-0.194153
 30
0.0
 11
-3.789238
 21
-0.834297
 31
0.0
  0
LINE
  5
18E
100
AcDbEntity
  8
0
  6
CONTINUOUS
 62
     7
100
AcDbLine
 10
-3.831318
 20
-0.840143
 30
0.0
 11
-3.831318
 21
-0.724701
 31
0.0
  0
LINE
  5
18F
100
AcDbEntity
  8
0
  6
CONTINUOUS
 62
     7
100
AcDbLine
 10
-3.873407
 20
-0.724701
 30
0.0
 11
-3.873407
 21
-0.840143
 31
0.0
  0
LINE
  5
190
100
AcDbEntity
  8
0
  6
CONTINUOUS
 62
     7
100
AcDbLine
 10
-3.915478
 20
-0.840143
 30
0.0
 11
-3.915478
 21
-0.724701
 31
0.0
  0
LINE
  5
191
100
AcDbEntity
  8
0
  6
CONTINUOUS
 62
     7
100
AcDbLine
 10
-3.957569
 20
-0.724695
 30
0.0
 11
-3.957569
 21
-0.840143
 31
0.0
  0
LINE
  5
192
100
AcDbEntity
  8
0
  6
CONTINUOUS
 62
     7
100
AcDbLine
 10
-3.999649
 20
-0.840143
 30
0.0
 11
-3.999649
 21
-0.724676
 31
0.0
  0
LINE
  5
193
100
AcDbEntity
  8
0
  6
CONTINUOUS
 62
     7
100
AcDbLine
 10
-4.04172
 20
-0.724676
 30
0.0
 11
-4.04172
 21
-0.840143
 31
0.0
  0
LINE
  5
194
100
AcDbEntity
  8
0
  6
CONTINUOUS
 62
     7
100
AcDbLine
 10
-4.083799
 20
-0.840143
 30
0.0
 11
-4.083799
 21
-0.724676
 31
0.0
  0
LINE
  5
195
100
AcDbEntity
  8
0
  6
CONTINUOUS
 62
     7
100
AcDbLine
 10
-4.12587
 20
-0.724663
 30
0.0
 11
-4.12587
 21
-0.840143
 31
0.0
  0
LINE
  5
196
100
AcDbEntity
  8
0
  6
CONTINUOUS
 62
     7
100
AcDbLine
 10
-4.16795
 20
-0.840143
 30
0.0
 11
-4.16795
 21
-0.724663
 31
0.0
  0
LINE
  5
197
100
AcDbEntity
  8
0
  6
CONTINUOUS
 62
     7
100
AcDbLine
 10
-4.210022
 20
-0.724663
 30
0.0
 11
-4.210022
 21
-0.840143
 31
0.0
  0
LINE
  5
198
100
AcDbEntity
  8
0
  6
CONTINUOUS
 62
     7
100
AcDbLine
 10
-4.252111
 20
-0.840143
 30
0.0
 11
-4.252111
 21
-0.724663
 31
0.0
  0
LINE
  5
199
100
AcDbEntity
  8
0
  6
CONTINUOUS
 62
     7
100
AcDbLine
 10
-4.294191
 20
-0.724663
 30
0.0
 11
-4.294191
 21
-0.840143
 31
0.0
  0
LINE
  5
19A
100
AcDbEntity
  8
0
  6
CONTINUOUS
 62
     7
100
AcDbLine
 10
-4.336262
 20
-0.838243
 30
0.0
 11
-4.336262
 21
-0.716236
 31
0.0
  0
LINE
  5
19B
100
AcDbEntity
  8
0
  6
CONTINUOUS
 62
     7
100
AcDbLine
 10
-4.378342
 20
-0.186014
 30
0.0
 11
-4.378342
 21
-0.825209
 31
0.0
  0
LINE
  5
19C
100
AcDbEntity
  8
0
  6
CONTINUOUS
 62
     7
100
AcDbLine
 10
-4.420431
 20
-0.795675
 30
0.0
 11
-4.420431
 21
-0.186014
 31
0.0
  0
LINE
  5
19D
100
AcDbEntity
  8
0
  6
CONTINUOUS
 62
     7
100
AcDbLine
 10
-4.462502
 20
-0.193995
 30
0.0
 11
-4.462502
 21
-0.719501
 31
0.0
  0
LWPOLYLINE
  5
19E
100
AcDbEntity
  8
0
  6
CONTINUOUS
 62
     7
100
AcDbPolyline
 90
       14
 70
   128
 43
0.0
 10
2.740578
 20
-0.301426
 10
2.485214
 20
-0.301426
 42
0.197962
 10
2.457905
 20
-0.312718
 42
0.199441
 10
2.446594
 20
-0.33989
 10
2.446594
 20
-0.686193
 42
0.19917
 10
2.457905
 20
-0.713448
 42
0.198654
 10
2.485214
 20
-0.724737
 10
3.043137
 20
-0.724737
 42
0.199579
 10
3.070252
 20
-0.713448
 42
0.198246
 10
3.081483
 20
-0.686193
 10
3.081483
 20
-0.339909
 42
0.198664
 10
3.070252
 20
-0.312741
 42
0.199161
 10
3.043137
 20
-0.301488
 10
2.740578
 20
-0.301488
  0
LWPOLYLINE
  5
19F
100
AcDbEntity
  8
0
  6
CONTINUOUS
 62
     7
100
AcDbPolyline
 90
       12
 70
   128
 43
0.0
 10
2.740578
 20
-0.185995
 10
3.043137
 20
-0.185995
 42
-0.414345
 10
3.196913
 20
-0.339909
 10
3.196913
 20
-0.686193
 42
-0.198734
 10
3.151873
 20
-0.795079
 42
-0.19909
 10
3.043137
 20
-0.840181
 10
2.485214
 20
-0.840181
 42
-0.414214
 10
2.331172
 20
-0.686193
 10
2.331172
 20
-0.33989
 42
-0.199091
 10
2.37629
 20
-0.231115
 42
-0.198734
 10
2.485214
 20
-0.186059
 10
2.740578
 20
-0.186059
  0
LINE
  5
1A0
100
AcDbEntity
  8
0
  6
CONTINUOUS
 62
     7
100
AcDbLine
 10
3.195614
 20
-0.319395
 30
0.0
 11
3.195614
 21
-0.706738
 31
0.0
  0
LINE
  5
1A1
100
AcDbEntity
  8
0
  6
CONTINUOUS
 62
     7
100
AcDbLine
 10
3.153523
 20
-0.793428
 30
0.0
 11
3.153523
 21
-0.232731
 31
0.0
  0
LINE
  5
1A2
100
AcDbEntity
  8
0
  6
CONTINUOUS
 62
     7
100
AcDbLine
 10
3.111454
 20
-0.202021
 30
0.0
 11
3.111454
 21
-0.824139
 31
0.0
  0
LINE
  5
1A3
100
AcDbEntity
  8
0
  6
CONTINUOUS
 62
     7
100
AcDbLine
 10
3.069362
 20
-0.837885
 30
0.0
 11
3.069362
 21
-0.714335
 31
0.0
  0
LINE
  5
1A4
100
AcDbEntity
  8
0
  6
CONTINUOUS
 62
     7
100
AcDbLine
 10
3.069362
 20
-0.311823
 30
0.0
 11
3.069362
 21
-0.188274
 31
0.0
  0
LINE
  5
1A5
100
AcDbEntity
  8
0
  6
CONTINUOUS
 62
     7
100
AcDbLine
 10
3.027283
 20
-0.186008
 30
0.0
 11
3.027283
 21
-0.301464
 31
0.0
  0
LINE
  5
1A6
100
AcDbEntity
  8
0
  6
CONTINUOUS
 62
     7
100
AcDbLine
 10
3.027283
 20
-0.72472
 30
0.0
 11
3.027283
 21
-0.840151
 31
0.0
  0
LINE
  5
1A7
100
AcDbEntity
  8
0
  6
CONTINUOUS
 62
     7
100
AcDbLine
 10
2.98521
 20
-0.840151
 30
0.0
 11
2.98521
 21
-0.72472
 31
0.0
  0
LINE
  5
1A8
100
AcDbEntity
  8
0
  6
CONTINUOUS
 62
     7
100
AcDbLine
 10
2.98521
 20
-0.301464
 30
0.0
 11
2.98521
 21
-0.186008
 31
0.0
  0
LINE
  5
1A9
100
AcDbEntity
  8
0
  6
CONTINUOUS
 62
     7
100
AcDbLine
 10
2.943131
 20
-0.186008
 30
0.0
 11
2.943131
 21
-0.301464
 31
0.0
  0
LINE
  5
1AA
100
AcDbEntity
  8
0
  6
CONTINUOUS
 62
     7
100
AcDbLine
 10
2.943131
 20
-0.72472
 30
0.0
 11
2.943131
 21
-0.840151
 31
0.0
  0
LINE
  5
1AB
100
AcDbEntity
  8
0
  6
CONTINUOUS
 62
     7
100
AcDbLine
 10
2.901043
 20
-0.840151
 30
0.0
 11
2.901043
 21
-0.72472
 31
0.0
  0
LINE
  5
1AC
100
AcDbEntity
  8
0
  6
CONTINUOUS
 62
     7
100
AcDbLine
 10
2.901043
 20
-0.301464
 30
0.0
 11
2.901043
 21
-0.186008
 31
0.0
  0
LINE
  5
1AD
100
AcDbEntity
  8
0
  6
CONTINUOUS
 62
     7
100
AcDbLine
 10
2.858971
 20
-0.186008
 30
0.0
 11
2.858971
 21
-0.301464
 31
0.0
  0
LINE
  5
1AE
100
AcDbEntity
  8
0
  6
CONTINUOUS
 62
     7
100
AcDbLine
 10
2.858971
 20
-0.72472
 30
0.0
 11
2.858971
 21
-0.840151
 31
0.0
  0
LINE
  5
1AF
100
AcDbEntity
  8
0
  6
CONTINUOUS
 62
     7
100
AcDbLine
 10
2.816891
 20
-0.840151
 30
0.0
 11
2.816891
 21
-0.72472
 31
0.0
  0
LINE
  5
1B0
100
AcDbEntity
  8
0
  6
CONTINUOUS
 62
     7
100
AcDbLine
 10
2.816891
 20
-0.301464
 30
0.0
 11
2.816891
 21
-0.186008
 31
0.0
  0
LINE
  5
1B1
100
AcDbEntity
  8
0
  6
CONTINUOUS
 62
     7
100
AcDbLine
 10
2.774818
 20
-0.186008
 30
0.0
 11
2.774818
 21
-0.301464
 31
0.0
  0
LINE
  5
1B2
100
AcDbEntity
  8
0
  6
CONTINUOUS
 62
     7
100
AcDbLine
 10
2.774818
 20
-0.72472
 30
0.0
 11
2.774818
 21
-0.840151
 31
0.0
  0
LINE
  5
1B3
100
AcDbEntity
  8
0
  6
CONTINUOUS
 62
     7
100
AcDbLine
 10
2.732739
 20
-0.840151
 30
0.0
 11
2.732739
 21
-0.72472
 31
0.0
  0
LINE
  5
1B4
100
AcDbEntity
  8
0
  6
CONTINUOUS
 62
     7
100
AcDbLine
 10
2.732739
 20
-0.301426
 30
0.0
 11
2.732739
 21
-0.186033
 31
0.0
  0
LINE
  5
1B5
100
AcDbEntity
  8
0
  6
CONTINUOUS
 62
     7
100
AcDbLine
 10
2.690651
 20
-0.186033
 30
0.0
 11
2.690651
 21
-0.301426
 31
0.0
  0
LINE
  5
1B6
100
AcDbEntity
  8
0
  6
CONTINUOUS
 62
     7
100
AcDbLine
 10
2.690651
 20
-0.72472
 30
0.0
 11
2.690651
 21
-0.840151
 31
0.0
  0
LINE
  5
1B7
100
AcDbEntity
  8
0
  6
CONTINUOUS
 62
     7
100
AcDbLine
 10
2.64856
 20
-0.840151
 30
0.0
 11
2.64856
 21
-0.72472
 31
0.0
  0
LINE
  5
1B8
100
AcDbEntity
  8
0
  6
CONTINUOUS
 62
     7
100
AcDbLine
 10
2.64856
 20
-0.301426
 30
0.0
 11
2.64856
 21
-0.186033
 31
0.0
  0
LINE
  5
1B9
100
AcDbEntity
  8
0
  6
CONTINUOUS
 62
     7
100
AcDbLine
 10
2.606491
 20
-0.186033
 30
0.0
 11
2.606491
 21
-0.301426
 31
0.0
  0
LINE
  5
1BA
100
AcDbEntity
  8
0
  6
CONTINUOUS
 62
     7
100
AcDbLine
 10
2.606491
 20
-0.72472
 30
0.0
 11
2.606491
 21
-0.840151
 31
0.0
  0
LINE
  5
1BB
100
AcDbEntity
  8
0
  6
CONTINUOUS
 62
     7
100
AcDbLine
 10
2.564407
 20
-0.840151
 30
0.0
 11
2.564407
 21
-0.72472
 31
0.0
  0
LINE
  5
1BC
100
AcDbEntity
  8
0
  6
CONTINUOUS
 62
     7
100
AcDbLine
 10
2.564407
 20
-0.301426
 30
0.0
 11
2.564407
 21
-0.186033
 31
0.0
  0
LINE
  5
1BD
100
AcDbEntity
  8
0
  6
CONTINUOUS
 62
     7
100
AcDbLine
 10
2.522339
 20
-0.186033
 30
0.0
 11
2.522339
 21
-0.301426
 31
0.0
  0
LINE
  5
1BE
100
AcDbEntity
  8
0
  6
CONTINUOUS
 62
     7
100
AcDbLine
 10
2.522339
 20
-0.72472
 30
0.0
 11
2.522339
 21
-0.840151
 31
0.0
  0
LINE
  5
1BF
100
AcDbEntity
  8
0
  6
CONTINUOUS
 62
     7
100
AcDbLine
 10
2.480259
 20
-0.840075
 30
0.0
 11
2.480259
 21
-0.724411
 31
0.0
  0
LINE
  5
1C0
100
AcDbEntity
  8
0
  6
CONTINUOUS
 62
     7
100
AcDbLine
 10
2.480259
 20
-0.301746
 30
0.0
 11
2.480259
 21
-0.186121
 31
0.0
  0
LINE
  5
1C1
100
AcDbEntity
  8
0
  6
CONTINUOUS
 62
     7
100
AcDbLine
 10
2.438187
 20
-0.193373
 30
0.0
 11
2.438187
 21
-0.832817
 31
0.0
  0
LINE
  5
1C2
100
AcDbEntity
  8
0
  6
CONTINUOUS
 62
     7
100
AcDbLine
 10
2.396099
 20
-0.811769
 30
0.0
 11
2.396099
 21
-0.214396
 31
0.0
  0
LINE
  5
1C3
100
AcDbEntity
  8
0
  6
CONTINUOUS
 62
     7
100
AcDbLine
 10
2.354008
 20
-0.259329
 30
0.0
 11
2.354008
 21
-0.766829
 31
0.0
  0
LWPOLYLINE
  5
1C4
100
AcDbEntity
  8
0
  6
CONTINUOUS
 62
     7
100
AcDbPolyline
 90
       40
 70
   129
 43
0.0
 10
-5.694281
 20
-0.359125
 42
0.200538
 10
-5.680746
 20
-0.353521
 42
0.098505
 10
-5.676597
 20
-0.347273
 42
0.097857
 10
-5.67514
 20
-0.33989
 42
0.414269
 10
-5.828963
 20
-0.186045
 10
-6.290674
 20
-0.186045
 42
0.198759
 10
-6.399587
 20
-0.231105
 42
0.199065
 10
-6.4447
 20
-0.33989
 10
-6.4447
 20
-0.416838
 42
0.414214
 10
-6.290674
 20
-0.570818
 10
-5.828963
 20
-0.570818
 42
-0.414214
 10
-5.790592
 20
-0.609226
 10
-5.790592
 20
-0.68618
 42
-0.198326
 10
-5.801831
 20
-0.713435
 42
-0.199498
 10
-5.828963
 20
-0.724724
 10
-6.290674
 20
-0.724724
 42
-0.198717
 10
-6.31797
 20
-0.713435
 42
-0.199109
 10
-6.329276
 20
-0.68618
 42
0.198531
 10
-6.334877
 20
-0.672619
 42
0.199291
 10
-6.348398
 20
-0.667002
 10
-6.425354
 20
-0.667002
 42
0.197781
 10
-6.439033
 20
-0.672619
 42
0.20004
 10
-6.4447
 20
-0.68618
 42
0.414214
 10
-6.290674
 20
-0.840156
 10
-5.828963
 20
-0.840156
 42
0.199067
 10
-5.720214
 20
-0.795058
 42
0.198758
 10
-5.67517
 20
-0.68618
 10
-5.67517
 20
-0.609226
 42
0.414213
 10
-5.828963
 20
-0.455386
 10
-6.290674
 20
-0.455386
 42
-0.198693
 10
-6.31797
 20
-0.444099
 42
-0.199133
 10
-6.329276
 20
-0.416849
 10
-6.329276
 20
-0.33989
 42
-0.199519
 10
-6.31797
 20
-0.312721
 42
-0.198308
 10
-6.290674
 20
-0.301467
 10
-5.828963
 20
-0.301467
 42
-0.199089
 10
-5.801831
 20
-0.312721
 42
-0.198735
 10
-5.790592
 20
-0.33989
 42
0.199223
 10
-5.784924
 20
-0.353542
 42
0.198604
 10
-5.771238
 20
-0.359198
  0
LINE
  5
1C5
100
AcDbEntity
  8
0
  6
CONTINUOUS
 62
     7
100
AcDbLine
 10
-5.682724
 20
-0.292015
 30
0.0
 11
-5.682724
 21
-0.355272
 31
0.0
  0
LINE
  5
1C6
100
AcDbEntity
  8
0
  6
CONTINUOUS
 62
     7
100
AcDbLine
 10
-5.682724
 20
-0.561359
 30
0.0
 11
-5.682724
 21
-0.734085
 31
0.0
  0
LINE
  5
1C7
100
AcDbEntity
  8
0
  6
CONTINUOUS
 62
     7
100
AcDbLine
 10
-5.724814
 20
-0.799509
 30
0.0
 11
-5.724814
 21
-0.495968
 31
0.0
  0
LINE
  5
1C8
100
AcDbEntity
  8
0
  6
CONTINUOUS
 62
     7
100
AcDbLine
 10
-5.724814
 20
-0.35915
 30
0.0
 11
-5.724814
 21
-0.226631
 31
0.0
  0
LWPOLYLINE
  5
1C9
100
AcDbEntity
  8
0
  6
CONTINUOUS
 62
     7
100
AcDbPolyline
 90
        5
 70
   128
 43
0.0
 10
-8.667431
 20
0.272949
 10
-8.667431
 20
-1.568451
 10
-6.826027
 20
-1.568451
 10
-6.826027
 20
0.272957
 10
-8.667431
 20
0.272957
  0
LWPOLYLINE
  5
1CA
100
AcDbEntity
  8
0
  6
CONTINUOUS
 62
     7
100
AcDbPolyline
 90
        5
 70
   128
 43
0.0
 10
-8.510916
 20
0.116438
 10
-8.510916
 20
-1.411921
 10
-6.982548
 20
-1.411921
 10
-6.982548
 20
0.116438
 10
-8.509499
 20
0.116438
  0
LWPOLYLINE
  5
1CB
100
AcDbEntity
  8
0
  6
CONTINUOUS
 62
     7
100
AcDbPolyline
 90
       11
 70
   128
 43
0.0
 10
-8.354397
 20
-0.040089
 10
-7.286381
 20
-0.040089
 10
-7.139067
 20
-0.251839
 10
-7.139067
 20
-1.04365
 10
-7.286381
 20
-1.255402
 10
-8.354397
 20
-1.255402
 10
-8.354397
 20
-1.04365
 10
-8.188673
 20
-1.04365
 10
-8.188673
 20
-0.251839
 10
-8.354397
 20
-0.251839
 10
-8.354397
 20
-0.040089
  0
LWPOLYLINE
  5
1CC
100
AcDbEntity
  8
0
  6
CONTINUOUS
 62
     7
100
AcDbPolyline
 90
        5
 70
   128
 43
0.0
 10
-7.976904
 20
-0.251839
 10
-7.976904
 20
-1.04365
 10
-7.366112
 20
-1.04365
 10
-7.366112
 20
-0.251839
 10
-7.976904
 20
-0.251839
  0
LINE
  5
1CD
100
AcDbEntity
  8
0
  6
CONTINUOUS
 62
     7
100
AcDbLine
 10
-7.288504
 20
0.272949
 30
0.0
 11
-7.288504
 21
0.116438
 31
0.0
  0
LINE
  5
1CE
100
AcDbEntity
  8
0
  6
CONTINUOUS
 62
     7
100
AcDbLine
 10
-7.288504
 20
-0.040089
 30
0.0
 11
-7.288504
 21
-1.255402
 31
0.0
  0
LINE
  5
1CF
100
AcDbEntity
  8
0
  6
CONTINUOUS
 62
     7
100
AcDbLine
 10
-7.288504
 20
-1.411913
 30
0.0
 11
-7.288504
 21
-1.568451
 31
0.0
  0
LINE
  5
1D0
100
AcDbEntity
  8
0
  6
CONTINUOUS
 62
     7
100
AcDbLine
 10
-7.258518
 20
0.272949
 30
0.0
 11
-7.258518
 21
0.116438
 31
0.0
  0
LINE
  5
1D1
100
AcDbEntity
  8
0
  6
CONTINUOUS
 62
     7
100
AcDbLine
 10
-7.258518
 20
-0.080139
 30
0.0
 11
-7.258518
 21
-1.215351
 31
0.0
  0
LINE
  5
1D2
100
AcDbEntity
  8
0
  6
CONTINUOUS
 62
     7
100
AcDbLine
 10
-7.258518
 20
-1.411921
 30
0.0
 11
-7.258518
 21
-1.56844
 31
0.0
  0
LINE
  5
1D3
100
AcDbEntity
  8
0
  6
CONTINUOUS
 62
     7
100
AcDbLine
 10
-7.228571
 20
0.272949
 30
0.0
 11
-7.228571
 21
0.116438
 31
0.0
  0
LINE
  5
1D4
100
AcDbEntity
  8
0
  6
CONTINUOUS
 62
     7
100
AcDbLine
 10
-7.228571
 20
-0.123222
 30
0.0
 11
-7.228571
 21
-1.172272
 31
0.0
  0
LINE
  5
1D5
100
AcDbEntity
  8
0
  6
CONTINUOUS
 62
     7
100
AcDbLine
 10
-7.228571
 20
-1.411913
 30
0.0
 11
-7.228571
 21
-1.568451
 31
0.0
  0
LINE
  5
1D6
100
AcDbEntity
  8
0
  6
CONTINUOUS
 62
     7
100
AcDbLine
 10
-7.198584
 20
0.272949
 30
0.0
 11
-7.198584
 21
0.116438
 31
0.0
  0
LINE
  5
1D7
100
AcDbEntity
  8
0
  6
CONTINUOUS
 62
     7
100
AcDbLine
 10
-7.198584
 20
-0.166319
 30
0.0
 11
-7.198584
 21
-1.129169
 31
0.0
  0
LINE
  5
1D8
100
AcDbEntity
  8
0
  6
CONTINUOUS
 62
     7
100
AcDbLine
 10
-7.198584
 20
-1.411921
 30
0.0
 11
-7.198584
 21
-1.568451
 31
0.0
  0
LINE
  5
1D9
100
AcDbEntity
  8
0
  6
CONTINUOUS
 62
     7
100
AcDbLine
 10
-7.168589
 20
0.272949
 30
0.0
 11
-7.168589
 21
0.116438
 31
0.0
  0
LINE
  5
1DA
100
AcDbEntity
  8
0
  6
CONTINUOUS
 62
     7
100
AcDbLine
 10
-7.168589
 20
-0.209404
 30
0.0
 11
-7.168589
 21
-1.086092
 31
0.0
  0
LINE
  5
1DB
100
AcDbEntity
  8
0
  6
CONTINUOUS
 62
     7
100
AcDbLine
 10
-7.168589
 20
-1.411913
 30
0.0
 11
-7.168589
 21
-1.568451
 31
0.0
  0
LINE
  5
1DC
100
AcDbEntity
  8
0
  6
CONTINUOUS
 62
     7
100
AcDbLine
 10
-7.138622
 20
0.272949
 30
0.0
 11
-7.138622
 21
0.116438
 31
0.0
  0
LINE
  5
1DD
100
AcDbEntity
  8
0
  6
CONTINUOUS
 62
     7
100
AcDbLine
 10
-7.138622
 20
-1.411921
 30
0.0
 11
-7.138622
 21
-1.568451
 31
0.0
  0
LINE
  5
1DE
100
AcDbEntity
  8
0
  6
CONTINUOUS
 62
     7
100
AcDbLine
 10
-8.187804
 20
0.272949
 30
0.0
 11
-8.187804
 21
0.116438
 31
0.0
  0
LINE
  5
1DF
100
AcDbEntity
  8
0
  6
CONTINUOUS
 62
     7
100
AcDbLine
 10
-8.187804
 20
-0.040089
 30
0.0
 11
-8.187804
 21
-1.255413
 31
0.0
  0
LINE
  5
1E0
100
AcDbEntity
  8
0
  6
CONTINUOUS
 62
     7
100
AcDbLine
 10
-8.187804
 20
-1.411921
 30
0.0
 11
-8.187804
 21
-1.568451
 31
0.0
  0
LINE
  5
1E1
100
AcDbEntity
  8
0
  6
CONTINUOUS
 62
     7
100
AcDbLine
 10
-8.157809
 20
0.272949
 30
0.0
 11
-8.157809
 21
0.116438
 31
0.0
  0
LINE
  5
1E2
100
AcDbEntity
  8
0
  6
CONTINUOUS
 62
     7
100
AcDbLine
 10
-8.157809
 20
-0.040089
 30
0.0
 11
-8.157809
 21
-1.255413
 31
0.0
  0
LINE
  5
1E3
100
AcDbEntity
  8
0
  6
CONTINUOUS
 62
     7
100
AcDbLine
 10
-8.157809
 20
-1.411921
 30
0.0
 11
-8.157809
 21
-1.568451
 31
0.0
  0
LINE
  5
1E4
100
AcDbEntity
  8
0
  6
CONTINUOUS
 62
     7
100
AcDbLine
 10
-7.977951
 20
0.272949
 30
0.0
 11
-7.977951
 21
0.116438
 31
0.0
  0
LINE
  5
1E5
100
AcDbEntity
  8
0
  6
CONTINUOUS
 62
     7
100
AcDbLine
 10
-7.977951
 20
-0.040089
 30
0.0
 11
-7.977951
 21
-1.255402
 31
0.0
  0
LINE
  5
1E6
100
AcDbEntity
  8
0
  6
CONTINUOUS
 62
     7
100
AcDbLine
 10
-7.977951
 20
-1.411913
 30
0.0
 11
-7.977951
 21
-1.56844
 31
0.0
  0
LINE
  5
1E7
100
AcDbEntity
  8
0
  6
CONTINUOUS
 62
     7
100
AcDbLine
 10
-8.007946
 20
0.272949
 30
0.0
 11
-8.007946
 21
0.116438
 31
0.0
  0
LINE
  5
1E8
100
AcDbEntity
  8
0
  6
CONTINUOUS
 62
     7
100
AcDbLine
 10
-8.007946
 20
-0.040089
 30
0.0
 11
-8.007946
 21
-1.255413
 31
0.0
  0
LINE
  5
1E9
100
AcDbEntity
  8
0
  6
CONTINUOUS
 62
     7
100
AcDbLine
 10
-8.007946
 20
-1.411921
 30
0.0
 11
-8.007946
 21
-1.568451
 31
0.0
  0
LINE
  5
1EA
100
AcDbEntity
  8
0
  6
CONTINUOUS
 62
     7
100
AcDbLine
 10
-8.037931
 20
0.272949
 30
0.0
 11
-8.037931
 21
0.116438
 31
0.0
  0
LINE
  5
1EB
100
AcDbEntity
  8
0
  6
CONTINUOUS
 62
     7
100
AcDbLine
 10
-8.037931
 20
-0.040089
 30
0.0
 11
-8.037931
 21
-1.255413
 31
0.0
  0
LINE
  5
1EC
100
AcDbEntity
  8
0
  6
CONTINUOUS
 62
     7
100
AcDbLine
 10
-8.037931
 20
-1.411921
 30
0.0
 11
-8.037931
 21
-1.568451
 31
0.0
  0
LINE
  5
1ED
100
AcDbEntity
  8
0
  6
CONTINUOUS
 62
     7
100
AcDbLine
 10
-8.06788
 20
0.272949
 30
0.0
 11
-8.06788
 21
0.116438
 31
0.0
  0
LINE
  5
1EE
100
AcDbEntity
  8
0
  6
CONTINUOUS
 62
     7
100
AcDbLine
 10
-8.06788
 20
-0.040089
 30
0.0
 11
-8.06788
 21
-1.255413
 31
0.0
  0
LINE
  5
1EF
100
AcDbEntity
  8
0
  6
CONTINUOUS
 62
     7
100
AcDbLine
 10
-8.06788
 20
-1.411921
 30
0.0
 11
-8.06788
 21
-1.568451
 31
0.0
  0
LINE
  5
1F0
100
AcDbEntity
  8
0
  6
CONTINUOUS
 62
     7
100
AcDbLine
 10
-8.097865
 20
0.272949
 30
0.0
 11
-8.097865
 21
0.116438
 31
0.0
  0
LINE
  5
1F1
100
AcDbEntity
  8
0
  6
CONTINUOUS
 62
     7
100
AcDbLine
 10
-8.097865
 20
-0.040089
 30
0.0
 11
-8.097865
 21
-1.255413
 31
0.0
  0
LINE
  5
1F2
100
AcDbEntity
  8
0
  6
CONTINUOUS
 62
     7
100
AcDbLine
 10
-8.097865
 20
-1.411921
 30
0.0
 11
-8.097865
 21
-1.568451
 31
0.0
  0
LINE
  5
1F3
100
AcDbEntity
  8
0
  6
CONTINUOUS
 62
     7
100
AcDbLine
 10
-8.127842
 20
0.272949
 30
0.0
 11
-8.127842
 21
0.116438
 31
0.0
  0
LINE
  5
1F4
100
AcDbEntity
  8
0
  6
CONTINUOUS
 62
     7
100
AcDbLine
 10
-8.127842
 20
-0.040089
 30
0.0
 11
-8.127842
 21
-1.255413
 31
0.0
  0
LINE
  5
1F5
100
AcDbEntity
  8
0
  6
CONTINUOUS
 62
     7
100
AcDbLine
 10
-8.127842
 20
-1.411921
 30
0.0
 11
-8.127842
 21
-1.568451
 31
0.0
  0
LINE
  5
1F6
100
AcDbEntity
  8
0
  6
CONTINUOUS
 62
     7
100
AcDbLine
 10
-8.337685
 20
0.272949
 30
0.0
 11
-8.337685
 21
0.116438
 31
0.0
  0
LINE
  5
1F7
100
AcDbEntity
  8
0
  6
CONTINUOUS
 62
     7
100
AcDbLine
 10
-8.337685
 20
-0.040089
 30
0.0
 11
-8.337685
 21
-0.251839
 31
0.0
  0
LINE
  5
1F8
100
AcDbEntity
  8
0
  6
CONTINUOUS
 62
     7
100
AcDbLine
 10
-8.337685
 20
-1.04365
 30
0.0
 11
-8.337685
 21
-1.255413
 31
0.0
  0
LINE
  5
1F9
100
AcDbEntity
  8
0
  6
CONTINUOUS
 62
     7
100
AcDbLine
 10
-8.337685
 20
-1.411921
 30
0.0
 11
-8.337685
 21
-1.568451
 31
0.0
  0
LINE
  5
1FA
100
AcDbEntity
  8
0
  6
CONTINUOUS
 62
     7
100
AcDbLine
 10
-7.378433
 20
0.272949
 30
0.0
 11
-7.378433
 21
0.116438
 31
0.0
  0
LINE
  5
1FB
100
AcDbEntity
  8
0
  6
CONTINUOUS
 62
     7
100
AcDbLine
 10
-7.378433
 20
-0.040089
 30
0.0
 11
-7.378433
 21
-0.251839
 31
0.0
  0
LINE
  5
1FC
100
AcDbEntity
  8
0
  6
CONTINUOUS
 62
     7
100
AcDbLine
 10
-7.378433
 20
-1.04365
 30
0.0
 11
-7.378433
 21
-1.255402
 31
0.0
  0
LINE
  5
1FD
100
AcDbEntity
  8
0
  6
CONTINUOUS
 62
     7
100
AcDbLine
 10
-7.378433
 20
-1.411913
 30
0.0
 11
-7.378433
 21
-1.56844
 31
0.0
  0
LINE
  5
1FE
100
AcDbEntity
  8
0
  6
CONTINUOUS
 62
     7
100
AcDbLine
 10
-7.408409
 20
0.272949
 30
0.0
 11
-7.408409
 21
0.116438
 31
0.0
  0
LINE
  5
1FF
100
AcDbEntity
  8
0
  6
CONTINUOUS
 62
     7
100
AcDbLine
 10
-7.408409
 20
-0.040089
 30
0.0
 11
-7.408409
 21
-0.251839
 31
0.0
  0
LINE
  5
200
100
AcDbEntity
  8
0
  6
CONTINUOUS
 62
     7
100
AcDbLine
 10
-7.408409
 20
-1.04365
 30
0.0
 11
-7.408409
 21
-1.255402
 31
0.0
  0
LINE
  5
201
100
AcDbEntity
  8
0
  6
CONTINUOUS
 62
     7
100
AcDbLine
 10
-7.408409
 20
-1.411913
 30
0.0
 11
-7.408409
 21
-1.56844
 31
0.0
  0
LINE
  5
202
100
AcDbEntity
  8
0
  6
CONTINUOUS
 62
     7
100
AcDbLine
 10
-7.438377
 20
0.272949
 30
0.0
 11
-7.438377
 21
0.116438
 31
0.0
  0
LINE
  5
203
100
AcDbEntity
  8
0
  6
CONTINUOUS
 62
     7
100
AcDbLine
 10
-7.438377
 20
-0.040089
 30
0.0
 11
-7.438377
 21
-0.251839
 31
0.0
  0
LINE
  5
204
100
AcDbEntity
  8
0
  6
CONTINUOUS
 62
     7
100
AcDbLine
 10
-7.438377
 20
-1.04365
 30
0.0
 11
-7.438377
 21
-1.255402
 31
0.0
  0
LINE
  5
205
100
AcDbEntity
  8
0
  6
CONTINUOUS
 62
     7
100
AcDbLine
 10
-7.438377
 20
-1.411913
 30
0.0
 11
-7.438377
 21
-1.56844
 31
0.0
  0
LINE
  5
206
100
AcDbEntity
  8
0
  6
CONTINUOUS
 62
     7
100
AcDbLine
 10
-7.468363
 20
0.272949
 30
0.0
 11
-7.468363
 21
0.116438
 31
0.0
  0
LINE
  5
207
100
AcDbEntity
  8
0
  6
CONTINUOUS
 62
     7
100
AcDbLine
 10
-7.468363
 20
-0.040089
 30
0.0
 11
-7.468363
 21
-0.251833
 31
0.0
  0
LINE
  5
208
100
AcDbEntity
  8
0
  6
CONTINUOUS
 62
     7
100
AcDbLine
 10
-7.468363
 20
-1.04365
 30
0.0
 11
-7.468363
 21
-1.255402
 31
0.0
  0
LINE
  5
209
100
AcDbEntity
  8
0
  6
CONTINUOUS
 62
     7
100
AcDbLine
 10
-7.468363
 20
-1.411913
 30
0.0
 11
-7.468363
 21
-1.56844
 31
0.0
  0
LINE
  5
20A
100
AcDbEntity
  8
0
  6
CONTINUOUS
 62
     7
100
AcDbLine
 10
-7.498339
 20
0.272949
 30
0.0
 11
-7.498339
 21
0.116438
 31
0.0
  0
LINE
  5
20B
100
AcDbEntity
  8
0
  6
CONTINUOUS
 62
     7
100
AcDbLine
 10
-7.498339
 20
-0.040089
 30
0.0
 11
-7.498339
 21
-0.251839
 31
0.0
  0
LINE
  5
20C
100
AcDbEntity
  8
0
  6
CONTINUOUS
 62
     7
100
AcDbLine
 10
-7.498339
 20
-1.04365
 30
0.0
 11
-7.498339
 21
-1.255402
 31
0.0
  0
LINE
  5
20D
100
AcDbEntity
  8
0
  6
CONTINUOUS
 62
     7
100
AcDbLine
 10
-7.498339
 20
-1.411913
 30
0.0
 11
-7.498339
 21
-1.56844
 31
0.0
  0
LINE
  5
20E
100
AcDbEntity
  8
0
  6
CONTINUOUS
 62
     7
100
AcDbLine
 10
-7.528305
 20
0.272949
 30
0.0
 11
-7.528305
 21
0.116438
 31
0.0
  0
LINE
  5
20F
100
AcDbEntity
  8
0
  6
CONTINUOUS
 62
     7
100
AcDbLine
 10
-7.528305
 20
-0.040089
 30
0.0
 11
-7.528305
 21
-0.251839
 31
0.0
  0
LINE
  5
210
100
AcDbEntity
  8
0
  6
CONTINUOUS
 62
     7
100
AcDbLine
 10
-7.528305
 20
-1.04365
 30
0.0
 11
-7.528305
 21
-1.255402
 31
0.0
  0
LINE
  5
211
100
AcDbEntity
  8
0
  6
CONTINUOUS
 62
     7
100
AcDbLine
 10
-7.528305
 20
-1.411913
 30
0.0
 11
-7.528305
 21
-1.56844
 31
0.0
  0
LINE
  5
212
100
AcDbEntity
  8
0
  6
CONTINUOUS
 62
     7
100
AcDbLine
 10
-7.5583
 20
0.272949
 30
0.0
 11
-7.5583
 21
0.116438
 31
0.0
  0
LINE
  5
213
100
AcDbEntity
  8
0
  6
CONTINUOUS
 62
     7
100
AcDbLine
 10
-7.5583
 20
-0.040089
 30
0.0
 11
-7.5583
 21
-0.251839
 31
0.0
  0
LINE
  5
214
100
AcDbEntity
  8
0
  6
CONTINUOUS
 62
     7
100
AcDbLine
 10
-7.5583
 20
-1.04365
 30
0.0
 11
-7.5583
 21
-1.255402
 31
0.0
  0
LINE
  5
215
100
AcDbEntity
  8
0
  6
CONTINUOUS
 62
     7
100
AcDbLine
 10
-7.5583
 20
-1.411913
 30
0.0
 11
-7.5583
 21
-1.56844
 31
0.0
  0
LINE
  5
216
100
AcDbEntity
  8
0
  6
CONTINUOUS
 62
     7
100
AcDbLine
 10
-7.588268
 20
0.272949
 30
0.0
 11
-7.588268
 21
0.116438
 31
0.0
  0
LINE
  5
217
100
AcDbEntity
  8
0
  6
CONTINUOUS
 62
     7
100
AcDbLine
 10
-7.588268
 20
-0.040089
 30
0.0
 11
-7.588268
 21
-0.251839
 31
0.0
  0
LINE
  5
218
100
AcDbEntity
  8
0
  6
CONTINUOUS
 62
     7
100
AcDbLine
 10
-7.588268
 20
-1.04365
 30
0.0
 11
-7.588268
 21
-1.255402
 31
0.0
  0
LINE
  5
219
100
AcDbEntity
  8
0
  6
CONTINUOUS
 62
     7
100
AcDbLine
 10
-7.588268
 20
-1.411913
 30
0.0
 11
-7.588268
 21
-1.56844
 31
0.0
  0
LINE
  5
21A
100
AcDbEntity
  8
0
  6
CONTINUOUS
 62
     7
100
AcDbLine
 10
-7.618235
 20
0.272949
 30
0.0
 11
-7.618235
 21
0.116438
 31
0.0
  0
LINE
  5
21B
100
AcDbEntity
  8
0
  6
CONTINUOUS
 62
     7
100
AcDbLine
 10
-7.618235
 20
-0.040089
 30
0.0
 11
-7.618235
 21
-0.251839
 31
0.0
  0
LINE
  5
21C
100
AcDbEntity
  8
0
  6
CONTINUOUS
 62
     7
100
AcDbLine
 10
-7.618235
 20
-1.04365
 30
0.0
 11
-7.618235
 21
-1.255402
 31
0.0
  0
LINE
  5
21D
100
AcDbEntity
  8
0
  6
CONTINUOUS
 62
     7
100
AcDbLine
 10
-7.618235
 20
-1.411913
 30
0.0
 11
-7.618235
 21
-1.56844
 31
0.0
  0
LINE
  5
21E
100
AcDbEntity
  8
0
  6
CONTINUOUS
 62
     7
100
AcDbLine
 10
-7.64822
 20
0.272949
 30
0.0
 11
-7.64822
 21
0.116438
 31
0.0
  0
LINE
  5
21F
100
AcDbEntity
  8
0
  6
CONTINUOUS
 62
     7
100
AcDbLine
 10
-7.64822
 20
-0.040089
 30
0.0
 11
-7.64822
 21
-0.251839
 31
0.0
  0
LINE
  5
220
100
AcDbEntity
  8
0
  6
CONTINUOUS
 62
     7
100
AcDbLine
 10
-7.64822
 20
-1.04365
 30
0.0
 11
-7.64822
 21
-1.255402
 31
0.0
  0
LINE
  5
221
100
AcDbEntity
  8
0
  6
CONTINUOUS
 62
     7
100
AcDbLine
 10
-7.64822
 20
-1.411913
 30
0.0
 11
-7.64822
 21
-1.56844
 31
0.0
  0
LINE
  5
222
100
AcDbEntity
  8
0
  6
CONTINUOUS
 62
     7
100
AcDbLine
 10
-7.678196
 20
0.272949
 30
0.0
 11
-7.678196
 21
0.116438
 31
0.0
  0
LINE
  5
223
100
AcDbEntity
  8
0
  6
CONTINUOUS
 62
     7
100
AcDbLine
 10
-7.678196
 20
-0.040089
 30
0.0
 11
-7.678196
 21
-0.251839
 31
0.0
  0
LINE
  5
224
100
AcDbEntity
  8
0
  6
CONTINUOUS
 62
     7
100
AcDbLine
 10
-7.678196
 20
-1.04365
 30
0.0
 11
-7.678196
 21
-1.255402
 31
0.0
  0
LINE
  5
225
100
AcDbEntity
  8
0
  6
CONTINUOUS
 62
     7
100
AcDbLine
 10
-7.678196
 20
-1.411913
 30
0.0
 11
-7.678196
 21
-1.56844
 31
0.0
  0
LINE
  5
226
100
AcDbEntity
  8
0
  6
CONTINUOUS
 62
     7
100
AcDbLine
 10
-7.708183
 20
0.272949
 30
0.0
 11
-7.708183
 21
0.116438
 31
0.0
  0
LINE
  5
227
100
AcDbEntity
  8
0
  6
CONTINUOUS
 62
     7
100
AcDbLine
 10
-7.708183
 20
-0.040089
 30
0.0
 11
-7.708183
 21
-0.251833
 31
0.0
  0
LINE
  5
228
100
AcDbEntity
  8
0
  6
CONTINUOUS
 62
     7
100
AcDbLine
 10
-7.708183
 20
-1.04365
 30
0.0
 11
-7.708183
 21
-1.255402
 31
0.0
  0
LINE
  5
229
100
AcDbEntity
  8
0
  6
CONTINUOUS
 62
     7
100
AcDbLine
 10
-7.708183
 20
-1.411913
 30
0.0
 11
-7.708183
 21
-1.56844
 31
0.0
  0
LINE
  5
22A
100
AcDbEntity
  8
0
  6
CONTINUOUS
 62
     7
100
AcDbLine
 10
-7.738149
 20
0.272949
 30
0.0
 11
-7.738149
 21
0.116438
 31
0.0
  0
LINE
  5
22B
100
AcDbEntity
  8
0
  6
CONTINUOUS
 62
     7
100
AcDbLine
 10
-7.738149
 20
-0.040089
 30
0.0
 11
-7.738149
 21
-0.251833
 31
0.0
  0
LINE
  5
22C
100
AcDbEntity
  8
0
  6
CONTINUOUS
 62
     7
100
AcDbLine
 10
-7.738149
 20
-1.04365
 30
0.0
 11
-7.738149
 21
-1.255402
 31
0.0
  0
LINE
  5
22D
100
AcDbEntity
  8
0
  6
CONTINUOUS
 62
     7
100
AcDbLine
 10
-7.738149
 20
-1.411913
 30
0.0
 11
-7.738149
 21
-1.56844
 31
0.0
  0
LINE
  5
22E
100
AcDbEntity
  8
0
  6
CONTINUOUS
 62
     7
100
AcDbLine
 10
-7.768126
 20
0.272949
 30
0.0
 11
-7.768126
 21
0.116438
 31
0.0
  0
LINE
  5
22F
100
AcDbEntity
  8
0
  6
CONTINUOUS
 62
     7
100
AcDbLine
 10
-7.768126
 20
-0.040089
 30
0.0
 11
-7.768126
 21
-0.251833
 31
0.0
  0
LINE
  5
230
100
AcDbEntity
  8
0
  6
CONTINUOUS
 62
     7
100
AcDbLine
 10
-7.768126
 20
-1.04365
 30
0.0
 11
-7.768126
 21
-1.255402
 31
0.0
  0
LINE
  5
231
100
AcDbEntity
  8
0
  6
CONTINUOUS
 62
     7
100
AcDbLine
 10
-7.768126
 20
-1.411913
 30
0.0
 11
-7.768126
 21
-1.56844
 31
0.0
  0
LINE
  5
232
100
AcDbEntity
  8
0
  6
CONTINUOUS
 62
     7
100
AcDbLine
 10
-7.798094
 20
0.272949
 30
0.0
 11
-7.798094
 21
0.116438
 31
0.0
  0
LINE
  5
233
100
AcDbEntity
  8
0
  6
CONTINUOUS
 62
     7
100
AcDbLine
 10
-7.798094
 20
-0.040089
 30
0.0
 11
-7.798094
 21
-0.251833
 31
0.0
  0
LINE
  5
234
100
AcDbEntity
  8
0
  6
CONTINUOUS
 62
     7
100
AcDbLine
 10
-7.798094
 20
-1.04365
 30
0.0
 11
-7.798094
 21
-1.255402
 31
0.0
  0
LINE
  5
235
100
AcDbEntity
  8
0
  6
CONTINUOUS
 62
     7
100
AcDbLine
 10
-7.798094
 20
-1.411913
 30
0.0
 11
-7.798094
 21
-1.56844
 31
0.0
  0
LINE
  5
236
100
AcDbEntity
  8
0
  6
CONTINUOUS
 62
     7
100
AcDbLine
 10
-7.828079
 20
0.272949
 30
0.0
 11
-7.828079
 21
0.116438
 31
0.0
  0
LINE
  5
237
100
AcDbEntity
  8
0
  6
CONTINUOUS
 62
     7
100
AcDbLine
 10
-7.828079
 20
-0.040089
 30
0.0
 11
-7.828079
 21
-0.251833
 31
0.0
  0
LINE
  5
238
100
AcDbEntity
  8
0
  6
CONTINUOUS
 62
     7
100
AcDbLine
 10
-7.828079
 20
-1.04365
 30
0.0
 11
-7.828079
 21
-1.255402
 31
0.0
  0
LINE
  5
239
100
AcDbEntity
  8
0
  6
CONTINUOUS
 62
     7
100
AcDbLine
 10
-7.828079
 20
-1.411913
 30
0.0
 11
-7.828079
 21
-1.56844
 31
0.0
  0
LINE
  5
23A
100
AcDbEntity
  8
0
  6
CONTINUOUS
 62
     7
100
AcDbLine
 10
-7.858074
 20
0.272949
 30
0.0
 11
-7.858074
 21
0.116438
 31
0.0
  0
LINE
  5
23B
100
AcDbEntity
  8
0
  6
CONTINUOUS
 62
     7
100
AcDbLine
 10
-7.858074
 20
-0.040089
 30
0.0
 11
-7.858074
 21
-0.251833
 31
0.0
  0
LINE
  5
23C
100
AcDbEntity
  8
0
  6
CONTINUOUS
 62
     7
100
AcDbLine
 10
-7.858074
 20
-1.04365
 30
0.0
 11
-7.858074
 21
-1.255402
 31
0.0
  0
LINE
  5
23D
100
AcDbEntity
  8
0
  6
CONTINUOUS
 62
     7
100
AcDbLine
 10
-7.858074
 20
-1.411913
 30
0.0
 11
-7.858074
 21
-1.56844
 31
0.0
  0
LINE
  5
23E
100
AcDbEntity
  8
0
  6
CONTINUOUS
 62
     7
100
AcDbLine
 10
-7.888041
 20
0.272949
 30
0.0
 11
-7.888041
 21
0.116438
 31
0.0
  0
LINE
  5
23F
100
AcDbEntity
  8
0
  6
CONTINUOUS
 62
     7
100
AcDbLine
 10
-7.888041
 20
-0.040089
 30
0.0
 11
-7.888041
 21
-0.251833
 31
0.0
  0
LINE
  5
240
100
AcDbEntity
  8
0
  6
CONTINUOUS
 62
     7
100
AcDbLine
 10
-7.888041
 20
-1.04365
 30
0.0
 11
-7.888041
 21
-1.255402
 31
0.0
  0
LINE
  5
241
100
AcDbEntity
  8
0
  6
CONTINUOUS
 62
     7
100
AcDbLine
 10
-7.888041
 20
-1.411913
 30
0.0
 11
-7.888041
 21
-1.56844
 31
0.0
  0
LINE
  5
242
100
AcDbEntity
  8
0
  6
CONTINUOUS
 62
     7
100
AcDbLine
 10
-7.918007
 20
0.272949
 30
0.0
 11
-7.918007
 21
0.116438
 31
0.0
  0
LINE
  5
243
100
AcDbEntity
  8
0
  6
CONTINUOUS
 62
     7
100
AcDbLine
 10
-7.918007
 20
-0.040089
 30
0.0
 11
-7.918007
 21
-0.251839
 31
0.0
  0
LINE
  5
244
100
AcDbEntity
  8
0
  6
CONTINUOUS
 62
     7
100
AcDbLine
 10
-7.918007
 20
-1.04365
 30
0.0
 11
-7.918007
 21
-1.255402
 31
0.0
  0
LINE
  5
245
100
AcDbEntity
  8
0
  6
CONTINUOUS
 62
     7
100
AcDbLine
 10
-7.918007
 20
-1.411913
 30
0.0
 11
-7.918007
 21
-1.56844
 31
0.0
  0
LINE
  5
246
100
AcDbEntity
  8
0
  6
CONTINUOUS
 62
     7
100
AcDbLine
 10
-7.947985
 20
0.272949
 30
0.0
 11
-7.947985
 21
0.116438
 31
0.0
  0
LINE
  5
247
100
AcDbEntity
  8
0
  6
CONTINUOUS
 62
     7
100
AcDbLine
 10
-7.947985
 20
-0.040089
 30
0.0
 11
-7.947985
 21
-0.251833
 31
0.0
  0
LINE
  5
248
100
AcDbEntity
  8
0
  6
CONTINUOUS
 62
     7
100
AcDbLine
 10
-7.947985
 20
-1.04365
 30
0.0
 11
-7.947985
 21
-1.255402
 31
0.0
  0
LINE
  5
249
100
AcDbEntity
  8
0
  6
CONTINUOUS
 62
     7
100
AcDbLine
 10
-7.947985
 20
-1.411913
 30
0.0
 11
-7.947985
 21
-1.56844
 31
0.0
  0
LINE
  5
24A
100
AcDbEntity
  8
0
  6
CONTINUOUS
 62
     7
100
AcDbLine
 10
-8.21779
 20
0.272949
 30
0.0
 11
-8.21779
 21
0.116438
 31
0.0
  0
LINE
  5
24B
100
AcDbEntity
  8
0
  6
CONTINUOUS
 62
     7
100
AcDbLine
 10
-8.21779
 20
-0.040089
 30
0.0
 11
-8.21779
 21
-0.251839
 31
0.0
  0
LINE
  5
24C
100
AcDbEntity
  8
0
  6
CONTINUOUS
 62
     7
100
AcDbLine
 10
-8.21779
 20
-1.04365
 30
0.0
 11
-8.21779
 21
-1.255402
 31
0.0
  0
LINE
  5
24D
100
AcDbEntity
  8
0
  6
CONTINUOUS
 62
     7
100
AcDbLine
 10
-8.21779
 20
-1.411913
 30
0.0
 11
-8.21779
 21
-1.56844
 31
0.0
  0
LINE
  5
24E
100
AcDbEntity
  8
0
  6
CONTINUOUS
 62
     7
100
AcDbLine
 10
-8.247738
 20
0.272949
 30
0.0
 11
-8.247738
 21
0.116438
 31
0.0
  0
LINE
  5
24F
100
AcDbEntity
  8
0
  6
CONTINUOUS
 62
     7
100
AcDbLine
 10
-8.247738
 20
-0.040089
 30
0.0
 11
-8.247738
 21
-0.251839
 31
0.0
  0
LINE
  5
250
100
AcDbEntity
  8
0
  6
CONTINUOUS
 62
     7
100
AcDbLine
 10
-8.247738
 20
-1.04365
 30
0.0
 11
-8.247738
 21
-1.255413
 31
0.0
  0
LINE
  5
251
100
AcDbEntity
  8
0
  6
CONTINUOUS
 62
     7
100
AcDbLine
 10
-8.247738
 20
-1.411921
 30
0.0
 11
-8.247738
 21
-1.568451
 31
0.0
  0
LINE
  5
252
100
AcDbEntity
  8
0
  6
CONTINUOUS
 62
     7
100
AcDbLine
 10
-8.277723
 20
0.272949
 30
0.0
 11
-8.277723
 21
0.116438
 31
0.0
  0
LINE
  5
253
100
AcDbEntity
  8
0
  6
CONTINUOUS
 62
     7
100
AcDbLine
 10
-8.277723
 20
-0.040089
 30
0.0
 11
-8.277723
 21
-0.251839
 31
0.0
  0
LINE
  5
254
100
AcDbEntity
  8
0
  6
CONTINUOUS
 62
     7
100
AcDbLine
 10
-8.277723
 20
-1.04365
 30
0.0
 11
-8.277723
 21
-1.255413
 31
0.0
  0
LINE
  5
255
100
AcDbEntity
  8
0
  6
CONTINUOUS
 62
     7
100
AcDbLine
 10
-8.277723
 20
-1.411921
 30
0.0
 11
-8.277723
 21
-1.568451
 31
0.0
  0
LINE
  5
256
100
AcDbEntity
  8
0
  6
CONTINUOUS
 62
     7
100
AcDbLine
 10
-8.3077
 20
0.272949
 30
0.0
 11
-8.3077
 21
0.116438
 31
0.0
  0
LINE
  5
257
100
AcDbEntity
  8
0
  6
CONTINUOUS
 62
     7
100
AcDbLine
 10
-8.3077
 20
-0.040089
 30
0.0
 11
-8.3077
 21
-0.251839
 31
0.0
  0
LINE
  5
258
100
AcDbEntity
  8
0
  6
CONTINUOUS
 62
     7
100
AcDbLine
 10
-8.3077
 20
-1.04365
 30
0.0
 11
-8.3077
 21
-1.255402
 31
0.0
  0
LINE
  5
259
100
AcDbEntity
  8
0
  6
CONTINUOUS
 62
     7
100
AcDbLine
 10
-8.3077
 20
-1.411913
 30
0.0
 11
-8.3077
 21
-1.56844
 31
0.0
  0
LINE
  5
25A
100
AcDbEntity
  8
0
  6
CONTINUOUS
 62
     7
100
AcDbLine
 10
-5.766886
 20
-0.199101
 30
0.0
 11
-5.766886
 21
-0.359169
 31
0.0
  0
LINE
  5
25B
100
AcDbEntity
  8
0
  6
CONTINUOUS
 62
     7
100
AcDbLine
 10
-5.766886
 20
-0.468437
 30
0.0
 11
-5.766886
 21
-0.827045
 31
0.0
  0
LINE
  5
25C
100
AcDbEntity
  8
0
  6
CONTINUOUS
 62
     7
100
AcDbLine
 10
-5.808966
 20
-0.838821
 30
0.0
 11
-5.808966
 21
-0.719069
 31
0.0
  0
LINE
  5
25D
100
AcDbEntity
  8
0
  6
CONTINUOUS
 62
     7
100
AcDbLine
 10
-5.808966
 20
-0.576408
 30
0.0
 11
-5.808966
 21
-0.456673
 31
0.0
  0
LINE
  5
25E
100
AcDbEntity
  8
0
  6
CONTINUOUS
 62
     7
100
AcDbLine
 10
-5.808966
 20
-0.307066
 30
0.0
 11
-5.808966
 21
-0.187336
 31
0.0
  0
LINE
  5
25F
100
AcDbEntity
  8
0
  6
CONTINUOUS
 62
     7
100
AcDbLine
 10
-5.851036
 20
-0.186028
 30
0.0
 11
-5.851036
 21
-0.301445
 31
0.0
  0
LINE
  5
260
100
AcDbEntity
  8
0
  6
CONTINUOUS
 62
     7
100
AcDbLine
 10
-5.851036
 20
-0.455358
 30
0.0
 11
-5.851036
 21
-0.570787
 31
0.0
  0
LINE
  5
261
100
AcDbEntity
  8
0
  6
CONTINUOUS
 62
     7
100
AcDbLine
 10
-5.851036
 20
-0.724701
 30
0.0
 11
-5.851036
 21
-0.840132
 31
0.0
  0
LINE
  5
262
100
AcDbEntity
  8
0
  6
CONTINUOUS
 62
     7
100
AcDbLine
 10
-5.893116
 20
-0.840132
 30
0.0
 11
-5.893116
 21
-0.724701
 31
0.0
  0
LINE
  5
263
100
AcDbEntity
  8
0
  6
CONTINUOUS
 62
     7
100
AcDbLine
 10
-5.893116
 20
-0.570787
 30
0.0
 11
-5.893116
 21
-0.455358
 31
0.0
  0
LINE
  5
264
100
AcDbEntity
  8
0
  6
CONTINUOUS
 62
     7
100
AcDbLine
 10
-5.893116
 20
-0.301445
 30
0.0
 11
-5.893116
 21
-0.186028
 31
0.0
  0
LINE
  5
265
100
AcDbEntity
  8
0
  6
CONTINUOUS
 62
     7
100
AcDbLine
 10
-5.935205
 20
-0.186028
 30
0.0
 11
-5.935205
 21
-0.301445
 31
0.0
  0
LINE
  5
266
100
AcDbEntity
  8
0
  6
CONTINUOUS
 62
     7
100
AcDbLine
 10
-5.935205
 20
-0.455358
 30
0.0
 11
-5.935205
 21
-0.570787
 31
0.0
  0
LINE
  5
267
100
AcDbEntity
  8
0
  6
CONTINUOUS
 62
     7
100
AcDbLine
 10
-5.935205
 20
-0.724701
 30
0.0
 11
-5.935205
 21
-0.840132
 31
0.0
  0
LINE
  5
268
100
AcDbEntity
  8
0
  6
CONTINUOUS
 62
     7
100
AcDbLine
 10
-5.977276
 20
-0.840132
 30
0.0
 11
-5.977276
 21
-0.724701
 31
0.0
  0
LINE
  5
269
100
AcDbEntity
  8
0
  6
CONTINUOUS
 62
     7
100
AcDbLine
 10
-5.977276
 20
-0.570787
 30
0.0
 11
-5.977276
 21
-0.455358
 31
0.0
  0
LINE
  5
26A
100
AcDbEntity
  8
0
  6
CONTINUOUS
 62
     7
100
AcDbLine
 10
-5.977276
 20
-0.301445
 30
0.0
 11
-5.977276
 21
-0.186028
 31
0.0
  0
LINE
  5
26B
100
AcDbEntity
  8
0
  6
CONTINUOUS
 62
     7
100
AcDbLine
 10
-6.019357
 20
-0.186014
 30
0.0
 11
-6.019357
 21
-0.301445
 31
0.0
  0
LINE
  5
26C
100
AcDbEntity
  8
0
  6
CONTINUOUS
 62
     7
100
AcDbLine
 10
-6.019357
 20
-0.455358
 30
0.0
 11
-6.019357
 21
-0.570787
 31
0.0
  0
LINE
  5
26D
100
AcDbEntity
  8
0
  6
CONTINUOUS
 62
     7
100
AcDbLine
 10
-6.019357
 20
-0.724701
 30
0.0
 11
-6.019357
 21
-0.840132
 31
0.0
  0
LINE
  5
26E
100
AcDbEntity
  8
0
  6
CONTINUOUS
 62
     7
100
AcDbLine
 10
-8.637449
 20
0.272949
 30
0.0
 11
-8.637449
 21
-1.56844
 31
0.0
  0
LINE
  5
26F
100
AcDbEntity
  8
0
  6
CONTINUOUS
 62
     7
100
AcDbLine
 10
-8.607454
 20
0.272949
 30
0.0
 11
-8.607454
 21
-1.568451
 31
0.0
  0
LINE
  5
270
100
AcDbEntity
  8
0
  6
CONTINUOUS
 62
     7
100
AcDbLine
 10
-8.577487
 20
0.272949
 30
0.0
 11
-8.577487
 21
-1.568451
 31
0.0
  0
LINE
  5
271
100
AcDbEntity
  8
0
  6
CONTINUOUS
 62
     7
100
AcDbLine
 10
-6.838859
 20
0.272957
 30
0.0
 11
-6.838859
 21
-1.56844
 31
0.0
  0
LINE
  5
272
100
AcDbEntity
  8
0
  6
CONTINUOUS
 62
     7
100
AcDbLine
 10
-6.868854
 20
0.272949
 30
0.0
 11
-6.868854
 21
-1.56844
 31
0.0
  0
LINE
  5
273
100
AcDbEntity
  8
0
  6
CONTINUOUS
 62
     7
100
AcDbLine
 10
-6.898821
 20
0.272949
 30
0.0
 11
-6.898821
 21
-1.56844
 31
0.0
  0
LINE
  5
274
100
AcDbEntity
  8
0
  6
CONTINUOUS
 62
     7
100
AcDbLine
 10
-6.928787
 20
0.272949
 30
0.0
 11
-6.928787
 21
-1.568451
 31
0.0
  0
LINE
  5
275
100
AcDbEntity
  8
0
  6
CONTINUOUS
 62
     7
100
AcDbLine
 10
-6.958765
 20
0.272949
 30
0.0
 11
-6.958765
 21
-1.568451
 31
0.0
  0
LINE
  5
276
100
AcDbEntity
  8
0
  6
CONTINUOUS
 62
     7
100
AcDbLine
 10
-7.348448
 20
0.272949
 30
0.0
 11
-7.348448
 21
0.116438
 31
0.0
  0
LINE
  5
277
100
AcDbEntity
  8
0
  6
CONTINUOUS
 62
     7
100
AcDbLine
 10
-7.348448
 20
-0.040089
 30
0.0
 11
-7.348448
 21
-1.255402
 31
0.0
  0
LINE
  5
278
100
AcDbEntity
  8
0
  6
CONTINUOUS
 62
     7
100
AcDbLine
 10
-7.348448
 20
-1.411913
 30
0.0
 11
-7.348448
 21
-1.568451
 31
0.0
  0
LINE
  5
279
100
AcDbEntity
  8
0
  6
CONTINUOUS
 62
     7
100
AcDbLine
 10
-7.318482
 20
0.272949
 30
0.0
 11
-7.318482
 21
0.116438
 31
0.0
  0
LINE
  5
27A
100
AcDbEntity
  8
0
  6
CONTINUOUS
 62
     7
100
AcDbLine
 10
-7.318482
 20
-0.040089
 30
0.0
 11
-7.318482
 21
-1.255402
 31
0.0
  0
LINE
  5
27B
100
AcDbEntity
  8
0
  6
CONTINUOUS
 62
     7
100
AcDbLine
 10
-7.318482
 20
-1.411921
 30
0.0
 11
-7.318482
 21
-1.568451
 31
0.0
  0
LINE
  5
27C
100
AcDbEntity
  8
0
  6
CONTINUOUS
 62
     7
100
AcDbLine
 10
-8.547521
 20
0.272949
 30
0.0
 11
-8.547521
 21
-1.568451
 31
0.0
  0
LINE
  5
27D
100
AcDbEntity
  8
0
  6
CONTINUOUS
 62
     7
100
AcDbLine
 10
-8.517544
 20
0.272949
 30
0.0
 11
-8.517544
 21
-1.568451
 31
0.0
  0
LINE
  5
27E
100
AcDbEntity
  8
0
  6
CONTINUOUS
 62
     7
100
AcDbLine
 10
-8.487578
 20
0.272949
 30
0.0
 11
-8.487578
 21
0.116438
 31
0.0
  0
LINE
  5
27F
100
AcDbEntity
  8
0
  6
CONTINUOUS
 62
     7
100
AcDbLine
 10
-8.487578
 20
-1.411921
 30
0.0
 11
-8.487578
 21
-1.568451
 31
0.0
  0
LINE
  5
280
100
AcDbEntity
  8
0
  6
CONTINUOUS
 62
     7
100
AcDbLine
 10
-6.988731
 20
0.272949
 30
0.0
 11
-6.988731
 21
0.116438
 31
0.0
  0
LINE
  5
281
100
AcDbEntity
  8
0
  6
CONTINUOUS
 62
     7
100
AcDbLine
 10
-6.988731
 20
-1.411921
 30
0.0
 11
-6.988731
 21
-1.568451
 31
0.0
  0
LINE
  5
282
100
AcDbEntity
  8
0
  6
CONTINUOUS
 62
     7
100
AcDbLine
 10
-7.018717
 20
0.272949
 30
0.0
 11
-7.018717
 21
0.116438
 31
0.0
  0
LINE
  5
283
100
AcDbEntity
  8
0
  6
CONTINUOUS
 62
     7
100
AcDbLine
 10
-7.018717
 20
-1.411913
 30
0.0
 11
-7.018717
 21
-1.56844
 31
0.0
  0
LINE
  5
284
100
AcDbEntity
  8
0
  6
CONTINUOUS
 62
     7
100
AcDbLine
 10
-7.048712
 20
0.272949
 30
0.0
 11
-7.048712
 21
0.116438
 31
0.0
  0
LINE
  5
285
100
AcDbEntity
  8
0
  6
CONTINUOUS
 62
     7
100
AcDbLine
 10
-7.048712
 20
-1.411913
 30
0.0
 11
-7.048712
 21
-1.56844
 31
0.0
  0
LINE
  5
286
100
AcDbEntity
  8
0
  6
CONTINUOUS
 62
     7
100
AcDbLine
 10
-7.078661
 20
0.272949
 30
0.0
 11
-7.078661
 21
0.116438
 31
0.0
  0
LINE
  5
287
100
AcDbEntity
  8
0
  6
CONTINUOUS
 62
     7
100
AcDbLine
 10
-7.078661
 20
-1.411913
 30
0.0
 11
-7.078661
 21
-1.56844
 31
0.0
  0
LINE
  5
288
100
AcDbEntity
  8
0
  6
CONTINUOUS
 62
     7
100
AcDbLine
 10
-7.108646
 20
0.272949
 30
0.0
 11
-7.108646
 21
0.116438
 31
0.0
  0
LINE
  5
289
100
AcDbEntity
  8
0
  6
CONTINUOUS
 62
     7
100
AcDbLine
 10
-7.108646
 20
-1.411921
 30
0.0
 11
-7.108646
 21
-1.568451
 31
0.0
  0
LINE
  5
28A
100
AcDbEntity
  8
0
  6
CONTINUOUS
 62
     7
100
AcDbLine
 10
-8.367662
 20
0.272949
 30
0.0
 11
-8.367662
 21
0.116438
 31
0.0
  0
LINE
  5
28B
100
AcDbEntity
  8
0
  6
CONTINUOUS
 62
     7
100
AcDbLine
 10
-8.367662
 20
-1.411921
 30
0.0
 11
-8.367662
 21
-1.568451
 31
0.0
  0
LINE
  5
28C
100
AcDbEntity
  8
0
  6
CONTINUOUS
 62
     7
100
AcDbLine
 10
-8.397629
 20
0.272949
 30
0.0
 11
-8.397629
 21
0.116438
 31
0.0
  0
LINE
  5
28D
100
AcDbEntity
  8
0
  6
CONTINUOUS
 62
     7
100
AcDbLine
 10
-8.397629
 20
-1.411921
 30
0.0
 11
-8.397629
 21
-1.568451
 31
0.0
  0
LINE
  5
28E
100
AcDbEntity
  8
0
  6
CONTINUOUS
 62
     7
100
AcDbLine
 10
-8.427596
 20
0.272949
 30
0.0
 11
-8.427596
 21
0.116438
 31
0.0
  0
LINE
  5
28F
100
AcDbEntity
  8
0
  6
CONTINUOUS
 62
     7
100
AcDbLine
 10
-8.427596
 20
-1.411921
 30
0.0
 11
-8.427596
 21
-1.568451
 31
0.0
  0
LINE
  5
290
100
AcDbEntity
  8
0
  6
CONTINUOUS
 62
     7
100
AcDbLine
 10
-8.457582
 20
0.272949
 30
0.0
 11
-8.457582
 21
0.116438
 31
0.0
  0
LINE
  5
291
100
AcDbEntity
  8
0
  6
CONTINUOUS
 62
     7
100
AcDbLine
 10
-8.457582
 20
-1.411921
 30
0.0
 11
-8.457582
 21
-1.568451
 31
0.0
  0
LINE
  5
292
100
AcDbEntity
  8
0
  6
CONTINUOUS
 62
     7
100
AcDbLine
 10
-6.061428
 20
-0.840132
 30
0.0
 11
-6.061428
 21
-0.724701
 31
0.0
  0
LINE
  5
293
100
AcDbEntity
  8
0
  6
CONTINUOUS
 62
     7
100
AcDbLine
 10
-6.061428
 20
-0.570787
 30
0.0
 11
-6.061428
 21
-0.455358
 31
0.0
  0
LINE
  5
294
100
AcDbEntity
  8
0
  6
CONTINUOUS
 62
     7
100
AcDbLine
 10
-6.061428
 20
-0.301445
 30
0.0
 11
-6.061428
 21
-0.186014
 31
0.0
  0
LINE
  5
295
100
AcDbEntity
  8
0
  6
CONTINUOUS
 62
     7
100
AcDbLine
 10
-6.103508
 20
-0.186014
 30
0.0
 11
-6.103508
 21
-0.301445
 31
0.0
  0
LINE
  5
296
100
AcDbEntity
  8
0
  6
CONTINUOUS
 62
     7
100
AcDbLine
 10
-6.103508
 20
-0.455358
 30
0.0
 11
-6.103508
 21
-0.570787
 31
0.0
  0
LINE
  5
297
100
AcDbEntity
  8
0
  6
CONTINUOUS
 62
     7
100
AcDbLine
 10
-6.103508
 20
-0.724701
 30
0.0
 11
-6.103508
 21
-0.840132
 31
0.0
  0
LINE
  5
298
100
AcDbEntity
  8
0
  6
CONTINUOUS
 62
     7
100
AcDbLine
 10
-6.145597
 20
-0.840132
 30
0.0
 11
-6.145597
 21
-0.724701
 31
0.0
  0
LINE
  5
299
100
AcDbEntity
  8
0
  6
CONTINUOUS
 62
     7
100
AcDbLine
 10
-6.145597
 20
-0.570787
 30
0.0
 11
-6.145597
 21
-0.455358
 31
0.0
  0
LINE
  5
29A
100
AcDbEntity
  8
0
  6
CONTINUOUS
 62
     7
100
AcDbLine
 10
-6.145597
 20
-0.301445
 30
0.0
 11
-6.145597
 21
-0.186014
 31
0.0
  0
LINE
  5
29B
100
AcDbEntity
  8
0
  6
CONTINUOUS
 62
     7
100
AcDbLine
 10
-6.187668
 20
-0.186014
 30
0.0
 11
-6.187668
 21
-0.301445
 31
0.0
  0
LINE
  5
29C
100
AcDbEntity
  8
0
  6
CONTINUOUS
 62
     7
100
AcDbLine
 10
-6.187668
 20
-0.455358
 30
0.0
 11
-6.187668
 21
-0.570787
 31
0.0
  0
LINE
  5
29D
100
AcDbEntity
  8
0
  6
CONTINUOUS
 62
     7
100
AcDbLine
 10
-6.187668
 20
-0.724701
 30
0.0
 11
-6.187668
 21
-0.840132
 31
0.0
  0
LINE
  5
29E
100
AcDbEntity
  8
0
  6
CONTINUOUS
 62
     7
100
AcDbLine
 10
-6.229748
 20
-0.840132
 30
0.0
 11
-6.229748
 21
-0.724701
 31
0.0
  0
LINE
  5
29F
100
AcDbEntity
  8
0
  6
CONTINUOUS
 62
     7
100
AcDbLine
 10
-6.229748
 20
-0.570787
 30
0.0
 11
-6.229748
 21
-0.455358
 31
0.0
  0
LINE
  5
2A0
100
AcDbEntity
  8
0
  6
CONTINUOUS
 62
     7
100
AcDbLine
 10
-6.229748
 20
-0.301445
 30
0.0
 11
-6.229748
 21
-0.186014
 31
0.0
  0
LINE
  5
2A1
100
AcDbEntity
  8
0
  6
CONTINUOUS
 62
     7
100
AcDbLine
 10
-6.27182
 20
-0.186014
 30
0.0
 11
-6.27182
 21
-0.301445
 31
0.0
  0
LINE
  5
2A2
100
AcDbEntity
  8
0
  6
CONTINUOUS
 62
     7
100
AcDbLine
 10
-6.27182
 20
-0.455358
 30
0.0
 11
-6.27182
 21
-0.570787
 31
0.0
  0
LINE
  5
2A3
100
AcDbEntity
  8
0
  6
CONTINUOUS
 62
     7
100
AcDbLine
 10
-6.27182
 20
-0.724701
 30
0.0
 11
-6.27182
 21
-0.840132
 31
0.0
  0
LINE
  5
2A4
100
AcDbEntity
  8
0
  6
CONTINUOUS
 62
     7
100
AcDbLine
 10
-6.31391
 20
-0.838369
 30
0.0
 11
-6.31391
 21
-0.716921
 31
0.0
  0
LINE
  5
2A5
100
AcDbEntity
  8
0
  6
CONTINUOUS
 62
     7
100
AcDbLine
 10
-6.31391
 20
-0.569033
 30
0.0
 11
-6.31391
 21
-0.44759
 31
0.0
  0
LINE
  5
2A6
100
AcDbEntity
  8
0
  6
CONTINUOUS
 62
     7
100
AcDbLine
 10
-6.31391
 20
-0.309206
 30
0.0
 11
-6.31391
 21
-0.187771
 31
0.0
  0
LINE
  5
2A7
100
AcDbEntity
  8
0
  6
CONTINUOUS
 62
     7
100
AcDbLine
 10
-6.35599
 20
-0.200535
 30
0.0
 11
-6.35599
 21
-0.556261
 31
0.0
  0
LINE
  5
2A8
100
AcDbEntity
  8
0
  6
CONTINUOUS
 62
     7
100
AcDbLine
 10
-6.35599
 20
-0.666977
 30
0.0
 11
-6.35599
 21
-0.825604
 31
0.0
  0
LINE
  5
2A9
100
AcDbEntity
  8
0
  6
CONTINUOUS
 62
     7
100
AcDbLine
 10
-6.39806
 20
-0.796513
 30
0.0
 11
-6.39806
 21
-0.666977
 31
0.0
  0
LINE
  5
2AA
100
AcDbEntity
  8
0
  6
CONTINUOUS
 62
     7
100
AcDbLine
 10
-6.39806
 20
-0.527168
 30
0.0
 11
-6.39806
 21
-0.229628
 31
0.0
  0
LINE
  5
2AB
100
AcDbEntity
  8
0
  6
CONTINUOUS
 62
     7
100
AcDbLine
 10
-6.44014
 20
-0.302929
 30
0.0
 11
-6.44014
 21
-0.453829
 31
0.0
  0
LINE
  5
2AC
100
AcDbEntity
  8
0
  6
CONTINUOUS
 62
     7
100
AcDbLine
 10
-6.44014
 20
-0.673849
 30
0.0
 11
-6.44014
 21
-0.723171
 31
0.0
  0
ENDBLK
  5
2AE
100
AcDbEntity
  8
0
100
AcDbBlockEnd
  0
BLOCK
  5
402
100
AcDbEntity
  8
0
100
AcDbBlockBegin
  2
*X1
 70
     1
 10
0.0
 20
0.0
 30
0.0
  3
*X1
  1

  0
LWPOLYLINE
  5
403
100
AcDbEntity
  8
0
  6
CONTINUOUS
 62
     7
100
AcDbPolyline
 90
        4
 70
   129
 43
0.0
 10
-0.034031
 20
0.0
 10
0.0
 20
0.058944
 10
0.034031
 20
0.0
 10
0.0
 20
-0.058944
  0
ENDBLK
  5
404
100
AcDbEntity
  8
0
100
AcDbBlockEnd
  0
BLOCK
  5
504
100
AcDbEntity
  8
0
100
AcDbBlockBegin
  2
M_PFN_100
 70
     0
 10
0.0
 20
0.0
 30
0.0
  3
M_PFN_100
  1

  0
SOLID
  5
505
100
AcDbEntity
  8
0
  6
BYBLOCK
 62
     0
100
AcDbTrace
 10
-0.068898
 20
0.016265
 30
0.0
 11
-0.068898
 21
-0.016265
 31
0.0
 12
0.0
 22
0.0
 32
0.0
 13
0.0
 23
0.0
 33
0.0
  0
ENDBLK
  5
5D5
100
AcDbEntity
  8
0
100
AcDbBlockEnd
  0
BLOCK
  5
53A
100
AcDbEntity
  8
0
100
AcDbBlockBegin
  2
M_PFN_2
 70
     0
 10
0.0
 20
0.0
 30
0.0
  3
M_PFN_2
  1

  0
POINT
  5
53B
100
AcDbEntity
  8
0
  6
BYBLOCK
 62
     0
100
AcDbPoint
 10
0.0
 20
0.0
 30
0.0
  0
ENDBLK
  5
5CD
100
AcDbEntity
  8
0
100
AcDbBlockEnd
  0
BLOCK
  5
547
100
AcDbEntity
  8
0
100
AcDbBlockBegin
  2
M_PFN_101
 70
     0
 10
0.0
 20
0.0
 30
0.0
  3
M_PFN_101
  1

  0
SOLID
  5
548
100
AcDbEntity
  8
0
  6
BYBLOCK
 62
     0
100
AcDbTrace
 10
0.068898
 20
0.016265
 30
0.0
 11
0.068898
 21
-0.016265
 31
0.0
 12
0.0
 22
0.0
 32
0.0
 13
0.0
 23
0.0
 33
0.0
  0
ENDBLK
  5
5D3
100
AcDbEntity
  8
0
100
AcDbBlockEnd
  0
BLOCK
  5
57B
100
AcDbEntity
  8
0
100
AcDbBlockBegin
  2
M_PFN_3
 70
     0
 10
0.0
 20
0.0
 30
0.0
  3
M_PFN_3
  1

  0
POINT
  5
57C
100
AcDbEntity
  8
0
  6
BYBLOCK
 62
     0
100
AcDbPoint
 10
0.0
 20
0.0
 30
0.0
  0
ENDBLK
  5
581
100
AcDbEntity
  8
0
100
AcDbBlockEnd
  0
BLOCK
  5
65B
100
AcDbEntity
  8
0
 62
     0
100
AcDbBlockBegin
  2
LAYERS1
 70
     0
 10
0.0
 20
0.0
 30
0.0
  3
LAYERS1
  1

  0
LINE
  5
651
100
AcDbEntity
  8
DASHDOT1
100
AcDbLine
 10
17.323282
 20
-107.514441
 30
0.0
 11
35.558822
 21
-107.514441
 31
0.0
  0
LINE
  5
652
100
AcDbEntity
  8
DOT1
100
AcDbLine
 10
46.068263
 20
-87.514441
 30
0.0
 11
64.303802
 21
-87.514441
 31
0.0
  0
LINE
  5
653
100
AcDbEntity
  8
TEXT1
100
AcDbLine
 10
128.666116
 20
-87.514441
 30
0.0
 11
146.901656
 21
-87.514441
 31
0.0
  0
LINE
  5
654
100
AcDbEntity
  8
HATCH
100
AcDbLine
 10
73.694141
 20
-47.514441
 30
0.0
 11
91.929681
 21
-47.514441
 31
0.0
  0
LINE
  5
655
100
AcDbEntity
  8
HIDDEN1
100
AcDbLine
 10
73.694141
 20
-67.514441
 30
0.0
 11
91.929681
 21
-67.514441
 31
0.0
  0
LINE
  5
656
100
AcDbEntity
  8
BORDER
100
AcDbLine
 10
17.323282
 20
-27.514441
 30
0.0
 11
35.558822
 21
-27.514441
 31
0.0
  0
LINE
  5
657
100
AcDbEntity
  8
CENTER1
100
AcDbLine
 10
17.323282
 20
-47.514441
 30
0.0
 11
35.558822
 21
-47.514441
 31
0.0
  0
LINE
  5
658
100
AcDbEntity
  8
DIM
100
AcDbLine
 10
46.068263
 20
-67.514441
 30
0.0
 11
64.303802
 21
-67.514441
 31
0.0
  0
LINE
  5
659
100
AcDbEntity
  8
OBJECT1
100
AcDbLine
 10
101.040242
 20
-67.514441
 30
0.0
 11
119.275782
 21
-67.514441
 31
0.0
  0
LINE
  5
65A
100
AcDbEntity
  8
PHANTOM1
100
AcDbLine
 10
128.666116
 20
-27.514441
 30
0.0
 11
146.901656
 21
-27.514441
 31
0.0
  0
ENDBLK
  5
65C
100
AcDbEntity
  8
0
 62
     0
100
AcDbBlockEnd
  0
ENDSEC
  0
SECTION
  2
ENTITIES
  0
TEXT
  5
2B5
100
AcDbEntity
  8
TEXT1
100
AcDbText
 10
-143.542833
 20
5.611889
 30
0.0
 40
0.8
  1
NOTES:
 41
1.017741
  7
M_STANDARD
 11
-143.542833
 21
6.011889
 31
0.0
100
AcDbText
 73
     2
  0
TEXT
  5
2B7
100
AcDbEntity
  8
TEXT1
100
AcDbText
 10
-143.349458
 20
-3.305238
 30
0.0
 40
0.8
  1
   ABOVE, MAY BE LESS THAN THE AIR RATING INDICATED ON THE INSTALLED CIRCUIT BREAKER.
 41
0.907136
  7
M_STANDARD
 11
-143.349458
 21
-2.905238
 31
0.0
100
AcDbText
 73
     2
  0
TEXT
  5
2B8
100
AcDbEntity
  8
TEXT1
100
AcDbText
 10
-143.183712
 20
-4.647781
 30
0.0
 40
0.8
  1
CU CONDUCTORS REQUIRED FOR 1000 AMPERE APPLICATION.
 41
0.91198
  7
M_STANDARD
 11
-143.183712
 21
-4.247781
 31
0.0
100
AcDbText
 73
     2
  0
TEXT
  5
2B9
100
AcDbEntity
  8
TEXT1
100
AcDbText
 10
-143.349458
 20
-1.805238
 30
0.0
 40
0.8
  1
THE SHORT CIRCUIT CURRENT RATING OF THIS ENCLOSED CIRCUIT BREAKER, INDICATED ON CHART
 41
0.899993
  7
M_STANDARD
 11
-143.349458
 21
-1.405238
 31
0.0
100
AcDbText
 73
     2
  0
TEXT
  5
2BA
100
AcDbEntity
  8
TEXT1
100
AcDbText
 10
-143.43233
 20
1.120178
 30
0.0
 40
0.8
  1
SUITABLE FOR USE AS SERVICE EQUIPMENT WHEN NEUTRAL ASSEMBLY IS INSTALLED.
 41
0.908324
  7
M_STANDARD
 11
-143.43233
 21
1.520178
 31
0.0
100
AcDbText
 73
     2
  0
TEXT
  5
2BB
100
AcDbEntity
  8
TEXT1
100
AcDbText
 10
-143.43233
 20
2.620178
 30
0.0
 40
0.8
  1
UL LISTED - FILE E-136861  CSA CERTIFIED - FILE  LL89067.
 41
0.910698
  7
M_STANDARD
 11
-143.43233
 21
3.020178
 31
0.0
100
AcDbText
 73
     2
  0
TEXT
  5
2BC
100
AcDbEntity
  8
TEXT1
100
AcDbText
 10
-113.14731
 20
2.728023
 30
0.0
 40
1.2
  1
#
 41
0.8
  7
M_STANDARD
 11
-113.14731
 21
3.328023
 31
0.0
100
AcDbText
 73
     2
  0
TEXT
  5
2BD
100
AcDbEntity
  8
TEXT1
100
AcDbText
 10
-143.43233
 20
-0.379822
 30
0.0
 40
0.8
  1
NEUTRAL - INSULATED GROUNDABLE.
 41
0.919943
  7
M_STANDARD
 11
-143.43233
 21
0.020178
 31
0.0
100
AcDbText
 73
     2
  0
TEXT
  5
2BE
100
AcDbEntity
  8
TEXT1
100
AcDbText
 10
-143.43233
 20
4.120178
 30
0.0
 40
0.8
  1
FINISH - GRAY BAKED ENAMEL ELECTRODEPOSITED OVER CLEANED PHOSPHATIZED STEEL.
 41
0.907991
  7
M_STANDARD
 11
-143.43233
 21
4.520178
 31
0.0
100
AcDbText
 73
     2
  0
TEXT
  5
2CA
100
AcDbEntity
  8
TEXT1
100
AcDbText
 10
-44.608087
 20
32.696735
 30
0.0
 40
0.825
  1
BREAKER
 41
0.898877
  7
M_STANDARD
 72
     1
 11
-42.189144
 21
33.109235
 31
0.0
100
AcDbText
 73
     2
  0
TEXT
  5
2CB
100
AcDbEntity
  8
TEXT1
100
AcDbText
 10
-26.866169
 20
73.125105
 30
0.0
 40
0.825
  1
BREAKER
 41
0.898877
  7
M_STANDARD
 72
     1
 11
-24.447227
 21
73.537605
 31
0.0
100
AcDbText
 73
     2
  0
TEXT
  5
2CC
100
AcDbEntity
  8
TEXT1
100
AcDbText
 10
9.029663
 20
32.696735
 30
0.0
 40
0.825
  1
SPECS.
 41
1.017741
  7
M_STANDARD
 72
     1
 11
11.088771
 21
33.109235
 31
0.0
100
AcDbText
 73
     2
  0
TEXT
  5
2CD
100
AcDbEntity
  8
TEXT1
100
AcDbText
 10
-31.487692
 20
32.696735
 30
0.0
 40
0.825
  1
AMPERE
 41
0.898447
  7
M_STANDARD
 72
     1
 11
-29.369924
 21
33.109235
 31
0.0
100
AcDbText
 73
     2
  0
TEXT
  5
2CE
100
AcDbEntity
  8
TEXT1
100
AcDbText
 10
-16.094429
 20
73.204342
 30
0.0
 40
0.825
  1
AMPERE
 41
0.898447
  7
M_STANDARD
 72
     1
 11
-13.976661
 21
73.616842
 31
0.0
100
AcDbText
 73
     2
  0
TEXT
  5
2CF
100
AcDbEntity
  8
TEXT1
100
AcDbText
 10
-7.956232
 20
73.125105
 30
0.0
 40
0.825
  1
CONDUCTORS
 41
0.899465
  7
M_STANDARD
 72
     1
 11
-4.351945
 21
73.537605
 31
0.0
100
AcDbText
 73
     2
  0
TEXT
  5
2D0
100
AcDbEntity
  8
TEXT1
100
AcDbText
 10
-5.510889
 20
52.500082
 30
0.0
 40
0.825
  1
CONDUCTORS
 41
0.899465
  7
M_STANDARD
 72
     1
 11
-1.906602
 21
52.912582
 31
0.0
100
AcDbText
 73
     2
  0
TEXT
  5
2D1
100
AcDbEntity
  8
TEXT1
100
AcDbText
 10
-28.532166
 20
52.500082
 30
0.0
 40
0.825
  1
CATALOG
 41
0.898877
  7
M_STANDARD
 72
     1
 11
-26.113224
 21
52.912582
 31
0.0
100
AcDbText
 73
     2
  0
TEXT
  5
2D2
100
AcDbEntity
  8
TEXT1
100
AcDbText
 10
-13.035046
 20
52.500082
 30
0.0
 40
0.825
  1
NUMBER OF
 41
0.899335
  7
M_STANDARD
 72
     1
 11
-9.802258
 21
52.912582
 31
0.0
100
AcDbText
 73
     2
  0
TEXT
  5
2D3
100
AcDbEntity
  8
TEXT1
100
AcDbText
 10
-20.628774
 20
53.153207
 30
0.0
 40
0.825
  1
MAXIMUM
 41
0.898877
  7
M_STANDARD
 72
     1
 11
-18.227488
 21
53.565707
 31
0.0
100
AcDbText
 73
     2
  0
TEXT
  5
2D4
100
AcDbEntity
  8
TEXT1
100
AcDbText
 10
-36.968071
 20
32.696735
 30
0.0
 40
0.825
  1
WIRING
 41
0.898447
  7
M_STANDARD
 72
     1
 11
-35.238561
 21
33.109235
 31
0.0
100
AcDbText
 73
     2
  0
TEXT
  5
2D5
100
AcDbEntity
  8
TEXT1
100
AcDbText
 10
-44.219644
 20
34.002985
 30
0.0
 40
0.825
  1
CIRCUIT
 41
0.898877
  7
M_STANDARD
 72
     1
 11
-42.189144
 21
34.415485
 31
0.0
100
AcDbText
 73
     2
  0
TEXT
  5
2D6
100
AcDbEntity
  8
TEXT1
100
AcDbText
 10
-26.477726
 20
74.431355
 30
0.0
 40
0.825
  1
CIRCUIT
 41
0.898877
  7
M_STANDARD
 72
     1
 11
-24.447227
 21
74.843855
 31
0.0
100
AcDbText
 73
     2
  0
TEXT
  5
2D7
100
AcDbEntity
  8
TEXT1
100
AcDbText
 10
8.758111
 20
34.002985
 30
0.0
 40
0.825
  1
FEDERAL
 41
0.898877
  7
M_STANDARD
 72
     1
 11
11.088771
 21
34.415485
 31
0.0
100
AcDbText
 73
     2
  0
TEXT
  5
2D8
100
AcDbEntity
  8
TEXT1
100
AcDbText
 10
-46.109253
 20
31.390485
 30
0.0
 40
0.825
  1
CATALOG NO.
 41
0.959467
  7
M_STANDARD
 72
     1
 11
-42.189144
 21
31.802985
 31
0.0
100
AcDbText
 73
     2
  0
TEXT
  5
2D9
100
AcDbEntity
  8
TEXT1
100
AcDbText
 10
-28.367335
 20
71.818855
 30
0.0
 40
0.825
  1
CATALOG NO.
 41
0.959467
  7
M_STANDARD
 72
     1
 11
-24.447227
 21
72.231355
 31
0.0
100
AcDbText
 73
     2
  0
TEXT
  5
2DA
100
AcDbEntity
  8
TEXT1
100
AcDbText
 10
7.626331
 20
31.390485
 30
0.0
 40
0.825
  1
W-C-375B/
 41
0.899335
  7
M_STANDARD
 72
     1
 11
11.088771
 21
31.802985
 31
0.0
100
AcDbText
 73
     2
  0
TEXT
  5
2DB
100
AcDbEntity
  8
TEXT1
100
AcDbText
 10
-31.240619
 20
31.390485
 30
0.0
 40
0.825
  1
RATING
 41
0.898447
  7
M_STANDARD
 72
     1
 11
-29.369924
 21
31.802985
 31
0.0
100
AcDbText
 73
     2
  0
TEXT
  5
2DC
100
AcDbEntity
  8
TEXT1
100
AcDbText
 10
-15.847356
 20
71.898092
 30
0.0
 40
0.825
  1
RATING
 41
0.898447
  7
M_STANDARD
 72
     1
 11
-13.976661
 21
72.310592
 31
0.0
100
AcDbText
 73
     2
  0
TEXT
  5
2DD
100
AcDbEntity
  8
TEXT1
100
AcDbText
 10
-7.496406
 20
71.818855
 30
0.0
 40
0.825
  1
PER PHASE
 41
0.899335
  7
M_STANDARD
 72
     1
 11
-4.351945
 21
72.231355
 31
0.0
100
AcDbText
 73
     2
  0
TEXT
  5
2DE
100
AcDbEntity
  8
TEXT1
100
AcDbText
 10
-5.051063
 20
51.193832
 30
0.0
 40
0.825
  1
PER PHASE
 41
0.899335
  7
M_STANDARD
 72
     1
 11
-1.906602
 21
51.606332
 31
0.0
100
AcDbText
 73
     2
  0
TEXT
  5
2DF
100
AcDbEntity
  8
TEXT1
100
AcDbText
 10
-28.266288
 20
51.193832
 30
0.0
 40
0.825
  1
NUMBER
 41
0.898447
  7
M_STANDARD
 72
     1
 11
-26.113224
 21
51.606332
 31
0.0
100
AcDbText
 73
     2
  0
TEXT
  5
2E0
100
AcDbEntity
  8
TEXT1
100
AcDbText
 10
-12.717067
 20
51.193832
 30
0.0
 40
0.825
  1
TERMINALS
 41
0.899335
  7
M_STANDARD
 72
     1
 11
-9.802258
 21
51.606332
 31
0.0
100
AcDbText
 73
     2
  0
TEXT
  5
2E1
100
AcDbEntity
  8
TEXT1
100
AcDbText
 10
-20.345256
 20
51.846957
 30
0.0
 40
0.825
  1
AMPERE
 41
0.898447
  7
M_STANDARD
 72
     1
 11
-18.227488
 21
52.259457
 31
0.0
100
AcDbText
 73
     2
  0
TEXT
  5
2E2
100
AcDbEntity
  8
TEXT1
100
AcDbText
 10
-20.098183
 20
50.540707
 30
0.0
 40
0.825
  1
RATING
 41
0.898447
  7
M_STANDARD
 72
     1
 11
-18.227488
 21
50.953207
 31
0.0
100
AcDbText
 73
     2
  0
TEXT
  5
2E3
100
AcDbEntity
  8
TEXT1
100
AcDbText
 10
-36.376735
 20
31.390485
 30
0.0
 40
0.825
  1
DIA.
 41
1.093272
  7
M_STANDARD
 72
     1
 11
-35.238561
 21
31.802985
 31
0.0
100
AcDbText
 73
     2
  0
TEXT
  5
2E4
100
AcDbEntity
  8
TEXT1
100
AcDbText
 10
-43.971599
 20
30.084235
 30
0.0
 40
0.825
  1
PREFIX
 41
0.898447
  7
M_STANDARD
 72
     1
 11
-42.189144
 21
30.496735
 31
0.0
100
AcDbText
 73
     2
  0
TEXT
  5
2E5
100
AcDbEntity
  8
TEXT1
100
AcDbText
 10
-26.229681
 20
70.512605
 30
0.0
 40
0.825
  1
PREFIX
 41
0.898447
  7
M_STANDARD
 72
     1
 11
-24.447227
 21
70.925105
 31
0.0
100
AcDbText
 73
     2
  0
TEXT
  5
2E6
100
AcDbEntity
  8
TEXT1
100
AcDbText
 10
10.1415
 20
30.084235
 30
0.0
 40
0.825
  1
GEN
 41
0.89305
  7
M_STANDARD
 72
     1
 11
11.088771
 21
30.496735
 31
0.0
100
AcDbText
 73
     2
  0
TEXT
  5
2E7
100
AcDbEntity
  8
TEXT1
100
AcDbText
 10
-17.563279
 20
68.697419
 30
0.0
 40
0.825
  1
300-1000A 
 41
0.899465
  7
M_STANDARD
 72
     1
 11
-13.976661
 21
69.109919
 31
0.0
100
AcDbText
 73
     2
  0
TEXT
  5
2E8
100
AcDbEntity
  8
TEXT1
100
AcDbText
 10
-16.767239
 20
66.902321
 30
0.0
 40
0.825
  1
125-250A
 41
0.899151
  7
M_STANDARD
 72
     1
 11
-13.976661
 21
67.314821
 31
0.0
100
AcDbText
 73
     2
  0
TEXT
  5
2E9
100
AcDbEntity
  8
TEXT1
100
AcDbText
 10
-16.837886
 20
60.753085
 30
0.0
 40
0.825
  1
250-400A
 41
0.899151
  7
M_STANDARD
 72
     1
 11
-13.976661
 21
61.165585
 31
0.0
100
AcDbText
 73
     2
  0
TEXT
  5
2EA
100
AcDbEntity
  8
TEXT1
100
AcDbText
 10
-16.767239
 20
63.827703
 30
0.0
 40
0.825
  1
125-400A
 41
0.899151
  7
M_STANDARD
 72
     1
 11
-13.976661
 21
64.240203
 31
0.0
100
AcDbText
 73
     2
  0
TEXT
  5
2EB
100
AcDbEntity
  8
TEXT1
100
AcDbText
 10
-16.837886
 20
65.622801
 30
0.0
 40
0.825
  1
300-800A
 41
0.899151
  7
M_STANDARD
 72
     1
 11
-13.976661
 21
66.035301
 31
0.0
100
AcDbText
 73
     2
  0
TEXT
  5
2EC
100
AcDbEntity
  8
TEXT1
100
AcDbText
 10
-16.837886
 20
59.473565
 30
0.0
 40
0.825
  1
250-400A
 41
0.899151
  7
M_STANDARD
 72
     1
 11
-13.976661
 21
59.886065
 31
0.0
100
AcDbText
 73
     2
  0
TEXT
  5
2ED
100
AcDbEntity
  8
TEXT1
100
AcDbText
 10
-16.767239
 20
62.548183
 30
0.0
 40
0.825
  1
125-400A
 41
0.899151
  7
M_STANDARD
 72
     1
 11
-13.976661
 21
62.960683
 31
0.0
100
AcDbText
 73
     2
  0
TEXT
  5
2EE
100
AcDbEntity
  8
TEXT1
100
AcDbText
 10
-4.571945
 20
68.618182
 30
0.0
 40
0.825
  1
3
 41
0.8
  7
M_STANDARD
 72
     1
 11
-4.351945
 21
69.030682
 31
0.0
100
AcDbText
 73
     2
  0
TEXT
  5
2EF
100
AcDbEntity
  8
TEXT1
100
AcDbText
 10
-3.865538
 20
47.09561
 30
0.0
 40
0.825
  1
1 OR 2
 41
0.898447
  7
M_STANDARD
 72
     1
 11
-1.906602
 21
47.50811
 31
0.0
100
AcDbText
 73
     2
  0
TEXT
  5
2F0
100
AcDbEntity
  8
TEXT1
100
AcDbText
 10
-27.770786
 20
47.09561
 30
0.0
 40
0.825
  1
400SN
 41
0.897713
  7
M_STANDARD
 72
     1
 11
-26.113224
 21
47.50811
 31
0.0
100
AcDbText
 73
     2
  0
TEXT
  5
2F1
100
AcDbEntity
  8
TEXT1
100
AcDbText
 10
-10.022258
 20
47.09561
 30
0.0
 40
0.825
  1
2
 41
0.8
  7
M_STANDARD
 72
     1
 11
-9.802258
 21
47.50811
 31
0.0
100
AcDbText
 73
     2
  0
TEXT
  5
2F2
100
AcDbEntity
  8
TEXT1
100
AcDbText
 10
-19.565542
 20
47.09561
 30
0.0
 40
0.825
  1
400A
 41
0.896304
  7
M_STANDARD
 72
     1
 11
-18.227488
 21
47.50811
 31
0.0
100
AcDbText
 73
     2
  0
TEXT
  5
2F3
100
AcDbEntity
  8
TEXT1
100
AcDbText
 10
-4.430517
 20
66.823084
 30
0.0
 40
0.825
  1
1
 41
0.8
  7
M_STANDARD
 72
     1
 11
-4.351945
 21
67.235584
 31
0.0
100
AcDbText
 73
     2
  0
TEXT
  5
2F4
100
AcDbEntity
  8
TEXT1
100
AcDbText
 10
-4.430517
 20
60.673849
 30
0.0
 40
0.825
  1
1
 41
0.8
  7
M_STANDARD
 72
     1
 11
-4.351945
 21
61.086349
 31
0.0
100
AcDbText
 73
     2
  0
TEXT
  5
2F5
100
AcDbEntity
  8
TEXT1
100
AcDbText
 10
-4.430517
 20
63.748466
 30
0.0
 40
0.825
  1
1
 41
0.8
  7
M_STANDARD
 72
     1
 11
-4.351945
 21
64.160966
 31
0.0
100
AcDbText
 73
     2
  0
TEXT
  5
2F6
100
AcDbEntity
  8
TEXT1
100
AcDbText
 10
-4.571945
 20
65.543564
 30
0.0
 40
0.825
  1
3
 41
0.8
  7
M_STANDARD
 72
     1
 11
-4.351945
 21
65.956064
 31
0.0
100
AcDbText
 73
     2
  0
TEXT
  5
2F7
100
AcDbEntity
  8
TEXT1
100
AcDbText
 10
-4.571945
 20
59.394328
 30
0.0
 40
0.825
  1
2
 41
0.8
  7
M_STANDARD
 72
     1
 11
-4.351945
 21
59.806828
 31
0.0
100
AcDbText
 73
     2
  0
TEXT
  5
2F8
100
AcDbEntity
  8
TEXT1
100
AcDbText
 10
-4.571945
 20
62.468946
 30
0.0
 40
0.825
  1
2
 41
0.8
  7
M_STANDARD
 72
     1
 11
-4.351945
 21
62.881446
 31
0.0
100
AcDbText
 73
     2
  0
TEXT
  5
2F9
100
AcDbEntity
  8
TEXT1
100
AcDbText
 10
-1.985174
 20
44.402963
 30
0.0
 40
0.825
  1
1
 41
0.8
  7
M_STANDARD
 72
     1
 11
-1.906602
 21
44.815463
 31
0.0
100
AcDbText
 73
     2
  0
TEXT
  5
2FA
100
AcDbEntity
  8
TEXT1
100
AcDbText
 10
-1.985174
 20
42.607866
 30
0.0
 40
0.825
  1
1
 41
0.8
  7
M_STANDARD
 72
     1
 11
-1.906602
 21
43.020366
 31
0.0
100
AcDbText
 73
     2
  0
TEXT
  5
2FB
100
AcDbEntity
  8
TEXT1
100
AcDbText
 10
-1.985174
 20
40.812768
 30
0.0
 40
0.825
  1
1
 41
0.8
  7
M_STANDARD
 72
     1
 11
-1.906602
 21
41.225268
 31
0.0
100
AcDbText
 73
     2
  0
TEXT
  5
2FC
100
AcDbEntity
  8
TEXT1
100
AcDbText
 10
-28.46154
 20
44.402963
 30
0.0
 40
0.825
  1
AL800SN
 41
0.898877
  7
M_STANDARD
 72
     1
 11
-26.113224
 21
44.815463
 31
0.0
100
AcDbText
 73
     2
  0
TEXT
  5
2FD
100
AcDbEntity
  8
TEXT1
100
AcDbText
 10
-28.903802
 20
42.607866
 30
0.0
 40
0.825
  1
SN1000MA
 41
0.899151
  7
M_STANDARD
 72
     1
 11
-26.113224
 21
43.020366
 31
0.0
100
AcDbText
 73
     2
  0
TEXT
  5
2FE
100
AcDbEntity
  8
TEXT1
100
AcDbText
 10
-28.605893
 20
40.812768
 30
0.0
 40
0.825
  1
PKOGTA4
 41
0.898877
  7
M_STANDARD
 72
     1
 11
-26.133981
 21
41.225268
 31
0.0
100
AcDbText
 73
     2
  0
TEXT
  5
2FF
100
AcDbEntity
  8
TEXT1
100
AcDbText
 10
-10.006544
 20
44.402963
 30
0.0
 40
0.825
  1
6
 41
0.8
  7
M_STANDARD
 72
     1
 11
-9.802258
 21
44.815463
 31
0.0
100
AcDbText
 73
     2
  0
TEXT
  5
300
100
AcDbEntity
  8
TEXT1
100
AcDbText
 10
-10.006544
 20
42.607866
 30
0.0
 40
0.825
  1
6
 41
0.8
  7
M_STANDARD
 72
     1
 11
-9.802258
 21
43.020366
 31
0.0
100
AcDbText
 73
     2
  0
TEXT
  5
301
100
AcDbEntity
  8
TEXT1
100
AcDbText
 10
-10.037972
 20
40.812768
 30
0.0
 40
0.825
  1
4
 41
0.8
  7
M_STANDARD
 72
     1
 11
-9.802258
 21
41.225268
 31
0.0
100
AcDbText
 73
     2
  0
TEXT
  5
302
100
AcDbEntity
  8
TEXT1
100
AcDbText
 10
-22.132546
 20
44.402963
 30
0.0
 40
0.825
  1
900A/1000A 
 41
0.899561
  7
M_STANDARD
 72
     1
 11
-18.227488
 21
44.815463
 31
0.0
100
AcDbText
 73
     2
  0
TEXT
  5
303
100
AcDbEntity
  8
TEXT1
100
AcDbText
 10
-19.565542
 20
42.607866
 30
0.0
 40
0.825
  1
800A
 41
0.896304
  7
M_STANDARD
 72
     1
 11
-18.227488
 21
43.020366
 31
0.0
100
AcDbText
 73
     2
  0
TEXT
  5
304
100
AcDbEntity
  8
TEXT1
100
AcDbText
 10
-18.510345
 20
40.812768
 30
0.0
 40
0.825
  1
-
 41
0.8
  7
M_STANDARD
 72
     1
 11
-18.227488
 21
41.225268
 31
0.0
100
AcDbText
 73
     2
  0
TEXT
  5
305
100
AcDbEntity
  8
TEXT1
100
AcDbText
 10
1.742083
 20
68.618182
 30
0.0
 40
0.825
  1
500
 41
0.951579
  7
M_STANDARD
 72
     1
 11
2.751436
 21
69.030682
 31
0.0
100
AcDbText
 73
     2
  0
TEXT
  5
306
100
AcDbEntity
  8
TEXT1
100
AcDbText
 10
7.332755
 20
68.697419
 30
0.0
 40
0.825
  1
3/0
 41
0.951579
  7
M_STANDARD
 72
     1
 11
8.379492
 21
69.109919
 31
0.0
100
AcDbText
 73
     2
  0
TEXT
  5
307
100
AcDbEntity
  8
TEXT1
100
AcDbText
 10
8.667026
 20
47.993158
 30
0.0
 40
0.825
  1
1
 41
0.8
  7
M_STANDARD
 72
     1
 11
8.745598
 21
48.405658
 31
0.0
100
AcDbText
 73
     2
  0
TEXT
  5
308
100
AcDbEntity
  8
TEXT1
100
AcDbText
 10
7.620655
 20
47.805658
 30
0.0
 40
1.2
  1
#
 41
0.8
  7
M_STANDARD
 72
     1
 11
7.963512
 21
48.405658
 31
0.0
100
AcDbText
 73
     2
  0
TEXT
  5
309
100
AcDbEntity
  8
TEXT1
100
AcDbText
 10
1.742083
 20
66.823084
 30
0.0
 40
0.825
  1
350
 41
0.951579
  7
M_STANDARD
 72
     1
 11
2.751436
 21
67.235584
 31
0.0
100
AcDbText
 73
     2
  0
TEXT
  5
30A
100
AcDbEntity
  8
TEXT1
100
AcDbText
 10
1.742083
 20
60.673849
 30
0.0
 40
0.825
  1
600
 41
0.951579
  7
M_STANDARD
 72
     1
 11
2.751436
 21
61.086349
 31
0.0
100
AcDbText
 73
     2
  0
TEXT
  5
30B
100
AcDbEntity
  8
TEXT1
100
AcDbText
 10
1.742083
 20
63.748466
 30
0.0
 40
0.825
  1
600
 41
0.951579
  7
M_STANDARD
 72
     1
 11
2.751436
 21
64.160966
 31
0.0
100
AcDbText
 73
     2
  0
TEXT
  5
30C
100
AcDbEntity
  8
TEXT1
100
AcDbText
 10
3.266663
 20
44.402963
 30
0.0
 40
0.825
  1
500
 41
0.951579
  7
M_STANDARD
 72
     1
 11
4.276016
 21
44.815463
 31
0.0
100
AcDbText
 73
     2
  0
TEXT
  5
30D
100
AcDbEntity
  8
TEXT1
100
AcDbText
 10
3.266663
 20
47.993158
 30
0.0
 40
0.825
  1
600
 41
0.951579
  7
M_STANDARD
 72
     1
 11
4.276016
 21
48.405658
 31
0.0
100
AcDbText
 73
     2
  0
TEXT
  5
30E
100
AcDbEntity
  8
TEXT1
100
AcDbText
 10
6.549309
 20
68.509919
 30
0.0
 40
1.2
  1
#
 41
0.8
  7
M_STANDARD
 72
     1
 11
6.892166
 21
69.109919
 31
0.0
100
AcDbText
 73
     2
  0
TEXT
  5
30F
100
AcDbEntity
  8
TEXT1
100
AcDbText
 10
6.981227
 20
66.714821
 30
0.0
 40
1.2
  1
#
 41
0.8
  7
M_STANDARD
 72
     1
 11
7.324085
 21
67.314821
 31
0.0
100
AcDbText
 73
     2
  0
TEXT
  5
310
100
AcDbEntity
  8
TEXT1
100
AcDbText
 10
6.981227
 20
60.565585
 30
0.0
 40
1.2
  1
#
 41
0.8
  7
M_STANDARD
 72
     1
 11
7.324085
 21
61.165585
 31
0.0
100
AcDbText
 73
     2
  0
TEXT
  5
311
100
AcDbEntity
  8
TEXT1
100
AcDbText
 10
6.981227
 20
63.640203
 30
0.0
 40
1.2
  1
#
 41
0.8
  7
M_STANDARD
 72
     1
 11
7.324085
 21
64.240203
 31
0.0
100
AcDbText
 73
     2
  0
TEXT
  5
312
100
AcDbEntity
  8
TEXT1
100
AcDbText
 10
12.705017
 20
65.444249
 30
0.0
 40
0.825
  1
AL
 41
0.882523
  7
M_STANDARD
 72
     1
 11
13.294416
 21
65.856749
 31
0.0
100
AcDbText
 73
     2
  0
TEXT
  5
313
100
AcDbEntity
  8
TEXT1
100
AcDbText
 10
12.529208
 20
62.489024
 30
0.0
 40
0.825
  1
CU
 41
0.882523
  7
M_STANDARD
 72
     1
 11
13.135943
 21
62.901524
 31
0.0
100
AcDbText
 73
     2
  0
TEXT
  5
314
100
AcDbEntity
  8
TEXT1
100
AcDbText
 10
12.59111
 20
44.402963
 30
0.0
 40
0.825
  1
OR
 41
0.882523
  7
M_STANDARD
 72
     1
 11
13.215179
 21
44.815463
 31
0.0
100
AcDbText
 73
     2
  0
TEXT
  5
315
100
AcDbEntity
  8
TEXT1
100
AcDbText
 10
8.175206
 20
66.902321
 30
0.0
 40
0.825
  1
6
 41
0.8
  7
M_STANDARD
 72
     1
 11
8.379492
 21
67.314821
 31
0.0
100
AcDbText
 73
     2
  0
TEXT
  5
316
100
AcDbEntity
  8
TEXT1
100
AcDbText
 10
8.30092
 20
60.753085
 30
0.0
 40
0.825
  1
1
 41
0.8
  7
M_STANDARD
 72
     1
 11
8.379492
 21
61.165585
 31
0.0
100
AcDbText
 73
     2
  0
TEXT
  5
317
100
AcDbEntity
  8
TEXT1
100
AcDbText
 10
8.30092
 20
63.827703
 30
0.0
 40
0.825
  1
1
 41
0.8
  7
M_STANDARD
 72
     1
 11
8.379492
 21
64.240203
 31
0.0
100
AcDbText
 73
     2
  0
TEXT
  5
318
100
AcDbEntity
  8
TEXT1
100
AcDbText
 10
7.698861
 20
44.402963
 30
0.0
 40
0.825
  1
3/0
 41
0.951579
  7
M_STANDARD
 72
     1
 11
8.745598
 21
44.815463
 31
0.0
100
AcDbText
 73
     2
  0
TEXT
  5
319
100
AcDbEntity
  8
TEXT1
100
AcDbText
 10
6.828486
 20
44.215463
 30
0.0
 40
1.2
  1
#
 41
0.8
  7
M_STANDARD
 72
     1
 11
7.171344
 21
44.815463
 31
0.0
100
AcDbText
 73
     2
  0
TEXT
  5
31A
100
AcDbEntity
  8
TEXT1
100
AcDbText
 10
12.62578
 20
46.198061
 30
0.0
 40
0.825
  1
AL
 41
0.882523
  7
M_STANDARD
 72
     1
 11
13.215179
 21
46.610561
 31
0.0
100
AcDbText
 73
     2
  0
TEXT
  5
31B
100
AcDbEntity
  8
TEXT1
100
AcDbText
 10
8.667026
 20
46.198061
 30
0.0
 40
0.825
  1
1
 41
0.8
  7
M_STANDARD
 72
     1
 11
8.745598
 21
46.610561
 31
0.0
100
AcDbText
 73
     2
  0
TEXT
  5
31C
100
AcDbEntity
  8
TEXT1
100
AcDbText
 10
7.620655
 20
46.010561
 30
0.0
 40
1.2
  1
#
 41
0.8
  7
M_STANDARD
 72
     1
 11
7.963512
 21
46.610561
 31
0.0
100
AcDbText
 73
     2
  0
LINE
  5
31D
100
AcDbEntity
  8
0
100
AcDbLine
 10
-29.521557
 20
65.058515
 30
0.0
 11
10.980389
 21
65.058515
 31
0.0
  0
LINE
  5
31E
100
AcDbEntity
  8
0
100
AcDbLine
 10
-29.521557
 20
61.983897
 30
0.0
 11
10.980389
 21
61.983897
 31
0.0
  0
TEXT
  5
31F
100
AcDbEntity
  8
TEXT1
100
AcDbText
 10
1.742083
 20
65.543564
 30
0.0
 40
0.825
  1
500
 41
0.951579
  7
M_STANDARD
 72
     1
 11
2.751436
 21
65.956064
 31
0.0
100
AcDbText
 73
     2
  0
TEXT
  5
320
100
AcDbEntity
  8
TEXT1
100
AcDbText
 10
1.742083
 20
59.394328
 30
0.0
 40
0.825
  1
250
 41
0.951579
  7
M_STANDARD
 72
     1
 11
2.751436
 21
59.806828
 31
0.0
100
AcDbText
 73
     2
  0
TEXT
  5
321
100
AcDbEntity
  8
TEXT1
100
AcDbText
 10
1.742083
 20
62.468946
 30
0.0
 40
0.825
  1
250
 41
0.951579
  7
M_STANDARD
 72
     1
 11
2.751436
 21
62.881446
 31
0.0
100
AcDbText
 73
     2
  0
TEXT
  5
322
100
AcDbEntity
  8
TEXT1
100
AcDbText
 10
3.266663
 20
42.607866
 30
0.0
 40
0.825
  1
500
 41
0.951579
  7
M_STANDARD
 72
     1
 11
4.276016
 21
43.020366
 31
0.0
100
AcDbText
 73
     2
  0
TEXT
  5
323
100
AcDbEntity
  8
TEXT1
100
AcDbText
 10
3.266663
 20
40.812768
 30
0.0
 40
0.825
  1
250
 41
0.951579
  7
M_STANDARD
 72
     1
 11
4.276016
 21
41.225268
 31
0.0
100
AcDbText
 73
     2
  0
TEXT
  5
324
100
AcDbEntity
  8
TEXT1
100
AcDbText
 10
3.266663
 20
46.198061
 30
0.0
 40
0.825
  1
250
 41
0.951579
  7
M_STANDARD
 72
     1
 11
4.276016
 21
46.610561
 31
0.0
100
AcDbText
 73
     2
  0
TEXT
  5
325
100
AcDbEntity
  8
TEXT1
100
AcDbText
 10
6.549309
 20
65.435301
 30
0.0
 40
1.2
  1
#
 41
0.8
  7
M_STANDARD
 72
     1
 11
6.892166
 21
66.035301
 31
0.0
100
AcDbText
 73
     2
  0
TEXT
  5
326
100
AcDbEntity
  8
TEXT1
100
AcDbText
 10
6.981227
 20
59.286065
 30
0.0
 40
1.2
  1
#
 41
0.8
  7
M_STANDARD
 72
     1
 11
7.324085
 21
59.886065
 31
0.0
100
AcDbText
 73
     2
  0
TEXT
  5
327
100
AcDbEntity
  8
TEXT1
100
AcDbText
 10
6.981227
 20
62.360683
 30
0.0
 40
1.2
  1
#
 41
0.8
  7
M_STANDARD
 72
     1
 11
7.324085
 21
62.960683
 31
0.0
100
AcDbText
 73
     2
  0
TEXT
  5
328
100
AcDbEntity
  8
TEXT1
100
AcDbText
 10
12.59111
 20
64.006255
 30
0.0
 40
0.825
  1
OR
 41
0.882523
  7
M_STANDARD
 72
     1
 11
13.215179
 21
64.418755
 31
0.0
100
AcDbText
 73
     2
  0
TEXT
  5
329
100
AcDbEntity
  8
TEXT1
100
AcDbText
 10
12.608445
 20
42.607866
 30
0.0
 40
0.825
  1
CU
 41
0.882523
  7
M_STANDARD
 72
     1
 11
13.215179
 21
43.020366
 31
0.0
100
AcDbText
 73
     2
  0
TEXT
  5
32A
100
AcDbEntity
  8
TEXT1
100
AcDbText
 10
7.332755
 20
65.622801
 30
0.0
 40
0.825
  1
3/0
 41
0.951579
  7
M_STANDARD
 72
     1
 11
8.379492
 21
66.035301
 31
0.0
100
AcDbText
 73
     2
  0
TEXT
  5
32B
100
AcDbEntity
  8
TEXT1
100
AcDbText
 10
8.30092
 20
59.473565
 30
0.0
 40
0.825
  1
1
 41
0.8
  7
M_STANDARD
 72
     1
 11
8.379492
 21
59.886065
 31
0.0
100
AcDbText
 73
     2
  0
TEXT
  5
32C
100
AcDbEntity
  8
TEXT1
100
AcDbText
 10
8.30092
 20
62.548183
 30
0.0
 40
0.825
  1
1
 41
0.8
  7
M_STANDARD
 72
     1
 11
8.379492
 21
62.960683
 31
0.0
100
AcDbText
 73
     2
  0
TEXT
  5
32D
100
AcDbEntity
  8
TEXT1
100
AcDbText
 10
7.698861
 20
42.607866
 30
0.0
 40
0.825
  1
3/0
 41
0.951579
  7
M_STANDARD
 72
     1
 11
8.745598
 21
43.020366
 31
0.0
100
AcDbText
 73
     2
  0
TEXT
  5
32E
100
AcDbEntity
  8
TEXT1
100
AcDbText
 10
8.541312
 20
40.812768
 30
0.0
 40
0.825
  1
6
 41
0.8
  7
M_STANDARD
 72
     1
 11
8.745598
 21
41.225268
 31
0.0
100
AcDbText
 73
     2
  0
TEXT
  5
32F
100
AcDbEntity
  8
TEXT1
100
AcDbText
 10
6.828486
 20
42.420366
 30
0.0
 40
1.2
  1
#
 41
0.8
  7
M_STANDARD
 72
     1
 11
7.171344
 21
43.020366
 31
0.0
100
AcDbText
 73
     2
  0
TEXT
  5
330
100
AcDbEntity
  8
TEXT1
100
AcDbText
 10
7.620655
 20
40.625268
 30
0.0
 40
1.2
  1
#
 41
0.8
  7
M_STANDARD
 72
     1
 11
7.963512
 21
41.225268
 31
0.0
100
AcDbText
 73
     2
  0
TEXT
  5
331
100
AcDbEntity
  8
TEXT1
100
AcDbText
 10
-32.186287
 20
26.643787
 30
0.0
 40
0.825
  1
300-1000
 41
0.919093
  7
M_STANDARD
 72
     1
 11
-29.369924
 21
27.056287
 31
0.0
100
AcDbText
 73
     2
  0
TEXT
  5
332
100
AcDbEntity
  8
TEXT1
100
AcDbText
 10
-31.905055
 20
4.525855
 30
0.0
 40
0.825
  1
250-400
 41
0.921866
  7
M_STANDARD
 72
     1
 11
-29.369924
 21
4.938355
 31
0.0
100
AcDbText
 73
     2
  0
TEXT
  5
333
100
AcDbEntity
  8
TEXT1
100
AcDbText
 10
-31.832622
 20
14.363928
 30
0.0
 40
0.825
  1
125-400
 41
0.921866
  7
M_STANDARD
 72
     1
 11
-29.369924
 21
14.776428
 31
0.0
100
AcDbText
 73
     2
  0
TEXT
  5
334
100
AcDbEntity
  8
TEXT1
100
AcDbText
 10
-32.186287
 20
22.945644
 30
0.0
 40
0.825
  1
300-1000
 41
0.919093
  7
M_STANDARD
 72
     1
 11
-29.369924
 21
23.358144
 31
0.0
100
AcDbText
 73
     2
  0
TEXT
  5
335
100
AcDbEntity
  8
TEXT1
100
AcDbText
 10
-31.832622
 20
10.665784
 30
0.0
 40
0.825
  1
125-400
 41
0.921866
  7
M_STANDARD
 72
     1
 11
-29.369924
 21
11.078284
 31
0.0
100
AcDbText
 73
     2
  0
TEXT
  5
336
100
AcDbEntity
  8
TEXT1
100
AcDbText
 10
-29.652781
 20
19.247501
 30
0.0
 40
0.825
  1
-
 41
0.8
  7
M_STANDARD
 72
     1
 11
-29.369924
 21
19.660001
 31
0.0
100
AcDbText
 73
     2
  0
TEXT
  5
337
100
AcDbEntity
  8
TEXT1
100
AcDbText
 10
-29.652781
 20
6.967641
 30
0.0
 40
0.825
  1
-
 41
0.8
  7
M_STANDARD
 72
     1
 11
-29.369924
 21
7.380141
 31
0.0
100
AcDbText
 73
     2
  0
TEXT
  5
338
100
AcDbEntity
  8
TEXT1
100
AcDbText
 10
-31.832622
 20
16.805714
 30
0.0
 40
0.825
  1
125-800
 41
0.921866
  7
M_STANDARD
 72
     1
 11
-29.369924
 21
17.218214
 31
0.0
100
AcDbText
 73
     2
  0
LINE
  5
339
100
AcDbEntity
  8
0
100
AcDbLine
 10
-46.550344
 20
24.579931
 30
0.0
 11
15.44997
 21
24.579931
 31
0.0
  0
LINE
  5
33A
100
AcDbEntity
  8
0
100
AcDbLine
 10
-46.550344
 20
12.300071
 30
0.0
 11
15.44997
 21
12.300071
 31
0.0
  0
LINE
  5
33B
100
AcDbEntity
  8
0
100
AcDbLine
 10
-46.550344
 20
20.881788
 30
0.0
 11
15.44997
 21
20.881788
 31
0.0
  0
LINE
  5
33C
100
AcDbEntity
  8
0
100
AcDbLine
 10
-46.550344
 20
8.601928
 30
0.0
 11
15.44997
 21
8.601928
 31
0.0
  0
LINE
  5
33D
100
AcDbEntity
  8
0
100
AcDbLine
 10
15.44997
 20
18.440001
 30
0.0
 11
-46.550344
 21
18.440001
 31
0.0
  0
LINE
  5
33E
100
AcDbEntity
  8
0
100
AcDbLine
 10
15.44997
 20
6.160141
 30
0.0
 11
-46.550344
 21
6.160141
 31
0.0
  0
LINE
  5
33F
100
AcDbEntity
  8
0
100
AcDbLine
 10
15.44997
 20
15.998214
 30
0.0
 11
-46.550344
 21
15.998214
 31
0.0
  0
TEXT
  5
340
100
AcDbEntity
  8
TEXT1
100
AcDbText
 10
-35.489989
 20
26.643787
 30
0.0
 40
0.825
  1
A
 41
0.8
  7
M_STANDARD
 72
     1
 11
-35.238561
 21
27.056287
 31
0.0
100
AcDbText
 73
     2
  0
TEXT
  5
341
100
AcDbEntity
  8
TEXT1
100
AcDbText
 10
-35.489989
 20
4.525855
 30
0.0
 40
0.825
  1
A
 41
0.8
  7
M_STANDARD
 72
     1
 11
-35.238561
 21
4.938355
 31
0.0
100
AcDbText
 73
     2
  0
TEXT
  5
342
100
AcDbEntity
  8
TEXT1
100
AcDbText
 10
-35.489989
 20
14.363928
 30
0.0
 40
0.825
  1
A
 41
0.8
  7
M_STANDARD
 72
     1
 11
-35.238561
 21
14.776428
 31
0.0
100
AcDbText
 73
     2
  0
TEXT
  5
343
100
AcDbEntity
  8
TEXT1
100
AcDbText
 10
-35.489989
 20
22.945644
 30
0.0
 40
0.825
  1
A
 41
0.8
  7
M_STANDARD
 72
     1
 11
-35.238561
 21
23.358144
 31
0.0
100
AcDbText
 73
     2
  0
TEXT
  5
344
100
AcDbEntity
  8
TEXT1
100
AcDbText
 10
-35.489989
 20
10.665784
 30
0.0
 40
0.825
  1
A
 41
0.8
  7
M_STANDARD
 72
     1
 11
-35.238561
 21
11.078284
 31
0.0
100
AcDbText
 73
     2
  0
TEXT
  5
345
100
AcDbEntity
  8
TEXT1
100
AcDbText
 10
10.176584
 20
26.643787
 30
0.0
 40
0.825
  1
21A
 41
0.89305
  7
M_STANDARD
 72
     1
 11
11.088771
 21
27.056287
 31
0.0
100
AcDbText
 73
     2
  0
TEXT
  5
346
100
AcDbEntity
  8
TEXT1
100
AcDbText
 10
10.211668
 20
4.525855
 30
0.0
 40
0.825
  1
14B
 41
0.89305
  7
M_STANDARD
 72
     1
 11
11.088771
 21
4.938355
 31
0.0
100
AcDbText
 73
     2
  0
TEXT
  5
347
100
AcDbEntity
  8
TEXT1
100
AcDbText
 10
10.176584
 20
14.363928
 30
0.0
 40
0.825
  1
21A
 41
0.89305
  7
M_STANDARD
 72
     1
 11
11.088771
 21
14.776428
 31
0.0
100
AcDbText
 73
     2
  0
TEXT
  5
348
100
AcDbEntity
  8
TEXT1
100
AcDbText
 10
10.106416
 20
22.945644
 30
0.0
 40
0.825
  1
23A
 41
0.89305
  7
M_STANDARD
 72
     1
 11
11.088771
 21
23.358144
 31
0.0
100
AcDbText
 73
     2
  0
TEXT
  5
349
100
AcDbEntity
  8
TEXT1
100
AcDbText
 10
10.106416
 20
10.665784
 30
0.0
 40
0.825
  1
23A
 41
0.89305
  7
M_STANDARD
 72
     1
 11
11.088771
 21
11.078284
 31
0.0
100
AcDbText
 73
     2
  0
TEXT
  5
34A
100
AcDbEntity
  8
TEXT1
100
AcDbText
 10
-25.214707
 20
26.643787
 30
0.0
 40
0.825
  1
42K
 41
0.89305
  7
M_STANDARD
 72
     1
 11
-24.267436
 21
27.056287
 31
0.0
100
AcDbText
 73
     2
  0
TEXT
  5
34B
100
AcDbEntity
  8
TEXT1
100
AcDbText
 10
-25.214707
 20
4.525855
 30
0.0
 40
0.825
  1
25K
 41
0.89305
  7
M_STANDARD
 72
     1
 11
-24.267436
 21
4.938355
 31
0.0
100
AcDbText
 73
     2
  0
TEXT
  5
34C
100
AcDbEntity
  8
TEXT1
100
AcDbText
 10
-25.214707
 20
14.363928
 30
0.0
 40
0.825
  1
42K
 41
0.89305
  7
M_STANDARD
 72
     1
 11
-24.267436
 21
14.776428
 31
0.0
100
AcDbText
 73
     2
  0
TEXT
  5
34D
100
AcDbEntity
  8
TEXT1
100
AcDbText
 10
-25.214707
 20
22.945644
 30
0.0
 40
0.825
  1
65K
 41
0.89305
  7
M_STANDARD
 72
     1
 11
-24.267436
 21
23.358144
 31
0.0
100
AcDbText
 73
     2
  0
TEXT
  5
34E
100
AcDbEntity
  8
TEXT1
100
AcDbText
 10
-25.214707
 20
10.665784
 30
0.0
 40
0.825
  1
65K
 41
0.89305
  7
M_STANDARD
 72
     1
 11
-24.267436
 21
11.078284
 31
0.0
100
AcDbText
 73
     2
  0
TEXT
  5
34F
100
AcDbEntity
  8
TEXT1
100
AcDbText
 10
-21.568235
 20
26.643787
 30
0.0
 40
0.825
  1
42K
 41
0.89305
  7
M_STANDARD
 72
     1
 11
-20.620964
 21
27.056287
 31
0.0
100
AcDbText
 73
     2
  0
TEXT
  5
350
100
AcDbEntity
  8
TEXT1
100
AcDbText
 10
-21.568235
 20
4.525855
 30
0.0
 40
0.825
  1
25K
 41
0.89305
  7
M_STANDARD
 72
     1
 11
-20.620964
 21
4.938355
 31
0.0
100
AcDbText
 73
     2
  0
TEXT
  5
351
100
AcDbEntity
  8
TEXT1
100
AcDbText
 10
-21.568235
 20
14.363928
 30
0.0
 40
0.825
  1
42K
 41
0.89305
  7
M_STANDARD
 72
     1
 11
-20.620964
 21
14.776428
 31
0.0
100
AcDbText
 73
     2
  0
TEXT
  5
352
100
AcDbEntity
  8
TEXT1
100
AcDbText
 10
-21.568235
 20
22.945644
 30
0.0
 40
0.825
  1
65K
 41
0.89305
  7
M_STANDARD
 72
     1
 11
-20.620964
 21
23.358144
 31
0.0
100
AcDbText
 73
     2
  0
TEXT
  5
353
100
AcDbEntity
  8
TEXT1
100
AcDbText
 10
-21.568235
 20
10.665784
 30
0.0
 40
0.825
  1
65K
 41
0.89305
  7
M_STANDARD
 72
     1
 11
-20.620964
 21
11.078284
 31
0.0
100
AcDbText
 73
     2
  0
TEXT
  5
354
100
AcDbEntity
  8
TEXT1
100
AcDbText
 10
-10.628821
 20
26.643787
 30
0.0
 40
0.825
  1
30K
 41
0.89305
  7
M_STANDARD
 72
     1
 11
-9.68155
 21
27.056287
 31
0.0
100
AcDbText
 73
     2
  0
TEXT
  5
355
100
AcDbEntity
  8
TEXT1
100
AcDbText
 10
-9.964407
 20
4.525855
 30
0.0
 40
0.825
  1
-
 41
0.8
  7
M_STANDARD
 72
     1
 11
-9.68155
 21
4.938355
 31
0.0
100
AcDbText
 73
     2
  0
TEXT
  5
356
100
AcDbEntity
  8
TEXT1
100
AcDbText
 10
-10.628821
 20
14.363928
 30
0.0
 40
0.825
  1
30K
 41
0.89305
  7
M_STANDARD
 72
     1
 11
-9.68155
 21
14.776428
 31
0.0
100
AcDbText
 73
     2
  0
TEXT
  5
357
100
AcDbEntity
  8
TEXT1
100
AcDbText
 10
-10.628821
 20
22.945644
 30
0.0
 40
0.825
  1
50K
 41
0.89305
  7
M_STANDARD
 72
     1
 11
-9.68155
 21
23.358144
 31
0.0
100
AcDbText
 73
     2
  0
TEXT
  5
358
100
AcDbEntity
  8
TEXT1
100
AcDbText
 10
-10.628821
 20
10.665784
 30
0.0
 40
0.825
  1
35K
 41
0.89305
  7
M_STANDARD
 72
     1
 11
-9.68155
 21
11.078284
 31
0.0
100
AcDbText
 73
     2
  0
TEXT
  5
359
100
AcDbEntity
  8
TEXT1
100
AcDbText
 10
-6.98235
 20
26.643787
 30
0.0
 40
0.825
  1
22K
 41
0.89305
  7
M_STANDARD
 72
     1
 11
-6.035079
 21
27.056287
 31
0.0
100
AcDbText
 73
     2
  0
TEXT
  5
35A
100
AcDbEntity
  8
TEXT1
100
AcDbText
 10
-6.317936
 20
4.525855
 30
0.0
 40
0.825
  1
-
 41
0.8
  7
M_STANDARD
 72
     1
 11
-6.035079
 21
4.938355
 31
0.0
100
AcDbText
 73
     2
  0
TEXT
  5
35B
100
AcDbEntity
  8
TEXT1
100
AcDbText
 10
-6.98235
 20
14.363928
 30
0.0
 40
0.825
  1
22K
 41
0.89305
  7
M_STANDARD
 72
     1
 11
-6.035079
 21
14.776428
 31
0.0
100
AcDbText
 73
     2
  0
TEXT
  5
35C
100
AcDbEntity
  8
TEXT1
100
AcDbText
 10
-6.98235
 20
22.945644
 30
0.0
 40
0.825
  1
25K
 41
0.89305
  7
M_STANDARD
 72
     1
 11
-6.035079
 21
23.358144
 31
0.0
100
AcDbText
 73
     2
  0
TEXT
  5
35D
100
AcDbEntity
  8
TEXT1
100
AcDbText
 10
-6.98235
 20
10.665784
 30
0.0
 40
0.825
  1
25K
 41
0.89305
  7
M_STANDARD
 72
     1
 11
-6.035079
 21
11.078284
 31
0.0
100
AcDbText
 73
     2
  0
TEXT
  5
35E
100
AcDbEntity
  8
TEXT1
100
AcDbText
 10
-3.26571
 20
26.643787
 30
0.0
 40
0.825
  1
14K
 41
0.89305
  7
M_STANDARD
 72
     1
 11
-2.388607
 21
27.056287
 31
0.0
100
AcDbText
 73
     2
  0
TEXT
  5
35F
100
AcDbEntity
  8
TEXT1
100
AcDbText
 10
-2.671464
 20
4.525855
 30
0.0
 40
0.825
  1
-
 41
0.8
  7
M_STANDARD
 72
     1
 11
-2.388607
 21
4.938355
 31
0.0
100
AcDbText
 73
     2
  0
TEXT
  5
360
100
AcDbEntity
  8
TEXT1
100
AcDbText
 10
-3.26571
 20
14.363928
 30
0.0
 40
0.825
  1
10K
 41
0.89305
  7
M_STANDARD
 72
     1
 11
-2.388607
 21
14.776428
 31
0.0
100
AcDbText
 73
     2
  0
TEXT
  5
361
100
AcDbEntity
  8
TEXT1
100
AcDbText
 10
-3.26571
 20
22.945644
 30
0.0
 40
0.825
  1
14K
 41
0.89305
  7
M_STANDARD
 72
     1
 11
-2.388607
 21
23.358144
 31
0.0
100
AcDbText
 73
     2
  0
TEXT
  5
362
100
AcDbEntity
  8
TEXT1
100
AcDbText
 10
-3.26571
 20
10.665784
 30
0.0
 40
0.825
  1
10K
 41
0.89305
  7
M_STANDARD
 72
     1
 11
-2.388607
 21
11.078284
 31
0.0
100
AcDbText
 73
     2
  0
TEXT
  5
363
100
AcDbEntity
  8
TEXT1
100
AcDbText
 10
0.380761
 20
26.643787
 30
0.0
 40
0.825
  1
14K
 41
0.89305
  7
M_STANDARD
 72
     1
 11
1.257864
 21
27.056287
 31
0.0
100
AcDbText
 73
     2
  0
TEXT
  5
364
100
AcDbEntity
  8
TEXT1
100
AcDbText
 10
0.975007
 20
4.525855
 30
0.0
 40
0.825
  1
-
 41
0.8
  7
M_STANDARD
 72
     1
 11
1.257864
 21
4.938355
 31
0.0
100
AcDbText
 73
     2
  0
TEXT
  5
365
100
AcDbEntity
  8
TEXT1
100
AcDbText
 10
0.380761
 20
14.363928
 30
0.0
 40
0.825
  1
10K
 41
0.89305
  7
M_STANDARD
 72
     1
 11
1.257864
 21
14.776428
 31
0.0
100
AcDbText
 73
     2
  0
TEXT
  5
366
100
AcDbEntity
  8
TEXT1
100
AcDbText
 10
0.380761
 20
22.945644
 30
0.0
 40
0.825
  1
14K
 41
0.89305
  7
M_STANDARD
 72
     1
 11
1.257864
 21
23.358144
 31
0.0
100
AcDbText
 73
     2
  0
TEXT
  5
367
100
AcDbEntity
  8
TEXT1
100
AcDbText
 10
0.380761
 20
10.665784
 30
0.0
 40
0.825
  1
10K
 41
0.89305
  7
M_STANDARD
 72
     1
 11
1.257864
 21
11.078284
 31
0.0
100
AcDbText
 73
     2
  0
TEXT
  5
368
100
AcDbEntity
  8
TEXT1
100
AcDbText
 10
4.621478
 20
26.643787
 30
0.0
 40
0.825
  1
-
 41
0.8
  7
M_STANDARD
 72
     1
 11
4.904335
 21
27.056287
 31
0.0
100
AcDbText
 73
     2
  0
TEXT
  5
369
100
AcDbEntity
  8
TEXT1
100
AcDbText
 10
4.621478
 20
4.525855
 30
0.0
 40
0.825
  1
-
 41
0.8
  7
M_STANDARD
 72
     1
 11
4.904335
 21
4.938355
 31
0.0
100
AcDbText
 73
     2
  0
TEXT
  5
36A
100
AcDbEntity
  8
TEXT1
100
AcDbText
 10
4.621478
 20
14.363928
 30
0.0
 40
0.825
  1
-
 41
0.8
  7
M_STANDARD
 72
     1
 11
4.904335
 21
14.776428
 31
0.0
100
AcDbText
 73
     2
  0
TEXT
  5
36B
100
AcDbEntity
  8
TEXT1
100
AcDbText
 10
4.621478
 20
22.945644
 30
0.0
 40
0.825
  1
-
 41
0.8
  7
M_STANDARD
 72
     1
 11
4.904335
 21
23.358144
 31
0.0
100
AcDbText
 73
     2
  0
TEXT
  5
36C
100
AcDbEntity
  8
TEXT1
100
AcDbText
 10
4.621478
 20
10.665784
 30
0.0
 40
0.825
  1
-
 41
0.8
  7
M_STANDARD
 72
     1
 11
4.904335
 21
11.078284
 31
0.0
100
AcDbText
 73
     2
  0
TEXT
  5
36D
100
AcDbEntity
  8
TEXT1
100
AcDbText
 10
-16.098528
 20
26.643787
 30
0.0
 40
0.825
  1
30K
 41
0.89305
  7
M_STANDARD
 72
     1
 11
-15.151257
 21
27.056287
 31
0.0
100
AcDbText
 73
     2
  0
TEXT
  5
36E
100
AcDbEntity
  8
TEXT1
100
AcDbText
 10
-15.434114
 20
4.525855
 30
0.0
 40
0.825
  1
-
 41
0.8
  7
M_STANDARD
 72
     1
 11
-15.151257
 21
4.938355
 31
0.0
100
AcDbText
 73
     2
  0
TEXT
  5
36F
100
AcDbEntity
  8
TEXT1
100
AcDbText
 10
-16.098528
 20
14.363928
 30
0.0
 40
0.825
  1
30K
 41
0.89305
  7
M_STANDARD
 72
     1
 11
-15.151257
 21
14.776428
 31
0.0
100
AcDbText
 73
     2
  0
TEXT
  5
370
100
AcDbEntity
  8
TEXT1
100
AcDbText
 10
-16.098528
 20
22.945644
 30
0.0
 40
0.825
  1
50K
 41
0.89305
  7
M_STANDARD
 72
     1
 11
-15.151257
 21
23.358144
 31
0.0
100
AcDbText
 73
     2
  0
TEXT
  5
371
100
AcDbEntity
  8
TEXT1
100
AcDbText
 10
-16.098528
 20
10.665784
 30
0.0
 40
0.825
  1
35K
 41
0.89305
  7
M_STANDARD
 72
     1
 11
-15.151257
 21
11.078284
 31
0.0
100
AcDbText
 73
     2
  0
TEXT
  5
372
100
AcDbEntity
  8
TEXT1
100
AcDbText
 10
-35.458561
 20
19.247501
 30
0.0
 40
0.825
  1
B
 41
0.8
  7
M_STANDARD
 72
     1
 11
-35.238561
 21
19.660001
 31
0.0
100
AcDbText
 73
     2
  0
TEXT
  5
373
100
AcDbEntity
  8
TEXT1
100
AcDbText
 10
-35.458561
 20
6.967641
 30
0.0
 40
0.825
  1
B
 41
0.8
  7
M_STANDARD
 72
     1
 11
-35.238561
 21
7.380141
 31
0.0
100
AcDbText
 73
     2
  0
TEXT
  5
374
100
AcDbEntity
  8
TEXT1
100
AcDbText
 10
-35.458561
 20
16.805714
 30
0.0
 40
0.825
  1
B
 41
0.8
  7
M_STANDARD
 72
     1
 11
-35.238561
 21
17.218214
 31
0.0
100
AcDbText
 73
     2
  0
TEXT
  5
375
100
AcDbEntity
  8
TEXT1
100
AcDbText
 10
10.805914
 20
19.247501
 30
0.0
 40
0.825
  1
-
 41
0.8
  7
M_STANDARD
 72
     1
 11
11.088771
 21
19.660001
 31
0.0
100
AcDbText
 73
     2
  0
TEXT
  5
376
100
AcDbEntity
  8
TEXT1
100
AcDbText
 10
10.805914
 20
6.967641
 30
0.0
 40
0.825
  1
-
 41
0.8
  7
M_STANDARD
 72
     1
 11
11.088771
 21
7.380141
 31
0.0
100
AcDbText
 73
     2
  0
TEXT
  5
377
100
AcDbEntity
  8
TEXT1
100
AcDbText
 10
10.805914
 20
16.805714
 30
0.0
 40
0.825
  1
-
 41
0.8
  7
M_STANDARD
 72
     1
 11
11.088771
 21
17.218214
 31
0.0
100
AcDbText
 73
     2
  0
TEXT
  5
378
100
AcDbEntity
  8
TEXT1
100
AcDbText
 10
-24.550293
 20
19.247501
 30
0.0
 40
0.825
  1
-
 41
0.8
  7
M_STANDARD
 72
     1
 11
-24.267436
 21
19.660001
 31
0.0
100
AcDbText
 73
     2
  0
TEXT
  5
379
100
AcDbEntity
  8
TEXT1
100
AcDbText
 10
-24.550293
 20
6.967641
 30
0.0
 40
0.825
  1
-
 41
0.8
  7
M_STANDARD
 72
     1
 11
-24.267436
 21
7.380141
 31
0.0
100
AcDbText
 73
     2
  0
TEXT
  5
37A
100
AcDbEntity
  8
TEXT1
100
AcDbText
 10
-25.214707
 20
16.805714
 30
0.0
 40
0.825
  1
65K
 41
0.89305
  7
M_STANDARD
 72
     1
 11
-24.267436
 21
17.218214
 31
0.0
100
AcDbText
 73
     2
  0
TEXT
  5
37B
100
AcDbEntity
  8
TEXT1
100
AcDbText
 10
-20.903822
 20
19.247501
 30
0.0
 40
0.825
  1
-
 41
0.8
  7
M_STANDARD
 72
     1
 11
-20.620964
 21
19.660001
 31
0.0
100
AcDbText
 73
     2
  0
TEXT
  5
37C
100
AcDbEntity
  8
TEXT1
100
AcDbText
 10
-20.903822
 20
6.967641
 30
0.0
 40
0.825
  1
-
 41
0.8
  7
M_STANDARD
 72
     1
 11
-20.620964
 21
7.380141
 31
0.0
100
AcDbText
 73
     2
  0
TEXT
  5
37D
100
AcDbEntity
  8
TEXT1
100
AcDbText
 10
-21.568235
 20
16.805714
 30
0.0
 40
0.825
  1
65K
 41
0.89305
  7
M_STANDARD
 72
     1
 11
-20.620964
 21
17.218214
 31
0.0
100
AcDbText
 73
     2
  0
TEXT
  5
37E
100
AcDbEntity
  8
TEXT1
100
AcDbText
 10
-9.964407
 20
19.247501
 30
0.0
 40
0.825
  1
-
 41
0.8
  7
M_STANDARD
 72
     1
 11
-9.68155
 21
19.660001
 31
0.0
100
AcDbText
 73
     2
  0
TEXT
  5
37F
100
AcDbEntity
  8
TEXT1
100
AcDbText
 10
-9.964407
 20
6.967641
 30
0.0
 40
0.825
  1
-
 41
0.8
  7
M_STANDARD
 72
     1
 11
-9.68155
 21
7.380141
 31
0.0
100
AcDbText
 73
     2
  0
TEXT
  5
380
100
AcDbEntity
  8
TEXT1
100
AcDbText
 10
-10.628821
 20
16.805714
 30
0.0
 40
0.825
  1
50K
 41
0.89305
  7
M_STANDARD
 72
     1
 11
-9.68155
 21
17.218214
 31
0.0
100
AcDbText
 73
     2
  0
TEXT
  5
381
100
AcDbEntity
  8
TEXT1
100
AcDbText
 10
-6.317936
 20
19.247501
 30
0.0
 40
0.825
  1
-
 41
0.8
  7
M_STANDARD
 72
     1
 11
-6.035079
 21
19.660001
 31
0.0
100
AcDbText
 73
     2
  0
TEXT
  5
382
100
AcDbEntity
  8
TEXT1
100
AcDbText
 10
-6.317936
 20
6.967641
 30
0.0
 40
0.825
  1
-
 41
0.8
  7
M_STANDARD
 72
     1
 11
-6.035079
 21
7.380141
 31
0.0
100
AcDbText
 73
     2
  0
TEXT
  5
383
100
AcDbEntity
  8
TEXT1
100
AcDbText
 10
-6.98235
 20
16.805714
 30
0.0
 40
0.825
  1
25K
 41
0.89305
  7
M_STANDARD
 72
     1
 11
-6.035079
 21
17.218214
 31
0.0
100
AcDbText
 73
     2
  0
TEXT
  5
384
100
AcDbEntity
  8
TEXT1
100
AcDbText
 10
-2.671464
 20
19.247501
 30
0.0
 40
0.825
  1
-
 41
0.8
  7
M_STANDARD
 72
     1
 11
-2.388607
 21
19.660001
 31
0.0
100
AcDbText
 73
     2
  0
TEXT
  5
385
100
AcDbEntity
  8
TEXT1
100
AcDbText
 10
-2.671464
 20
6.967641
 30
0.0
 40
0.825
  1
-
 41
0.8
  7
M_STANDARD
 72
     1
 11
-2.388607
 21
7.380141
 31
0.0
100
AcDbText
 73
     2
  0
TEXT
  5
386
100
AcDbEntity
  8
TEXT1
100
AcDbText
 10
-2.671464
 20
16.805714
 30
0.0
 40
0.825
  1
-
 41
0.8
  7
M_STANDARD
 72
     1
 11
-2.388607
 21
17.218214
 31
0.0
100
AcDbText
 73
     2
  0
TEXT
  5
387
100
AcDbEntity
  8
TEXT1
100
AcDbText
 10
0.975007
 20
19.247501
 30
0.0
 40
0.825
  1
-
 41
0.8
  7
M_STANDARD
 72
     1
 11
1.257864
 21
19.660001
 31
0.0
100
AcDbText
 73
     2
  0
TEXT
  5
388
100
AcDbEntity
  8
TEXT1
100
AcDbText
 10
0.975007
 20
6.967641
 30
0.0
 40
0.825
  1
-
 41
0.8
  7
M_STANDARD
 72
     1
 11
1.257864
 21
7.380141
 31
0.0
100
AcDbText
 73
     2
  0
TEXT
  5
389
100
AcDbEntity
  8
TEXT1
100
AcDbText
 10
0.975007
 20
16.805714
 30
0.0
 40
0.825
  1
-
 41
0.8
  7
M_STANDARD
 72
     1
 11
1.257864
 21
17.218214
 31
0.0
100
AcDbText
 73
     2
  0
TEXT
  5
38A
100
AcDbEntity
  8
TEXT1
100
AcDbText
 10
3.957064
 20
19.247501
 30
0.0
 40
0.825
  1
20K
 41
0.89305
  7
M_STANDARD
 72
     1
 11
4.904335
 21
19.660001
 31
0.0
100
AcDbText
 73
     2
  0
TEXT
  5
38B
100
AcDbEntity
  8
TEXT1
100
AcDbText
 10
3.957064
 20
6.967641
 30
0.0
 40
0.825
  1
20K
 41
0.89305
  7
M_STANDARD
 72
     1
 11
4.904335
 21
7.380141
 31
0.0
100
AcDbText
 73
     2
  0
TEXT
  5
38C
100
AcDbEntity
  8
TEXT1
100
AcDbText
 10
4.621478
 20
16.805714
 30
0.0
 40
0.825
  1
-
 41
0.8
  7
M_STANDARD
 72
     1
 11
4.904335
 21
17.218214
 31
0.0
100
AcDbText
 73
     2
  0
TEXT
  5
38D
100
AcDbEntity
  8
TEXT1
100
AcDbText
 10
-15.434114
 20
19.247501
 30
0.0
 40
0.825
  1
-
 41
0.8
  7
M_STANDARD
 72
     1
 11
-15.151257
 21
19.660001
 31
0.0
100
AcDbText
 73
     2
  0
TEXT
  5
38E
100
AcDbEntity
  8
TEXT1
100
AcDbText
 10
-15.434114
 20
6.967641
 30
0.0
 40
0.825
  1
-
 41
0.8
  7
M_STANDARD
 72
     1
 11
-15.151257
 21
7.380141
 31
0.0
100
AcDbText
 73
     2
  0
TEXT
  5
38F
100
AcDbEntity
  8
TEXT1
100
AcDbText
 10
-16.098528
 20
16.805714
 30
0.0
 40
0.825
  1
50K
 41
0.89305
  7
M_STANDARD
 72
     1
 11
-15.151257
 21
17.218214
 31
0.0
100
AcDbText
 73
     2
  0
TEXT
  5
390
100
AcDbEntity
  8
TEXT1
100
AcDbText
 10
-26.76023
 20
68.618182
 30
0.0
 40
0.825
  1
MAL,MHL
 41
0.898877
  7
M_STANDARD
 72
     1
 11
-24.447227
 21
69.030682
 31
0.0
100
AcDbText
 73
     2
  0
TEXT
  5
391
100
AcDbEntity
  8
TEXT1
100
AcDbText
 10
-44.395152
 20
19.247501
 30
0.0
 40
0.825
  1
MHL-DC
 41
0.898447
  7
M_STANDARD
 72
     1
 11
-42.189144
 21
19.660001
 31
0.0
100
AcDbText
 73
     2
  0
TEXT
  5
392
100
AcDbEntity
  8
TEXT1
100
AcDbText
 10
-44.271616
 20
6.967641
 30
0.0
 40
0.825
  1
LHL-DC
 41
0.898447
  7
M_STANDARD
 72
     1
 11
-42.189144
 21
7.380141
 31
0.0
100
AcDbText
 73
     2
  0
TEXT
  5
393
100
AcDbEntity
  8
TEXT1
100
AcDbText
 10
-43.171499
 20
16.805714
 30
0.0
 40
0.825
  1
MXL
 41
0.89305
  7
M_STANDARD
 72
     1
 11
-42.189144
 21
17.218214
 31
0.0
100
AcDbText
 73
     2
  0
TEXT
  5
394
100
AcDbEntity
  8
TEXT1
100
AcDbText
 10
-43.206584
 20
26.015609
 30
0.0
 40
0.825
  1
MAL
 41
0.89305
  7
M_STANDARD
 72
     1
 11
-42.189144
 21
26.428109
 31
0.0
100
AcDbText
 73
     2
  0
TEXT
  5
395
100
AcDbEntity
  8
TEXT1
100
AcDbText
 10
-43.136415
 20
3.897676
 30
0.0
 40
0.825
  1
Q4L
 41
0.89305
  7
M_STANDARD
 72
     1
 11
-42.189144
 21
4.310176
 31
0.0
100
AcDbText
 73
     2
  0
TEXT
  5
396
100
AcDbEntity
  8
TEXT1
100
AcDbText
 10
-43.083789
 20
13.735749
 30
0.0
 40
0.825
  1
LAL
 41
0.89305
  7
M_STANDARD
 72
     1
 11
-42.189144
 21
14.148249
 31
0.0
100
AcDbText
 73
     2
  0
TEXT
  5
397
100
AcDbEntity
  8
TEXT1
100
AcDbText
 10
-43.206584
 20
22.317466
 30
0.0
 40
0.825
  1
MHL
 41
0.89305
  7
M_STANDARD
 72
     1
 11
-42.189144
 21
22.729966
 31
0.0
100
AcDbText
 73
     2
  0
TEXT
  5
398
100
AcDbEntity
  8
TEXT1
100
AcDbText
 10
-43.083789
 20
10.037606
 30
0.0
 40
0.825
  1
LHL
 41
0.89305
  7
M_STANDARD
 72
     1
 11
-42.189144
 21
10.450106
 31
0.0
100
AcDbText
 73
     2
  0
TEXT
  5
399
100
AcDbEntity
  8
TEXT1
100
AcDbText
 10
-25.202022
 20
29.087361
 30
0.0
 40
0.825
  1
120
 41
0.951579
  7
M_STANDARD
 72
     1
 11
-24.267436
 21
29.499861
 31
0.0
100
AcDbText
 73
     2
  0
TEXT
  5
39A
100
AcDbEntity
  8
TEXT1
100
AcDbText
 10
-27.960058
 20
37.443433
 30
0.0
 40
0.825
  1
FIELD INSTALLABLE CIRCUIT BREAKER DATA
 41
0.899965
  7
M_STANDARD
 72
     1
 11
-15.550187
 21
37.855933
 31
0.0
100
AcDbText
 73
     2
  0
TEXT
  5
39B
100
AcDbEntity
  8
TEXT1
100
AcDbText
 10
-17.799625
 20
76.650016
 30
0.0
 40
0.825
  1
CIRCUIT BREAKER TERMINAL LUG DATA
 41
0.899953
  7
M_STANDARD
 72
     1
 11
-6.715738
 21
77.062516
 31
0.0
100
AcDbText
 73
     2
  0
TEXT
  5
39C
100
AcDbEntity
  8
TEXT1
100
AcDbText
 10
-18.97985
 20
35.354415
 30
0.0
 40
0.825
  1
UL LISTED INTERRUPTING RATING
 41
0.899939
  7
M_STANDARD
 72
     1
 11
-9.68155
 21
35.766915
 31
0.0
100
AcDbText
 73
     2
  0
TEXT
  5
39D
100
AcDbEntity
  8
TEXT1
100
AcDbText
 10
2.746413
 20
74.323288
 30
0.0
 40
0.825
  1
WIRE SIZE
 41
0.899335
  7
M_STANDARD
 72
     1
 11
5.43157
 21
74.735788
 31
0.0
100
AcDbText
 73
     2
  0
TEXT
  5
39E
100
AcDbEntity
  8
TEXT1
100
AcDbText
 10
3.904886
 20
53.698265
 30
0.0
 40
0.825
  1
WIRE SIZE
 41
0.899335
  7
M_STANDARD
 72
     1
 11
6.590044
 21
54.110765
 31
0.0
100
AcDbText
 73
     2
  0
TEXT
  5
39F
100
AcDbEntity
  8
TEXT1
100
AcDbText
 10
-17.759784
 20
33.619952
 30
0.0
 40
0.825
  1
RMS SYMMETRICAL AMPERES
 41
0.899903
  7
M_STANDARD
 72
     1
 11
-9.68155
 21
34.032452
 31
0.0
100
AcDbText
 73
     2
  0
TEXT
  5
3A0
100
AcDbEntity
  8
TEXT1
100
AcDbText
 10
1.844695
 20
73.064246
 30
0.0
 40
0.825
  1
(AWG/KCMIL)
 41
0.928549
  7
M_STANDARD
 72
     1
 11
5.510807
 21
73.476746
 31
0.0
100
AcDbText
 73
     2
  0
TEXT
  5
3A1
100
AcDbEntity
  8
TEXT1
100
AcDbText
 10
2.765459
 20
52.439222
 30
0.0
 40
0.825
  1
(AWG/KCMIL)
 41
0.928549
  7
M_STANDARD
 72
     1
 11
6.43157
 21
52.851722
 31
0.0
100
AcDbText
 73
     2
  0
LWPOLYLINE
  5
3A2
100
AcDbEntity
  8
0
100
AcDbPolyline
 90
        4
 70
   129
 43
0.0
 10
-26.090672
 20
36.634146
 10
6.727571
 20
36.634146
 10
6.727571
 20
33.165221
 10
-26.090672
 20
33.165221
  0
TEXT
  5
3A3
100
AcDbEntity
  8
TEXT1
100
AcDbText
 10
-21.630318
 20
29.087361
 30
0.0
 40
0.825
  1
240
 41
0.951579
  7
M_STANDARD
 72
     1
 11
-20.620964
 21
29.499861
 31
0.0
100
AcDbText
 73
     2
  0
TEXT
  5
3A4
100
AcDbEntity
  8
TEXT1
100
AcDbText
 10
-10.690903
 20
29.087361
 30
0.0
 40
0.825
  1
480
 41
0.951579
  7
M_STANDARD
 72
     1
 11
-9.68155
 21
29.499861
 31
0.0
100
AcDbText
 73
     2
  0
TEXT
  5
3A5
100
AcDbEntity
  8
TEXT1
100
AcDbText
 10
-7.044432
 20
29.087361
 30
0.0
 40
0.825
  1
600
 41
0.951579
  7
M_STANDARD
 72
     1
 11
-6.035079
 21
29.499861
 31
0.0
100
AcDbText
 73
     2
  0
TEXT
  5
3A6
100
AcDbEntity
  8
TEXT1
100
AcDbText
 10
-3.26571
 20
29.087361
 30
0.0
 40
0.825
  1
125
 41
0.89305
  7
M_STANDARD
 72
     1
 11
-2.388607
 21
29.499861
 31
0.0
100
AcDbText
 73
     2
  0
TEXT
  5
3A7
100
AcDbEntity
  8
TEXT1
100
AcDbText
 10
0.248511
 20
29.087361
 30
0.0
 40
0.825
  1
250
 41
0.951579
  7
M_STANDARD
 72
     1
 11
1.257864
 21
29.499861
 31
0.0
100
AcDbText
 73
     2
  0
TEXT
  5
3A8
100
AcDbEntity
  8
TEXT1
100
AcDbText
 10
3.894982
 20
29.087361
 30
0.0
 40
0.825
  1
500
 41
0.951579
  7
M_STANDARD
 72
     1
 11
4.904335
 21
29.499861
 31
0.0
100
AcDbText
 73
     2
  0
TEXT
  5
3A9
100
AcDbEntity
  8
TEXT1
100
AcDbText
 10
1.291137
 20
70.737517
 30
0.0
 40
0.825
  1
MAX.
 41
1.093272
  7
M_STANDARD
 72
     1
 11
2.751436
 21
71.150017
 31
0.0
100
AcDbText
 73
     2
  0
TEXT
  5
3AA
100
AcDbEntity
  8
TEXT1
100
AcDbText
 10
2.815717
 20
50.112494
 30
0.0
 40
0.825
  1
MAX.
 41
1.093272
  7
M_STANDARD
 72
     1
 11
4.276016
 21
50.524994
 31
0.0
100
AcDbText
 73
     2
  0
TEXT
  5
3AB
100
AcDbEntity
  8
TEXT1
100
AcDbText
 10
-24.148281
 20
56.024993
 30
0.0
 40
0.825
  1
FIELD INSTALLABLE NEUTRAL ASSEMBLIES AND GROUND KIT
 41
0.899981
  7
M_STANDARD
 72
     1
 11
-7.035793
 21
56.437493
 31
0.0
100
AcDbText
 73
     2
  0
TEXT
  5
3AC
100
AcDbEntity
  8
TEXT1
100
AcDbText
 10
-18.596531
 20
31.530934
 30
0.0
 40
0.825
  1
AC VOLTAGE
 41
0.899465
  7
M_STANDARD
 72
     1
 11
-15.151257
 21
31.943434
 31
0.0
100
AcDbText
 73
     2
  0
TEXT
  5
3AD
100
AcDbEntity
  8
TEXT1
100
AcDbText
 10
-2.169742
 20
31.530934
 30
0.0
 40
0.825
  1
DC VOLTAGE
 41
0.899465
  7
M_STANDARD
 72
     1
 11
1.257864
 21
31.943434
 31
0.0
100
AcDbText
 73
     2
  0
TEXT
  5
3AE
100
AcDbEntity
  8
TEXT1
100
AcDbText
 10
11.94755
 20
72.47198
 30
0.0
 40
0.825
  1
TYPE
 41
0.896304
  7
M_STANDARD
 72
     1
 11
13.215179
 21
72.88448
 31
0.0
100
AcDbText
 73
     2
  0
TEXT
  5
3AF
100
AcDbEntity
  8
TEXT1
100
AcDbText
 10
11.94755
 20
51.846957
 30
0.0
 40
0.825
  1
TYPE
 41
0.896304
  7
M_STANDARD
 72
     1
 11
13.215179
 21
52.259457
 31
0.0
100
AcDbText
 73
     2
  0
TEXT
  5
3B0
100
AcDbEntity
  8
TEXT1
100
AcDbText
 10
7.176892
 20
70.816754
 30
0.0
 40
0.825
  1
MIN.
 41
1.093272
  7
M_STANDARD
 72
     1
 11
8.379492
 21
71.229254
 31
0.0
100
AcDbText
 73
     2
  0
TEXT
  5
3B1
100
AcDbEntity
  8
TEXT1
100
AcDbText
 10
7.542998
 20
50.112494
 30
0.0
 40
0.825
  1
MIN.
 41
1.093272
  7
M_STANDARD
 72
     1
 11
8.745598
 21
50.524994
 31
0.0
100
AcDbText
 73
     2
  0
TEXT
  5
3B2
100
AcDbEntity
  8
TEXT1
100
AcDbText
 10
-17.906512
 20
29.087361
 30
0.0
 40
0.825
  1
480Y/277
 41
0.899151
  7
M_STANDARD
 72
     1
 11
-15.151257
 21
29.499861
 31
0.0
100
AcDbText
 73
     2
  0
TEXT
  5
3B3
100
AcDbEntity
  8
TEXT1
100
AcDbText
 10
-32.186287
 20
25.389217
 30
0.0
 40
0.825
  1
300-1000
 41
0.919093
  7
M_STANDARD
 72
     1
 11
-29.369924
 21
25.801717
 31
0.0
100
AcDbText
 73
     2
  0
TEXT
  5
3B4
100
AcDbEntity
  8
TEXT1
100
AcDbText
 10
-31.905055
 20
3.271285
 30
0.0
 40
0.825
  1
250-400
 41
0.921866
  7
M_STANDARD
 72
     1
 11
-29.369924
 21
3.683785
 31
0.0
100
AcDbText
 73
     2
  0
TEXT
  5
3B5
100
AcDbEntity
  8
TEXT1
100
AcDbText
 10
-31.832622
 20
13.109358
 30
0.0
 40
0.825
  1
125-400
 41
0.921866
  7
M_STANDARD
 72
     1
 11
-29.369924
 21
13.521858
 31
0.0
100
AcDbText
 73
     2
  0
TEXT
  5
3B6
100
AcDbEntity
  8
TEXT1
100
AcDbText
 10
-32.186287
 20
21.691074
 30
0.0
 40
0.825
  1
300-1000
 41
0.919093
  7
M_STANDARD
 72
     1
 11
-29.369924
 21
22.103574
 31
0.0
100
AcDbText
 73
     2
  0
TEXT
  5
3B7
100
AcDbEntity
  8
TEXT1
100
AcDbText
 10
-31.832622
 20
9.411215
 30
0.0
 40
0.825
  1
125-400
 41
0.921866
  7
M_STANDARD
 72
     1
 11
-29.369924
 21
9.823715
 31
0.0
100
AcDbText
 73
     2
  0
TEXT
  5
3B8
100
AcDbEntity
  8
TEXT1
100
AcDbText
 10
-35.458561
 20
25.389217
 30
0.0
 40
0.825
  1
B
 41
0.8
  7
M_STANDARD
 72
     1
 11
-35.238561
 21
25.801717
 31
0.0
100
AcDbText
 73
     2
  0
TEXT
  5
3B9
100
AcDbEntity
  8
TEXT1
100
AcDbText
 10
-35.458561
 20
3.271285
 30
0.0
 40
0.825
  1
B
 41
0.8
  7
M_STANDARD
 72
     1
 11
-35.238561
 21
3.683785
 31
0.0
100
AcDbText
 73
     2
  0
TEXT
  5
3BA
100
AcDbEntity
  8
TEXT1
100
AcDbText
 10
-35.458561
 20
13.109358
 30
0.0
 40
0.825
  1
B
 41
0.8
  7
M_STANDARD
 72
     1
 11
-35.238561
 21
13.521858
 31
0.0
100
AcDbText
 73
     2
  0
TEXT
  5
3BB
100
AcDbEntity
  8
TEXT1
100
AcDbText
 10
-35.458561
 20
21.691074
 30
0.0
 40
0.825
  1
B
 41
0.8
  7
M_STANDARD
 72
     1
 11
-35.238561
 21
22.103574
 31
0.0
100
AcDbText
 73
     2
  0
TEXT
  5
3BC
100
AcDbEntity
  8
TEXT1
100
AcDbText
 10
-35.458561
 20
9.411215
 30
0.0
 40
0.825
  1
B
 41
0.8
  7
M_STANDARD
 72
     1
 11
-35.238561
 21
9.823715
 31
0.0
100
AcDbText
 73
     2
  0
TEXT
  5
3BD
100
AcDbEntity
  8
TEXT1
100
AcDbText
 10
10.176584
 20
25.389217
 30
0.0
 40
0.825
  1
21A
 41
0.89305
  7
M_STANDARD
 72
     1
 11
11.088771
 21
25.801717
 31
0.0
100
AcDbText
 73
     2
  0
TEXT
  5
3BE
100
AcDbEntity
  8
TEXT1
100
AcDbText
 10
10.211668
 20
3.271285
 30
0.0
 40
0.825
  1
14B
 41
0.89305
  7
M_STANDARD
 72
     1
 11
11.088771
 21
3.683785
 31
0.0
100
AcDbText
 73
     2
  0
TEXT
  5
3BF
100
AcDbEntity
  8
TEXT1
100
AcDbText
 10
10.176584
 20
13.109358
 30
0.0
 40
0.825
  1
21A
 41
0.89305
  7
M_STANDARD
 72
     1
 11
11.088771
 21
13.521858
 31
0.0
100
AcDbText
 73
     2
  0
TEXT
  5
3C0
100
AcDbEntity
  8
TEXT1
100
AcDbText
 10
10.106416
 20
21.691074
 30
0.0
 40
0.825
  1
23A
 41
0.89305
  7
M_STANDARD
 72
     1
 11
11.088771
 21
22.103574
 31
0.0
100
AcDbText
 73
     2
  0
TEXT
  5
3C1
100
AcDbEntity
  8
TEXT1
100
AcDbText
 10
10.106416
 20
9.411215
 30
0.0
 40
0.825
  1
23A
 41
0.89305
  7
M_STANDARD
 72
     1
 11
11.088771
 21
9.823715
 31
0.0
100
AcDbText
 73
     2
  0
TEXT
  5
3C2
100
AcDbEntity
  8
TEXT1
100
AcDbText
 10
-25.214707
 20
25.389217
 30
0.0
 40
0.825
  1
42K
 41
0.89305
  7
M_STANDARD
 72
     1
 11
-24.267436
 21
25.801717
 31
0.0
100
AcDbText
 73
     2
  0
TEXT
  5
3C3
100
AcDbEntity
  8
TEXT1
100
AcDbText
 10
-25.214707
 20
3.271285
 30
0.0
 40
0.825
  1
25K
 41
0.89305
  7
M_STANDARD
 72
     1
 11
-24.267436
 21
3.683785
 31
0.0
100
AcDbText
 73
     2
  0
TEXT
  5
3C4
100
AcDbEntity
  8
TEXT1
100
AcDbText
 10
-25.214707
 20
13.109358
 30
0.0
 40
0.825
  1
42K
 41
0.89305
  7
M_STANDARD
 72
     1
 11
-24.267436
 21
13.521858
 31
0.0
100
AcDbText
 73
     2
  0
TEXT
  5
3C5
100
AcDbEntity
  8
TEXT1
100
AcDbText
 10
-25.214707
 20
21.691074
 30
0.0
 40
0.825
  1
65K
 41
0.89305
  7
M_STANDARD
 72
     1
 11
-24.267436
 21
22.103574
 31
0.0
100
AcDbText
 73
     2
  0
TEXT
  5
3C6
100
AcDbEntity
  8
TEXT1
100
AcDbText
 10
-25.214707
 20
9.411215
 30
0.0
 40
0.825
  1
65K
 41
0.89305
  7
M_STANDARD
 72
     1
 11
-24.267436
 21
9.823715
 31
0.0
100
AcDbText
 73
     2
  0
TEXT
  5
3C7
100
AcDbEntity
  8
TEXT1
100
AcDbText
 10
-21.568235
 20
25.389217
 30
0.0
 40
0.825
  1
42K
 41
0.89305
  7
M_STANDARD
 72
     1
 11
-20.620964
 21
25.801717
 31
0.0
100
AcDbText
 73
     2
  0
TEXT
  5
3C8
100
AcDbEntity
  8
TEXT1
100
AcDbText
 10
-21.568235
 20
3.271285
 30
0.0
 40
0.825
  1
25K
 41
0.89305
  7
M_STANDARD
 72
     1
 11
-20.620964
 21
3.683785
 31
0.0
100
AcDbText
 73
     2
  0
TEXT
  5
3C9
100
AcDbEntity
  8
TEXT1
100
AcDbText
 10
-21.568235
 20
13.109358
 30
0.0
 40
0.825
  1
42K
 41
0.89305
  7
M_STANDARD
 72
     1
 11
-20.620964
 21
13.521858
 31
0.0
100
AcDbText
 73
     2
  0
TEXT
  5
3CA
100
AcDbEntity
  8
TEXT1
100
AcDbText
 10
-21.568235
 20
21.691074
 30
0.0
 40
0.825
  1
65K
 41
0.89305
  7
M_STANDARD
 72
     1
 11
-20.620964
 21
22.103574
 31
0.0
100
AcDbText
 73
     2
  0
TEXT
  5
3CB
100
AcDbEntity
  8
TEXT1
100
AcDbText
 10
-21.568235
 20
9.411215
 30
0.0
 40
0.825
  1
65K
 41
0.89305
  7
M_STANDARD
 72
     1
 11
-20.620964
 21
9.823715
 31
0.0
100
AcDbText
 73
     2
  0
TEXT
  5
3CC
100
AcDbEntity
  8
TEXT1
100
AcDbText
 10
-10.628821
 20
25.389217
 30
0.0
 40
0.825
  1
30K
 41
0.89305
  7
M_STANDARD
 72
     1
 11
-9.68155
 21
25.801717
 31
0.0
100
AcDbText
 73
     2
  0
TEXT
  5
3CD
100
AcDbEntity
  8
TEXT1
100
AcDbText
 10
-9.964407
 20
3.271285
 30
0.0
 40
0.825
  1
-
 41
0.8
  7
M_STANDARD
 72
     1
 11
-9.68155
 21
3.683785
 31
0.0
100
AcDbText
 73
     2
  0
TEXT
  5
3CE
100
AcDbEntity
  8
TEXT1
100
AcDbText
 10
-10.628821
 20
13.109358
 30
0.0
 40
0.825
  1
30K
 41
0.89305
  7
M_STANDARD
 72
     1
 11
-9.68155
 21
13.521858
 31
0.0
100
AcDbText
 73
     2
  0
TEXT
  5
3CF
100
AcDbEntity
  8
TEXT1
100
AcDbText
 10
-10.628821
 20
21.691074
 30
0.0
 40
0.825
  1
50K
 41
0.89305
  7
M_STANDARD
 72
     1
 11
-9.68155
 21
22.103574
 31
0.0
100
AcDbText
 73
     2
  0
TEXT
  5
3D0
100
AcDbEntity
  8
TEXT1
100
AcDbText
 10
-10.628821
 20
9.411215
 30
0.0
 40
0.825
  1
35K
 41
0.89305
  7
M_STANDARD
 72
     1
 11
-9.68155
 21
9.823715
 31
0.0
100
AcDbText
 73
     2
  0
TEXT
  5
3D1
100
AcDbEntity
  8
TEXT1
100
AcDbText
 10
-6.98235
 20
25.389217
 30
0.0
 40
0.825
  1
22K
 41
0.89305
  7
M_STANDARD
 72
     1
 11
-6.035079
 21
25.801717
 31
0.0
100
AcDbText
 73
     2
  0
TEXT
  5
3D2
100
AcDbEntity
  8
TEXT1
100
AcDbText
 10
-6.317936
 20
3.271285
 30
0.0
 40
0.825
  1
-
 41
0.8
  7
M_STANDARD
 72
     1
 11
-6.035079
 21
3.683785
 31
0.0
100
AcDbText
 73
     2
  0
TEXT
  5
3D3
100
AcDbEntity
  8
TEXT1
100
AcDbText
 10
-6.98235
 20
13.109358
 30
0.0
 40
0.825
  1
22K
 41
0.89305
  7
M_STANDARD
 72
     1
 11
-6.035079
 21
13.521858
 31
0.0
100
AcDbText
 73
     2
  0
TEXT
  5
3D4
100
AcDbEntity
  8
TEXT1
100
AcDbText
 10
-6.98235
 20
21.691074
 30
0.0
 40
0.825
  1
25K
 41
0.89305
  7
M_STANDARD
 72
     1
 11
-6.035079
 21
22.103574
 31
0.0
100
AcDbText
 73
     2
  0
TEXT
  5
3D5
100
AcDbEntity
  8
TEXT1
100
AcDbText
 10
-6.98235
 20
9.411215
 30
0.0
 40
0.825
  1
25K
 41
0.89305
  7
M_STANDARD
 72
     1
 11
-6.035079
 21
9.823715
 31
0.0
100
AcDbText
 73
     2
  0
TEXT
  5
3D6
100
AcDbEntity
  8
TEXT1
100
AcDbText
 10
-3.26571
 20
25.389217
 30
0.0
 40
0.825
  1
14K
 41
0.89305
  7
M_STANDARD
 72
     1
 11
-2.388607
 21
25.801717
 31
0.0
100
AcDbText
 73
     2
  0
TEXT
  5
3D7
100
AcDbEntity
  8
TEXT1
100
AcDbText
 10
-2.671464
 20
3.271285
 30
0.0
 40
0.825
  1
-
 41
0.8
  7
M_STANDARD
 72
     1
 11
-2.388607
 21
3.683785
 31
0.0
100
AcDbText
 73
     2
  0
TEXT
  5
3D8
100
AcDbEntity
  8
TEXT1
100
AcDbText
 10
-3.26571
 20
13.109358
 30
0.0
 40
0.825
  1
10K
 41
0.89305
  7
M_STANDARD
 72
     1
 11
-2.388607
 21
13.521858
 31
0.0
100
AcDbText
 73
     2
  0
TEXT
  5
3D9
100
AcDbEntity
  8
TEXT1
100
AcDbText
 10
-3.26571
 20
21.691074
 30
0.0
 40
0.825
  1
14K
 41
0.89305
  7
M_STANDARD
 72
     1
 11
-2.388607
 21
22.103574
 31
0.0
100
AcDbText
 73
     2
  0
TEXT
  5
3DA
100
AcDbEntity
  8
TEXT1
100
AcDbText
 10
-3.26571
 20
9.411215
 30
0.0
 40
0.825
  1
10K
 41
0.89305
  7
M_STANDARD
 72
     1
 11
-2.388607
 21
9.823715
 31
0.0
100
AcDbText
 73
     2
  0
TEXT
  5
3DB
100
AcDbEntity
  8
TEXT1
100
AcDbText
 10
0.380761
 20
25.389217
 30
0.0
 40
0.825
  1
14K
 41
0.89305
  7
M_STANDARD
 72
     1
 11
1.257864
 21
25.801717
 31
0.0
100
AcDbText
 73
     2
  0
TEXT
  5
3DC
100
AcDbEntity
  8
TEXT1
100
AcDbText
 10
0.975007
 20
3.271285
 30
0.0
 40
0.825
  1
-
 41
0.8
  7
M_STANDARD
 72
     1
 11
1.257864
 21
3.683785
 31
0.0
100
AcDbText
 73
     2
  0
TEXT
  5
3DD
100
AcDbEntity
  8
TEXT1
100
AcDbText
 10
0.380761
 20
13.109358
 30
0.0
 40
0.825
  1
10K
 41
0.89305
  7
M_STANDARD
 72
     1
 11
1.257864
 21
13.521858
 31
0.0
100
AcDbText
 73
     2
  0
TEXT
  5
3DE
100
AcDbEntity
  8
TEXT1
100
AcDbText
 10
0.380761
 20
21.691074
 30
0.0
 40
0.825
  1
14K
 41
0.89305
  7
M_STANDARD
 72
     1
 11
1.257864
 21
22.103574
 31
0.0
100
AcDbText
 73
     2
  0
TEXT
  5
3DF
100
AcDbEntity
  8
TEXT1
100
AcDbText
 10
0.380761
 20
9.411215
 30
0.0
 40
0.825
  1
10K
 41
0.89305
  7
M_STANDARD
 72
     1
 11
1.257864
 21
9.823715
 31
0.0
100
AcDbText
 73
     2
  0
TEXT
  5
3E0
100
AcDbEntity
  8
TEXT1
100
AcDbText
 10
4.621478
 20
25.389217
 30
0.0
 40
0.825
  1
-
 41
0.8
  7
M_STANDARD
 72
     1
 11
4.904335
 21
25.801717
 31
0.0
100
AcDbText
 73
     2
  0
TEXT
  5
3E1
100
AcDbEntity
  8
TEXT1
100
AcDbText
 10
4.621478
 20
3.271285
 30
0.0
 40
0.825
  1
-
 41
0.8
  7
M_STANDARD
 72
     1
 11
4.904335
 21
3.683785
 31
0.0
100
AcDbText
 73
     2
  0
TEXT
  5
3E2
100
AcDbEntity
  8
TEXT1
100
AcDbText
 10
4.621478
 20
13.109358
 30
0.0
 40
0.825
  1
-
 41
0.8
  7
M_STANDARD
 72
     1
 11
4.904335
 21
13.521858
 31
0.0
100
AcDbText
 73
     2
  0
TEXT
  5
3E3
100
AcDbEntity
  8
TEXT1
100
AcDbText
 10
4.621478
 20
21.691074
 30
0.0
 40
0.825
  1
-
 41
0.8
  7
M_STANDARD
 72
     1
 11
4.904335
 21
22.103574
 31
0.0
100
AcDbText
 73
     2
  0
TEXT
  5
3E4
100
AcDbEntity
  8
TEXT1
100
AcDbText
 10
4.621478
 20
9.411215
 30
0.0
 40
0.825
  1
-
 41
0.8
  7
M_STANDARD
 72
     1
 11
4.904335
 21
9.823715
 31
0.0
100
AcDbText
 73
     2
  0
TEXT
  5
3E5
100
AcDbEntity
  8
TEXT1
100
AcDbText
 10
-16.098528
 20
25.389217
 30
0.0
 40
0.825
  1
30K
 41
0.89305
  7
M_STANDARD
 72
     1
 11
-15.151257
 21
25.801717
 31
0.0
100
AcDbText
 73
     2
  0
TEXT
  5
3E6
100
AcDbEntity
  8
TEXT1
100
AcDbText
 10
-15.434114
 20
3.271285
 30
0.0
 40
0.825
  1
-
 41
0.8
  7
M_STANDARD
 72
     1
 11
-15.151257
 21
3.683785
 31
0.0
100
AcDbText
 73
     2
  0
TEXT
  5
3E7
100
AcDbEntity
  8
TEXT1
100
AcDbText
 10
-16.098528
 20
13.109358
 30
0.0
 40
0.825
  1
30K
 41
0.89305
  7
M_STANDARD
 72
     1
 11
-15.151257
 21
13.521858
 31
0.0
100
AcDbText
 73
     2
  0
TEXT
  5
3E8
100
AcDbEntity
  8
TEXT1
100
AcDbText
 10
-16.098528
 20
21.691074
 30
0.0
 40
0.825
  1
50K
 41
0.89305
  7
M_STANDARD
 72
     1
 11
-15.151257
 21
22.103574
 31
0.0
100
AcDbText
 73
     2
  0
TEXT
  5
3E9
100
AcDbEntity
  8
TEXT1
100
AcDbText
 10
-16.098528
 20
9.411215
 30
0.0
 40
0.825
  1
35K
 41
0.89305
  7
M_STANDARD
 72
     1
 11
-15.151257
 21
9.823715
 31
0.0
100
AcDbText
 73
     2
  0
TEXT
  5
3EA
100
AcDbEntity
  8
TEXT1
100
AcDbText
 10
-25.429582
 20
66.183324
 30
0.0
 40
0.825
  1
MXL
 41
0.89305
  7
M_STANDARD
 72
     1
 11
-24.447227
 21
66.595824
 31
0.0
100
AcDbText
 73
     2
  0
TEXT
  5
3EB
100
AcDbEntity
  8
TEXT1
100
AcDbText
 10
-25.394498
 20
60.034088
 30
0.0
 40
0.825
  1
Q4L
 41
0.89305
  7
M_STANDARD
 72
     1
 11
-24.447227
 21
60.446588
 31
0.0
100
AcDbText
 73
     2
  0
TEXT
  5
3EC
100
AcDbEntity
  8
TEXT1
100
AcDbText
 10
-26.513039
 20
63.108706
 30
0.0
 40
0.825
  1
LAL,LHL
 41
0.898877
  7
M_STANDARD
 72
     1
 11
-24.447227
 21
63.521206
 31
0.0
100
AcDbText
 73
     2
  0
LINE
  5
3ED
100
AcDbEntity
  8
0
100
AcDbLine
 10
-46.550344
 20
28.278074
 30
0.0
 11
15.44997
 21
28.278074
 31
0.0
  0
LINE
  5
3EE
100
AcDbEntity
  8
0
100
AcDbLine
 10
-29.521557
 20
69.928231
 30
0.0
 11
15.44997
 21
69.928231
 31
0.0
  0
LINE
  5
3EF
100
AcDbEntity
  8
0
100
AcDbLine
 10
-29.521557
 20
49.303207
 30
0.0
 11
15.44997
 21
49.303207
 31
0.0
  0
LINE
  5
3F0
100
AcDbEntity
  8
0
100
AcDbLine
 10
-29.521557
 20
45.713012
 30
0.0
 11
10.980389
 21
45.713012
 31
0.0
  0
LINE
  5
3F1
100
AcDbEntity
  8
0
100
AcDbLine
 10
-29.521557
 20
68.133133
 30
0.0
 11
10.980389
 21
68.133133
 31
0.0
  0
LINE
  5
3F2
100
AcDbEntity
  8
0
100
AcDbLine
 10
2.041225
 20
47.50811
 30
0.0
 11
10.980389
 21
47.50811
 31
0.0
  0
LINE
  5
3F3
100
AcDbEntity
  8
0
100
AcDbLine
 10
-29.521557
 20
43.917915
 30
0.0
 11
10.980389
 21
43.917915
 31
0.0
  0
LINE
  5
3F4
100
AcDbEntity
  8
0
100
AcDbLine
 10
-29.521557
 20
42.122817
 30
0.0
 11
10.980389
 21
42.122817
 31
0.0
  0
LWPOLYLINE
  5
3F5
100
AcDbEntity
  8
0
100
AcDbPolyline
 90
        4
 70
   129
 43
0.0
 10
10.980389
 20
72.371804
 10
0.041225
 20
72.371804
 10
0.041225
 20
75.84073
 10
10.980389
 20
75.84073
  0
LWPOLYLINE
  5
3F6
100
AcDbEntity
  8
0
100
AcDbPolyline
 90
        4
 70
   129
 43
0.0
 10
10.980389
 20
51.746781
 10
2.041225
 20
51.746781
 10
2.041225
 20
55.215706
 10
10.980389
 20
55.215706
  0
LWPOLYLINE
  5
3F7
100
AcDbEntity
  8
0
100
AcDbPolyline
 90
        4
 70
   129
 43
0.0
 10
10.980389
 20
51.746781
 10
2.041225
 20
51.746781
 10
2.041225
 20
55.215706
 10
10.980389
 20
55.215706
  0
HATCH
  5
3F9
100
AcDbEntity
  8
TEXT1
100
AcDbHatch
 10
0.0
 20
0.0
 30
0.0
210
0.0
220
0.0
230
1.0
  2
_U
 70
     0
 71
     0
 91
        1
 92
        0
 93
        4
 72
     1
 10
-31.031123
 20
41.191376
 11
-30.69081
 21
41.780815
 72
     1
 10
-30.69081
 20
41.780815
 11
-30.350498
 21
41.191376
 72
     1
 10
-30.350498
 20
41.191376
 11
-30.69081
 21
40.601938
 72
     1
 10
-30.69081
 20
40.601938
 11
-31.031123
 21
41.191376
 97
        0
 75
     0
 76
     0
 52
45.0
 41
0.00242
 77
     0
 78
     1
 53
45.0
 43
-150.299732
 44
-10.907984
 45
-0.0017111984104715
 46
0.0017111984104714
 79
     0
 98
        1
 10
-150.299732
 20
-10.907984
  0
HATCH
  5
3FA
100
AcDbEntity
  8
TEXT1
100
AcDbHatch
 10
0.0
 20
0.0
 30
0.0
210
0.0
220
0.0
230
1.0
  2
_U
 70
     0
 71
     0
 91
        1
 92
        0
 93
        4
 72
     1
 10
12.654727
 20
56.58747
 11
12.995039
 21
57.176909
 72
     1
 10
12.995039
 20
57.176909
 11
13.335352
 21
56.58747
 72
     1
 10
13.335352
 20
56.58747
 11
12.995039
 21
55.998032
 72
     1
 10
12.995039
 20
55.998032
 11
12.654727
 21
56.58747
 97
        0
 75
     0
 76
     0
 52
45.0
 41
0.00242
 77
     0
 78
     1
 53
45.0
 43
-150.299732
 44
-10.907984
 45
-0.0017111984104715
 46
0.0017111984104714
 79
     0
 98
        1
 10
-150.299732
 20
-10.907984
  0
HATCH
  5
3FB
100
AcDbEntity
  8
TEXT1
100
AcDbHatch
 10
0.0
 20
0.0
 30
0.0
210
0.0
220
0.0
230
1.0
  2
_U
 70
     0
 71
     0
 91
        1
 92
        0
 93
        4
 72
     1
 10
-31.031123
 20
41.191376
 11
-30.69081
 21
41.780815
 72
     1
 10
-30.69081
 20
41.780815
 11
-30.350498
 21
41.191376
 72
     1
 10
-30.350498
 20
41.191376
 11
-30.69081
 21
40.601938
 72
     1
 10
-30.69081
 20
40.601938
 11
-31.031123
 21
41.191376
 97
        0
 75
     0
 76
     0
 52
45.0
 41
0.00242
 77
     0
 78
     1
 53
45.0
 43
-150.299732
 44
-10.907984
 45
-0.0017111984104715
 46
0.0017111984104714
 79
     0
 98
        1
 10
-150.299732
 20
-10.907984
  0
HATCH
  5
3FC
100
AcDbEntity
  8
TEXT1
100
AcDbHatch
 10
0.0
 20
0.0
 30
0.0
210
0.0
220
0.0
230
1.0
  2
_U
 70
     0
 71
     0
 91
        1
 92
        0
 93
        4
 72
     1
 10
12.654727
 20
56.58747
 11
12.995039
 21
57.176909
 72
     1
 10
12.995039
 20
57.176909
 11
13.335352
 21
56.58747
 72
     1
 10
13.335352
 20
56.58747
 11
12.995039
 21
55.998032
 72
     1
 10
12.995039
 20
55.998032
 11
12.654727
 21
56.58747
 97
        0
 75
     0
 76
     0
 52
45.0
 41
0.00242
 77
     0
 78
     1
 53
45.0
 43
-150.299732
 44
-10.907984
 45
-0.0017111984104715
 46
0.0017111984104714
 79
     0
 98
        1
 10
-150.299732
 20
-10.907984
  0
LWPOLYLINE
  5
3FD
100
AcDbEntity
  8
TEXT1
100
AcDbPolyline
 90
        4
 70
   129
 43
0.0
 10
-31.031123
 20
41.191376
 10
-30.69081
 20
41.780815
 10
-30.350498
 20
41.191376
 10
-30.69081
 20
40.601938
  0
LWPOLYLINE
  5
3FE
100
AcDbEntity
  8
TEXT1
100
AcDbPolyline
 90
        4
 70
   129
 43
0.0
 10
12.654727
 20
56.58747
 10
12.995039
 20
57.176909
 10
13.335352
 20
56.58747
 10
12.995039
 20
55.998032
  0
LWPOLYLINE
  5
3FF
100
AcDbEntity
  8
TEXT1
100
AcDbPolyline
 90
        4
 70
   129
 43
0.0
 10
12.654727
 20
56.58747
 10
12.995039
 20
57.176909
 10
13.335352
 20
56.58747
 10
12.995039
 20
55.998032
  0
INSERT
  5
405
100
AcDbEntity
  8
TEXT1
100
AcDbBlockReference
  2
*X1
 10
12.995039
 20
56.58747
 30
0.0
 41
10.0
 42
10.0
 43
10.0
  0
LWPOLYLINE
  5
406
100
AcDbEntity
  8
0
100
AcDbPolyline
 90
        4
 70
   129
 43
0.0
 10
-26.090672
 20
30.721647
 10
-4.211843
 20
30.721647
 10
-4.211843
 20
33.165221
 10
-26.090672
 20
33.165221
  0
LWPOLYLINE
  5
407
100
AcDbEntity
  8
0
100
AcDbPolyline
 90
        4
 70
   129
 43
0.0
 10
-4.211843
 20
30.721647
 10
6.727571
 20
30.721647
 10
6.727571
 20
33.165221
 10
-4.211843
 20
33.165221
  0
TEXT
  5
408
100
AcDbEntity
  8
TEXT1
100
AcDbText
 10
-55.528099
 20
3.095585
 30
0.0
 40
0.8
  1
MILLIMETERS
 41
0.899561
  7
M_STANDARD
 11
-55.528099
 21
3.495585
 31
0.0
100
AcDbText
 73
     2
  0
TEXT
  5
409
100
AcDbEntity
  8
TEXT1
100
AcDbText
 10
-55.461499
 20
4.495585
 30
0.0
 40
1.0
  1
INCHES
 41
0.925574
  7
M_STANDARD
 11
-55.461499
 21
4.995585
 31
0.0
100
AcDbText
 73
     2
  0
TEXT
  5
40A
100
AcDbEntity
  8
TEXT1
100
AcDbText
 10
-67.240147
 20
3.969543
 30
0.0
 40
0.8
  1
DUAL DIMENSIONS:
 41
0.939768
  7
M_STANDARD
 11
-67.240147
 21
4.369543
 31
0.0
100
AcDbText
 73
     2
  0
LWPOLYLINE
  5
40B
100
AcDbEntity
  8
0
100
AcDbPolyline
 90
        4
 70
   129
 43
0.0
 10
-29.521557
 20
55.215706
 10
-22.704891
 20
55.215706
 10
-22.704891
 20
40.32772
 10
-29.521557
 20
40.32772
  0
LWPOLYLINE
  5
40C
100
AcDbEntity
  8
0
100
AcDbPolyline
 90
        4
 70
   129
 43
0.0
 10
-13.750086
 20
55.215706
 10
-5.85443
 20
55.215706
 10
-5.85443
 20
40.32772
 10
-13.750086
 20
40.32772
  0
LWPOLYLINE
  5
40D
100
AcDbEntity
  8
0
100
AcDbPolyline
 90
        4
 70
   129
 43
0.0
 10
-5.85443
 20
55.215706
 10
2.041225
 20
55.215706
 10
2.041225
 20
40.32772
 10
-5.85443
 20
40.32772
  0
LWPOLYLINE
  5
40E
100
AcDbEntity
  8
0
100
AcDbPolyline
 90
        4
 70
   129
 43
0.0
 10
2.041225
 20
40.32772
 10
6.510807
 20
40.32772
 10
6.510807
 20
51.746781
 10
2.041225
 20
51.746781
  0
LWPOLYLINE
  5
40F
100
AcDbEntity
  8
0
100
AcDbPolyline
 90
        4
 70
   129
 43
0.0
 10
6.510807
 20
51.746781
 10
10.980389
 20
51.746781
 10
10.980389
 20
40.32772
 10
6.510807
 20
40.32772
  0
LWPOLYLINE
  5
410
100
AcDbEntity
  8
0
100
AcDbPolyline
 90
        4
 70
   129
 43
0.0
 10
10.980389
 20
40.32772
 10
15.44997
 20
40.32772
 10
15.44997
 20
55.215706
 10
10.980389
 20
55.215706
  0
HATCH
  5
411
100
AcDbEntity
  8
TEXT1
100
AcDbHatch
 10
0.0
 20
0.0
 30
0.0
210
0.0
220
0.0
230
1.0
  2
_U
 70
     0
 71
     0
 91
        1
 92
        0
 93
        1
 72
     2
 10
-14.35134
 20
44.783042
 40
0.375
 50
0.0
 51
359.999994
 73
     1
 97
        0
 75
     0
 76
     0
 52
45.0
 41
0.0015
 77
     0
 78
     1
 53
45.0
 43
-150.299732
 44
-10.907984
 45
-0.0010606601717799
 46
0.0010606601717798
 79
     0
 98
        1
 10
-150.299732
 20
-10.907984
  0
HATCH
  5
412
100
AcDbEntity
  8
TEXT1
100
AcDbHatch
 10
0.0
 20
0.0
 30
0.0
210
0.0
220
0.0
230
1.0
  2
_U
 70
     0
 71
     0
 91
        1
 92
        0
 93
        1
 72
     2
 10
-9.499337
 20
69.027461
 40
0.375
 50
0.0
 51
359.999994
 73
     1
 97
        0
 75
     0
 76
     0
 52
45.0
 41
0.0015
 77
     0
 78
     1
 53
45.0
 43
-150.299732
 44
-10.907984
 45
-0.0010606601717799
 46
0.0010606601717798
 79
     0
 98
        1
 10
-150.299732
 20
-10.907984
  0
HATCH
  5
413
100
AcDbEntity
  8
TEXT1
100
AcDbHatch
 10
0.0
 20
0.0
 30
0.0
210
0.0
220
0.0
230
1.0
  2
_U
 70
     0
 71
     0
 91
        1
 92
        0
 93
        1
 72
     2
 10
-144.195911
 20
-4.266746
 40
0.375
 50
0.0
 51
359.999994
 73
     1
 97
        0
 75
     0
 76
     0
 52
45.0
 41
0.0015
 77
     0
 78
     1
 53
45.0
 43
-150.299732
 44
-10.907984
 45
-0.0010606601717799
 46
0.0010606601717798
 79
     0
 98
        1
 10
-150.299732
 20
-10.907984
  0
CIRCLE
  5
414
100
AcDbEntity
  8
TEXT1
100
AcDbCircle
 10
-14.35134
 20
44.783042
 30
0.0
 40
0.375
  0
CIRCLE
  5
415
100
AcDbEntity
  8
TEXT1
100
AcDbCircle
 10
-9.499337
 20
69.027461
 30
0.0
 40
0.375
  0
CIRCLE
  5
416
100
AcDbEntity
  8
TEXT1
100
AcDbCircle
 10
-144.195911
 20
-4.266746
 30
0.0
 40
0.375
  0
LWPOLYLINE
  5
417
100
AcDbEntity
  8
0
100
AcDbPolyline
 90
        4
 70
   129
 43
0.0
 10
-22.704891
 20
55.215706
 10
-13.750086
 20
55.215706
 10
-13.750086
 20
40.32772
 10
-22.704891
 20
40.32772
  0
LWPOLYLINE
  5
418
100
AcDbEntity
  8
0
100
AcDbPolyline
 90
        4
 70
   129
 43
0.0
 10
-29.521557
 20
55.215706
 10
15.44997
 20
55.215706
 10
15.44997
 20
57.65928
 10
-29.521557
 20
57.65928
  0
LWPOLYLINE
  5
419
100
AcDbEntity
  8
0
100
AcDbPolyline
 90
        4
 70
   129
 43
0.0
 10
-19.159046
 20
75.84073
 10
-29.521557
 20
75.84073
 10
-29.521557
 20
58.90928
 10
-19.159046
 20
58.90928
  0
LWPOLYLINE
  5
41A
100
AcDbEntity
  8
0
100
AcDbPolyline
 90
        4
 70
   129
 43
0.0
 10
-8.85443
 20
58.90928
 10
0.041225
 20
58.90928
 10
0.041225
 20
75.84073
 10
-8.85443
 20
75.84073
  0
LWPOLYLINE
  5
41B
100
AcDbEntity
  8
0
100
AcDbPolyline
 90
        4
 70
   129
 43
0.0
 10
0.041225
 20
72.371804
 10
5.510807
 20
72.371804
 10
5.510807
 20
58.90928
 10
0.041225
 20
58.90928
  0
LWPOLYLINE
  5
41C
100
AcDbEntity
  8
0
100
AcDbPolyline
 90
        4
 70
   129
 43
0.0
 10
5.510807
 20
58.90928
 10
10.980389
 20
58.90928
 10
10.980389
 20
72.371804
 10
5.510807
 20
72.371804
  0
LWPOLYLINE
  5
41D
100
AcDbEntity
  8
0
100
AcDbPolyline
 90
        4
 70
   129
 43
0.0
 10
10.980389
 20
75.84073
 10
15.44997
 20
75.84073
 10
15.44997
 20
58.90928
 10
10.980389
 20
58.90928
  0
LWPOLYLINE
  5
41E
100
AcDbEntity
  8
0
100
AcDbPolyline
 90
        4
 70
   129
 43
0.0
 10
-19.159046
 20
75.84073
 10
-8.85443
 20
75.84073
 10
-8.85443
 20
58.90928
 10
-19.159046
 20
58.90928
  0
LWPOLYLINE
  5
41F
100
AcDbEntity
  8
0
100
AcDbPolyline
 90
        4
 70
   129
 43
0.0
 10
-29.521557
 20
75.84073
 10
15.44997
 20
75.84073
 10
15.44997
 20
78.284303
 10
-29.521557
 20
78.284303
  0
LWPOLYLINE
  5
420
100
AcDbEntity
  8
0
100
AcDbPolyline
 90
        4
 70
   129
 43
0.0
 10
-46.550344
 20
2.461998
 10
-37.827945
 20
2.461998
 10
-37.827945
 20
36.634146
 10
-46.550344
 20
36.634146
  0
LWPOLYLINE
  5
421
100
AcDbEntity
  8
0
100
AcDbPolyline
 90
        4
 70
   129
 43
0.0
 10
-37.827945
 20
36.634146
 10
-32.649177
 20
36.634146
 10
-32.649177
 20
2.461998
 10
-37.827945
 20
2.461998
  0
LWPOLYLINE
  5
422
100
AcDbEntity
  8
0
100
AcDbPolyline
 90
        4
 70
   129
 43
0.0
 10
-26.090672
 20
30.721647
 10
-22.4442
 20
30.721647
 10
-22.4442
 20
2.461998
 10
-26.090672
 20
2.461998
  0
LWPOLYLINE
  5
423
100
AcDbEntity
  8
0
100
AcDbPolyline
 90
        4
 70
   129
 43
0.0
 10
-22.4442
 20
2.461998
 10
-18.797729
 20
2.461998
 10
-18.797729
 20
30.721647
 10
-22.4442
 20
30.721647
  0
LWPOLYLINE
  5
424
100
AcDbEntity
  8
0
100
AcDbPolyline
 90
        4
 70
   129
 43
0.0
 10
-18.797729
 20
30.721647
 10
-11.504786
 20
30.721647
 10
-11.504786
 20
2.461998
 10
-18.797729
 20
2.461998
  0
LWPOLYLINE
  5
425
100
AcDbEntity
  8
0
100
AcDbPolyline
 90
        4
 70
   129
 43
0.0
 10
-11.504786
 20
2.461998
 10
-7.858314
 20
2.461998
 10
-7.858314
 20
30.721647
 10
-11.504786
 20
30.721647
  0
LWPOLYLINE
  5
426
100
AcDbEntity
  8
0
100
AcDbPolyline
 90
        4
 70
   129
 43
0.0
 10
-7.858314
 20
30.721647
 10
-4.211843
 20
30.721647
 10
-4.211843
 20
2.461998
 10
-7.858314
 20
2.461998
  0
LWPOLYLINE
  5
427
100
AcDbEntity
  8
0
100
AcDbPolyline
 90
        4
 70
   129
 43
0.0
 10
-4.211843
 20
2.461998
 10
-0.565372
 20
2.461998
 10
-0.565372
 20
30.721647
 10
-4.211843
 20
30.721647
  0
LWPOLYLINE
  5
428
100
AcDbEntity
  8
0
100
AcDbPolyline
 90
        4
 70
   129
 43
0.0
 10
-0.565372
 20
30.721647
 10
3.0811
 20
30.721647
 10
3.0811
 20
2.461998
 10
-0.565372
 20
2.461998
  0
LWPOLYLINE
  5
429
100
AcDbEntity
  8
0
100
AcDbPolyline
 90
        4
 70
   129
 43
0.0
 10
3.0811
 20
2.461998
 10
6.727571
 20
2.461998
 10
6.727571
 20
30.721647
 10
3.0811
 20
30.721647
  0
LWPOLYLINE
  5
42A
100
AcDbEntity
  8
0
100
AcDbPolyline
 90
        4
 70
   129
 43
0.0
 10
6.727571
 20
36.634146
 10
15.44997
 20
36.634146
 10
15.44997
 20
2.461998
 10
6.727571
 20
2.461998
  0
LWPOLYLINE
  5
42B
100
AcDbEntity
  8
0
100
AcDbPolyline
 90
        4
 70
   129
 43
0.0
 10
-32.649177
 20
2.461998
 10
-26.090672
 20
2.461998
 10
-26.090672
 20
36.634146
 10
-32.649177
 20
36.634146
  0
LWPOLYLINE
  5
42C
100
AcDbEntity
  8
0
100
AcDbPolyline
 90
        4
 70
   129
 43
0.0
 10
-46.550344
 20
36.634146
 10
15.44997
 20
36.634146
 10
15.44997
 20
39.07772
 10
-46.550344
 20
39.07772
  0
LWPOLYLINE
  5
42D
100
AcDbEntity
  8
OBJECT1
100
AcDbPolyline
 90
        3
 70
   128
 43
0.0
 10
12.476841
 20
86.712358
 42
-0.348557
 10
13.520644
 20
85.396949
 42
-0.348557
 10
12.476841
 20
84.08154
  0
LWPOLYLINE
  5
42E
100
AcDbEntity
  8
OBJECT1
100
AcDbPolyline
 90
        3
 70
   128
 43
0.0
 10
10.676249
 20
86.712358
 42
-0.348557
 10
11.720052
 20
85.396949
 42
-0.348557
 10
10.676249
 20
84.08154
  0
LWPOLYLINE
  5
42F
100
AcDbEntity
  8
OBJECT1
100
AcDbPolyline
 90
        3
 70
   128
 43
0.0
 10
8.875656
 20
86.712358
 42
-0.348557
 10
9.919459
 20
85.396949
 42
-0.348557
 10
8.875656
 20
84.08154
  0
LWPOLYLINE
  5
430
100
AcDbEntity
  8
OBJECT1
100
AcDbPolyline
 90
        3
 70
   128
 43
0.0
 10
-0.375179
 20
86.712358
 42
-0.348557
 10
0.668624
 20
85.396949
 42
-0.348557
 10
-0.375179
 20
84.08154
  0
LWPOLYLINE
  5
431
100
AcDbEntity
  8
OBJECT1
100
AcDbPolyline
 90
        3
 70
   128
 43
0.0
 10
-2.175772
 20
86.712358
 42
-0.348557
 10
-1.131969
 20
85.396949
 42
-0.348557
 10
-2.175772
 20
84.08154
  0
LINE
  5
434
100
AcDbEntity
  8
HIDDEN1
100
AcDbLine
 10
10.119268
 20
85.396916
 30
0.0
 11
11.720268
 21
85.396916
 31
0.0
  0
LINE
  5
435
100
AcDbEntity
  8
HIDDEN1
100
AcDbLine
 10
-0.931732
 20
85.396916
 30
0.0
 11
0.668268
 21
85.396916
 31
0.0
  0
LINE
  5
436
100
AcDbEntity
  8
HIDDEN1
100
AcDbLine
 10
11.920268
 20
85.396916
 30
0.0
 11
13.520268
 21
85.396916
 31
0.0
  0
LWPOLYLINE
  5
437
100
AcDbEntity
  8
HIDDEN1
100
AcDbPolyline
 90
        4
 70
   129
 43
0.0
 10
5.879383
 20
83.754052
 10
7.256859
 20
83.754052
 10
7.256859
 20
87.039846
 10
5.879383
 20
87.039846
  0
LWPOLYLINE
  5
438
100
AcDbEntity
  8
HIDDEN1
100
AcDbPolyline
 90
        4
 70
   129
 43
0.0
 10
-5.172045
 20
83.754052
 10
-3.794569
 20
83.754052
 10
-3.794569
 20
87.039846
 10
-5.172045
 20
87.039846
  0
TEXT
  5
439
100
AcDbEntity
  8
TEXT1
100
AcDbText
 10
6.393542
 20
84.195851
 30
0.0
 40
0.7
  1
N
 41
0.8
  7
M_STANDARD
 72
     1
 11
6.580209
 21
84.545851
 31
0.0
100
AcDbText
 73
     2
  0
TEXT
  5
43A
100
AcDbEntity
  8
TEXT1
100
AcDbText
 10
-4.657886
 20
84.195851
 30
0.0
 40
0.7
  1
N
 41
0.8
  7
M_STANDARD
 72
     1
 11
-4.47122
 21
84.545851
 31
0.0
100
AcDbText
 73
     2
  0
TEXT
  5
43B
100
AcDbEntity
  8
TEXT1
100
AcDbText
 10
6.340209
 20
84.995851
 30
0.0
 40
0.7
  1
/
 41
0.8
  7
M_STANDARD
 72
     1
 11
6.580209
 21
85.345851
 31
0.0
100
AcDbText
 73
     2
  0
TEXT
  5
43C
100
AcDbEntity
  8
TEXT1
100
AcDbText
 10
-4.71122
 20
84.995851
 30
0.0
 40
0.7
  1
/
 41
0.8
  7
M_STANDARD
 72
     1
 11
-4.47122
 21
85.345851
 31
0.0
100
AcDbText
 73
     2
  0
TEXT
  5
43D
100
AcDbEntity
  8
TEXT1
100
AcDbText
 10
6.393542
 20
85.795851
 30
0.0
 40
0.7
  1
S
 41
0.8
  7
M_STANDARD
 72
     1
 11
6.580209
 21
86.145851
 31
0.0
100
AcDbText
 73
     2
  0
TEXT
  5
43E
100
AcDbEntity
  8
TEXT1
100
AcDbText
 10
-4.657886
 20
85.795851
 30
0.0
 40
0.7
  1
S
 41
0.8
  7
M_STANDARD
 72
     1
 11
-4.47122
 21
86.145851
 31
0.0
100
AcDbText
 73
     2
  0
LINE
  5
43F
100
AcDbEntity
  8
OBJECT1
100
AcDbLine
 10
8.368713
 20
84.046203
 30
0.0
 11
8.368713
 21
81.629179
 31
0.0
  0
LINE
  5
440
100
AcDbEntity
  8
OBJECT1
100
AcDbLine
 10
8.368713
 20
89.164719
 30
0.0
 11
8.368713
 21
86.747695
 31
0.0
  0
LINE
  5
441
100
AcDbEntity
  8
OBJECT1
100
AcDbLine
 10
-2.682715
 20
84.046203
 30
0.0
 11
-2.682715
 21
81.629179
 31
0.0
  0
LINE
  5
442
100
AcDbEntity
  8
OBJECT1
100
AcDbLine
 10
-2.682715
 20
89.164719
 30
0.0
 11
-2.682715
 21
86.747695
 31
0.0
  0
LINE
  5
443
100
AcDbEntity
  8
OBJECT1
100
AcDbLine
 10
10.169306
 20
84.046203
 30
0.0
 11
10.169306
 21
81.629179
 31
0.0
  0
LINE
  5
444
100
AcDbEntity
  8
OBJECT1
100
AcDbLine
 10
10.169306
 20
89.164719
 30
0.0
 11
10.169306
 21
86.747695
 31
0.0
  0
LINE
  5
445
100
AcDbEntity
  8
OBJECT1
100
AcDbLine
 10
-0.882122
 20
84.046203
 30
0.0
 11
-0.882122
 21
81.629179
 31
0.0
  0
LINE
  5
446
100
AcDbEntity
  8
OBJECT1
100
AcDbLine
 10
-0.882122
 20
89.164719
 30
0.0
 11
-0.882122
 21
86.747695
 31
0.0
  0
LINE
  5
447
100
AcDbEntity
  8
OBJECT1
100
AcDbLine
 10
11.969898
 20
84.046203
 30
0.0
 11
11.969898
 21
81.629179
 31
0.0
  0
LINE
  5
448
100
AcDbEntity
  8
OBJECT1
100
AcDbLine
 10
11.969898
 20
89.164719
 30
0.0
 11
11.969898
 21
86.747695
 31
0.0
  0
CIRCLE
  5
449
100
AcDbEntity
  8
OBJECT1
100
AcDbCircle
 10
8.392523
 20
89.545775
 30
0.0
 40
0.381798
  0
CIRCLE
  5
44A
100
AcDbEntity
  8
OBJECT1
100
AcDbCircle
 10
-2.658905
 20
89.545775
 30
0.0
 40
0.381798
  0
CIRCLE
  5
44B
100
AcDbEntity
  8
OBJECT1
100
AcDbCircle
 10
10.193115
 20
89.545775
 30
0.0
 40
0.381798
  0
CIRCLE
  5
44C
100
AcDbEntity
  8
OBJECT1
100
AcDbCircle
 10
-0.858313
 20
89.545775
 30
0.0
 40
0.381798
  0
CIRCLE
  5
44D
100
AcDbEntity
  8
OBJECT1
100
AcDbCircle
 10
11.993708
 20
89.545775
 30
0.0
 40
0.381798
  0
CIRCLE
  5
44E
100
AcDbEntity
  8
OBJECT1
100
AcDbCircle
 10
8.368713
 20
81.247381
 30
0.0
 40
0.381798
  0
CIRCLE
  5
44F
100
AcDbEntity
  8
OBJECT1
100
AcDbCircle
 10
-2.682715
 20
81.247381
 30
0.0
 40
0.381798
  0
CIRCLE
  5
450
100
AcDbEntity
  8
OBJECT1
100
AcDbCircle
 10
10.169306
 20
81.247381
 30
0.0
 40
0.381798
  0
CIRCLE
  5
451
100
AcDbEntity
  8
OBJECT1
100
AcDbCircle
 10
-0.882122
 20
81.247381
 30
0.0
 40
0.381798
  0
CIRCLE
  5
452
100
AcDbEntity
  8
OBJECT1
100
AcDbCircle
 10
11.969898
 20
81.247381
 30
0.0
 40
0.381798
  0
CIRCLE
  5
453
100
AcDbEntity
  8
HIDDEN1
100
AcDbCircle
 10
6.59193
 20
89.545775
 30
0.0
 40
0.381798
  0
CIRCLE
  5
454
100
AcDbEntity
  8
HIDDEN1
100
AcDbCircle
 10
-4.459498
 20
89.545775
 30
0.0
 40
0.381798
  0
LINE
  5
455
100
AcDbEntity
  8
HIDDEN1
100
AcDbLine
 10
6.568121
 20
89.164719
 30
0.0
 11
6.568121
 21
87.039846
 31
0.0
  0
LINE
  5
456
100
AcDbEntity
  8
HIDDEN1
100
AcDbLine
 10
-4.483307
 20
89.164719
 30
0.0
 11
-4.483307
 21
87.039846
 31
0.0
  0
LINE
  5
457
100
AcDbEntity
  8
HIDDEN1
100
AcDbLine
 10
6.568121
 20
81.629179
 30
0.0
 11
6.568121
 21
83.754052
 31
0.0
  0
LINE
  5
458
100
AcDbEntity
  8
HIDDEN1
100
AcDbLine
 10
-4.483307
 20
81.629179
 30
0.0
 11
-4.483307
 21
83.754052
 31
0.0
  0
CIRCLE
  5
459
100
AcDbEntity
  8
HIDDEN1
100
AcDbCircle
 10
6.568121
 20
81.247381
 30
0.0
 40
0.381798
  0
CIRCLE
  5
45A
100
AcDbEntity
  8
HIDDEN1
100
AcDbCircle
 10
-4.483307
 20
81.247381
 30
0.0
 40
0.381798
  0
TEXT
  5
4F7
100
AcDbEntity
  8
TEXT1
100
AcDbText
 10
-1.486779
 20
92.05202
 30
0.0
 40
0.825
  1
WIRING DIAGRAM
 41
0.899732
  7
M_STANDARD
 72
     1
 11
3.002244
 21
92.46452
 31
0.0
100
AcDbText
 73
     2
  0
TEXT
  5
4F8
100
AcDbEntity
  8
TEXT1
100
AcDbText
 10
-7.115719
 20
85.059704
 30
0.0
 40
1.0
  1
A
 41
0.8
  7
M_STANDARD
 72
     1
 11
-6.810957
 21
85.559704
 31
0.0
100
AcDbText
 73
     2
  0
TEXT
  5
4F9
100
AcDbEntity
  8
TEXT1
100
AcDbText
 10
4.125446
 20
85.055996
 30
0.0
 40
1.0
  1
B
 41
0.8
  7
M_STANDARD
 72
     1
 11
4.392113
 21
85.555996
 31
0.0
100
AcDbText
 73
     2
  0
LWPOLYLINE
  5
4FA
100
AcDbEntity
  8
0
100
AcDbPolyline
 90
        4
 70
   129
 43
0.0
 10
-9.03747
 20
93.585787
 10
15.44997
 20
93.585787
 10
15.44997
 20
91.142213
 10
-9.03747
 20
91.142213
  0
LWPOLYLINE
  5
4FB
100
AcDbEntity
  8
0
100
AcDbPolyline
 90
        4
 70
   129
 43
0.0
 10
-9.03747
 20
79.534303
 10
15.44997
 20
79.534303
 10
15.44997
 20
91.142213
 10
-9.03747
 20
91.142213
  0
TEXT
  5
4FC
100
AcDbEntity
  8
TEXT1
100
AcDbText
 10
-139.139374
 20
49.313246
 30
0.0
 40
1.0
  1
CENTERED IN
 41
0.899561
  7
M_STANDARD
 11
-139.139374
 21
49.813246
 31
0.0
100
AcDbText
 73
     2
  0
TEXT
  5
4FD
100
AcDbEntity
  8
TEXT1
100
AcDbText
 10
-139.139374
 20
47.486926
 30
0.0
 40
1.0
  1
DEAD FRONT,
 41
0.943755
  7
M_STANDARD
 11
-139.139374
 21
47.986926
 31
0.0
100
AcDbText
 73
     2
  0
TEXT
  5
4FE
100
AcDbEntity
  8
TEXT1
100
AcDbText
 10
-139.139374
 20
45.660606
 30
0.0
 40
1.0
  1
UNDER COVER
 41
0.899561
  7
M_STANDARD
 11
-139.139374
 21
46.160606
 31
0.0
100
AcDbText
 73
     2
  0
TEXT
  5
4FF
100
AcDbEntity
  8
DIM
100
AcDbText
 10
-135.36579
 20
77.140551
 30
0.0
 40
1.0
  1
.44 DIA.
 41
0.984599
  7
M_STANDARD
 72
     2
 11
-129.645741
 21
77.640551
 31
0.0
100
AcDbText
 73
     2
  0
TEXT
  5
500
100
AcDbEntity
  8
DIM
100
AcDbText
 10
-135.148502
 20
75.734875
 30
0.0
 40
0.8
  1
11
 41
1.09141
  7
M_STANDARD
 72
     2
 11
-134.275374
 21
76.134875
 31
0.0
100
AcDbText
 73
     2
  0
TEXT
  5
501
100
AcDbEntity
  8
DIM
100
AcDbText
 10
-136.771471
 20
74.162861
 30
0.0
 40
1.0
  1
(4 HOLES)
 41
0.935252
  7
M_STANDARD
 72
     2
 11
-129.645741
 21
74.662861
 31
0.0
100
AcDbText
 73
     2
  0
LWPOLYLINE
  5
502
100
AcDbEntity
  8
TEXT1
100
AcDbPolyline
 90
        3
 70
   128
 43
0.0
 10
-128.761083
 20
49.73163
 10
-127.511083
 20
49.73163
 10
-120.426001
 20
54.331922
  0
INSERT
  5
508
100
AcDbEntity
  8
TEXT1
100
AcDbBlockReference
  2
M_PFN_100
 10
-120.426001
 20
54.331922
 30
0.0
 41
10.0
 42
10.0
 43
10.0
 50
32.995372
  0
LWPOLYLINE
  5
509
100
AcDbEntity
  8
DIM
100
AcDbPolyline
 90
        3
 70
   128
 43
0.0
 10
-129.187918
 20
77.72784
 10
-127.937918
 20
77.72784
 10
-124.646001
 20
83.691922
  0
INSERT
  5
50B
100
AcDbEntity
  8
DIM
100
AcDbBlockReference
  2
M_PFN_100
 10
-124.646001
 20
83.691922
 30
0.0
 41
10.0
 42
10.0
 43
10.0
 50
61.103191
  0
TEXT
  5
50C
100
AcDbEntity
  8
TEXT1
100
AcDbText
 10
-85.452819
 20
20.106222
 30
0.0
 40
0.96
  1
NEMA/EEMAC TYPE 3R
 41
0.954955
  7
M_STANDARD
 72
     1
 11
-77.507593
 21
20.586222
 31
0.0
100
AcDbText
 73
     2
  0
TEXT
  5
50D
100
AcDbEntity
  8
TEXT1
100
AcDbText
 10
-82.875933
 20
18.306222
 30
0.0
 40
0.96
  1
NO KNOCKOUTS
 41
0.954735
  7
M_STANDARD
 72
     1
 11
-77.507593
 21
18.786222
 31
0.0
100
AcDbText
 73
     2
  0
TEXT
  5
50E
100
AcDbEntity
  8
TEXT1
100
AcDbText
 10
-80.472963
 20
21.906222
 30
0.0
 40
0.96
  1
MA1000R
 41
0.953933
  7
M_STANDARD
 72
     1
 11
-77.507593
 21
22.386222
 31
0.0
100
AcDbText
 73
     2
  0
HATCH
  5
50F
100
AcDbEntity
  8
OBJECT1
100
AcDbHatch
 10
0.0
 20
0.0
 30
0.0
210
0.0
220
0.0
230
1.0
  2
_U
 70
     0
 71
     0
 91
        1
 92
        0
 93
        6
 72
     1
 10
-117.663501
 20
59.331922
 11
-115.188501
 21
59.331922
 72
     1
 10
-115.188501
 20
59.331922
 11
-115.188501
 21
57.869422
 72
     2
 10
-115.413501
 20
57.869422
 40
0.225
 50
360.0
 51
450.0
 73
     0
 72
     1
 10
-115.413501
 20
57.644422
 11
-117.438501
 21
57.644422
 72
     2
 10
-117.438501
 20
57.869422
 40
0.225
 50
90.0
 51
180.0
 73
     0
 72
     1
 10
-117.663501
 20
57.869422
 11
-117.663501
 21
59.331922
 97
        0
 75
     0
 76
     0
 52
45.0
 41
0.0216
 77
     0
 78
     1
 53
45.0
 43
-150.299732
 44
-10.907984
 45
-0.0152735064736302
 46
0.0152735064736287
 79
     0
 98
        1
 10
-150.299732
 20
-10.907984
  0
LWPOLYLINE
  5
510
100
AcDbEntity
  8
OBJECT1
100
AcDbPolyline
 90
        4
 70
   129
 43
0.0
 10
-127.246001
 20
85.591922
 10
-105.606001
 20
85.591922
 10
-105.606001
 20
84.591922
 10
-127.246001
 20
84.591922
  0
LWPOLYLINE
  5
511
100
AcDbEntity
  8
OBJECT1
100
AcDbPolyline
 90
        4
 70
   128
 43
0.0
 10
-126.661001
 20
8.335419
 10
-106.191001
 20
8.335419
 10
-106.191001
 20
18.015419
 10
-115.646001
 20
18.015419
  0
LWPOLYLINE
  5
512
100
AcDbEntity
  8
OBJECT1
100
AcDbPolyline
 90
        3
 70
   128
 43
0.0
 10
-117.206001
 20
18.015419
 10
-126.661001
 20
18.015419
 10
-126.661001
 20
8.335419
  0
CIRCLE
  5
513
100
AcDbEntity
  8
OBJECT1
100
AcDbCircle
 10
-116.426001
 20
18.015419
 30
0.0
 40
0.39
  0
LINE
  5
514
100
AcDbEntity
  8
OBJECT1
100
AcDbLine
 10
-126.661001
 20
17.265419
 30
0.0
 11
-106.191001
 21
17.265419
 31
0.0
  0
CIRCLE
  5
515
100
AcDbEntity
  8
HIDDEN1
100
AcDbCircle
 10
-108.426001
 20
35.691922
 30
0.0
 40
0.22
  0
CIRCLE
  5
516
100
AcDbEntity
  8
HIDDEN1
100
AcDbCircle
 10
-124.426001
 20
35.691922
 30
0.0
 40
0.22
  0
CIRCLE
  5
517
100
AcDbEntity
  8
HIDDEN1
100
AcDbCircle
 10
-124.426001
 20
83.691922
 30
0.0
 40
0.22
  0
CIRCLE
  5
518
100
AcDbEntity
  8
HIDDEN1
100
AcDbCircle
 10
-108.426001
 20
83.691922
 30
0.0
 40
0.22
  0
LWPOLYLINE
  5
519
100
AcDbEntity
  8
HIDDEN1
100
AcDbPolyline
 90
        4
 70
   129
 43
0.0
 10
-120.426001
 20
54.331922
 10
-112.426001
 20
54.331922
 10
-112.426001
 20
64.331922
 10
-120.426001
 20
64.331922
  0
LWPOLYLINE
  5
51A
100
AcDbEntity
  8
HIDDEN1
100
AcDbPolyline
 90
        8
 70
   129
 43
0.0
 10
-117.663501
 20
57.869422
 42
0.414214
 10
-117.438501
 20
57.644422
 10
-115.413501
 20
57.644422
 42
0.414214
 10
-115.188501
 20
57.869422
 10
-115.188501
 20
60.794422
 42
0.414214
 10
-115.413501
 20
61.019422
 10
-117.438501
 20
61.019422
 42
0.414214
 10
-117.663501
 20
60.794422
  0
LWPOLYLINE
  5
51B
100
AcDbEntity
  8
HIDDEN1
100
AcDbPolyline
 90
        6
 70
   129
 43
0.0
 10
-117.663501
 20
59.331922
 10
-115.188501
 20
59.331922
 10
-115.188501
 20
57.869422
 42
-0.414214
 10
-115.413501
 20
57.644422
 10
-117.438501
 20
57.644422
 42
-0.414214
 10
-117.663501
 20
57.869422
  0
LWPOLYLINE
  5
51C
100
AcDbEntity
  8
OBJECT1
100
AcDbPolyline
 90
        4
 70
   129
 43
0.0
 10
-126.661001
 20
84.591922
 10
-106.191001
 20
84.591922
 10
-106.191001
 20
33.511922
 10
-126.661001
 20
33.511922
  0
LWPOLYLINE
  5
51D
100
AcDbEntity
  8
OBJECT1
100
AcDbPolyline
 90
        4
 70
   129
 43
0.0
 10
-106.191001
 20
83.591922
 10
-105.606001
 20
83.591922
 10
-105.606001
 20
84.591922
 10
-106.191001
 20
84.591922
  0
LWPOLYLINE
  5
51E
100
AcDbEntity
  8
OBJECT1
100
AcDbPolyline
 90
        4
 70
   129
 43
0.0
 10
-126.661001
 20
83.591922
 10
-127.246001
 20
83.591922
 10
-127.246001
 20
84.591922
 10
-126.661001
 20
84.591922
  0
LWPOLYLINE
  5
51F
100
AcDbEntity
  8
OBJECT1
100
AcDbPolyline
 90
        4
 70
   129
 43
0.0
 10
-117.237782
 20
34.895825
 10
-115.61422
 20
34.895825
 10
-115.61422
 20
35.256616
 10
-117.237782
 20
35.256616
  0
ARC
  5
520
100
AcDbEntity
  8
OBJECT1
100
AcDbCircle
 10
-116.426001
 20
18.015419
 30
0.0
 40
0.78
100
AcDbArc
 50
90.0
 51
180.0
  0
ARC
  5
521
100
AcDbEntity
  8
OBJECT1
100
AcDbCircle
 10
-116.426001
 20
18.015419
 30
0.0
 40
0.78
100
AcDbArc
 50
0.0
 51
90.0
  0
ARC
  5
522
100
AcDbEntity
  8
OBJECT1
100
AcDbCircle
 10
-126.661001
 20
16.679515
 30
0.0
 40
0.585904
100
AcDbArc
 50
176.816562
 51
266.816562
  0
ARC
  5
523
100
AcDbEntity
  8
OBJECT1
100
AcDbCircle
 10
-126.661001
 20
16.679515
 30
0.0
 40
0.585904
100
AcDbArc
 50
86.816562
 51
176.816562
  0
ARC
  5
524
100
AcDbEntity
  8
OBJECT1
100
AcDbCircle
 10
-106.191001
 20
16.679515
 30
0.0
 40
0.585904
100
AcDbArc
 50
273.183438
 51
3.183438
  0
ARC
  5
525
100
AcDbEntity
  8
OBJECT1
100
AcDbCircle
 10
-106.191001
 20
16.679515
 30
0.0
 40
0.585904
100
AcDbArc
 50
3.183438
 51
93.183438
  0
LWPOLYLINE
  5
526
100
AcDbEntity
  8
OBJECT1
100
AcDbPolyline
 90
        3
 70
   128
 43
0.0
 10
-71.303811
 20
84.580659
 10
-77.803811
 20
84.580659
 10
-79.807379
 20
83.091922
  0
LWPOLYLINE
  5
527
100
AcDbEntity
  8
OBJECT1
100
AcDbPolyline
 90
        3
 70
   128
 43
0.0
 10
-80.267544
 20
83.078844
 10
-77.803811
 20
84.909503
 10
-71.303811
 20
84.909503
  0
LWPOLYLINE
  5
528
100
AcDbEntity
  8
OBJECT1
100
AcDbPolyline
 90
        4
 70
   129
 43
0.0
 10
-80.983811
 20
85.591922
 10
-71.303811
 20
85.591922
 10
-71.303811
 20
83.091922
 10
-80.983811
 20
83.091922
  0
LWPOLYLINE
  5
529
100
AcDbEntity
  8
OBJECT1
100
AcDbPolyline
 90
        4
 70
   129
 43
0.0
 10
-80.233811
 20
83.091922
 10
-80.983811
 20
83.091922
 10
-80.983811
 20
33.511922
 10
-80.233811
 20
33.511922
  0
LWPOLYLINE
  5
52A
100
AcDbEntity
  8
OBJECT1
100
AcDbPolyline
 90
        4
 70
   129
 43
0.0
 10
-80.233811
 20
33.691922
 10
-71.303811
 20
33.691922
 10
-71.303811
 20
83.091922
 10
-80.233811
 20
83.091922
  0
LWPOLYLINE
  5
52B
100
AcDbEntity
  8
OBJECT1
100
AcDbPolyline
 90
        4
 70
   129
 43
0.0
 10
-80.983811
 20
84.591922
 10
-81.123811
 20
84.591922
 10
-81.123811
 20
85.591922
 10
-80.983811
 20
85.591922
  0
LWPOLYLINE
  5
52C
100
AcDbEntity
  8
OBJECT1
100
AcDbPolyline
 90
        4
 70
   128
 43
0.0
 10
-71.303811
 20
34.801922
 10
-70.523811
 20
35.191922
 10
-70.523811
 20
36.191922
 10
-71.303811
 20
36.581922
  0
LWPOLYLINE
  5
52D
100
AcDbEntity
  8
OBJECT1
100
AcDbPolyline
 90
        4
 70
   129
 43
0.0
 10
-81.763811
 20
34.895825
 10
-80.983811
 20
34.895825
 10
-80.983811
 20
35.256616
 10
-81.763811
 20
35.256616
  0
LWPOLYLINE
  5
52E
100
AcDbEntity
  8
OBJECT1
100
AcDbPolyline
 90
        4
 70
   128
 43
0.0
 10
-71.303811
 20
80.341922
 10
-70.803811
 20
80.591922
 10
-70.803811
 20
81.591922
 10
-71.303811
 20
81.841922
  0
CIRCLE
  5
52F
100
AcDbEntity
  8
OBJECT1
100
AcDbCircle
 10
-80.412969
 20
84.476368
 30
0.0
 40
0.19125
  0
LWPOLYLINE
  5
664
100
AcDbEntity
  8
DIM
100
AcDbPolyline
 90
        3
 70
   128
 43
0.0
 10
-70.91011
 20
33.691922
 10
-68.10454
 20
33.691922
 10
-67.710839
 20
33.691922
  0
INSERT
  5
665
100
AcDbEntity
  8
DIM
100
AcDbBlockReference
  2
M_PFN_2
 10
-71.303811
 20
33.691922
 30
0.0
 41
10.0
 42
10.0
 43
10.0
  0
LWPOLYLINE
  5
666
100
AcDbEntity
  8
DIM
100
AcDbPolyline
 90
        3
 70
   128
 43
0.0
 10
-70.13011
 20
35.691922
 10
-68.10454
 20
35.691922
 10
-67.710839
 20
35.691922
  0
INSERT
  5
667
100
AcDbEntity
  8
DIM
100
AcDbBlockReference
  2
M_PFN_2
 10
-70.523811
 20
35.691922
 30
0.0
 41
10.0
 42
10.0
 43
10.0
  0
TEXT
  5
668
100
AcDbEntity
  8
DIM
100
AcDbText
 10
-66.944769
 20
39.190322
 30
0.0
 40
1.0
  1
2.00
 41
0.93861
  7
M_STANDARD
 11
-66.944769
 21
39.690322
 31
0.0
100
AcDbText
 73
     2
  0
TEXT
  5
669
100
AcDbEntity
  8
DIM
100
AcDbText
 10
-65.417888
 20
37.624322
 30
0.0
 40
0.8
  1
51
 41
1.09141
  7
M_STANDARD
 72
     1
 11
-64.898169
 21
38.424322
 31
0.0
100
AcDbText
 73
     3
  0
LWPOLYLINE
  5
66A
100
AcDbEntity
  8
DIM
100
AcDbPolyline
 90
        3
 70
   128
 43
0.0
 10
-67.277769
 20
39.690322
 10
-68.10454
 20
39.690322
 10
-68.10454
 20
35.691922
  0
LINE
  5
66B
100
AcDbEntity
  8
DIM
100
AcDbLine
 10
-68.10454
 20
33.691922
 30
0.0
 11
-68.10454
 21
32.038379
 31
0.0
  0
INSERT
  5
66C
100
AcDbEntity
  8
DIM
100
AcDbBlockReference
  2
M_PFN_100
 10
-68.10454
 20
35.691922
 30
0.0
 41
10.0
 42
10.0
 43
10.0
 50
270.0
  0
INSERT
  5
66D
100
AcDbEntity
  8
DIM
100
AcDbBlockReference
  2
M_PFN_101
 10
-68.10454
 20
33.691922
 30
0.0
 41
10.0
 42
10.0
 43
10.0
 50
270.0
  0
LWPOLYLINE
  5
66E
100
AcDbEntity
  8
DIM
100
AcDbPolyline
 90
        3
 70
   128
 43
0.0
 10
-81.377512
 20
33.511922
 10
-85.001716
 20
33.511922
 10
-85.395417
 20
33.511922
  0
INSERT
  5
66F
100
AcDbEntity
  8
DIM
100
AcDbBlockReference
  2
M_PFN_2
 10
-80.983811
 20
33.511922
 30
0.0
 41
10.0
 42
10.0
 43
10.0
 50
180.0
  0
LWPOLYLINE
  5
670
100
AcDbEntity
  8
DIM
100
AcDbPolyline
 90
        3
 70
   128
 43
0.0
 10
-81.517512
 20
85.591922
 10
-85.001716
 20
85.591922
 10
-85.395417
 20
85.591922
  0
INSERT
  5
671
100
AcDbEntity
  8
DIM
100
AcDbBlockReference
  2
M_PFN_2
 10
-81.123811
 20
85.591922
 30
0.0
 41
10.0
 42
10.0
 43
10.0
 50
180.0
  0
TEXT
  5
672
100
AcDbEntity
  8
DIM
100
AcDbText
 10
-87.101716
 20
59.051922
 30
0.0
 40
1.0
  1
52.08
 50
360.0
 41
0.897713
  7
M_STANDARD
 11
-87.101716
 21
59.551922
 31
0.0
100
AcDbText
 73
     2
  0
TEXT
  5
673
100
AcDbEntity
  8
DIM
100
AcDbText
 10
-86.196788
 20
57.652522
 30
0.0
 40
0.8
  1
1323
 50
360.0
 41
0.896304
  7
M_STANDARD
 72
     1
 11
-85.001716
 21
58.452522
 31
0.0
100
AcDbText
 73
     3
  0
LINE
  5
674
100
AcDbEntity
  8
DIM
100
AcDbLine
 10
-85.001716
 20
85.591922
 30
0.0
 11
-85.001716
 21
60.384922
 31
0.0
  0
LINE
  5
675
100
AcDbEntity
  8
DIM
100
AcDbLine
 10
-85.001716
 20
57.052922
 30
0.0
 11
-85.001716
 21
33.511922
 31
0.0
  0
INSERT
  5
676
100
AcDbEntity
  8
DIM
100
AcDbBlockReference
  2
M_PFN_101
 10
-85.001716
 20
85.591922
 30
0.0
 41
10.0
 42
10.0
 43
10.0
 50
270.0
  0
INSERT
  5
677
100
AcDbEntity
  8
DIM
100
AcDbBlockReference
  2
M_PFN_100
 10
-85.001716
 20
33.511922
 30
0.0
 41
10.0
 42
10.0
 43
10.0
 50
270.0
  0
LWPOLYLINE
  5
678
100
AcDbEntity
  8
DIM
100
AcDbPolyline
 90
        3
 70
   128
 43
0.0
 10
-107.8123
 20
35.691922
 10
-102.548267
 20
35.691922
 10
-102.154566
 20
35.691922
  0
INSERT
  5
679
100
AcDbEntity
  8
DIM
100
AcDbBlockReference
  2
M_PFN_2
 10
-108.206001
 20
35.691922
 30
0.0
 41
10.0
 42
10.0
 43
10.0
  0
LWPOLYLINE
  5
67A
100
AcDbEntity
  8
DIM
100
AcDbPolyline
 90
        3
 70
   128
 43
0.0
 10
-107.8123
 20
83.691922
 10
-102.548267
 20
83.691922
 10
-102.154566
 20
83.691922
  0
INSERT
  5
67B
100
AcDbEntity
  8
DIM
100
AcDbBlockReference
  2
M_PFN_2
 10
-108.206001
 20
83.691922
 30
0.0
 41
10.0
 42
10.0
 43
10.0
  0
TEXT
  5
67C
100
AcDbEntity
  8
DIM
100
AcDbText
 10
-104.648267
 20
59.191922
 30
0.0
 40
1.0
  1
48.00
 41
0.930783
  7
M_STANDARD
 11
-104.648267
 21
59.691922
 31
0.0
100
AcDbText
 73
     2
  0
TEXT
  5
67D
100
AcDbEntity
  8
DIM
100
AcDbText
 10
-103.657976
 20
57.792522
 30
0.0
 40
0.8
  1
1219
 41
0.896304
  7
M_STANDARD
 72
     1
 11
-102.548267
 21
58.592522
 31
0.0
100
AcDbText
 73
     3
  0
LINE
  5
67E
100
AcDbEntity
  8
DIM
100
AcDbLine
 10
-102.548267
 20
83.691922
 30
0.0
 11
-102.548267
 21
60.524922
 31
0.0
  0
LINE
  5
67F
100
AcDbEntity
  8
DIM
100
AcDbLine
 10
-102.548267
 20
57.192922
 30
0.0
 11
-102.548267
 21
35.691922
 31
0.0
  0
INSERT
  5
680
100
AcDbEntity
  8
DIM
100
AcDbBlockReference
  2
M_PFN_101
 10
-102.548267
 20
83.691922
 30
0.0
 41
10.0
 42
10.0
 43
10.0
 50
270.0
  0
INSERT
  5
681
100
AcDbEntity
  8
DIM
100
AcDbBlockReference
  2
M_PFN_100
 10
-102.548267
 20
35.691922
 30
0.0
 41
10.0
 42
10.0
 43
10.0
 50
270.0
  0
LWPOLYLINE
  5
682
100
AcDbEntity
  8
DIM
100
AcDbPolyline
 90
        3
 70
   128
 43
0.0
 10
-108.426001
 20
34.904521
 10
-108.426001
 20
30.822478
 10
-108.426001
 20
30.428777
  0
INSERT
  5
683
100
AcDbEntity
  8
DIM
100
AcDbBlockReference
  2
M_PFN_3
 10
-108.426001
 20
35.691922
 30
0.0
 41
10.0
 42
10.0
 43
10.0
 50
270.0
  0
LWPOLYLINE
  5
684
100
AcDbEntity
  8
DIM
100
AcDbPolyline
 90
        3
 70
   128
 43
0.0
 10
-124.426001
 20
34.904521
 10
-124.426001
 20
30.822478
 10
-124.426001
 20
30.428777
  0
INSERT
  5
685
100
AcDbEntity
  8
DIM
100
AcDbBlockReference
  2
M_PFN_3
 10
-124.426001
 20
35.691922
 30
0.0
 41
10.0
 42
10.0
 43
10.0
 50
270.0
  0
TEXT
  5
686
100
AcDbEntity
  8
DIM
100
AcDbText
 10
-118.526001
 20
30.322478
 30
0.0
 40
1.0
  1
16.00
 50
360.0
 41
0.930783
  7
M_STANDARD
 11
-118.526001
 21
30.822478
 31
0.0
100
AcDbText
 73
     2
  0
TEXT
  5
687
100
AcDbEntity
  8
DIM
100
AcDbText
 10
-117.327556
 20
28.923078
 30
0.0
 40
0.8
  1
406
 50
360.0
 41
0.89305
  7
M_STANDARD
 72
     1
 11
-116.426001
 21
29.723078
 31
0.0
100
AcDbText
 73
     3
  0
LINE
  5
688
100
AcDbEntity
  8
DIM
100
AcDbLine
 10
-124.426001
 20
30.822478
 30
0.0
 11
-118.859001
 21
30.822478
 31
0.0
  0
LINE
  5
689
100
AcDbEntity
  8
DIM
100
AcDbLine
 10
-113.993001
 20
30.822478
 30
0.0
 11
-108.426001
 21
30.822478
 31
0.0
  0
INSERT
  5
68A
100
AcDbEntity
  8
DIM
100
AcDbBlockReference
  2
M_PFN_100
 10
-124.426001
 20
30.822478
 30
0.0
 41
10.0
 42
10.0
 43
10.0
 50
180.0
  0
INSERT
  5
68B
100
AcDbEntity
  8
DIM
100
AcDbBlockReference
  2
M_PFN_101
 10
-108.426001
 20
30.822478
 30
0.0
 41
10.0
 42
10.0
 43
10.0
 50
180.0
  0
LWPOLYLINE
  5
68C
100
AcDbEntity
  8
DIM
100
AcDbPolyline
 90
        3
 70
   128
 43
0.0
 10
-106.191001
 20
33.118221
 10
-106.191001
 20
25.319472
 10
-106.191001
 20
24.925771
  0
INSERT
  5
68D
100
AcDbEntity
  8
DIM
100
AcDbBlockReference
  2
M_PFN_2
 10
-106.191001
 20
33.511922
 30
0.0
 41
10.0
 42
10.0
 43
10.0
 50
270.0
  0
LWPOLYLINE
  5
68E
100
AcDbEntity
  8
DIM
100
AcDbPolyline
 90
        3
 70
   128
 43
0.0
 10
-126.661001
 20
33.118221
 10
-126.661001
 20
25.319472
 10
-126.661001
 20
24.925771
  0
INSERT
  5
68F
100
AcDbEntity
  8
DIM
100
AcDbBlockReference
  2
M_PFN_2
 10
-126.661001
 20
33.511922
 30
0.0
 41
10.0
 42
10.0
 43
10.0
 50
270.0
  0
TEXT
  5
690
100
AcDbEntity
  8
DIM
100
AcDbText
 10
-118.526001
 20
24.819472
 30
0.0
 40
1.0
  1
20.47
 41
0.897713
  7
M_STANDARD
 11
-118.526001
 21
25.319472
 31
0.0
100
AcDbText
 73
     2
  0
TEXT
  5
691
100
AcDbEntity
  8
DIM
100
AcDbText
 10
-117.404768
 20
23.420072
 30
0.0
 40
0.8
  1
520
 41
0.951579
  7
M_STANDARD
 72
     1
 11
-116.426001
 21
24.220072
 31
0.0
100
AcDbText
 73
     3
  0
LINE
  5
692
100
AcDbEntity
  8
DIM
100
AcDbLine
 10
-126.661001
 20
25.319472
 30
0.0
 11
-118.859001
 21
25.319472
 31
0.0
  0
LINE
  5
693
100
AcDbEntity
  8
DIM
100
AcDbLine
 10
-113.993001
 20
25.319472
 30
0.0
 11
-106.191001
 21
25.319472
 31
0.0
  0
INSERT
  5
694
100
AcDbEntity
  8
DIM
100
AcDbBlockReference
  2
M_PFN_101
 10
-126.661001
 20
25.319472
 30
0.0
 41
10.0
 42
10.0
 43
10.0
  0
INSERT
  5
695
100
AcDbEntity
  8
DIM
100
AcDbBlockReference
  2
M_PFN_100
 10
-106.191001
 20
25.319472
 30
0.0
 41
10.0
 42
10.0
 43
10.0
  0
LWPOLYLINE
  5
696
100
AcDbEntity
  8
DIM
100
AcDbPolyline
 90
        3
 70
   128
 43
0.0
 10
-81.763811
 20
34.502124
 10
-81.763811
 20
31.319472
 10
-81.763811
 20
30.925771
  0
INSERT
  5
697
100
AcDbEntity
  8
DIM
100
AcDbBlockReference
  2
M_PFN_2
 10
-81.763811
 20
34.895825
 30
0.0
 41
10.0
 42
10.0
 43
10.0
 50
270.0
  0
LWPOLYLINE
  5
698
100
AcDbEntity
  8
DIM
100
AcDbPolyline
 90
        3
 70
   128
 43
0.0
 10
-70.523811
 20
34.798221
 10
-70.523811
 20
31.319472
 10
-70.523811
 20
30.925771
  0
INSERT
  5
699
100
AcDbEntity
  8
DIM
100
AcDbBlockReference
  2
M_PFN_2
 10
-70.523811
 20
35.191922
 30
0.0
 41
10.0
 42
10.0
 43
10.0
 50
270.0
  0
TEXT
  5
69A
100
AcDbEntity
  8
DIM
100
AcDbText
 10
-78.243811
 20
30.819472
 30
0.0
 40
1.0
  1
11.24
 41
0.897713
  7
M_STANDARD
 11
-78.243811
 21
31.319472
 31
0.0
100
AcDbText
 73
     2
  0
TEXT
  5
69B
100
AcDbEntity
  8
DIM
100
AcDbText
 10
-77.062377
 20
29.420072
 30
0.0
 40
0.8
  1
285
 41
0.89305
  7
M_STANDARD
 72
     1
 11
-76.143811
 21
30.220072
 31
0.0
100
AcDbText
 73
     3
  0
LINE
  5
69C
100
AcDbEntity
  8
DIM
100
AcDbLine
 10
-70.523811
 20
31.319472
 30
0.0
 11
-73.710811
 21
31.319472
 31
0.0
  0
LINE
  5
69D
100
AcDbEntity
  8
DIM
100
AcDbLine
 10
-78.576811
 20
31.319472
 30
0.0
 11
-81.763811
 21
31.319472
 31
0.0
  0
INSERT
  5
69E
100
AcDbEntity
  8
DIM
100
AcDbBlockReference
  2
M_PFN_101
 10
-70.523811
 20
31.319472
 30
0.0
 41
10.0
 42
10.0
 43
10.0
 50
180.0
  0
INSERT
  5
69F
100
AcDbEntity
  8
DIM
100
AcDbBlockReference
  2
M_PFN_100
 10
-81.763811
 20
31.319472
 30
0.0
 41
10.0
 42
10.0
 43
10.0
 50
180.0
  0
LWPOLYLINE
  5
6A0
100
AcDbEntity
  8
DIM
100
AcDbPolyline
 90
        3
 70
   128
 43
0.0
 10
-105.606001
 20
85.985623
 10
-105.606001
 20
90.096149
 10
-105.606001
 20
90.48985
  0
INSERT
  5
6A1
100
AcDbEntity
  8
DIM
100
AcDbBlockReference
  2
M_PFN_2
 10
-105.606001
 20
85.591922
 30
0.0
 41
10.0
 42
10.0
 43
10.0
 50
90.0
  0
LWPOLYLINE
  5
6A2
100
AcDbEntity
  8
DIM
100
AcDbPolyline
 90
        3
 70
   128
 43
0.0
 10
-127.246001
 20
85.985623
 10
-127.246001
 20
90.096149
 10
-127.246001
 20
90.48985
  0
INSERT
  5
6A3
100
AcDbEntity
  8
DIM
100
AcDbBlockReference
  2
M_PFN_2
 10
-127.246001
 20
85.591922
 30
0.0
 41
10.0
 42
10.0
 43
10.0
 50
90.0
  0
TEXT
  5
6A4
100
AcDbEntity
  8
DIM
100
AcDbText
 10
-118.526001
 20
89.596149
 30
0.0
 40
1.0
  1
21.64
 41
0.897713
  7
M_STANDARD
 11
-118.526001
 21
90.096149
 31
0.0
100
AcDbText
 73
     2
  0
TEXT
  5
6A5
100
AcDbEntity
  8
DIM
100
AcDbText
 10
-117.404768
 20
88.196749
 30
0.0
 40
0.8
  1
550
 41
0.951579
  7
M_STANDARD
 72
     1
 11
-116.426001
 21
88.996749
 31
0.0
100
AcDbText
 73
     3
  0
LINE
  5
6A6
100
AcDbEntity
  8
DIM
100
AcDbLine
 10
-127.246001
 20
90.096149
 30
0.0
 11
-118.859001
 21
90.096149
 31
0.0
  0
LINE
  5
6A7
100
AcDbEntity
  8
DIM
100
AcDbLine
 10
-113.993001
 20
90.096149
 30
0.0
 11
-105.606001
 21
90.096149
 31
0.0
  0
INSERT
  5
6A8
100
AcDbEntity
  8
DIM
100
AcDbBlockReference
  2
M_PFN_101
 10
-127.246001
 20
90.096149
 30
0.0
 41
10.0
 42
10.0
 43
10.0
  0
INSERT
  5
6A9
100
AcDbEntity
  8
DIM
100
AcDbBlockReference
  2
M_PFN_100
 10
-105.606001
 20
90.096149
 30
0.0
 41
10.0
 42
10.0
 43
10.0
  0
LWPOLYLINE
  5
6AA
100
AcDbEntity
  8
DIM
100
AcDbPolyline
 90
        3
 70
   128
 43
0.0
 10
-71.303811
 20
85.985623
 10
-71.303811
 20
90.096149
 10
-71.303811
 20
90.48985
  0
INSERT
  5
6AB
100
AcDbEntity
  8
DIM
100
AcDbBlockReference
  2
M_PFN_2
 10
-71.303811
 20
85.591922
 30
0.0
 41
10.0
 42
10.0
 43
10.0
 50
90.0
  0
LWPOLYLINE
  5
6AC
100
AcDbEntity
  8
DIM
100
AcDbPolyline
 90
        3
 70
   128
 43
0.0
 10
-81.123811
 20
85.985623
 10
-81.123811
 20
90.096149
 10
-81.123811
 20
90.48985
  0
INSERT
  5
6AD
100
AcDbEntity
  8
DIM
100
AcDbBlockReference
  2
M_PFN_2
 10
-81.123811
 20
85.591922
 30
0.0
 41
10.0
 42
10.0
 43
10.0
 50
90.0
  0
TEXT
  5
6AE
100
AcDbEntity
  8
DIM
100
AcDbText
 10
-77.863811
 20
89.596149
 30
0.0
 40
1.0
  1
9.82
 41
0.896304
  7
M_STANDARD
 11
-77.863811
 21
90.096149
 31
0.0
100
AcDbText
 73
     2
  0
TEXT
  5
6AF
100
AcDbEntity
  8
DIM
100
AcDbText
 10
-77.115367
 20
88.196749
 30
0.0
 40
0.8
  1
249
 41
0.89305
  7
M_STANDARD
 72
     1
 11
-76.213811
 21
88.996749
 31
0.0
100
AcDbText
 73
     3
  0
LINE
  5
6B0
100
AcDbEntity
  8
DIM
100
AcDbLine
 10
-81.123811
 20
90.096149
 30
0.0
 11
-78.196811
 21
90.096149
 31
0.0
  0
LINE
  5
6B1
100
AcDbEntity
  8
DIM
100
AcDbLine
 10
-74.230811
 20
90.096149
 30
0.0
 11
-71.303811
 21
90.096149
 31
0.0
  0
INSERT
  5
6B2
100
AcDbEntity
  8
DIM
100
AcDbBlockReference
  2
M_PFN_101
 10
-81.123811
 20
90.096149
 30
0.0
 41
10.0
 42
10.0
 43
10.0
  0
INSERT
  5
6B3
100
AcDbEntity
  8
DIM
100
AcDbBlockReference
  2
M_PFN_100
 10
-71.303811
 20
90.096149
 30
0.0
 41
10.0
 42
10.0
 43
10.0
  0
LWPOLYLINE
  5
6EF
102
{ACAD_REACTORS
330
6F0
102
}
100
AcDbEntity
  8
AM_VIEWS
100
AcDbPolyline
 90
        6
 70
     1
 43
0.0
 10
16.69997
 20
96.086016
 10
16.69997
 20
1.211998
 10
-67.275433
 20
1.211998
 10
-67.275433
 20
-7.908001
 10
-147.30004
 20
-7.908004
 10
-147.30004
 20
96.086016
1001
GENIUS_GENOREF_13
1005
6F1
  0
VIEWPORT
  5
6F0
102
{ACAD_XDICTIONARY
360
750
102
}
100
AcDbEntity
  8
AM_VIEWS
100
AcDbViewport
 10
-803.30008
 20
429.982076
 30
0.0
 40
1640.0001
 41
1039.9402
 69
     0
1001
ACAD
1000
MVIEW
1002
{
1070
    16
1010
0.0
1020
0.0
1030
0.0
1010
0.0
1020
0.0
1030
1.0
1040
0.0
1040
1039.9402
1040
-729.498682
1040
391.735099
1040
50.0
1040
0.0
1040
0.0
1070
     0
1070
   100
1070
     1
1070
     0
1070
     0
1070
     0
1070
     0
1070
     0
1040
0.0
1040
0.0
1040
0.0
1040
0.19685
1040
0.19685
1040
0.19685
1040
0.19685
1070
     0
1002
{
1002
}
1002
}
1001
GENIUS_GENOREF_13
1005
6F1
1001
GENIUS_GENSCREG_15
1000
PF
1040
10.0
1000
DF
1040
1.0
1000
MIN
1011
-1623.30013
1021
-89.988024
1031
0.0
1000
MAX
1011
16.69997
1021
949.952176
1031
0.0
1000
FLAGS
1070
     2
  0
VIEWPORT
  5
6B9
102
{ACAD_XDICTIONARY
360
748
102
}
100
AcDbEntity
 67
     1
  8
0
100
AcDbViewport
 10
8.2
 20
5.304483
 30
0.0
 40
16.486284
 41
11.492633
 68
     1
 69
     1
1001
ACAD
1000
MVIEW
1002
{
1070
    16
1010
0.0
1020
0.0
1030
0.0
1010
0.0
1020
0.0
1030
1.0
1040
0.0
1040
11.492633
1040
8.2
1040
5.304483
1040
50.0
1040
0.0
1040
0.0
1070
     0
1070
   100
1070
     1
1070
     1
1070
     0
1070
     0
1070
     0
1070
     0
1040
0.0
1040
0.0
1040
0.0
1040
0.5
1040
0.5
1040
0.5
1040
0.5
1070
     0
1002
{
1002
}
1002
}
  0
LWPOLYLINE
  5
6CE
100
AcDbEntity
 67
     1
  8
BORDER
100
AcDbPolyline
 90
        3
 70
   128
 43
0.0
 10
8.002461
 20
0.177386
 10
8.002461
 20
1.089386
 10
16.399971
 20
1.089386
  0
LWPOLYLINE
  5
6CF
100
AcDbEntity
 67
     1
  8
BORDER
100
AcDbPolyline
 90
        4
 70
   129
 43
0.0
 10
0.0
 20
0.177386
 10
16.400001
 20
0.177386
 10
16.400001
 20
10.576788
 10
0.0
 20
10.576788
  0
LINE
  5
6D0
100
AcDbEntity
 67
     1
  8
BORDER
100
AcDbLine
 10
12.201216
 20
0.472959
 30
0.0
 11
16.399971
 21
0.472959
 31
0.0
  0
INSERT
  5
6D1
100
AcDbEntity
 67
     1
  8
BORDER
100
AcDbBlockReference
  2
M_PIC_H94
 10
14.380532
 20
0.917239
 30
0.0
 41
0.21
 42
0.21
 43
0.21
1001
MED_PRIMTYPE
1000
SUP
  0
TEXT
  5
6D2
100
AcDbEntity
 67
     1
  8
BORDER
100
AcDbText
 10
8.809529
 20
0.478607
 30
0.0
 40
0.08
  1
NEMA/EEMAC TYPE 3R RAINPROOF ENCLOSURE
 41
0.899965
  7
M_STANDARD
 72
     1
 11
10.117478
 21
0.518607
 31
0.0
100
AcDbText
 73
     2
  0
TEXT
  5
6D3
100
AcDbEntity
 67
     1
  8
BORDER
100
AcDbText
 10
9.050425
 20
0.750052
 30
0.0
 40
0.1
  1
CIRCUIT BREAKER ENCLOSURES
 41
0.899924
  7
M_STANDARD
 72
     1
 11
10.117478
 21
0.800052
 31
0.0
100
AcDbText
 73
     2
  0
TEXT
  5
6D4
100
AcDbEntity
 67
     1
  8
BORDER
100
AcDbText
 10
9.608466
 20
0.61433
 30
0.0
 40
0.08
  1
125-1000 AMPERE
 41
0.899768
  7
M_STANDARD
 72
     1
 11
10.117478
 21
0.65433
 31
0.0
100
AcDbText
 73
     2
  0
LINE
  5
6D5
100
AcDbEntity
 67
     1
  8
BORDER
100
AcDbLine
 10
12.201216
 20
1.089386
 30
0.0
 11
12.201216
 21
0.177386
 31
0.0
  0
TEXT
  5
6D6
100
AcDbEntity
 67
     1
  8
BORDER
100
AcDbText
 10
12.747724
 20
0.273927
 30
0.0
 40
0.12
  1
3100
 41
0.9961
  7
M_STANDARD
 11
12.747724
 21
0.333927
 31
0.0
100
AcDbText
 73
     2
  0
TEXT
  5
6D7
100
AcDbEntity
 67
     1
  8
BORDER
100
AcDbText
 10
12.368977
 20
0.238543
 30
0.0
 40
0.07
  1
NO.
 41
1.183673
  7
M_STANDARD
 11
12.368977
 21
0.273543
 31
0.0
100
AcDbText
 73
     2
  0
TEXT
  5
6D8
100
AcDbEntity
 67
     1
  8
BORDER
100
AcDbText
 10
12.368977
 20
0.343543
 30
0.0
 40
0.07
  1
DWG.
 41
1.093272
  7
M_STANDARD
 11
12.368977
 21
0.378543
 31
0.0
100
AcDbText
 73
     2
  0
TEXT
  5
6D9
100
AcDbEntity
 67
     1
  8
BORDER
100
AcDbText
 10
15.501624
 20
0.026667
 30
0.0
 40
0.08
  1
REF DWG #3100
 41
0.911676
  7
M_STANDARD
 72
     2
 11
16.37336
 21
0.066667
 31
0.0
100
AcDbText
 73
     2
  0
TEXT
  5
6DA
100
AcDbEntity
 67
     1
  8
BORDER
100
AcDbText
 10
16.362506
 20
0.174796
 30
0.0
 40
0.001
  1
3100
 41
1.440766
  7
M_STANDARD
 11
16.362506
 21
0.175296
 31
0.0
100
AcDbText
 73
     2
  0
TEXT
  5
6DB
100
AcDbEntity
 67
     1
  8
BORDER
100
AcDbText
 10
0.02664
 20
0.026667
 30
0.0
 40
0.08
  1
JULY 1998
 41
0.899335
  7
M_STANDARD
 11
0.02664
 21
0.066667
 31
0.0
100
AcDbText
 73
     2
  0
TEXT
  5
6DC
100
AcDbEntity
 67
     1
  8
BORDER
100
AcDbText
 10
0.011243
 20
10.588967
 30
0.0
 40
0.02
  1
1:10
 41
0.93861
  7
M_STANDARD
 11
0.011243
 21
10.598967
 31
0.0
100
AcDbText
 73
     2
  0
LWPOLYLINE
  5
6DD
102
{ACAD_REACTORS
330
6DF
102
}
100
AcDbEntity
 67
     1
  8
AM_VIEWS
100
AcDbPolyline
 90
        6
 70
     1
 43
0.0
 10
16.400001
 20
10.576788
 10
16.400001
 20
1.089386
 10
8.002461
 20
1.089386
 10
8.002461
 20
0.177386
 10
0.0
 20
0.177386
 10
0.0
 20
10.576788
1001
GENIUS_GENOREF_13
1005
6E2
  0
VIEWPORT
  5
6DF
102
{ACAD_XDICTIONARY
360
74A
102
}
100
AcDbEntity
 67
     1
  8
AM_VIEWS
100
AcDbViewport
 10
8.2
 20
5.377087
 30
0.0
 40
16.400001
 41
10.399402
 68
     2
 69
     2
1001
ACAD
1000
MVIEW
1002
{
1070
    16
1010
0.0
1020
0.0
1030
0.0
1010
0.0
1020
0.0
1030
1.0
1040
0.0
1040
103.99402
1040
-65.300035
1040
44.089006
1040
50.0
1040
0.0
1040
0.0
1070
     0
1070
   100
1070
     1
1070
     0
1070
     0
1070
     0
1070
     0
1070
     0
1040
0.0
1040
0.0
1040
0.0
1040
0.19685
1040
0.19685
1040
0.19685
1040
0.19685
1070
     0
1002
{
1002
}
1002
}
1001
GENIUS_GENOREF_13
1005
6E2
1001
GENIUS_GENSCREG_15
1000
PF
1040
10.0
1000
DF
1040
1.0
1000
MIN
1011
0.0
1021
0.177386
1031
0.0
1000
MAX
1011
16.400001
1021
10.576788
1031
0.0
1000
FLAGS
1070
     4
  0
ENDSEC
  0
SECTION
  2
OBJECTS
  0
DICTIONARY
  5
19
102
{ACAD_XDICTIONARY
360
73C
102
}
100
AcDbDictionary
  3
ACAD_GROUP
350
1A
  3
ACAD_LAYOUT
350
60E
  3
ACAD_MLINESTYLE
350
1B
  3
ACAD_PLOTSETTINGS
350
60F
  3
ACAD_PLOTSTYLENAME
350
60C
  3
ACDBHEADERROUNDTRIPXREC
350
717
  3
ACDBVARIABLEDICTIONARY
350
61F
  3
ACMDICTIONARY
350
62E
  3
AMG
350
616
  3
AMGSNAPSETTINGS
350
65D
  3
DWGPROPS
350
631
  0
DICTIONARY
  5
73E
100
AcDbDictionary
280
     1
  3
ACAD_XREC_ROUNDTRIP
360
73F
  0
DICTIONARY
  5
715
100
AcDbDictionary
280
     1
  3
ACAD_XREC_ROUNDTRIP
360
716
  0
DICTIONARY
  5
70B
100
AcDbDictionary
280
     1
  3
ACAD_XREC_ROUNDTRIP
360
70C
  0
DICTIONARY
  5
70D
100
AcDbDictionary
280
     1
  3
ACAD_XREC_ROUNDTRIP
360
70E
  0
DICTIONARY
  5
70F
100
AcDbDictionary
280
     1
  3
ACAD_XREC_ROUNDTRIP
360
710
  0
DICTIONARY
  5
711
100
AcDbDictionary
280
     1
  3
ACAD_XREC_ROUNDTRIP
360
712
  0
DICTIONARY
  5
713
100
AcDbDictionary
280
     1
  3
ACAD_XREC_ROUNDTRIP
360
714
  0
DICTIONARY
  5
74C
100
AcDbDictionary
280
     1
  3
ACAD_XREC_ROUNDTRIP
360
74D
  0
DICTIONARY
  5
73A
100
AcDbDictionary
280
     1
  3
ACAD_XREC_ROUNDTRIP
360
73B
  0
DICTIONARY
  5
6F2
100
AcDbDictionary
280
     1
  3
ACAD_INDEX
360
6F3
  3
ACAD_LAYOUTSELFREF
360
737
  0
DICTIONARY
  5
738
100
AcDbDictionary
280
     1
  3
ACAD_LAYOUTSELFREF
360
739
  0
DICTIONARY
  5
709
100
AcDbDictionary
280
     1
  3
ACAD_XREC_ROUNDTRIP
360
70A
  0
DICTIONARY
  5
750
100
AcDbDictionary
280
     1
  3
ACAD_XREC_ROUNDTRIP
360
751
  0
DICTIONARY
  5
748
100
AcDbDictionary
280
     1
  3
ACAD_XREC_ROUNDTRIP
360
749
  0
DICTIONARY
  5
74A
100
AcDbDictionary
280
     1
  3
ACAD_XREC_ROUNDTRIP
360
74B
  0
DICTIONARY
  5
73C
100
AcDbDictionary
280
     1
  3
ACAD_XREC_ROUNDTRIP
360
73D
  0
DICTIONARY
  5
1A
102
{ACAD_REACTORS
330
19
102
}
100
AcDbDictionary
  0
DICTIONARY
  5
60E
102
{ACAD_XDICTIONARY
360
740
102
}
102
{ACAD_REACTORS
330
19
102
}
100
AcDbDictionary
  3
LAYOUT1
350
611
  3
MODEL
350
610
  0
DICTIONARY
  5
1B
102
{ACAD_REACTORS
330
19
102
}
100
AcDbDictionary
  3
STANDARD
350
1C
  0
DICTIONARY
  5
60F
102
{ACAD_REACTORS
330
19
102
}
100
AcDbDictionary
  0
ACAD_PROXY_OBJECT
  5
60C
102
{ACAD_REACTORS
330
19
102
}
100
AcDbProxyObject
 90
      499
 91
      515
 93
       86
310
405010041939BDC9B585B0
350
60D
340
60D
 94
        0
  0
DICTIONARY
  5
717
102
{ACAD_REACTORS
330
19
102
}
100
AcDbDictionary
  3
CEPSNTYPE
350
721
  3
FINGERPRINTGUID
350
722
  3
HYPERLINKBASE
350
71A
  3
INSUNITS
350
720
  3
LAYOUTDICT
350
71C
  3
LWETCUNION
350
71F
  3
PLOTSETDICT
350
71D
  3
PLOTSTYLNAMDICT
350
71E
  3
PSVPSCALE
350
724
  3
PUCSBASE
350
727
  3
PUCSORGBACK
350
72D
  3
PUCSORGBOTTOM
350
729
  3
PUCSORGFRONT
350
72C
  3
PUCSORGLEFT
350
72A
  3
PUCSORGRIGHT
350
72B
  3
PUCSORGTOP
350
728
  3
PUCSORTHOREF
350
725
  3
PUCSORTHOVIEW
350
726
  3
STYLESHEET
350
71B
  3
TSTACKALIGN
350
718
  3
TSTACKSIZE
350
719
  3
UCSBASE
350
730
  3
UCSORGBACK
350
736
  3
UCSORGBOTTOM
350
732
  3
UCSORGFRONT
350
735
  3
UCSORGLEFT
350
733
  3
UCSORGRIGHT
350
734
  3
UCSORGTOP
350
731
  3
UCSORTHOREF
350
72E
  3
UCSORTHOVIEW
350
72F
  3
VERSIONGUID
350
723
  0
DICTIONARY
  5
61F
102
{ACAD_REACTORS
330
19
102
}
100
AcDbDictionary
  3
INDEXCTL
350
620
  0
DICTIONARY
  5
62E
102
{ACAD_XDICTIONARY
360
744
102
}
102
{ACAD_REACTORS
330
19
102
}
100
AcDbDictionary
  0
DICTIONARY
  5
616
102
{ACAD_XDICTIONARY
360
742
102
}
102
{ACAD_REACTORS
330
19
102
}
100
AcDbDictionary
  3
ACMGSETTINGS
350
617
  0
DICTIONARY
  5
65D
102
{ACAD_XDICTIONARY
360
746
102
}
102
{ACAD_REACTORS
330
19
102
}
100
AcDbDictionary
  0
XRECORD
  5
631
102
{ACAD_REACTORS
330
19
102
}
100
AcDbXrecord
  1
DWGPROPS COOKIE
  2

  3

  4

  6

  7

  8

  9

300
AmdtFileType=84
301
=
302
=
303
=
304
=
305
=
306
=
307
=
308
=
309
=
 40
0.000012
 41
2444971.833333
 42
2444971.833333
  1

 90
        1
  0
XRECORD
  5
73F
102
{ACAD_REACTORS
330
73E
102
}
100
AcDbXrecord
102
UCS
 74
     0
 71
     1
 10
0.0
 20
0.0
 30
0.0
 10
1.0
 20
0.0
 30
0.0
 10
0.0
 20
1.0
 30
0.0
146
0.0
 79
     0
102
VIEW
281
     0
  0
XRECORD
  5
716
102
{ACAD_REACTORS
330
715
102
}
100
AcDbXrecord
102
EXTNAMES
  1
*ACTIVE
  2
*Active
102
UCS
 74
     0
 71
     1
 10
0.0
 20
0.0
 30
0.0
 10
1.0
 20
0.0
 30
0.0
 10
0.0
 20
1.0
 30
0.0
146
0.0
 79
     0
102
VIEW
281
     0
  0
XRECORD
  5
70C
102
{ACAD_REACTORS
330
70B
102
}
100
AcDbXrecord
102
EXTNAMES
  1
AMCONSTR
  2
Amconstr
  0
XRECORD
  5
70E
102
{ACAD_REACTORS
330
70D
102
}
100
AcDbXrecord
102
EXTNAMES
  1
AM_ISO02W050X2
  2
AM_ISO02W050x2
  0
XRECORD
  5
710
102
{ACAD_REACTORS
330
70F
102
}
100
AcDbXrecord
102
EXTNAMES
  1
AM_ISO08W050X2
  2
AM_ISO08W050x2
  0
XRECORD
  5
712
102
{ACAD_REACTORS
330
711
102
}
100
AcDbXrecord
102
EXTNAMES
  1
AMZIGZAG
  2
Amzigzag
  0
XRECORD
  5
714
102
{ACAD_REACTORS
330
713
102
}
100
AcDbXrecord
102
EXTNAMES
  1
AMZIGZAG2
  2
Amzigzag2
  0
XRECORD
  5
74D
102
{ACAD_REACTORS
330
74C
102
}
100
AcDbXrecord
102
PLOTBIT
280
     0
102
LINEWEIGHT
280
     4
  0
XRECORD
  5
73B
102
{ACAD_REACTORS
330
73A
102
}
100
AcDbXrecord
102
ACADR14ROUNDTRIP
1000
DSTYLE
1002
{
1070
   289
 70
     0
1002
}
  0
DICTIONARY
  5
6F3
102
{ACAD_REACTORS
330
6F2
102
}
100
AcDbDictionary
  3
*A1
350
6F4
  0
XRECORD
  5
737
102
{ACAD_REACTORS
330
6F2
102
}
100
AcDbXrecord
340
A
  0
XRECORD
  5
739
102
{ACAD_REACTORS
330
738
102
}
100
AcDbXrecord
340
B
  0
XRECORD
  5
70A
102
{ACAD_REACTORS
330
709
102
}
100
AcDbXrecord
102
EXTNAMES
  1
LAYERS1
  2
layers1
  0
XRECORD
  5
751
102
{ACAD_REACTORS
330
750
102
}
100
AcDbXrecord
102
UCS
 74
     0
 71
     1
 10
0.0
 20
0.0
 30
0.0
 10
1.0
 20
0.0
 30
0.0
 10
0.0
 20
1.0
 30
0.0
146
0.0
 79
     0
102
VIEW
281
     0
102
NONRECTVIEWCLIP
330
6EF
102
NEWVIEWCONTROL
280
     4
  0
XRECORD
  5
749
102
{ACAD_REACTORS
330
748
102
}
100
AcDbXrecord
102
UCS
 74
     0
 71
     1
 10
0.0
 20
0.0
 30
0.0
 10
1.0
 20
0.0
 30
0.0
 10
0.0
 20
1.0
 30
0.0
146
0.0
 79
     0
102
VIEW
281
     0
102
NEWVIEWCONTROL
280
     4
  0
XRECORD
  5
74B
102
{ACAD_REACTORS
330
74A
102
}
100
AcDbXrecord
102
UCS
 74
     0
 71
     1
 10
0.0
 20
0.0
 30
0.0
 10
1.0
 20
0.0
 30
0.0
 10
0.0
 20
1.0
 30
0.0
146
0.0
 79
     0
102
VIEW
281
     0
102
NONRECTVIEWCLIP
330
6DD
102
NEWVIEWCONTROL
280
     4
  0
XRECORD
  5
73D
102
{ACAD_REACTORS
330
73C
102
}
100
AcDbXrecord
102
EXTNAMES
  1
ACDBVARIABLEDICTIONARY
  2
AcDbVariableDictionary
  1
ACMDICTIONARY
  2
AcmDictionary
  1
ACMESYSVARMANAGER
  2
AcmeSysVarManager
  0
DICTIONARY
  5
740
100
AcDbDictionary
280
     1
  3
ACAD_XREC_ROUNDTRIP
360
741
  0
ACAD_PROXY_OBJECT
  5
611
102
{ACAD_REACTORS
330
60E
102
}
100
AcDbProxyObject
 90
      499
 91
      517
 93
     1524
310
91C5C5C4D4E56415030325C4850204C617365724A657420355369204D582C0080000002033931C40000000380D24C71000000000038931C40000000000C24C7100000000606676714000000030333F1E90106557365723432A901416AA5439B5BDB9BD8DA1C9BDB594B98DD1891069074C61796F75743140501AB83BFDFEFF
310
7FF46FE7F3F9FCFFFFF46FC0000000002E0C1010A8543E3FDBC9502A6A6A000000000E2F476F8000000B3A737473E8B9EE2577666630402B2C979DF28DC95020
330
B
330
6B9
340
0
340
0
 94
        0
  0
ACAD_PROXY_OBJECT
  5
610
102
{ACAD_REACTORS
330
60E
102
}
100
AcDbProxyObject
 90
      499
 91
      517
 93
      780
310
91C5C5C4D4E56415030325C4850204C617365724A657420355369204D582C01AAAAAAAAA5439B5BDB9BD8DA1C9BDB594B98DD18A69054D6F64656C901A800000000000000000000000000000000000000000000A1000000000000008902A6A6AAAA0
330
A
330
0
340
0
340
0
 94
        0
  0
MLINESTYLE
  5
1C
102
{ACAD_REACTORS
330
1B
102
}
100
AcDbMlineStyle
  2
STANDARD
 70
     0
  3

 62
     0
 51
90.0
 52
90.0
 71
     2
 49
0.5
 62
   256
  6
BYLAYER
 49
-0.5
 62
   256
  6
BYLAYER
  0
ACAD_PROXY_OBJECT
  5
60D
102
{ACAD_REACTORS
330
60C
102
}
100
AcDbProxyObject
 90
      499
 91
      516
 93
        0
 94
        0
  0
XRECORD
  5
721
102
{ACAD_REACTORS
330
717
102
}
100
AcDbXrecord
 90
        0
  0
XRECORD
  5
722
102
{ACAD_REACTORS
330
717
102
}
100
AcDbXrecord
  1
{9D73AA1D-71DB-11D4-B0F6-000629A2B401}
  0
XRECORD
  5
71A
102
{ACAD_REACTORS
330
717
102
}
100
AcDbXrecord
  1

  0
XRECORD
  5
720
102
{ACAD_REACTORS
330
717
102
}
100
AcDbXrecord
 90
        0
  0
XRECORD
  5
71C
102
{ACAD_REACTORS
330
717
102
}
100
AcDbXrecord
340
60E
  0
XRECORD
  5
71F
102
{ACAD_REACTORS
330
717
102
}
100
AcDbXrecord
 90
    14877
  0
XRECORD
  5
71D
102
{ACAD_REACTORS
330
717
102
}
100
AcDbXrecord
340
60F
  0
XRECORD
  5
71E
102
{ACAD_REACTORS
330
717
102
}
100
AcDbXrecord
340
60C
  0
XRECORD
  5
724
102
{ACAD_REACTORS
330
717
102
}
100
AcDbXrecord
 40
0.1
  0
XRECORD
  5
727
102
{ACAD_REACTORS
330
717
102
}
100
AcDbXrecord
340
0
  0
XRECORD
  5
72D
102
{ACAD_REACTORS
330
717
102
}
100
AcDbXrecord
 10
0.0
 20
0.0
 30
0.0
  0
XRECORD
  5
729
102
{ACAD_REACTORS
330
717
102
}
100
AcDbXrecord
 10
0.0
 20
0.0
 30
0.0
  0
XRECORD
  5
72C
102
{ACAD_REACTORS
330
717
102
}
100
AcDbXrecord
 10
0.0
 20
0.0
 30
0.0
  0
XRECORD
  5
72A
102
{ACAD_REACTORS
330
717
102
}
100
AcDbXrecord
 10
0.0
 20
0.0
 30
0.0
  0
XRECORD
  5
72B
102
{ACAD_REACTORS
330
717
102
}
100
AcDbXrecord
 10
0.0
 20
0.0
 30
0.0
  0
XRECORD
  5
728
102
{ACAD_REACTORS
330
717
102
}
100
AcDbXrecord
 10
0.0
 20
0.0
 30
0.0
  0
XRECORD
  5
725
102
{ACAD_REACTORS
330
717
102
}
100
AcDbXrecord
340
0
  0
XRECORD
  5
726
102
{ACAD_REACTORS
330
717
102
}
100
AcDbXrecord
 70
     0
  0
XRECORD
  5
71B
102
{ACAD_REACTORS
330
717
102
}
100
AcDbXrecord
  1

  0
XRECORD
  5
718
102
{ACAD_REACTORS
330
717
102
}
100
AcDbXrecord
 90
        1
  0
XRECORD
  5
719
102
{ACAD_REACTORS
330
717
102
}
100
AcDbXrecord
 90
       70
  0
XRECORD
  5
730
102
{ACAD_REACTORS
330
717
102
}
100
AcDbXrecord
340
0
  0
XRECORD
  5
736
102
{ACAD_REACTORS
330
717
102
}
100
AcDbXrecord
 10
0.0
 20
0.0
 30
0.0
  0
XRECORD
  5
732
102
{ACAD_REACTORS
330
717
102
}
100
AcDbXrecord
 10
0.0
 20
0.0
 30
0.0
  0
XRECORD
  5
735
102
{ACAD_REACTORS
330
717
102
}
100
AcDbXrecord
 10
0.0
 20
0.0
 30
0.0
  0
XRECORD
  5
733
102
{ACAD_REACTORS
330
717
102
}
100
AcDbXrecord
 10
0.0
 20
0.0
 30
0.0
  0
XRECORD
  5
734
102
{ACAD_REACTORS
330
717
102
}
100
AcDbXrecord
 10
0.0
 20
0.0
 30
0.0
  0
XRECORD
  5
731
102
{ACAD_REACTORS
330
717
102
}
100
AcDbXrecord
 10
0.0
 20
0.0
 30
0.0
  0
XRECORD
  5
72E
102
{ACAD_REACTORS
330
717
102
}
100
AcDbXrecord
340
0
  0
XRECORD
  5
72F
102
{ACAD_REACTORS
330
717
102
}
100
AcDbXrecord
 70
     0
  0
XRECORD
  5
723
102
{ACAD_REACTORS
330
717
102
}
100
AcDbXrecord
  1
{9D73AA2B-71DB-11D4-B0F6-000629A2B401}
  0
DICTIONARYVAR
  5
620
102
{ACAD_REACTORS
330
61F
102
}
100
DictionaryVariables
280
     0
  1
1
  0
DICTIONARY
  5
744
100
AcDbDictionary
280
     1
  3
ACAD_XREC_ROUNDTRIP
360
745
  0
DICTIONARY
  5
742
100
AcDbDictionary
280
     1
  3
ACAD_XREC_ROUNDTRIP
360
743
  0
DICTIONARY
  5
617
102
{ACAD_REACTORS
330
616
102
}
100
AcDbDictionary
  3
DWGSETTINGS
350
618
  0
DICTIONARY
  5
746
100
AcDbDictionary
280
     1
  3
ACAD_XREC_ROUNDTRIP
360
747
  0
LAYER_INDEX
  5
6F4
102
{ACAD_REACTORS
330
6F3
102
}
100
AcDbIndex
 40
2451771.556362292
100
AcDbLayerIndex
  8
0
360
6F5
 90
    53
  8
10
360
6F6
 90
     0
  8
6
360
6F7
 90
     0
  8
M_KOMPAKTSCHRAFFUR
360
6F8
 90
     0
  8
M_SCHRAFFUR
360
6F9
 90
     0
  8
11
360
6FA
 90
     0
  8
M_BEMASSUNG
360
6FB
 90
     0
  8
4
360
6FC
 90
     0
  8
M_ERR
360
6FD
 90
     0
  8
BORDER
360
6FE
 90
     0
  8
CENTER1
360
6FF
 90
     0
  8
DASHDOT1
360
700
 90
     0
  8
DIM
360
701
 90
    85
  8
DOT1
360
702
 90
     0
  8
HATCH
360
703
 90
     0
  8
HIDDEN1
360
704
 90
    20
  8
OBJECT1
360
705
 90
    51
  8
PHANTOM1
360
706
 90
     0
  8
TEXT1
360
707
 90
   324
  8
AM_VIEWS
360
708
 90
     2
  0
XRECORD
  5
741
102
{ACAD_REACTORS
330
740
102
}
100
AcDbXrecord
102
EXTNAMES
  1
LAYOUT1
  2
Layout1
  1
MODEL
  2
Model
  0
XRECORD
  5
745
102
{ACAD_REACTORS
330
744
102
}
100
AcDbXrecord
102
EXTNAMES
  1
ACMBOMDATA
  2
AcmBOMDATA
  0
XRECORD
  5
743
102
{ACAD_REACTORS
330
742
102
}
100
AcDbXrecord
102
EXTNAMES
  1
ACMGSETTINGS
  2
AcMgSettings
  0
XRECORD
  5
618
102
{ACAD_REACTORS
330
617
102
}
100
AcDbXrecord
  1
VERSION
140
15.0
  1
PRODUCT
  2
AutoCAD Mechanical 2000
  0
XRECORD
  5
747
102
{ACAD_REACTORS
330
746
102
}
100
AcDbXrecord
102
EXTNAMES
  1
HATCH__1_
  2
HATCH (1)
  1
HATCH__2_
  2
HATCH (2)
  0
IDBUFFER
  5
6F5
100
AcDbIdBuffer
330
42A
330
42B
330
42C
330
4FA
330
4FB
330
31D
330
31E
330
339
330
33A
330
33B
330
33C
330
33D
330
33E
330
33F
330
3A2
330
3ED
330
3EE
330
3EF
330
3F0
330
3F1
330
3F2
330
3F3
330
3F4
330
3F5
330
3F6
330
3F7
330
406
330
407
330
40B
330
40C
330
40D
330
40E
330
40F
330
410
330
417
330
418
330
419
330
41A
330
41B
330
41C
330
41D
330
41E
330
41F
330
420
330
421
330
422
330
423
330
424
330
425
330
426
330
427
330
428
330
429
  0
IDBUFFER
  5
6F6
100
AcDbIdBuffer
  0
IDBUFFER
  5
6F7
100
AcDbIdBuffer
  0
IDBUFFER
  5
6F8
100
AcDbIdBuffer
  0
IDBUFFER
  5
6F9
100
AcDbIdBuffer
  0
IDBUFFER
  5
6FA
100
AcDbIdBuffer
  0
IDBUFFER
  5
6FB
100
AcDbIdBuffer
  0
IDBUFFER
  5
6FC
100
AcDbIdBuffer
  0
IDBUFFER
  5
6FD
100
AcDbIdBuffer
  0
IDBUFFER
  5
6FE
100
AcDbIdBuffer
  0
IDBUFFER
  5
6FF
100
AcDbIdBuffer
  0
IDBUFFER
  5
700
100
AcDbIdBuffer
  0
IDBUFFER
  5
701
100
AcDbIdBuffer
330
68F
330
690
330
691
330
692
330
693
330
694
330
695
330
696
330
697
330
698
330
699
330
69A
330
69B
330
69C
330
69D
330
69E
330
69F
330
6A0
330
6A1
330
6A2
330
6A3
330
6A4
330
6A5
330
6A6
330
6A7
330
6A8
330
6A9
330
6AA
330
6AB
330
6AC
330
6AD
330
6AE
330
6AF
330
6B0
330
6B1
330
6B2
330
6B3
330
4FF
330
500
330
501
330
509
330
50B
330
664
330
665
330
666
330
667
330
668
330
669
330
66A
330
66B
330
66C
330
66D
330
66E
330
66F
330
670
330
671
330
672
330
673
330
674
330
675
330
676
330
677
330
678
330
679
330
67A
330
67B
330
67C
330
67D
330
67E
330
67F
330
680
330
681
330
682
330
683
330
684
330
685
330
686
330
687
330
688
330
689
330
68A
330
68B
330
68C
330
68D
330
68E
  0
IDBUFFER
  5
702
100
AcDbIdBuffer
  0
IDBUFFER
  5
703
100
AcDbIdBuffer
  0
IDBUFFER
  5
704
100
AcDbIdBuffer
330
518
330
519
330
51A
330
51B
330
434
330
435
330
436
330
437
330
438
330
453
330
454
330
455
330
456
330
457
330
458
330
459
330
45A
330
515
330
516
330
517
  0
IDBUFFER
  5
705
100
AcDbIdBuffer
330
52D
330
52E
330
52F
330
42D
330
42E
330
42F
330
430
330
431
330
43F
330
440
330
441
330
442
330
443
330
444
330
445
330
446
330
447
330
448
330
449
330
44A
330
44B
330
44C
330
44D
330
44E
330
44F
330
450
330
451
330
452
330
50F
330
510
330
511
330
512
330
513
330
514
330
51C
330
51D
330
51E
330
51F
330
520
330
521
330
522
330
523
330
524
330
525
330
526
330
527
330
528
330
529
330
52A
330
52B
330
52C
  0
IDBUFFER
  5
706
100
AcDbIdBuffer
  0
IDBUFFER
  5
707
100
AcDbIdBuffer
330
3BB
330
3BC
330
3BD
330
3BE
330
3BF
330
3C0
330
3C1
330
3C2
330
3C3
330
3C4
330
3C5
330
3C6
330
3C7
330
3C8
330
3C9
330
3CA
330
3CB
330
3CC
330
3CD
330
3CE
330
3CF
330
3D0
330
3D1
330
3D2
330
3D3
330
3D4
330
3D5
330
3D6
330
3D7
330
3D8
330
3D9
330
3DA
330
3DB
330
3DC
330
3DD
330
3DE
330
3DF
330
3E0
330
3E1
330
3E2
330
3E3
330
3E4
330
3E5
330
3E6
330
3E7
330
3E8
330
3E9
330
3EA
330
3EB
330
3EC
330
3F9
330
3FA
330
3FB
330
3FC
330
3FD
330
3FE
330
3FF
330
405
330
408
330
409
330
40A
330
411
330
412
330
413
330
414
330
415
330
416
330
439
330
43A
330
43B
330
43C
330
43D
330
43E
330
4F7
330
4F8
330
4F9
330
4FC
330
4FD
330
4FE
330
502
330
508
330
50C
330
50D
330
50E
330
2B5
330
2B7
330
2B8
330
2B9
330
2BA
330
2BB
330
2BC
330
2BD
330
2BE
330
2CA
330
2CB
330
2CC
330
2CD
330
2CE
330
2CF
330
2D0
330
2D1
330
2D2
330
2D3
330
2D4
330
2D5
330
2D6
330
2D7
330
2D8
330
2D9
330
2DA
330
2DB
330
2DC
330
2DD
330
2DE
330
2DF
330
2E0
330
2E1
330
2E2
330
2E3
330
2E4
330
2E5
330
2E6
330
2E7
330
2E8
330
2E9
330
2EA
330
2EB
330
2EC
330
2ED
330
2EE
330
2EF
330
2F0
330
2F1
330
2F2
330
2F3
330
2F4
330
2F5
330
2F6
330
2F7
330
2F8
330
2F9
330
2FA
330
2FB
330
2FC
330
2FD
330
2FE
330
2FF
330
300
330
301
330
302
330
303
330
304
330
305
330
306
330
307
330
308
330
309
330
30A
330
30B
330
30C
330
30D
330
30E
330
30F
330
310
330
311
330
312
330
313
330
314
330
315
330
316
330
317
330
318
330
319
330
31A
330
31B
330
31C
330
31F
330
320
330
321
330
322
330
323
330
324
330
325
330
326
330
327
330
328
330
329
330
32A
330
32B
330
32C
330
32D
330
32E
330
32F
330
330
330
331
330
332
330
333
330
334
330
335
330
336
330
337
330
338
330
340
330
341
330
342
330
343
330
344
330
345
330
346
330
347
330
348
330
349
330
34A
330
34B
330
34C
330
34D
330
34E
330
34F
330
350
330
351
330
352
330
353
330
354
330
355
330
356
330
357
330
358
330
359
330
35A
330
35B
330
35C
330
35D
330
35E
330
35F
330
360
330
361
330
362
330
363
330
364
330
365
330
366
330
367
330
368
330
369
330
36A
330
36B
330
36C
330
36D
330
36E
330
36F
330
370
330
371
330
372
330
373
330
374
330
375
330
376
330
377
330
378
330
379
330
37A
330
37B
330
37C
330
37D
330
37E
330
37F
330
380
330
381
330
382
330
383
330
384
330
385
330
386
330
387
330
388
330
389
330
38A
330
38B
330
38C
330
38D
330
38E
330
38F
330
390
330
391
330
392
330
393
330
394
330
395
330
396
330
397
330
398
330
399
330
39A
330
39B
330
39C
330
39D
330
39E
330
39F
330
3A0
330
3A1
330
3A3
330
3A4
330
3A5
330
3A6
330
3A7
330
3A8
330
3A9
330
3AA
330
3AB
330
3AC
330
3AD
330
3AE
330
3AF
330
3B0
330
3B1
330
3B2
330
3B3
330
3B4
330
3B5
330
3B6
330
3B7
330
3B8
330
3B9
330
3BA
  0
IDBUFFER
  5
708
100
AcDbIdBuffer
330
6EF
330
6F0
  0
ENDSEC
  0
EOF
