999
DXF file: C:\Users\sesa63760\Dev\_Creo\CAD\MCADID0005472_3D-CAD\drw0001_3.dxf
999
Pro/ENGINEER 2019471 by Parametric Technology Corporation
  0
SECTION
  2
HEADER
  9
$ACADVER
  1
AC1024
  9
$DWGCODEPAGE
  3
ANSI_1252
  9
$EXTMAX
 10
68.6135840274
 20
97.0392116958
 30
0.0
  9
$EXTMIN
 10
0.0
 20
0.0
 30
0.0
  9
$LIMMIN
 10
0.0
 20
0.0
  9
$LIMMAX
 10
68.6135840274
 20
97.0392116958
  9
$VIEWCTR
 10
34.3067920137
 20
48.5196058479
  9
$VIEWSIZE
 40
97.0392116958
  9
$CLAYER
  8
0
  9
$LTSCALE
 40
6.3255189846
  9
$CELTYPE
  6
BYLAYER
  9
$DIMSCALE
 40
1.0
  9
$DIMASZ
 40
0.8168283813
  9
$DIMEXO
 40
1.0
  9
$DIMDLI
 40
4.3703585712
  9
$DIMEXE
 40
1.0
  9
$DIMCEN
 40
1.0350849248
  9
$DIMLFAC
 40
1.0
  9
$DIMBLK
  1
_FILLED
  9
$DIMALT
 70
0
  9
$DIMALTF
 40
0.0393700787
  9
$DIMTXT
 40
1.1435597338
  9
$DIMTOL
 70
1
  9
$DIMLIM
 70
0
  9
$DIMTFAC
 40
1.0
  9
$DIMTP
 40
0.01
  9
$DIMTM
 40
0.01
  9
$DIMGAP
 40
0.625
  9
$DIMDSEP
 70
46
  9
$AUNITS
 70
0
  9
$PDMODE
 70
3
  9
$PDSIZE
 40
0.3125
  9
$HANDSEED
  5
289
  9
$TILEMODE
 70
1
  9
$MEASUREMENT
 70
1
  9
$INSUNITS
 70
4
  0
ENDSEC
  0
SECTION
  2
CLASSES
  0
CLASS
  1
ACDBDICTIONARYWDFLT
  2
AcDbDictionaryWithDefault
  3
AutoCAD 2000
 90
0
 91
1
280
0
281
0
  0
CLASS
  1
ACDBPLACEHOLDER
  2
AcDbPlaceHolder
  3
AutoCAD 2000
 90
0
 91
1
280
0
281
0
  0
CLASS
  1
LAYOUT
  2
AcDbLayout
  3
AutoCAD 2000
 90
0
 91
0
280
0
281
0
  0
ENDSEC
  0
SECTION
  2
TABLES
  0
TABLE
  2
VPORT
  5
8
100
AcDbSymbolTable
 70
2
  0
VPORT
  5
1F4
100
AcDbSymbolTableRecord
100
AcDbViewportTableRecord
  2
*ACTIVE
 70
0
 10
0.0
 20
0.0
 11
1.0
 21
1.0
 12
34.3067920137
 22
48.5196058479
 13
0.0
 23
0.0
 14
1.0
 24
1.0
 15
0.0
 25
0.0
 16
0.0
 26
0.0
 36
1.0
 17
0.0
 27
0.0
 37
0.0
 40
97.0392116958
 41
0.7070707071
 42
50.0
 43
0.0
 44
0.0
 50
0.0
 51
0.0
 71
0
 72
100
 73
1
 74
1
 75
0
 76
0
 77
0
 78
0
  0
ENDTAB
  0
TABLE
  2
LTYPE
  5
5
100
AcDbSymbolTable
 70
6
  0
LTYPE
  5
14
100
AcDbSymbolTableRecord
100
AcDbLinetypeTableRecord
  2
BYBLOCK
 70
0
  3

 72
65
 73
0
 40
0.0
  0
LTYPE
  5
15
100
AcDbSymbolTableRecord
100
AcDbLinetypeTableRecord
  2
BYLAYER
 70
0
  3

 72
65
 73
0
 40
0.0
  0
LTYPE
  5
16
100
AcDbSymbolTableRecord
100
AcDbLinetypeTableRecord
  2
CONTINUOUS
 70
64
  3
Solid line
 72
65
 73
0
 40
0.0
  0
LTYPE
  5
1F5
100
AcDbSymbolTableRecord
100
AcDbLinetypeTableRecord
  2
CENTER
 70
64
  3
____ _ ____ _ ____ _ ____ _ ____ _ ____ _ ____
 72
65
 73
4
 40
0.6
 49
0.375
 74
0
 49
-0.075
 74
0
 49
0.075
 74
0
 49
-0.075
 74
0
  0
LTYPE
  5
1F6
100
AcDbSymbolTableRecord
100
AcDbLinetypeTableRecord
  2
HIDDEN
 70
64
  3
- - - - - - - - - - - - - - - - - - - -
 72
65
 73
2
 40
0.2
 49
0.1
 74
0
 49
-0.1
 74
0
  0
LTYPE
  5
1F7
100
AcDbSymbolTableRecord
100
AcDbLinetypeTableRecord
  2
PHANTOM
 70
64
  3
_____ _ _ _____ _ _ _____ _ _ _____
 72
65
 73
6
 40
0.8
 49
0.45
 74
0
 49
-0.05
 74
0
 49
0.1
 74
0
 49
-0.05
 74
0
 49
0.1
 74
0
 49
-0.05
 74
0
  0
LTYPE
  5
1F8
100
AcDbSymbolTableRecord
100
AcDbLinetypeTableRecord
  2
DOT
 70
64
  3
. . . . . . . . . . . . . . . . . . . .
 72
65
 73
2
 40
0.2
 49
0.1
 74
0
 49
-0.1
 74
0
  0
LTYPE
  5
1F9
100
AcDbSymbolTableRecord
100
AcDbLinetypeTableRecord
  2
DASHED
 70
64
  3
- - - - - - - - - - - - - - - - - - - -
 72
65
 73
2
 40
0.2
 49
0.1
 74
0
 49
-0.1
 74
0
  0
ENDTAB
  0
TABLE
  2
LAYER
  5
2
100
AcDbSymbolTable
 70
36
  0
LAYER
  5
10
100
AcDbSymbolTableRecord
100
AcDbLayerTableRecord
  2
0
 70
0
 62
7
  6
CONTINUOUS
370
-3
390
F
  0
LAYER
  5
1FA
100
AcDbSymbolTableRecord
100
AcDbLayerTableRecord
  2
DEFAULT_1
 70
0
 62
7
  6
CENTER
370
-3
390
F
  0
LAYER
  5
1FB
100
AcDbSymbolTableRecord
100
AcDbLayerTableRecord
  2
DEFAULT_2
 70
0
 62
7
  6
HIDDEN
370
-3
390
F
  0
LAYER
  5
1FC
100
AcDbSymbolTableRecord
100
AcDbLayerTableRecord
  2
DEFAULT_3
 70
0
 62
7
  6
PHANTOM
370
-3
390
F
  0
LAYER
  5
1FD
100
AcDbSymbolTableRecord
100
AcDbLayerTableRecord
  2
00_COMPONENTS
 70
0
 62
7
  6
CONTINUOUS
370
-3
390
F
  0
LAYER
  5
1FE
100
AcDbSymbolTableRecord
100
AcDbLayerTableRecord
  2
01_1_DEFAULT_DATUMS
 70
0
 62
7
  6
CONTINUOUS
370
-3
390
F
  0
LAYER
  5
1FF
100
AcDbSymbolTableRecord
100
AcDbLayerTableRecord
  2
01_PLANES
 70
0
 62
7
  6
CONTINUOUS
370
-3
390
F
  0
LAYER
  5
200
100
AcDbSymbolTableRecord
100
AcDbLayerTableRecord
  2
02_COORD_SYS
 70
0
 62
7
  6
CONTINUOUS
370
-3
390
F
  0
LAYER
  5
201
100
AcDbSymbolTableRecord
100
AcDbLayerTableRecord
  2
03_AXES
 70
0
 62
7
  6
CONTINUOUS
370
-3
390
F
  0
LAYER
  5
202
100
AcDbSymbolTableRecord
100
AcDbLayerTableRecord
  2
04_POINTS
 70
0
 62
7
  6
CONTINUOUS
370
-3
390
F
  0
LAYER
  5
203
100
AcDbSymbolTableRecord
100
AcDbLayerTableRecord
  2
05_CURVES
 70
0
 62
7
  6
CONTINUOUS
370
-3
390
F
  0
LAYER
  5
204
100
AcDbSymbolTableRecord
100
AcDbLayerTableRecord
  2
06_SURFS
 70
0
 62
7
  6
CONTINUOUS
370
-3
390
F
  0
LAYER
  5
205
100
AcDbSymbolTableRecord
100
AcDbLayerTableRecord
  2
07_COSMETICS
 70
0
 62
7
  6
CONTINUOUS
370
-3
390
F
  0
LAYER
  5
206
100
AcDbSymbolTableRecord
100
AcDbLayerTableRecord
  2
10_NOTES
 70
0
 62
7
  6
CONTINUOUS
370
-3
390
F
  0
LAYER
  5
207
100
AcDbSymbolTableRecord
100
AcDbLayerTableRecord
  2
11_NOTES_PUB
 70
0
 62
7
  6
CONTINUOUS
370
-3
390
F
  0
LAYER
  5
208
100
AcDbSymbolTableRecord
100
AcDbLayerTableRecord
  2
13_REF_GTOL
 70
0
 62
7
  6
CONTINUOUS
370
-3
390
F
  0
LAYER
  5
209
100
AcDbSymbolTableRecord
100
AcDbLayerTableRecord
  2
16_MISC
 70
0
 62
7
  6
CONTINUOUS
370
-3
390
F
  0
LAYER
  5
20A
100
AcDbSymbolTableRecord
100
AcDbLayerTableRecord
  2
17_NO_PRINT
 70
0
 62
7
  6
CONTINUOUS
370
-3
390
F
  0
LAYER
  5
20B
100
AcDbSymbolTableRecord
100
AcDbLayerTableRecord
  2
18_DATUM_CAMS_JOINTS
 70
0
 62
7
  6
CONTINUOUS
370
-3
390
F
  0
LAYER
  5
20C
100
AcDbSymbolTableRecord
100
AcDbLayerTableRecord
  2
19_DATUM_FUNCTIONAL
 70
0
 62
7
  6
CONTINUOUS
370
-3
390
F
  0
LAYER
  5
20D
100
AcDbSymbolTableRecord
100
AcDbLayerTableRecord
  2
20_DATUM_KINEMATIC_SCHEME
 70
0
 62
7
  6
CONTINUOUS
370
-3
390
F
  0
ENDTAB
  0
TABLE
  2
STYLE
  5
3
100
AcDbSymbolTable
 70
1
  0
STYLE
  5
11
100
AcDbSymbolTableRecord
100
AcDbTextStyleTableRecord
  2
STANDARD
 70
0
 40
0.0
 41
1.0
 50
0.0
 71
0
 42
0.2
  3
ARIAL.TTF
  4

  0
STYLE
  5
20E
100
AcDbSymbolTableRecord
100
AcDbTextStyleTableRecord
  2
TEXTSTYLE_1
 70
0
 40
0.0
 41
0.8
 50
0.0
 71
0
 42
0.2
  3
gdt
  4

  0
ENDTAB
  0
TABLE
  2
VIEW
  5
6
100
AcDbSymbolTable
 70
0
  0
ENDTAB
  0
TABLE
  2
UCS
  5
7
100
AcDbSymbolTable
 70
0
  0
ENDTAB
  0
TABLE
  2
APPID
  5
9
100
AcDbSymbolTable
 70
1
  0
APPID
  5
20F
100
AcDbSymbolTableRecord
100
AcDbRegAppTableRecord
  2
ACAD
 70
0
  0
ENDTAB
  0
TABLE
  2
BLOCK_RECORD
  5
1
100
AcDbSymbolTable
 70
0
  0
BLOCK_RECORD
  5
210
100
AcDbSymbolTableRecord
100
AcDbBlockTableRecord
  2
*Model_Space
  0
BLOCK_RECORD
  5
211
100
AcDbSymbolTableRecord
100
AcDbBlockTableRecord
  2
*Paper_Space
  0
BLOCK_RECORD
  5
212
100
AcDbSymbolTableRecord
100
AcDbBlockTableRecord
  2
_FILLED
  0
ENDTAB
  0
TABLE
  2
DIMSTYLE
  5
A
100
AcDbSymbolTable
 70
1
100
AcDbDimStyleTable
 71
0
  0
DIMSTYLE
105
213
100
AcDbSymbolTableRecord
100
AcDbDimStyleTableRecord
  2
STANDARD
 70
0
  3

  4

 40
1.0
 41
0.8168283813
 42
1.0
 43
0.38
 44
1.0
 45
0.0
 46
0.0
 47
0.01
 48
0.01
140
1.1435597338
141
0.09
142
0.0
143
25.4
144
1.0
145
0.0
146
1.0
147
0.625
 71
1
 72
0
 73
0
 74
0
 75
0
 76
0
 77
1
 78
8
 79
2
170
0
171
1
172
0
173
0
174
0
175
0
176
0
177
0
178
0
270
2
179
2
271
2
272
2
273
2
274
2
275
0
280
0
281
0
282
0
283
1
284
8
285
0
286
0
287
3
288
0
340
11
278
46
341
212
342
212
343
212
344
212
  0
ENDTAB
  0
ENDSEC
  0
SECTION
  2
BLOCKS
  0
BLOCK
  5
20
100
AcDbEntity
  8
0
100
AcDbBlockBegin
  2
*Model_Space
 70
0
 10
0.0
 20
0.0
 30
0.0
  3
*Model_Space
  1

  0
ENDBLK
  5
21
100
AcDbEntity
  8
0
100
AcDbBlockEnd
  0
BLOCK
  5
1C
100
AcDbEntity
  8
0
100
AcDbBlockBegin
  2
*Paper_Space
 70
0
 10
0.0
 20
0.0
 30
0.0
  3
*Paper_Space
  1

  0
ENDBLK
  5
1D
100
AcDbEntity
  8
0
100
AcDbBlockEnd
  0
BLOCK
  5
214
100
AcDbEntity
  8
0
100
AcDbBlockBegin
  2
_FILLED
 70
64
 10
0.0
 20
0.0
  3
_FILLED
  1

  0
SOLID
  5
215
100
AcDbEntity
  8
0
  6
BYBLOCK
 62
0
100
AcDbTrace
 10
0.0
 20
0.0
 11
-1.0
 21
0.25
 12
-1.0
 22
-0.25
 13
-1.0
 23
-0.25
  0
ENDBLK
  5
216
100
AcDbEntity
  8
0
  6
BYBLOCK
 62
0
100
AcDbBlockEnd
  0
ENDSEC
  0
SECTION
  2
ENTITIES
  0
LINE
  5
217
100
AcDbEntity
  8
0
100
AcDbLine
 62
7
  6
BYLAYER
 10
8.1170019458
 20
53.6571559378
 11
8.1170019458
 21
43.8571559378
  0
LINE
  5
218
100
AcDbEntity
  8
0
100
AcDbLine
 62
7
  6
BYLAYER
 10
12.238218075
 20
53.6571559378
 11
12.238218075
 21
43.8571559378
  0
LINE
  5
219
100
AcDbEntity
  8
0
100
AcDbLine
 62
7
  6
BYLAYER
 10
14.2329359565
 20
52.2193847988
 11
14.2212878679
 21
45.9177365444
  0
LINE
  5
21A
100
AcDbEntity
  8
0
100
AcDbLine
 62
7
  6
BYLAYER
 10
15.2317477416
 20
45.9571559378
 11
15.2013058102
 21
52.2240883439
  0
LINE
  5
21B
100
AcDbEntity
  8
0
100
AcDbLine
 62
7
  6
BYLAYER
 10
17.5648541419
 20
45.9339780815
 11
17.5443814798
 21
52.2354690804
  0
LINE
  5
21C
100
AcDbEntity
  8
0
100
AcDbLine
 62
7
  6
BYLAYER
 10
18.104024252
 20
43.8571559378
 11
18.104024252
 21
53.6571559378
  0
LINE
  5
21D
100
AcDbEntity
  8
0
100
AcDbLine
 62
7
  6
BYLAYER
 10
22.3170019458
 20
33.8071559378
 11
32.1170019458
 21
33.8071559378
  0
LINE
  5
21E
100
AcDbEntity
  8
0
100
AcDbLine
 62
7
  6
BYLAYER
 10
48.3470019458
 20
34.0071559378
 11
42.3470019458
 21
34.0071559378
  0
LINE
  5
21F
100
AcDbEntity
  8
0
100
AcDbLine
 62
7
  6
BYLAYER
 10
38.1170019458
 20
34.0921559378
 11
32.1170019458
 21
34.0921559378
  0
LINE
  5
220
100
AcDbEntity
  8
0
100
AcDbLine
 62
7
  6
BYLAYER
 10
58.9910261808
 20
34.5074089857
 11
55.8470019458
 21
34.5074089857
  0
LINE
  5
221
100
AcDbEntity
  8
0
100
AcDbLine
 62
7
  6
BYLAYER
 10
55.8470019458
 20
34.5163243633
 11
52.3470019458
 21
34.5163243633
  0
LINE
  5
222
100
AcDbEntity
  8
0
100
AcDbLine
 62
7
  6
BYLAYER
 10
22.3170019458
 20
63.7071559378
 11
22.3170019458
 21
51.1890842632
  0
LINE
  5
223
100
AcDbEntity
  8
0
100
AcDbLine
 62
7
  6
BYLAYER
 10
22.3170019458
 20
46.1246941855
 11
22.3170019458
 21
33.8071559378
  0
LINE
  5
224
100
AcDbEntity
  8
0
100
AcDbLine
 62
7
  6
BYLAYER
 10
22.7673351558
 20
63.7071559378
 11
22.7673351558
 21
57.4071559378
  0
LINE
  5
225
100
AcDbEntity
  8
0
100
AcDbLine
 62
7
  6
BYLAYER
 10
22.7673351558
 20
40.1071559378
 11
22.7673351558
 21
33.8071559378
  0
LINE
  5
226
100
AcDbEntity
  8
0
100
AcDbLine
 62
7
  6
BYLAYER
 10
23.0560102904
 20
57.4071559378
 11
23.0560102904
 21
55.4071559378
  0
LINE
  5
227
100
AcDbEntity
  8
0
100
AcDbLine
 62
7
  6
BYLAYER
 10
52.3470019458
 20
35.1823969992
 11
50.8470019458
 21
35.1823969992
  0
LINE
  5
228
100
AcDbEntity
  8
0
100
AcDbLine
 62
7
  6
BYLAYER
 10
50.8470019458
 20
36.1071559378
 11
48.3470019458
 21
36.1071559378
  0
LINE
  5
229
100
AcDbEntity
  8
0
100
AcDbLine
 62
7
  6
BYLAYER
 10
23.6333605596
 20
42.1071559378
 11
23.6333605596
 21
40.1071559378
  0
LINE
  5
22A
100
AcDbEntity
  8
0
100
AcDbLine
 62
7
  6
BYLAYER
 10
24.8170019458
 20
50.9837531021
 11
24.8170019458
 21
46.5305588379
  0
LINE
  5
22B
100
AcDbEntity
  8
0
100
AcDbLine
 62
7
  6
BYLAYER
 10
38.3170019458
 20
37.1321559378
 11
38.1170019458
 21
37.1321559378
  0
LINE
  5
22C
100
AcDbEntity
  8
0
100
AcDbLine
 62
7
  6
BYLAYER
 10
32.1170019458
 20
37.8921559378
 11
38.1170019458
 21
37.8921559378
  0
LINE
  5
22D
100
AcDbEntity
  8
0
100
AcDbLine
 62
7
  6
BYLAYER
 10
42.3470019458
 20
38.6298958692
 11
38.6964181081
 21
38.6298958692
  0
LINE
  5
22E
100
AcDbEntity
  8
0
100
AcDbLine
 62
7
  6
BYLAYER
 10
26.9885843412
 20
49.4736905058
 11
26.9885843412
 21
48.0406214563
  0
LINE
  5
22F
100
AcDbEntity
  8
0
100
AcDbLine
 62
7
  6
BYLAYER
 10
24.8170019458
 20
46.5305588379
 11
23.6333605596
 21
42.1071559378
  0
LINE
  5
230
100
AcDbEntity
  8
0
100
AcDbLine
 62
7
  6
BYLAYER
 10
38.6964181081
 20
38.7573335152
 11
38.3170019458
 21
38.7573335152
  0
LINE
  5
231
100
AcDbEntity
  8
0
100
AcDbLine
 62
7
  6
BYLAYER
 10
22.7673351558
 20
40.1071559378
 11
28.6170019458
 21
40.1071559378
  0
LINE
  5
232
100
AcDbEntity
  8
0
100
AcDbLine
 62
7
  6
BYLAYER
 10
38.3170019458
 20
40.2195918824
 11
38.1170019458
 21
40.2195918824
  0
LINE
  5
233
100
AcDbEntity
  8
0
100
AcDbLine
 62
7
  6
BYLAYER
 10
23.6333605596
 20
55.4071559378
 11
24.8170019458
 21
50.9837531021
  0
LINE
  5
234
100
AcDbEntity
  8
0
100
AcDbLine
 62
7
  6
BYLAYER
 10
28.6170019458
 20
33.8071559378
 11
28.6170019458
 21
63.7071559378
  0
LINE
  5
235
100
AcDbEntity
  8
0
100
AcDbLine
 62
7
  6
BYLAYER
 10
26.9885843412
 20
49.4736905058
 11
28.6170019458
 21
51.1997895405
  0
LINE
  5
236
100
AcDbEntity
  8
0
100
AcDbLine
 62
7
  6
BYLAYER
 10
38.1170019458
 20
42.0071559378
 11
32.1170019458
 21
42.0071559378
  0
LINE
  5
237
100
AcDbEntity
  8
0
100
AcDbLine
 62
7
  6
BYLAYER
 10
23.6333605596
 20
42.1071559378
 11
28.6170019458
 21
42.1071559378
  0
LINE
  5
238
100
AcDbEntity
  8
0
100
AcDbLine
 62
7
  6
BYLAYER
 10
28.6170019458
 20
46.3145223963
 11
26.9885843412
 21
48.0406214563
  0
LINE
  5
239
100
AcDbEntity
  8
0
100
AcDbLine
 62
7
  6
BYLAYER
 10
30.1170019458
 20
33.8071559378
 11
30.1170019458
 21
46.656129898
  0
LINE
  5
23A
100
AcDbEntity
  8
0
100
AcDbLine
 62
7
  6
BYLAYER
 10
30.1170019458
 20
50.656129898
 11
30.1170019458
 21
63.7071559378
  0
LINE
  5
23B
100
AcDbEntity
  8
0
100
AcDbLine
 62
7
  6
BYLAYER
 10
8.1170019458
 20
43.8571559378
 11
22.3170019458
 21
43.8571559378
  0
LINE
  5
23C
100
AcDbEntity
  8
0
100
AcDbLine
 62
7
  6
BYLAYER
 10
32.1170019458
 20
33.8071559378
 11
32.1170019458
 21
63.7071559378
  0
LINE
  5
23D
100
AcDbEntity
  8
0
100
AcDbLine
 62
7
  6
BYLAYER
 10
40.4070110246
 20
46.656129898
 11
40.4610042717
 21
46.6665618138
  0
LINE
  5
23E
100
AcDbEntity
  8
0
100
AcDbLine
 62
7
  6
BYLAYER
 10
15.2317477416
 20
45.9571559378
 11
14.2212878679
 21
45.9177365444
  0
LINE
  5
23F
100
AcDbEntity
  8
0
100
AcDbLine
 62
7
  6
BYLAYER
 10
14.2212878679
 20
45.9177365444
 11
17.5648541419
 21
45.9339780815
  0
LINE
  5
240
100
AcDbEntity
  8
0
100
AcDbLine
 62
7
  6
BYLAYER
 10
32.1170019458
 20
45.8071559378
 11
38.1170019458
 21
45.8071559378
  0
LINE
  5
241
100
AcDbEntity
  8
0
100
AcDbLine
 62
7
  6
BYLAYER
 10
22.0845366255
 20
45.9251526608
 11
19.6736847308
 21
45.9251526608
  0
LINE
  5
242
100
AcDbEntity
  8
0
100
AcDbLine
 62
7
  6
BYLAYER
 10
17.5648541419
 20
45.9571559378
 11
15.2317477416
 21
45.9571559378
  0
LINE
  5
243
100
AcDbEntity
  8
0
100
AcDbLine
 62
7
  6
BYLAYER
 10
38.1170019458
 20
46.1246666215
 11
38.3170019458
 21
46.1246666215
  0
LINE
  5
244
100
AcDbEntity
  8
0
100
AcDbLine
 62
7
  6
BYLAYER
 10
40.4070110246
 20
46.656129898
 11
38.1170019458
 21
46.656129898
  0
LINE
  5
245
100
AcDbEntity
  8
0
100
AcDbLine
 62
7
  6
BYLAYER
 10
32.1170019458
 20
46.656129898
 11
28.6170019458
 21
46.656129898
  0
LINE
  5
246
100
AcDbEntity
  8
0
100
AcDbLine
 62
7
  6
BYLAYER
 10
23.7811148324
 20
46.856129898
 11
22.6057187563
 21
46.856129898
  0
LINE
  5
247
100
AcDbEntity
  8
0
100
AcDbLine
 62
7
  6
BYLAYER
 10
26.9885843412
 20
48.0406214563
 11
24.8170019458
 21
48.0406214563
  0
LINE
  5
248
100
AcDbEntity
  8
0
100
AcDbLine
 62
7
  6
BYLAYER
 10
24.8170019458
 20
49.4736905058
 11
26.9885843412
 21
49.4736905058
  0
LINE
  5
249
100
AcDbEntity
  8
0
100
AcDbLine
 62
7
  6
BYLAYER
 10
23.9056341433
 20
50.456129898
 11
22.6062262272
 21
50.456129898
  0
LINE
  5
24A
100
AcDbEntity
  8
0
100
AcDbLine
 62
7
  6
BYLAYER
 10
40.4070110246
 20
50.656129898
 11
38.1170019458
 21
50.656129898
  0
LINE
  5
24B
100
AcDbEntity
  8
0
100
AcDbLine
 62
7
  6
BYLAYER
 10
32.1170019458
 20
50.656129898
 11
28.6170019458
 21
50.656129898
  0
LINE
  5
24C
100
AcDbEntity
  8
0
100
AcDbLine
 62
7
  6
BYLAYER
 10
38.1170019458
 20
34.0921559378
 11
38.1170019458
 21
63.4221559378
  0
LINE
  5
24D
100
AcDbEntity
  8
0
100
AcDbLine
 62
7
  6
BYLAYER
 10
38.3170019458
 20
37.1321559378
 11
38.3170019458
 21
46.656129898
  0
LINE
  5
24E
100
AcDbEntity
  8
0
100
AcDbLine
 62
7
  6
BYLAYER
 10
38.3170019458
 20
50.656129898
 11
38.3170019458
 21
60.3821623745
  0
LINE
  5
24F
100
AcDbEntity
  8
0
100
AcDbLine
 62
7
  6
BYLAYER
 10
38.6964181081
 20
58.8844160063
 11
38.6964181081
 21
50.656129898
  0
LINE
  5
250
100
AcDbEntity
  8
0
100
AcDbLine
 62
7
  6
BYLAYER
 10
38.6964181081
 20
46.656129898
 11
38.6964181081
 21
38.6298958692
  0
LINE
  5
251
100
AcDbEntity
  8
0
100
AcDbLine
 62
7
  6
BYLAYER
 10
41.4880673042
 20
47.0644754306
 11
40.4610042717
 21
46.6665618138
  0
LINE
  5
252
100
AcDbEntity
  8
0
100
AcDbLine
 62
7
  6
BYLAYER
 10
17.5443814798
 20
52.2354690804
 11
14.2329359565
 21
52.2193847988
  0
LINE
  5
253
100
AcDbEntity
  8
0
100
AcDbLine
 62
7
  6
BYLAYER
 10
22.0845366255
 20
51.3871071351
 11
19.6736847308
 21
51.3871071351
  0
LINE
  5
254
100
AcDbEntity
  8
0
100
AcDbLine
 62
7
  6
BYLAYER
 10
38.3170019458
 20
51.389645254
 11
38.1170019458
 21
51.389645254
  0
LINE
  5
255
100
AcDbEntity
  8
0
100
AcDbLine
 62
7
  6
BYLAYER
 10
38.1170019458
 20
51.7071559378
 11
32.1170019458
 21
51.7071559378
  0
LINE
  5
256
100
AcDbEntity
  8
0
100
AcDbLine
 62
7
  6
BYLAYER
 10
40.4610042717
 20
50.6456979821
 11
40.4070110246
 21
50.656129898
  0
LINE
  5
257
100
AcDbEntity
  8
0
100
AcDbLine
 62
7
  6
BYLAYER
 10
41.4880673042
 20
50.2477843653
 11
40.4610042717
 21
50.6456979821
  0
LINE
  5
258
100
AcDbEntity
  8
0
100
AcDbLine
 62
7
  6
BYLAYER
 10
42.3356925403
 20
48.656129898
 11
41.6461705046
 21
47.2484655262
  0
LINE
  5
259
100
AcDbEntity
  8
0
100
AcDbLine
 62
7
  6
BYLAYER
 10
41.4880673042
 20
47.0644754306
 11
41.6461705046
 21
47.2484655262
  0
LINE
  5
25A
100
AcDbEntity
  8
0
100
AcDbLine
 62
7
  6
BYLAYER
 10
22.3170019458
 20
53.6571559378
 11
8.1170019458
 21
53.6571559378
  0
LINE
  5
25B
100
AcDbEntity
  8
0
100
AcDbLine
 62
7
  6
BYLAYER
 10
41.6461705046
 20
50.0637942697
 11
41.4880673042
 21
50.2477843653
  0
LINE
  5
25C
100
AcDbEntity
  8
0
100
AcDbLine
 62
7
  6
BYLAYER
 10
42.3356925403
 20
48.656129898
 11
41.6461705046
 21
50.0637942697
  0
LINE
  5
25D
100
AcDbEntity
  8
0
100
AcDbLine
 62
7
  6
BYLAYER
 10
42.3470019458
 20
63.5071559378
 11
42.3470019458
 21
34.0071559378
  0
LINE
  5
25E
100
AcDbEntity
  8
0
100
AcDbLine
 62
7
  6
BYLAYER
 10
28.6170019458
 20
55.4071559378
 11
23.0560102904
 21
55.4071559378
  0
LINE
  5
25F
100
AcDbEntity
  8
0
100
AcDbLine
 62
7
  6
BYLAYER
 10
32.1170019458
 20
55.5071559378
 11
38.1170019458
 21
55.5071559378
  0
LINE
  5
260
100
AcDbEntity
  8
0
100
AcDbLine
 62
7
  6
BYLAYER
 10
38.1170019458
 20
57.2947199931
 11
38.3170019458
 21
57.2947199931
  0
LINE
  5
261
100
AcDbEntity
  8
0
100
AcDbLine
 62
7
  6
BYLAYER
 10
28.6170019458
 20
57.4071559378
 11
22.7673351558
 21
57.4071559378
  0
LINE
  5
262
100
AcDbEntity
  8
0
100
AcDbLine
 62
7
  6
BYLAYER
 10
38.3170019458
 20
58.7569783603
 11
38.6964181081
 21
58.7569783603
  0
LINE
  5
263
100
AcDbEntity
  8
0
100
AcDbLine
 62
7
  6
BYLAYER
 10
38.6964181081
 20
58.8844160063
 11
42.3470019458
 21
58.8844160063
  0
LINE
  5
264
100
AcDbEntity
  8
0
100
AcDbLine
 62
7
  6
BYLAYER
 10
38.1170019458
 20
59.6221559378
 11
32.1170019458
 21
59.6221559378
  0
LINE
  5
265
100
AcDbEntity
  8
0
100
AcDbLine
 62
7
  6
BYLAYER
 10
38.1170019458
 20
60.3821623745
 11
38.3170019458
 21
60.3821623745
  0
LINE
  5
266
100
AcDbEntity
  8
0
100
AcDbLine
 62
7
  6
BYLAYER
 10
48.3470019458
 20
61.4071559378
 11
50.8470019458
 21
61.4071559378
  0
LINE
  5
267
100
AcDbEntity
  8
0
100
AcDbLine
 62
7
  6
BYLAYER
 10
48.3470019458
 20
34.0071559378
 11
48.3470019458
 21
63.5071559378
  0
LINE
  5
268
100
AcDbEntity
  8
0
100
AcDbLine
 62
7
  6
BYLAYER
 10
50.8470019458
 20
62.3319148763
 11
52.3470019458
 21
62.3319148763
  0
LINE
  5
269
100
AcDbEntity
  8
0
100
AcDbLine
 62
7
  6
BYLAYER
 10
52.3470019458
 20
62.9979875122
 11
55.8470019458
 21
62.9979875122
  0
LINE
  5
26A
100
AcDbEntity
  8
0
100
AcDbLine
 62
7
  6
BYLAYER
 10
55.8470019458
 20
63.0069028898
 11
58.9910261808
 21
63.0069028898
  0
LINE
  5
26B
100
AcDbEntity
  8
0
100
AcDbLine
 62
7
  6
BYLAYER
 10
32.1170019458
 20
63.4221559378
 11
38.1170019458
 21
63.4221559378
  0
LINE
  5
26C
100
AcDbEntity
  8
0
100
AcDbLine
 62
7
  6
BYLAYER
 10
50.8470019458
 20
62.3319148763
 11
50.8470019458
 21
35.1823969992
  0
LINE
  5
26D
100
AcDbEntity
  8
0
100
AcDbLine
 62
7
  6
BYLAYER
 10
42.3470019458
 20
63.5071559378
 11
48.3470019458
 21
63.5071559378
  0
LINE
  5
26E
100
AcDbEntity
  8
0
100
AcDbLine
 62
7
  6
BYLAYER
 10
32.1170019458
 20
63.7071559378
 11
22.3170019458
 21
63.7071559378
  0
LINE
  5
26F
100
AcDbEntity
  8
0
100
AcDbLine
 62
7
  6
BYLAYER
 10
52.3470019458
 20
62.9979875122
 11
52.3470019458
 21
34.5163243633
  0
LINE
  5
270
100
AcDbEntity
  8
0
100
AcDbLine
 62
7
  6
BYLAYER
 10
55.8470019458
 20
63.0069028898
 11
55.8470019458
 21
34.5074089857
  0
LINE
  5
271
100
AcDbEntity
  8
0
100
AcDbLine
 62
7
  6
BYLAYER
 10
58.9910261808
 20
34.5074089857
 11
58.9910261808
 21
63.0069028898
  0
LINE
  5
272
100
AcDbEntity
  8
0
100
AcDbLine
 62
7
  6
BYLAYER
 10
59.9274466672
 20
35.1560244661
 11
59.9274466672
 21
62.3582874094
  0
ARC
  5
273
100
AcDbEntity
  8
0
100
AcDbCircle
 62
7
  6
BYLAYER
 10
23.7093365047
 20
48.7571559378
 40
38.6877536315
100
AcDbArc
 50
339.4171360775
 51
20.5828639225
  0
ARC
  5
274
100
AcDbEntity
  8
0
100
AcDbCircle
 62
7
  6
BYLAYER
 10
20.8649418079
 20
48.7143571879
 40
3.6072598388
100
AcDbArc
 50
357.9733156248
 51
359.0803534864
  0
ARC
  5
275
100
AcDbEntity
  8
0
100
AcDbCircle
 62
7
  6
BYLAYER
 10
58.9910261808
 20
62.0066296865
 40
1.0002732033
100
AcDbArc
 50
20.5828639228
 51
90.0
  0
ARC
  5
276
100
AcDbEntity
  8
0
100
AcDbCircle
 62
7
  6
BYLAYER
 10
58.9910261808
 20
35.507682189
 40
1.0002732033
100
AcDbArc
 50
270.0
 51
339.4171360772
  0
ARC
  5
277
100
AcDbEntity
  8
0
100
AcDbCircle
 62
7
  6
BYLAYER
 10
40.3976154468
 20
50.48213752
 40
0.1754128725
100
AcDbArc
 50
65.3360573106
 51
68.8157016015
  0
ARC
  5
278
100
AcDbEntity
  8
0
100
AcDbCircle
 62
7
  6
BYLAYER
 10
40.3976154468
 20
46.8301222759
 40
0.1754128725
100
AcDbArc
 50
291.1842983985
 51
294.6639426894
  0
SPLINE
  5
279
100
AcDbEntity
  8
0
100
AcDbSpline
 62
7
  6
BYLAYER
 70
0
 71
3
 72
19
 73
15
 74
0
 42
0.0000001
 43
0.0000001
 44
0.0000000001
 40
0.0
 40
0.0
 40
0.0
 40
0.0
 40
0.0244619181
 40
0.0517640908
 40
0.0839258181
 40
0.1220486664
 40
0.1666227687
 40
0.2177549168
 40
0.275293786
 40
0.3389447459
 40
0.4827118384
 40
0.6445774266
 40
0.81908541
 40
1.0
 40
1.0
 40
1.0
 40
1.0
 10
19.6736847308
 20
45.9251614671
 30
0.0
 10
19.6496654464
 20
45.9251623164
 30
0.0
 10
19.5985123353
 20
45.9353020743
 30
0.0
 10
19.5266209916
 20
45.977759136
 30
0.0
 10
19.4577658866
 20
46.0453247321
 30
0.0
 10
19.3915658945
 20
46.137092082
 30
0.0
 10
19.328174155
 20
46.2524727099
 30
0.0
 10
19.2680475484
 20
46.3905832657
 30
0.0
 10
19.2116745896
 20
46.5502421251
 30
0.0
 10
19.1393776172
 20
46.8002755977
 30
0.0
 10
19.0644322951
 20
47.1555315904
 30
0.0
 10
18.9997221518
 20
47.6228087046
 30
0.0
 10
18.9598410605
 20
48.1294296133
 30
0.0
 10
18.9508940428
 20
48.4784889228
 30
0.0
 10
18.9508940428
 20
48.656129898
 30
0.0
  0
SPLINE
  5
27A
100
AcDbEntity
  8
0
100
AcDbSpline
 62
7
  6
BYLAYER
 70
0
 71
3
 72
19
 73
15
 74
0
 42
0.0000001
 43
0.0000001
 44
0.0000000001
 40
0.0
 40
0.0
 40
0.0
 40
0.0
 40
0.0244619181
 40
0.0517640908
 40
0.0839258181
 40
0.1220486664
 40
0.1666227687
 40
0.2177549168
 40
0.275293786
 40
0.3389447459
 40
0.4827118384
 40
0.6445774266
 40
0.81908541
 40
1.0
 40
1.0
 40
1.0
 40
1.0
 10
22.0845366256
 20
45.9251614671
 30
0.0
 10
22.1085559099
 20
45.9251623164
 30
0.0
 10
22.159709021
 20
45.9353020743
 30
0.0
 10
22.2316003647
 20
45.977759136
 30
0.0
 10
22.3004554697
 20
46.0453247321
 30
0.0
 10
22.3666554618
 20
46.137092082
 30
0.0
 10
22.4300472013
 20
46.2524727099
 30
0.0
 10
22.490173808
 20
46.3905832657
 30
0.0
 10
22.5465467667
 20
46.5502421251
 30
0.0
 10
22.6188437391
 20
46.8002755977
 30
0.0
 10
22.6937890612
 20
47.1555315904
 30
0.0
 10
22.7584992045
 20
47.6228087046
 30
0.0
 10
22.7983802958
 20
48.1294296133
 30
0.0
 10
22.8073273135
 20
48.4784889228
 30
0.0
 10
22.8073273135
 20
48.656129898
 30
0.0
  0
SPLINE
  5
27B
100
AcDbEntity
  8
0
100
AcDbSpline
 62
7
  6
BYLAYER
 70
0
 71
3
 72
19
 73
15
 74
0
 42
0.0000001
 43
0.0000001
 44
0.0000000001
 40
0.0
 40
0.0
 40
0.0
 40
0.0
 40
0.1809144859
 40
0.3554185468
 40
0.5172823646
 40
0.6610481262
 40
0.7246994789
 40
0.7822391399
 40
0.8333731741
 40
0.8779479865
 40
0.9160726015
 40
0.9482348306
 40
0.9755377754
 40
1.0
 40
1.0
 40
1.0
 40
1.0
 10
18.9508940428
 20
48.656129898
 30
0.0
 10
18.9508940428
 20
48.8337707925
 30
0.0
 10
18.959840602
 20
49.1828262147
 30
0.0
 10
18.9997213705
 20
49.6894414476
 30
0.0
 10
19.0644285476
 20
50.1567121204
 30
0.0
 10
19.1393731584
 20
50.5119654615
 30
0.0
 10
19.2116675846
 20
50.7619996482
 30
0.0
 10
19.2680423437
 20
50.9216609471
 30
0.0
 10
19.3281661836
 20
51.0597765559
 30
0.0
 10
19.3915626137
 20
51.1751593086
 30
0.0
 10
19.457760355
 20
51.2669320543
 30
0.0
 10
19.5266195173
 20
51.3344980118
 30
0.0
 10
19.5985106047
 20
51.3769574546
 30
0.0
 10
19.6496651427
 20
51.3870991782
 30
0.0
 10
19.6736847309
 20
51.3870983289
 30
0.0
  0
SPLINE
  5
27C
100
AcDbEntity
  8
0
100
AcDbSpline
 62
7
  6
BYLAYER
 70
0
 71
3
 72
19
 73
15
 74
0
 42
0.0000001
 43
0.0000001
 44
0.0000000001
 40
0.0
 40
0.0
 40
0.0
 40
0.0
 40
0.1809144859
 40
0.3554185468
 40
0.5172823646
 40
0.6610481262
 40
0.7246994789
 40
0.7822391399
 40
0.8333731741
 40
0.8779479865
 40
0.9160726015
 40
0.9482348306
 40
0.9755377754
 40
1.0
 40
1.0
 40
1.0
 40
1.0
 10
22.8073273135
 20
48.656129898
 30
0.0
 10
22.8073273135
 20
48.8337707925
 30
0.0
 10
22.7983807543
 20
49.1828262147
 30
0.0
 10
22.7584999858
 20
49.6894414476
 30
0.0
 10
22.6937928087
 20
50.1567121204
 30
0.0
 10
22.6188481979
 20
50.5119654615
 30
0.0
 10
22.5465537717
 20
50.7619996482
 30
0.0
 10
22.4901790126
 20
50.9216609471
 30
0.0
 10
22.4300551727
 20
51.0597765559
 30
0.0
 10
22.3666587426
 20
51.1751593086
 30
0.0
 10
22.3004610013
 20
51.2669320543
 30
0.0
 10
22.2316018391
 20
51.3344980118
 30
0.0
 10
22.1597107516
 20
51.3769574546
 30
0.0
 10
22.1085562136
 20
51.3870991782
 30
0.0
 10
22.0845366254
 20
51.3870983289
 30
0.0
  0
SPLINE
  5
27D
100
AcDbEntity
  8
0
100
AcDbSpline
 62
7
  6
BYLAYER
 70
0
 71
3
 72
15
 73
11
 74
0
 42
0.0000001
 43
0.0000001
 44
0.0000000001
 40
0.0
 40
0.0
 40
0.0
 40
0.0
 40
0.0858028052
 40
0.1775678305
 40
0.2797818837
 40
0.3956963295
 40
0.52688046
 40
0.6731742345
 40
0.83238073
 40
1.0
 40
1.0
 40
1.0
 40
1.0
 10
23.2577295848
 20
46.6025900068
 30
0.0
 10
23.3299675304
 20
46.6033175008
 30
0.0
 10
23.480049579
 20
46.6287001425
 30
0.0
 10
23.6935569268
 20
46.7345503676
 30
0.0
 10
23.8933415019
 20
46.9058202863
 30
0.0
 10
24.0741943306
 20
47.1398453966
 30
0.0
 10
24.230277065
 20
47.433499915
 30
0.0
 10
24.3544190563
 20
47.7807942692
 30
0.0
 10
24.4392082013
 20
48.1710135598
 30
0.0
 10
24.4649519024
 20
48.4457481037
 30
0.0
 10
24.469945179
 20
48.5867866624
 30
0.0
  0
SPLINE
  5
27E
100
AcDbEntity
  8
0
100
AcDbSpline
 62
7
  6
BYLAYER
 70
0
 71
3
 72
16
 73
12
 74
0
 42
0.0000001
 43
0.0000001
 44
0.0000000001
 40
0.0
 40
0.0
 40
0.0
 40
0.0
 40
0.1666270684
 40
0.3267910955
 40
0.4747020429
 40
0.6071066277
 40
0.7233357077
 40
0.8249197725
 40
0.9153851334
 40
0.9581028994
 40
1.0
 40
1.0
 40
1.0
 40
1.0
 10
24.4717369873
 20
48.6564600528
 30
0.0
 10
24.4741442831
 20
48.8062762994
 30
0.0
 10
24.4608617527
 20
49.1007293377
 30
0.0
 10
24.3882712141
 20
49.5225239461
 30
0.0
 10
24.2692976457
 20
49.9017108143
 30
0.0
 10
24.1122794532
 20
50.2235697172
 30
0.0
 10
23.9257442632
 20
50.4797257576
 30
0.0
 10
23.7171486925
 20
50.666024826
 30
0.0
 10
23.5256442104
 20
50.7622623883
 30
0.0
 10
23.3718491319
 20
50.7984847959
 30
0.0
 10
23.2955599842
 20
50.8039651607
 30
0.0
 10
23.2578868424
 20
50.8035898754
 30
0.0
  0
SPLINE
  5
27F
100
AcDbEntity
  8
0
100
AcDbSpline
 62
7
  6
BYLAYER
 70
0
 71
3
 72
11
 73
7
 74
0
 42
0.0000001
 43
0.0000001
 44
0.0000000001
 40
0.0
 40
0.0
 40
0.0
 40
0.0
 40
0.2281372023
 40
0.465946971
 40
0.7210492556
 40
1.0
 40
1.0
 40
1.0
 40
1.0
 10
23.2578868424
 20
50.8035898754
 30
0.0
 10
23.2026973539
 20
50.8030400989
 30
0.0
 10
23.0897183288
 20
50.788272597
 30
0.0
 10
22.925119089
 20
50.7266614131
 30
0.0
 10
22.766318435
 20
50.6262695881
 30
0.0
 10
22.6707550905
 20
50.5382849306
 30
0.0
 10
22.6246052009
 20
50.4890461603
 30
0.0
  0
SPLINE
  5
280
100
AcDbEntity
  8
0
100
AcDbSpline
 62
7
  6
BYLAYER
 70
0
 71
3
 72
19
 73
15
 74
0
 42
0.0000001
 43
0.0000001
 44
0.0000000001
 40
0.0
 40
0.0
 40
0.0
 40
0.0
 40
0.0244619181
 40
0.0517640908
 40
0.0839258181
 40
0.1220486664
 40
0.1666227687
 40
0.2177549168
 40
0.275293786
 40
0.3389447459
 40
0.4827118384
 40
0.6445774266
 40
0.81908541
 40
1.0
 40
1.0
 40
1.0
 40
1.0
 10
19.6736847309
 20
51.3870983289
 30
0.0
 10
19.6977040153
 20
51.3870974795
 30
0.0
 10
19.7488571264
 20
51.3769577217
 30
0.0
 10
19.8207484701
 20
51.33450066
 30
0.0
 10
19.8896035751
 20
51.2669350638
 30
0.0
 10
19.9558035672
 20
51.1751677139
 30
0.0
 10
20.0191953067
 20
51.059787086
 30
0.0
 10
20.0793219133
 20
50.9216765302
 30
0.0
 10
20.135694872
 20
50.7620176708
 30
0.0
 10
20.2079918445
 20
50.5119841982
 30
0.0
 10
20.2829371665
 20
50.1567282056
 30
0.0
 10
20.3476473099
 20
49.6894510913
 30
0.0
 10
20.3875284012
 20
49.1828301826
 30
0.0
 10
20.3964754188
 20
48.8337708731
 30
0.0
 10
20.3964754188
 20
48.656129898
 30
0.0
  0
SPLINE
  5
281
100
AcDbEntity
  8
0
100
AcDbSpline
 62
7
  6
BYLAYER
 70
0
 71
3
 72
13
 73
9
 74
0
 42
0.0000001
 43
0.0000001
 44
0.0000000001
 40
0.0
 40
0.0
 40
0.0
 40
0.0
 40
0.0866795279
 40
0.1875514077
 40
0.3014625494
 40
0.4267462966
 40
0.7035004738
 40
1.0
 40
1.0
 40
1.0
 40
1.0
 10
41.6461700758
 20
47.248468526
 30
0.0
 10
41.6644049769
 20
47.2856842716
 30
0.0
 10
41.6984420922
 20
47.3688679125
 30
0.0
 10
41.7412321019
 20
47.5066209737
 30
0.0
 10
41.7788712666
 20
47.6649069917
 30
0.0
 10
41.8227731955
 20
47.9077481302
 30
0.0
 10
41.8588165012
 20
48.2402029084
 30
0.0
 10
41.8683347131
 20
48.5143682377
 30
0.0
 10
41.8683347131
 20
48.656129898
 30
0.0
  0
SPLINE
  5
282
100
AcDbEntity
  8
0
100
AcDbSpline
 62
7
  6
BYLAYER
 70
0
 71
3
 72
13
 73
9
 74
0
 42
0.0000001
 43
0.0000001
 44
0.0000000001
 40
0.0
 40
0.0
 40
0.0
 40
0.0
 40
0.2964995262
 40
0.5732537034
 40
0.6985374506
 40
0.8124485923
 40
0.9133204721
 40
1.0
 40
1.0
 40
1.0
 40
1.0
 10
41.8683347131
 20
48.656129898
 30
0.0
 10
41.8683347131
 20
48.7978915582
 30
0.0
 10
41.8588165012
 20
49.0720568876
 30
0.0
 10
41.8227731955
 20
49.4045116657
 30
0.0
 10
41.7788712666
 20
49.6473528042
 30
0.0
 10
41.7412321019
 20
49.8056388222
 30
0.0
 10
41.6984420922
 20
49.9433918834
 30
0.0
 10
41.6644049769
 20
50.0265755243
 30
0.0
 10
41.6461700758
 20
50.06379127
 30
0.0
  0
SPLINE
  5
283
100
AcDbEntity
  8
0
100
AcDbSpline
 62
7
  6
BYLAYER
 70
0
 71
3
 72
18
 73
14
 74
0
 42
0.0000001
 43
0.0000001
 44
0.0000000001
 40
0.0
 40
0.0
 40
0.0
 40
0.0
 40
0.1723553967
 40
0.3395829602
 40
0.4964388141
 40
0.6384601157
 40
0.7616794295
 40
0.8153107356
 40
0.8632686381
 40
0.9054733423
 40
0.9419983867
 40
0.9732308554
 40
1.0
 40
1.0
 40
1.0
 40
1.0
 10
40.9363385329
 20
48.656129898
 30
0.0
 10
40.9363385329
 20
48.7763016747
 30
0.0
 10
40.9307167747
 20
49.0131111809
 30
0.0
 10
40.9056636354
 20
49.3584749975
 30
0.0
 10
40.8648353933
 20
49.6810742877
 30
0.0
 10
40.8097185784
 20
49.9703677382
 30
0.0
 10
40.7511186949
 20
50.185228473
 30
0.0
 10
40.69703967
 20
50.3324492854
 30
0.0
 10
40.6560179814
 20
50.4240389327
 30
0.0
 10
40.6130369985
 20
50.5013635143
 30
0.0
 10
40.5682709732
 20
50.5638905569
 30
0.0
 10
40.5219669286
 20
50.6112158158
 30
0.0
 10
40.4877786463
 20
50.6337648938
 30
0.0
 10
40.4708144052
 20
50.6415476462
 30
0.0
  0
SPLINE
  5
284
100
AcDbEntity
  8
0
100
AcDbSpline
 62
7
  6
BYLAYER
 70
0
 71
3
 72
19
 73
15
 74
0
 42
0.0000001
 43
0.0000001
 44
0.0000000001
 40
0.0
 40
0.0
 40
0.0
 40
0.0
 40
0.1809144859
 40
0.3554185468
 40
0.5172823646
 40
0.6610481262
 40
0.7246994789
 40
0.7822391399
 40
0.8333731741
 40
0.8779479865
 40
0.9160726015
 40
0.9482348306
 40
0.9755377754
 40
1.0
 40
1.0
 40
1.0
 40
1.0
 10
20.3964754188
 20
48.656129898
 30
0.0
 10
20.3964754188
 20
48.4784890034
 30
0.0
 10
20.3875288597
 20
48.1294335812
 30
0.0
 10
20.3476480912
 20
47.6228183483
 30
0.0
 10
20.2829409141
 20
47.1555476755
 30
0.0
 10
20.2079963033
 20
46.8002943344
 30
0.0
 10
20.1357018771
 20
46.5502601477
 30
0.0
 10
20.079327118
 20
46.3905988489
 30
0.0
 10
20.019203278
 20
46.25248324
 30
0.0
 10
19.955806848
 20
46.1371004873
 30
0.0
 10
19.8896091067
 20
46.0453277416
 30
0.0
 10
19.8207499444
 20
45.9777617841
 30
0.0
 10
19.748858857
 20
45.9353023413
 30
0.0
 10
19.697704319
 20
45.9251606177
 30
0.0
 10
19.6736847308
 20
45.9251614671
 30
0.0
  0
SPLINE
  5
285
100
AcDbEntity
  8
0
100
AcDbSpline
 62
7
  6
BYLAYER
 70
0
 71
3
 72
18
 73
14
 74
0
 42
0.0000001
 43
0.0000001
 44
0.0000000001
 40
0.0
 40
0.0
 40
0.0
 40
0.0
 40
0.0267691446
 40
0.0580016133
 40
0.0945266577
 40
0.1367313619
 40
0.1846892644
 40
0.2383205705
 40
0.3615398843
 40
0.5035611859
 40
0.6604170398
 40
0.8276446033
 40
1.0
 40
1.0
 40
1.0
 40
1.0
 10
40.4708144052
 20
46.6707121498
 30
0.0
 10
40.4877786463
 20
46.6784949021
 30
0.0
 10
40.5219669286
 20
46.7010439801
 30
0.0
 10
40.5682709732
 20
46.748369239
 30
0.0
 10
40.6130369985
 20
46.8108962816
 30
0.0
 10
40.6560179814
 20
46.8882208632
 30
0.0
 10
40.69703967
 20
46.9798105105
 30
0.0
 10
40.7511186949
 20
47.1270313229
 30
0.0
 10
40.8097185784
 20
47.3418920577
 30
0.0
 10
40.8648353933
 20
47.6311855082
 30
0.0
 10
40.9056636354
 20
47.9537847984
 30
0.0
 10
40.9307167747
 20
48.299148615
 30
0.0
 10
40.9363385329
 20
48.5359581212
 30
0.0
 10
40.9363385329
 20
48.656129898
 30
0.0
  0
SPLINE
  5
286
100
AcDbEntity
  8
0
100
AcDbSpline
 62
7
  6
BYLAYER
 70
0
 71
3
 72
11
 73
7
 74
0
 42
0.0000001
 43
0.0000001
 44
0.0000000001
 40
0.0
 40
0.0
 40
0.0
 40
0.0
 40
0.2734633666
 40
0.5272679283
 40
0.7672778003
 40
1.0
 40
1.0
 40
1.0
 40
1.0
 10
22.6899934078
 20
46.8404921571
 30
0.0
 10
22.7325423276
 20
46.8019988268
 30
0.0
 10
22.8201473279
 20
46.733537761
 30
0.0
 10
22.9628156468
 20
46.6571000365
 30
0.0
 10
23.1093236805
 20
46.611624794
 30
0.0
 10
23.2089030113
 20
46.602098284
 30
0.0
 10
23.2577295848
 20
46.6025900068
 30
0.0
  0
ENDSEC
  0
SECTION
  2
OBJECTS
  0
DICTIONARY
  5
C
100
AcDbDictionary
280
0
281
1
  3
ACAD_GROUP
350
D
  3
ACAD_MLINESTYLE
350
17
  3
ACAD_LAYOUT
350
1A
  3
ACAD_PLOTSETTINGS
350
19
  3
ACAD_PLOTSTYLENAME
350
E
  0
DICTIONARY
  5
D
102
{ACAD_REACTORS
330
C
102
}
100
AcDbDictionary
280
0
281
1
  0
ACDBDICTIONARYWDFLT
  5
E
102
{ACAD_REACTORS
330
C
102
}
100
AcDbDictionary
281
1
  3
Normal
350
F
100
AcDbDictionaryWithDefault
340
F
  0
DICTIONARY
  5
17
102
{ACAD_REACTORS
330
C
102
}
100
AcDbDictionary
280
0
281
1
  3
Standard
350
18
  0
DICTIONARY
  5
19
102
{ACAD_REACTORS
330
C
102
}
100
AcDbDictionary
281
1
  0
DICTIONARY
  5
1A
102
{ACAD_REACTORS
330
C
102
}
100
AcDbDictionary
281
1
  3
Model
350
287
  3
Layout1
350
288
  0
ACDBPLACEHOLDER
  5
F
102
{ACAD_REACTORS
330
E
102
}
  0
MLINESTYLE
  5
18
102
{ACAD_REACTORS
330
17
102
}
100
AcDbMlineStyle
  2
STANDARD
 70
0
  3

 62
256
 51
90.0
 52
90.0
 71
2
 49
0.5
 62
256
  6
BYLAYER
 49
-0.5
 62
256
  6
BYLAYER
  0
LAYOUT
  5
287
102
{ACAD_REACTORS
330
1A
102
}
100
AcDbPlotSettings
  1

  2
none_device
  4

  6

 40
0.0
 41
0.0
 42
0.0
 43
0.0
 44
210.0
 45
297.0
 46
0.0
 47
0.0
 48
0.0
 49
0.0
140
0.0
141
0.0
142
1.0
143
1.0
 70
1024
 72
1
 73
0
 74
0
  7

 75
0
147
1.0
148
0.0
149
0.0
100
AcDbLayout
  1
Model
 70
0
 71
0
 10
0.0
 20
0.0
 11
210.0
 21
297.0
 12
0.0
 22
0.0
 32
0.0
 14
0.0
 24
0.0
 34
0.0
 15
0.0
 25
0.0
 35
0.0
146
0.0
 13
0.0
 23
0.0
 33
0.0
 16
1.0
 26
0.0
 36
0.0
 17
0.0
 27
1.0
 37
0.0
 76
0
330
210
345
0
346
0
  0
LAYOUT
  5
288
102
{ACAD_REACTORS
330
1A
102
}
100
AcDbPlotSettings
  1

  2
none_device
  4

  6

 40
0.0
 41
0.0
 42
0.0
 43
0.0
 44
210.0
 45
297.0
 46
0.0
 47
0.0
 48
0.0
 49
0.0
140
0.0
141
0.0
142
1.0
143
1.0
 70
0
 72
1
 73
0
 74
0
  7

 75
0
147
1.0
148
0.0
149
0.0
100
AcDbLayout
  1
Layout1
 70
0
 71
1
 10
0.0
 20
0.0
 11
210.0
 21
297.0
 12
0.0
 22
0.0
 32
0.0
 14
0.0
 24
0.0
 34
0.0
 15
0.0
 25
0.0
 35
0.0
146
0.0
 13
0.0
 23
0.0
 33
0.0
 16
1.0
 26
0.0
 36
0.0
 17
0.0
 27
1.0
 37
0.0
 76
0
330
211
345
0
346
0
  0
ENDSEC
  0
EOF
