999
DXF file: C:\Users\sesa63760\Dev\_Creo\CAD\MCADPD0004005_3D-CAD\drw0001_2.dxf
999
Pro/ENGINEER 2019471 by Parametric Technology Corporation
  0
SECTION
  2
HEADER
  9
$ACADVER
  1
AC1024
  9
$DWGCODEPAGE
  3
ANSI_1252
  9
$EXTMAX
 10
134.0361127616
 20
189.5653594772
 30
0.0
  9
$EXTMIN
 10
0.0
 20
0.0
 30
0.0
  9
$LIMMIN
 10
0.0
 20
0.0
  9
$LIMMAX
 10
134.0361127616
 20
189.5653594772
  9
$VIEWCTR
 10
67.0180563808
 20
94.7826797386
  9
$VIEWSIZE
 40
189.5653594772
  9
$CLAYER
  8
0
  9
$LTSCALE
 40
12.3568530622
  9
$CELTYPE
  6
BYLAYER
  9
$DIMSCALE
 40
1.0
  9
$DIMASZ
 40
1.5956680091
  9
$DIMEXO
 40
1.0
  9
$DIMDLI
 40
8.5374621157
  9
$DIMEXE
 40
1.0
  9
$DIMCEN
 40
2.0220305011
  9
$DIMLFAC
 40
1.0
  9
$DIMBLK
  1
_FILLED
  9
$DIMALT
 70
0
  9
$DIMALTF
 40
0.0393700787
  9
$DIMTXT
 40
2.2339352127
  9
$DIMTOL
 70
1
  9
$DIMLIM
 70
0
  9
$DIMTFAC
 40
1.0
  9
$DIMTP
 40
0.01
  9
$DIMTM
 40
0.01
  9
$DIMGAP
 40
0.625
  9
$DIMDSEP
 70
46
  9
$AUNITS
 70
0
  9
$PDMODE
 70
3
  9
$PDSIZE
 40
0.3125
  9
$HANDSEED
  5
24F
  9
$TILEMODE
 70
1
  9
$MEASUREMENT
 70
1
  9
$INSUNITS
 70
4
  0
ENDSEC
  0
SECTION
  2
CLASSES
  0
CLASS
  1
ACDBDICTIONARYWDFLT
  2
AcDbDictionaryWithDefault
  3
AutoCAD 2000
 90
0
 91
1
280
0
281
0
  0
CLASS
  1
ACDBPLACEHOLDER
  2
AcDbPlaceHolder
  3
AutoCAD 2000
 90
0
 91
1
280
0
281
0
  0
CLASS
  1
LAYOUT
  2
AcDbLayout
  3
AutoCAD 2000
 90
0
 91
0
280
0
281
0
  0
ENDSEC
  0
SECTION
  2
TABLES
  0
TABLE
  2
VPORT
  5
8
100
AcDbSymbolTable
 70
2
  0
VPORT
  5
1F4
100
AcDbSymbolTableRecord
100
AcDbViewportTableRecord
  2
*ACTIVE
 70
0
 10
0.0
 20
0.0
 11
1.0
 21
1.0
 12
67.0180563808
 22
94.7826797386
 13
0.0
 23
0.0
 14
1.0
 24
1.0
 15
0.0
 25
0.0
 16
0.0
 26
0.0
 36
1.0
 17
0.0
 27
0.0
 37
0.0
 40
189.5653594772
 41
0.7070707071
 42
50.0
 43
0.0
 44
0.0
 50
0.0
 51
0.0
 71
0
 72
100
 73
1
 74
1
 75
0
 76
0
 77
0
 78
0
  0
ENDTAB
  0
TABLE
  2
LTYPE
  5
5
100
AcDbSymbolTable
 70
6
  0
LTYPE
  5
14
100
AcDbSymbolTableRecord
100
AcDbLinetypeTableRecord
  2
BYBLOCK
 70
0
  3

 72
65
 73
0
 40
0.0
  0
LTYPE
  5
15
100
AcDbSymbolTableRecord
100
AcDbLinetypeTableRecord
  2
BYLAYER
 70
0
  3

 72
65
 73
0
 40
0.0
  0
LTYPE
  5
16
100
AcDbSymbolTableRecord
100
AcDbLinetypeTableRecord
  2
CONTINUOUS
 70
64
  3
Solid line
 72
65
 73
0
 40
0.0
  0
LTYPE
  5
1F5
100
AcDbSymbolTableRecord
100
AcDbLinetypeTableRecord
  2
CENTER
 70
64
  3
____ _ ____ _ ____ _ ____ _ ____ _ ____ _ ____
 72
65
 73
4
 40
0.6
 49
0.375
 74
0
 49
-0.075
 74
0
 49
0.075
 74
0
 49
-0.075
 74
0
  0
LTYPE
  5
1F6
100
AcDbSymbolTableRecord
100
AcDbLinetypeTableRecord
  2
HIDDEN
 70
64
  3
- - - - - - - - - - - - - - - - - - - -
 72
65
 73
2
 40
0.2
 49
0.1
 74
0
 49
-0.1
 74
0
  0
LTYPE
  5
1F7
100
AcDbSymbolTableRecord
100
AcDbLinetypeTableRecord
  2
PHANTOM
 70
64
  3
_____ _ _ _____ _ _ _____ _ _ _____
 72
65
 73
6
 40
0.8
 49
0.45
 74
0
 49
-0.05
 74
0
 49
0.1
 74
0
 49
-0.05
 74
0
 49
0.1
 74
0
 49
-0.05
 74
0
  0
LTYPE
  5
1F8
100
AcDbSymbolTableRecord
100
AcDbLinetypeTableRecord
  2
DOT
 70
64
  3
. . . . . . . . . . . . . . . . . . . .
 72
65
 73
2
 40
0.2
 49
0.1
 74
0
 49
-0.1
 74
0
  0
LTYPE
  5
1F9
100
AcDbSymbolTableRecord
100
AcDbLinetypeTableRecord
  2
DASHED
 70
64
  3
- - - - - - - - - - - - - - - - - - - -
 72
65
 73
2
 40
0.2
 49
0.1
 74
0
 49
-0.1
 74
0
  0
ENDTAB
  0
TABLE
  2
LAYER
  5
2
100
AcDbSymbolTable
 70
36
  0
LAYER
  5
10
100
AcDbSymbolTableRecord
100
AcDbLayerTableRecord
  2
0
 70
0
 62
7
  6
CONTINUOUS
370
-3
390
F
  0
LAYER
  5
1FA
100
AcDbSymbolTableRecord
100
AcDbLayerTableRecord
  2
DEFAULT_1
 70
0
 62
7
  6
CENTER
370
-3
390
F
  0
LAYER
  5
1FB
100
AcDbSymbolTableRecord
100
AcDbLayerTableRecord
  2
DEFAULT_2
 70
0
 62
7
  6
HIDDEN
370
-3
390
F
  0
LAYER
  5
1FC
100
AcDbSymbolTableRecord
100
AcDbLayerTableRecord
  2
DEFAULT_3
 70
0
 62
7
  6
PHANTOM
370
-3
390
F
  0
LAYER
  5
1FD
100
AcDbSymbolTableRecord
100
AcDbLayerTableRecord
  2
00_COMPONENTS
 70
0
 62
7
  6
CONTINUOUS
370
-3
390
F
  0
LAYER
  5
1FE
100
AcDbSymbolTableRecord
100
AcDbLayerTableRecord
  2
01_1_DEFAULT_DATUMS
 70
0
 62
7
  6
CONTINUOUS
370
-3
390
F
  0
LAYER
  5
1FF
100
AcDbSymbolTableRecord
100
AcDbLayerTableRecord
  2
01_PLANES
 70
0
 62
7
  6
CONTINUOUS
370
-3
390
F
  0
LAYER
  5
200
100
AcDbSymbolTableRecord
100
AcDbLayerTableRecord
  2
02_COORD_SYS
 70
0
 62
7
  6
CONTINUOUS
370
-3
390
F
  0
LAYER
  5
201
100
AcDbSymbolTableRecord
100
AcDbLayerTableRecord
  2
03_AXES
 70
0
 62
7
  6
CONTINUOUS
370
-3
390
F
  0
LAYER
  5
202
100
AcDbSymbolTableRecord
100
AcDbLayerTableRecord
  2
04_POINTS
 70
0
 62
7
  6
CONTINUOUS
370
-3
390
F
  0
LAYER
  5
203
100
AcDbSymbolTableRecord
100
AcDbLayerTableRecord
  2
05_CURVES
 70
0
 62
7
  6
CONTINUOUS
370
-3
390
F
  0
LAYER
  5
204
100
AcDbSymbolTableRecord
100
AcDbLayerTableRecord
  2
06_SURFS
 70
0
 62
7
  6
CONTINUOUS
370
-3
390
F
  0
LAYER
  5
205
100
AcDbSymbolTableRecord
100
AcDbLayerTableRecord
  2
07_COSMETICS
 70
0
 62
7
  6
CONTINUOUS
370
-3
390
F
  0
LAYER
  5
206
100
AcDbSymbolTableRecord
100
AcDbLayerTableRecord
  2
10_NOTES
 70
0
 62
7
  6
CONTINUOUS
370
-3
390
F
  0
LAYER
  5
207
100
AcDbSymbolTableRecord
100
AcDbLayerTableRecord
  2
11_NOTES_PUB
 70
0
 62
7
  6
CONTINUOUS
370
-3
390
F
  0
LAYER
  5
208
100
AcDbSymbolTableRecord
100
AcDbLayerTableRecord
  2
13_REF_GTOL
 70
0
 62
7
  6
CONTINUOUS
370
-3
390
F
  0
LAYER
  5
209
100
AcDbSymbolTableRecord
100
AcDbLayerTableRecord
  2
16_MISC
 70
0
 62
7
  6
CONTINUOUS
370
-3
390
F
  0
LAYER
  5
20A
100
AcDbSymbolTableRecord
100
AcDbLayerTableRecord
  2
17_NO_PRINT
 70
0
 62
7
  6
CONTINUOUS
370
-3
390
F
  0
LAYER
  5
20B
100
AcDbSymbolTableRecord
100
AcDbLayerTableRecord
  2
18_DATUM_CAMS_JOINTS
 70
0
 62
7
  6
CONTINUOUS
370
-3
390
F
  0
LAYER
  5
20C
100
AcDbSymbolTableRecord
100
AcDbLayerTableRecord
  2
19_DATUM_FUNCTIONAL
 70
0
 62
7
  6
CONTINUOUS
370
-3
390
F
  0
LAYER
  5
20D
100
AcDbSymbolTableRecord
100
AcDbLayerTableRecord
  2
20_DATUM_KINEMATIC_SCHEME
 70
0
 62
7
  6
CONTINUOUS
370
-3
390
F
  0
ENDTAB
  0
TABLE
  2
STYLE
  5
3
100
AcDbSymbolTable
 70
1
  0
STYLE
  5
11
100
AcDbSymbolTableRecord
100
AcDbTextStyleTableRecord
  2
STANDARD
 70
0
 40
0.0
 41
1.0
 50
0.0
 71
0
 42
0.2
  3
ARIAL.TTF
  4

  0
STYLE
  5
20E
100
AcDbSymbolTableRecord
100
AcDbTextStyleTableRecord
  2
TEXTSTYLE_1
 70
0
 40
0.0
 41
0.8
 50
0.0
 71
0
 42
0.2
  3
gdt
  4

  0
ENDTAB
  0
TABLE
  2
VIEW
  5
6
100
AcDbSymbolTable
 70
0
  0
ENDTAB
  0
TABLE
  2
UCS
  5
7
100
AcDbSymbolTable
 70
0
  0
ENDTAB
  0
TABLE
  2
APPID
  5
9
100
AcDbSymbolTable
 70
1
  0
APPID
  5
20F
100
AcDbSymbolTableRecord
100
AcDbRegAppTableRecord
  2
ACAD
 70
0
  0
ENDTAB
  0
TABLE
  2
BLOCK_RECORD
  5
1
100
AcDbSymbolTable
 70
0
  0
BLOCK_RECORD
  5
210
100
AcDbSymbolTableRecord
100
AcDbBlockTableRecord
  2
*Model_Space
  0
BLOCK_RECORD
  5
211
100
AcDbSymbolTableRecord
100
AcDbBlockTableRecord
  2
*Paper_Space
  0
BLOCK_RECORD
  5
212
100
AcDbSymbolTableRecord
100
AcDbBlockTableRecord
  2
_FILLED
  0
ENDTAB
  0
TABLE
  2
DIMSTYLE
  5
A
100
AcDbSymbolTable
 70
1
100
AcDbDimStyleTable
 71
0
  0
DIMSTYLE
105
213
100
AcDbSymbolTableRecord
100
AcDbDimStyleTableRecord
  2
STANDARD
 70
0
  3

  4

 40
1.0
 41
1.5956680091
 42
1.0
 43
0.38
 44
1.0
 45
0.0
 46
0.0
 47
0.01
 48
0.01
140
2.2339352127
141
0.09
142
0.0
143
25.4
144
1.0
145
0.0
146
1.0
147
0.625
 71
1
 72
0
 73
0
 74
0
 75
0
 76
0
 77
1
 78
8
 79
2
170
0
171
1
172
0
173
0
174
0
175
0
176
0
177
0
178
0
270
2
179
2
271
2
272
2
273
2
274
2
275
0
280
0
281
0
282
0
283
1
284
8
285
0
286
0
287
3
288
0
340
11
278
46
341
212
342
212
343
212
344
212
  0
ENDTAB
  0
ENDSEC
  0
SECTION
  2
BLOCKS
  0
BLOCK
  5
20
100
AcDbEntity
  8
0
100
AcDbBlockBegin
  2
*Model_Space
 70
0
 10
0.0
 20
0.0
 30
0.0
  3
*Model_Space
  1

  0
ENDBLK
  5
21
100
AcDbEntity
  8
0
100
AcDbBlockEnd
  0
BLOCK
  5
1C
100
AcDbEntity
  8
0
100
AcDbBlockBegin
  2
*Paper_Space
 70
0
 10
0.0
 20
0.0
 30
0.0
  3
*Paper_Space
  1

  0
ENDBLK
  5
1D
100
AcDbEntity
  8
0
100
AcDbBlockEnd
  0
BLOCK
  5
214
100
AcDbEntity
  8
0
100
AcDbBlockBegin
  2
_FILLED
 70
64
 10
0.0
 20
0.0
  3
_FILLED
  1

  0
SOLID
  5
215
100
AcDbEntity
  8
0
  6
BYBLOCK
 62
0
100
AcDbTrace
 10
0.0
 20
0.0
 11
-1.0
 21
0.25
 12
-1.0
 22
-0.25
 13
-1.0
 23
-0.25
  0
ENDBLK
  5
216
100
AcDbEntity
  8
0
  6
BYBLOCK
 62
0
100
AcDbBlockEnd
  0
ENDSEC
  0
SECTION
  2
ENTITIES
  0
LINE
  5
217
100
AcDbEntity
  8
0
100
AcDbLine
 62
7
  6
BYLAYER
 10
17.6505837268
 20
24.3846405248
 11
118.241737697
 21
24.3846405229
  0
LINE
  5
218
100
AcDbEntity
  8
0
100
AcDbLine
 62
7
  6
BYLAYER
 10
117.796160956
 20
27.7846405229
 11
18.096160956
 21
27.7846405229
  0
LINE
  5
219
100
AcDbEntity
  8
0
100
AcDbLine
 62
7
  6
BYLAYER
 10
21.8098965045
 20
29.5628347977
 11
114.8098965092
 21
29.5628347977
  0
LINE
  5
21A
100
AcDbEntity
  8
0
100
AcDbLine
 62
7
  6
BYLAYER
 10
14.6961609579
 20
161.5302177524
 11
14.696160956
 21
27.3390637819
  0
LINE
  5
21B
100
AcDbEntity
  8
0
100
AcDbLine
 62
7
  6
BYLAYER
 10
18.096160956
 20
27.7846405229
 11
18.096160956
 21
161.0846405229
  0
LINE
  5
21C
100
AcDbEntity
  8
0
100
AcDbLine
 62
7
  6
BYLAYER
 10
18.8098965094
 20
159.0628347996
 11
18.8098965094
 21
32.5628347976
  0
LINE
  5
21D
100
AcDbEntity
  8
0
100
AcDbLine
 62
7
  6
BYLAYER
 10
21.8798169958
 20
46.555265889
 11
23.8803319097
 21
46.555265889
  0
LINE
  5
21E
100
AcDbEntity
  8
0
100
AcDbLine
 62
7
  6
BYLAYER
 10
112.0119900023
 20
46.555265889
 11
114.0125049162
 21
46.555265889
  0
LINE
  5
21F
100
AcDbEntity
  8
0
100
AcDbLine
 62
7
  6
BYLAYER
 10
23.8803319097
 20
46.5846405229
 11
112.0119900023
 21
46.5846405229
  0
LINE
  5
220
100
AcDbEntity
  8
0
100
AcDbLine
 62
7
  6
BYLAYER
 10
21.8798169958
 20
46.555265889
 11
21.8798169958
 21
142.3140151568
  0
LINE
  5
221
100
AcDbEntity
  8
0
100
AcDbLine
 62
7
  6
BYLAYER
 10
23.4577626361
 20
139.8858367857
 11
23.4577626316
 21
48.9834442531
  0
LINE
  5
222
100
AcDbEntity
  8
0
100
AcDbLine
 62
7
  6
BYLAYER
 10
24.9572799413
 20
49.0346410619
 11
24.9572803897
 21
139.8346399839
  0
LINE
  5
223
100
AcDbEntity
  8
0
100
AcDbLine
 62
7
  6
BYLAYER
 10
109.468751978
 20
48.9647989843
 11
26.4235702479
 21
48.9647989843
  0
LINE
  5
224
100
AcDbEntity
  8
0
100
AcDbLine
 62
7
  6
BYLAYER
 10
24.9570383926
 20
49.0346405235
 11
110.9352840082
 21
49.0346405235
  0
LINE
  5
225
100
AcDbEntity
  8
0
100
AcDbLine
 62
7
  6
BYLAYER
 10
21.8798169958
 20
46.555265889
 11
23.4577571073
 21
48.9834357646
  0
LINE
  5
226
100
AcDbEntity
  8
0
100
AcDbLine
 62
7
  6
BYLAYER
 10
21.8798169958
 20
142.3140151568
 11
23.4577626361
 21
139.8858367857
  0
LINE
  5
227
100
AcDbEntity
  8
0
100
AcDbLine
 62
7
  6
BYLAYER
 10
25.4239790922
 20
48.930665031
 11
23.8803319097
 21
46.555265889
  0
LINE
  5
228
100
AcDbEntity
  8
0
100
AcDbLine
 62
7
  6
BYLAYER
 10
25.4239814332
 20
139.9386124206
 11
23.8803319097
 21
142.3140151568
  0
LINE
  5
229
100
AcDbEntity
  8
0
100
AcDbLine
 62
7
  6
BYLAYER
 10
112.0119900023
 20
142.3140151568
 11
110.4683404735
 21
139.9386124125
  0
LINE
  5
22A
100
AcDbEntity
  8
0
100
AcDbLine
 62
7
  6
BYLAYER
 10
112.0119900023
 20
46.555265889
 11
110.4683428144
 21
48.9306650393
  0
LINE
  5
22B
100
AcDbEntity
  8
0
100
AcDbLine
 62
7
  6
BYLAYER
 10
112.4345592658
 20
139.8858367702
 11
114.0125049162
 21
142.3140151568
  0
LINE
  5
22C
100
AcDbEntity
  8
0
100
AcDbLine
 62
7
  6
BYLAYER
 10
112.4345647935
 20
48.9834357817
 11
114.0125049162
 21
46.555265889
  0
LINE
  5
22D
100
AcDbEntity
  8
0
100
AcDbLine
 62
7
  6
BYLAYER
 10
110.9350421371
 20
139.8346399806
 11
110.9350425759
 21
49.0346410652
  0
LINE
  5
22E
100
AcDbEntity
  8
0
100
AcDbLine
 62
7
  6
BYLAYER
 10
112.4345592706
 20
48.9834442682
 11
112.4345592658
 21
139.8858367702
  0
LINE
  5
22F
100
AcDbEntity
  8
0
100
AcDbLine
 62
7
  6
BYLAYER
 10
114.0125049162
 20
46.555265889
 11
114.0125049162
 21
142.3140151568
  0
LINE
  5
230
100
AcDbEntity
  8
0
100
AcDbLine
 62
7
  6
BYLAYER
 10
24.9572803897
 20
139.8346399839
 11
110.9350421371
 21
139.8346399806
  0
LINE
  5
231
100
AcDbEntity
  8
0
100
AcDbLine
 62
7
  6
BYLAYER
 10
109.4686490117
 20
139.9044817003
 11
26.4236732167
 21
139.9044817025
  0
LINE
  5
232
100
AcDbEntity
  8
0
100
AcDbLine
 62
7
  6
BYLAYER
 10
117.796160956
 20
161.0846405229
 11
117.796160956
 21
159.3495832149
  0
LINE
  5
233
100
AcDbEntity
  8
0
100
AcDbLine
 62
7
  6
BYLAYER
 10
117.796160956
 20
32.2760863806
 11
117.796160956
 21
27.7846405229
  0
LINE
  5
234
100
AcDbEntity
  8
0
100
AcDbLine
 62
7
  6
BYLAYER
 10
117.8098965093
 20
32.5628347963
 11
117.8098965093
 21
159.0628347977
  0
LINE
  5
235
100
AcDbEntity
  8
0
100
AcDbLine
 62
7
  6
BYLAYER
 10
121.196160956
 20
161.5302172639
 11
121.196160954
 21
27.3390632937
  0
LINE
  5
236
100
AcDbEntity
  8
0
100
AcDbLine
 62
7
  6
BYLAYER
 10
23.8803319097
 20
142.2846405229
 11
112.0119900023
 21
142.2846405229
  0
LINE
  5
237
100
AcDbEntity
  8
0
100
AcDbLine
 62
7
  6
BYLAYER
 10
21.8798169958
 20
142.3140151568
 11
23.8803319097
 21
142.3140151568
  0
LINE
  5
238
100
AcDbEntity
  8
0
100
AcDbLine
 62
7
  6
BYLAYER
 10
112.0119900023
 20
142.3140151568
 11
114.0125049162
 21
142.3140151568
  0
LINE
  5
239
100
AcDbEntity
  8
0
100
AcDbLine
 62
7
  6
BYLAYER
 10
18.096160956
 20
161.0846405229
 11
19.5935252386
 21
161.0846405229
  0
LINE
  5
23A
100
AcDbEntity
  8
0
100
AcDbLine
 62
7
  6
BYLAYER
 10
117.02626778
 20
161.0846405229
 11
117.796160956
 21
161.0846405229
  0
LINE
  5
23B
100
AcDbEntity
  8
0
100
AcDbLine
 62
7
  6
BYLAYER
 10
114.8098965108
 20
162.0628347977
 11
21.8098965094
 21
162.0628347977
  0
LINE
  5
23C
100
AcDbEntity
  8
0
100
AcDbLine
 62
7
  6
BYLAYER
 10
17.6505842153
 20
164.4846405229
 11
118.2417381854
 21
164.484640521
  0
ARC
  5
23D
100
AcDbEntity
  8
0
100
AcDbCircle
 62
7
  6
BYLAYER
 10
114.8098965093
 20
159.0628347977
 40
3.0
100
AcDbArc
 50
0.0
 51
90.0
  0
ARC
  5
23E
100
AcDbEntity
  8
0
100
AcDbCircle
 62
7
  6
BYLAYER
 10
114.8098965093
 20
32.5628347977
 40
3.0
100
AcDbArc
 50
270.0
 51
360.0
  0
ARC
  5
23F
100
AcDbEntity
  8
0
100
AcDbCircle
 62
7
  6
BYLAYER
 10
21.8098965093
 20
32.5628347977
 40
3.0
100
AcDbArc
 50
180.0000000116
 51
270.0
  0
ARC
  5
240
100
AcDbEntity
  8
0
100
AcDbCircle
 62
7
  6
BYLAYER
 10
21.8098965093
 20
159.0628347977
 40
3.0
100
AcDbArc
 50
90.0
 51
179.9999999884
  0
SPLINE
  5
241
100
AcDbEntity
  8
0
100
AcDbSpline
 62
7
  6
BYLAYER
 70
0
 71
3
 72
11
 73
7
 74
0
 42
0.0000001
 43
0.0000001
 44
0.0000000001
 40
0.0
 40
0.0
 40
0.0
 40
0.0
 40
0.2500260832
 40
0.4999553107
 40
0.7499116184
 40
1.0
 40
1.0
 40
1.0
 40
1.0
 10
118.2417381854
 20
164.484640521
 30
0.0
 10
118.6265371481
 20
164.4846403061
 30
0.0
 10
119.404890083
 20
164.3354699337
 30
0.0
 10
120.390562628
 20
163.6792855887
 30
0.0
 10
121.0469764805
 20
162.6936204821
 30
0.0
 10
121.196160956
 20
161.9151121058
 30
0.0
 10
121.196160956
 20
161.5302172639
 30
0.0
  0
SPLINE
  5
242
100
AcDbEntity
  8
0
100
AcDbSpline
 62
7
  6
BYLAYER
 70
0
 71
3
 72
11
 73
7
 74
0
 42
0.0000001
 43
0.0000001
 44
0.0000000001
 40
0.0
 40
0.0
 40
0.0
 40
0.0
 40
0.2500260832
 40
0.4999553107
 40
0.7499116184
 40
1.0
 40
1.0
 40
1.0
 40
1.0
 10
121.196160954
 20
27.3390632937
 30
0.0
 10
121.1961607393
 20
26.954264331
 30
0.0
 10
121.0469903668
 20
26.175911396
 30
0.0
 10
120.3908060218
 20
25.190238851
 30
0.0
 10
119.4051409152
 20
24.5338249983
 30
0.0
 10
118.6266325389
 20
24.3846405229
 30
0.0
 10
118.241737697
 20
24.3846405229
 30
0.0
  0
SPLINE
  5
243
100
AcDbEntity
  8
0
100
AcDbSpline
 62
7
  6
BYLAYER
 70
0
 71
3
 72
11
 73
7
 74
0
 42
0.0000001
 43
0.0000001
 44
0.0000000001
 40
0.0
 40
0.0
 40
0.0
 40
0.0
 40
0.2500260832
 40
0.4999553107
 40
0.7499116184
 40
1.0
 40
1.0
 40
1.0
 40
1.0
 10
17.6505837267
 20
24.3846405248
 30
0.0
 10
17.265784764
 20
24.3846407395
 30
0.0
 10
16.4874318291
 20
24.5338111122
 30
0.0
 10
15.501759284
 20
25.189995457
 30
0.0
 10
14.8453454315
 20
26.1756605637
 30
0.0
 10
14.696160956
 20
26.95416894
 30
0.0
 10
14.696160956
 20
27.3390637819
 30
0.0
  0
SPLINE
  5
244
100
AcDbEntity
  8
0
100
AcDbSpline
 62
7
  6
BYLAYER
 70
0
 71
3
 72
11
 73
7
 74
0
 42
0.0000001
 43
0.0000001
 44
0.0000000001
 40
0.0
 40
0.0
 40
0.0
 40
0.0
 40
0.2500260832
 40
0.4999553107
 40
0.7499116184
 40
1.0
 40
1.0
 40
1.0
 40
1.0
 10
14.6961609579
 20
161.5302177526
 30
0.0
 10
14.6961611727
 20
161.9150167153
 30
0.0
 10
14.8453315453
 20
162.6933696502
 30
0.0
 10
15.5015158905
 20
163.6790421951
 30
0.0
 10
16.4871809971
 20
164.3354560476
 30
0.0
 10
17.2656893734
 20
164.4846405229
 30
0.0
 10
17.6505842153
 20
164.4846405229
 30
0.0
  0
SPLINE
  5
245
100
AcDbEntity
  8
0
100
AcDbSpline
 62
7
  6
BYLAYER
 70
0
 71
3
 72
18
 73
14
 74
0
 42
0.0000001
 43
0.0000001
 44
0.0000000001
 40
0.0
 40
0.0
 40
0.0
 40
0.0
 40
0.191685362
 40
0.376965399
 40
0.5478493785
 40
0.6981577886
 40
0.8224243591
 40
0.8733918216
 40
0.9162228476
 40
0.9504604003
 40
0.975881036
 40
0.992356673
 40
1.0
 40
1.0
 40
1.0
 40
1.0
 10
26.4236332482
 20
139.9044820614
 30
0.0
 10
26.3596411832
 20
139.9044821782
 30
0.0
 10
26.2337947946
 20
139.9049089768
 30
0.0
 10
26.05091012
 20
139.9067683297
 30
0.0
 10
25.8818520901
 20
139.9098027939
 30
0.0
 10
25.733202222
 20
139.9138644523
 30
0.0
 10
25.6245824739
 20
139.9181600713
 30
0.0
 10
25.5519267243
 20
139.9221980928
 30
0.0
 10
25.5092099004
 20
139.9251146191
 30
0.0
 10
25.4753254557
 20
139.9282586308
 30
0.0
 10
25.4496165592
 20
139.9311180553
 30
0.0
 10
25.4342585589
 20
139.9345072705
 30
0.0
 10
25.4253688402
 20
139.9364724456
 30
0.0
 10
25.4239807372
 20
139.9386134834
 30
0.0
  0
SPLINE
  5
246
100
AcDbEntity
  8
0
100
AcDbSpline
 62
7
  6
BYLAYER
 70
0
 71
3
 72
18
 73
14
 74
0
 42
0.0000001
 43
0.0000001
 44
0.0000000001
 40
0.0
 40
0.0
 40
0.0
 40
0.0
 40
0.0076433335
 40
0.0241189601
 40
0.0495395845
 40
0.083777142
 40
0.1266081803
 40
0.1775756488
 40
0.3018422542
 40
0.452150752
 40
0.623034746
 40
0.8083146915
 40
1.0
 40
1.0
 40
1.0
 40
1.0
 10
110.468341169
 20
139.9386134745
 30
0.0
 10
110.4669530554
 20
139.9364724422
 30
0.0
 10
110.4580633586
 20
139.9345072623
 30
0.0
 10
110.4427053566
 20
139.9311180531
 30
0.0
 10
110.4169964839
 20
139.9282586289
 30
0.0
 10
110.3831120493
 20
139.9251146223
 30
0.0
 10
110.3403952377
 20
139.9221980976
 30
0.0
 10
110.2677395024
 20
139.9181600752
 30
0.0
 10
110.1591197601
 20
139.9138644538
 30
0.0
 10
110.0104699122
 20
139.9098027975
 30
0.0
 10
109.8414119539
 20
139.9067683317
 30
0.0
 10
109.6585274042
 20
139.9049089773
 30
0.0
 10
109.53268112
 20
139.9044821789
 30
0.0
 10
109.4686891013
 20
139.9044820614
 30
0.0
  0
SPLINE
  5
247
100
AcDbEntity
  8
0
100
AcDbSpline
 62
7
  6
BYLAYER
 70
0
 71
3
 72
18
 73
14
 74
0
 42
0.0000001
 43
0.0000001
 44
0.0000000001
 40
0.0
 40
0.0
 40
0.0
 40
0.0
 40
0.1917026213
 40
0.377004116
 40
0.5478868795
 40
0.6981837325
 40
0.8224582103
 40
0.8734288193
 40
0.9162554082
 40
0.9504822328
 40
0.9758920691
 40
0.9923595198
 40
1.0
 40
1.0
 40
1.0
 40
1.0
 10
26.4235702479
 20
48.9647989843
 30
0.0
 10
26.359576282
 20
48.9647988675
 30
0.0
 10
26.2337245614
 20
48.964370794
 30
0.0
 10
26.0508384259
 20
48.9625094967
 30
0.0
 10
25.8817877018
 20
48.9594750031
 30
0.0
 10
25.7331484301
 20
48.9554134027
 30
0.0
 10
25.6245353708
 20
48.9511192725
 30
0.0
 10
25.5518817364
 20
48.94708213
 30
0.0
 10
25.5091715715
 20
48.9441656201
 30
0.0
 10
25.4752977172
 20
48.9410212479
 30
0.0
 10
25.4496010377
 20
48.9381607544
 30
0.0
 10
25.4342502318
 20
48.9347721937
 30
0.0
 10
25.4253665945
 20
48.9328051423
 30
0.0
 10
25.4239790922
 20
48.930665031
 30
0.0
  0
SPLINE
  5
248
100
AcDbEntity
  8
0
100
AcDbSpline
 62
7
  6
BYLAYER
 70
0
 71
3
 72
18
 73
14
 74
0
 42
0.0000001
 43
0.0000001
 44
0.0000000001
 40
0.0
 40
0.0
 40
0.0
 40
0.0
 40
0.0076404984
 40
0.0241079656
 40
0.049517815
 40
0.0837446491
 40
0.1265712437
 40
0.1775418548
 40
0.3018163282
 40
0.4521131677
 40
0.622995913
 40
0.8082973898
 40
1.0
 40
1.0
 40
1.0
 40
1.0
 10
110.4683428144
 20
48.9306650393
 30
0.0
 10
110.4669552992
 20
48.9328051485
 30
0.0
 10
110.4580716641
 20
48.9347721992
 30
0.0
 10
110.4427208372
 20
48.938160759
 30
0.0
 10
110.4170241582
 20
48.941021252
 30
0.0
 10
110.383150303
 20
48.9441656229
 30
0.0
 10
110.3404401469
 20
48.9470821317
 30
0.0
 10
110.2677865344
 20
48.9511192727
 30
0.0
 10
110.1591735156
 20
48.9554134014
 30
0.0
 10
110.0105343038
 20
48.9594750008
 30
0.0
 10
109.8414836508
 20
48.9625094943
 30
0.0
 10
109.6585975899
 20
48.9643707922
 30
0.0
 10
109.5327459196
 20
48.9647988668
 30
0.0
 10
109.468751978
 20
48.9647989843
 30
0.0
  0
SPLINE
  5
249
100
AcDbEntity
  8
0
100
AcDbSpline
 62
7
  6
BYLAYER
 70
0
 71
3
 72
18
 73
14
 74
0
 42
0.0000001
 43
0.0000001
 44
0.0000000001
 40
0.0
 40
0.0
 40
0.0
 40
0.0
 40
0.1919357876
 40
0.3770465944
 40
0.5478415892
 40
0.6981844024
 40
0.8225678178
 40
0.8734869959
 40
0.9162804146
 40
0.9505366828
 40
0.9759366065
 40
0.9923722682
 40
1.0
 40
1.0
 40
1.0
 40
1.0
 10
110.9352840082
 20
49.0346405235
 30
0.0
 10
111.0313853917
 20
49.0346403015
 30
0.0
 10
111.2201718811
 20
49.0340049359
 30
0.0
 10
111.4944602234
 20
49.0312006846
 30
0.0
 10
111.7479034199
 20
49.0266600249
 30
0.0
 10
111.9708808838
 20
49.0205527243
 30
0.0
 10
112.1338418577
 20
49.0141215835
 30
0.0
 10
112.2428272957
 20
49.0080587129
 30
0.0
 10
112.3068596384
 20
49.0036804472
 30
0.0
 10
112.3576632135
 20
48.9989840668
 30
0.0
 10
112.3961959385
 20
48.9946909833
 30
0.0
 10
112.4192030035
 20
48.9896177893
 30
0.0
 10
112.4324880172
 20
48.9866409442
 30
0.0
 10
112.4345647935
 20
48.9834357817
 30
0.0
  0
SPLINE
  5
24A
100
AcDbEntity
  8
0
100
AcDbSpline
 62
7
  6
BYLAYER
 70
0
 71
3
 72
18
 73
14
 74
0
 42
0.0000001
 43
0.0000001
 44
0.0000000001
 40
0.0
 40
0.0
 40
0.0
 40
0.0
 40
0.0076277274
 40
0.0240634106
 40
0.0494633558
 40
0.0837196492
 40
0.1265131263
 40
0.1774323535
 40
0.3018158364
 40
0.4521587218
 40
0.6229536852
 40
0.8080642948
 40
1.0
 40
1.0
 40
1.0
 40
1.0
 10
23.4577571073
 20
48.9834357646
 30
0.0
 10
23.4598338643
 20
48.9866409385
 30
0.0
 10
23.4731189246
 20
48.9896177721
 30
0.0
 10
23.4961259894
 20
48.9946909794
 30
0.0
 10
23.5346587744
 20
48.9989840678
 30
0.0
 10
23.5854624129
 20
49.0036804602
 30
0.0
 10
23.6494948459
 20
49.0080587256
 30
0.0
 10
23.7584804071
 20
49.0141216003
 30
0.0
 10
23.9214415309
 20
49.0205527409
 30
0.0
 10
24.1444191236
 20
49.02666004
 30
0.0
 10
24.3978623269
 20
49.0312006924
 30
0.0
 10
24.6721506054
 20
49.0340049433
 30
0.0
 10
24.8609370181
 20
49.0346403028
 30
0.0
 10
24.9570383926
 20
49.0346405235
 30
0.0
  0
SPLINE
  5
24B
100
AcDbEntity
  8
0
100
AcDbSpline
 62
7
  6
BYLAYER
 70
0
 71
3
 72
18
 73
14
 74
0
 42
0.0000001
 43
0.0000001
 44
0.0000000001
 40
0.0
 40
0.0
 40
0.0
 40
0.0
 40
0.1919196009
 40
0.3770178921
 40
0.5478071214
 40
0.6981406713
 40
0.8225120486
 40
0.8734267678
 40
0.9162215596
 40
0.9504894006
 40
0.9759096769
 40
0.9923645993
 40
1.0
 40
1.0
 40
1.0
 40
1.0
 10
110.9351392431
 20
139.8346405222
 30
0.0
 10
111.0312413875
 20
139.8346407443
 30
0.0
 10
111.220030923
 20
139.8352741962
 30
0.0
 10
111.4943273423
 20
139.8380758321
 30
0.0
 10
111.7477801525
 20
139.8426160218
 30
0.0
 10
111.9707646177
 20
139.8487236365
 30
0.0
 10
112.1337277745
 20
139.8551550892
 30
0.0
 10
112.2427156138
 20
139.8612184116
 30
0.0
 10
112.3067583235
 20
139.8655967462
 30
0.0
 10
112.3575826664
 20
139.8702941609
 30
0.0
 10
112.3961468191
 20
139.874584555
 30
0.0
 10
112.4191758025
 20
139.8796612213
 30
0.0
 10
112.4324822583
 20
139.8826312293
 30
0.0
 10
112.4345613143
 20
139.8858399102
 30
0.0
  0
SPLINE
  5
24C
100
AcDbEntity
  8
0
100
AcDbSpline
 62
7
  6
BYLAYER
 70
0
 71
3
 72
18
 73
14
 74
0
 42
0.0000001
 43
0.0000001
 44
0.0000000001
 40
0.0
 40
0.0
 40
0.0
 40
0.0
 40
0.0076360099
 40
0.0240924999
 40
0.0495144904
 40
0.0837834682
 40
0.1265787378
 40
0.1774935071
 40
0.3018644623
 40
0.4521970705
 40
0.6229848632
 40
0.8080815679
 40
1.0
 40
1.0
 40
1.0
 40
1.0
 10
23.4577612478
 20
139.8858389097
 30
0.0
 10
23.4598404054
 20
139.8826300309
 30
0.0
 10
23.4731482135
 20
139.879660634
 30
0.0
 10
23.4961783083
 20
139.8745838172
 30
0.0
 10
23.534744017
 20
139.870293737
 30
0.0
 10
23.58556886
 20
139.8655963637
 30
0.0
 10
23.6496110203
 20
139.8612181582
 30
0.0
 10
23.7585965179
 20
139.855154992
 30
0.0
 10
23.9215554491
 20
139.848723708
 30
0.0
 10
24.1445336221
 20
139.8426162245
 30
0.0
 10
24.3979788906
 20
139.8380761039
 30
0.0
 10
24.6722671955
 20
139.8352743135
 30
0.0
 10
24.8610512132
 20
139.8346407429
 30
0.0
 10
24.9571506657
 20
139.8346405222
 30
0.0
  0
ENDSEC
  0
SECTION
  2
OBJECTS
  0
DICTIONARY
  5
C
100
AcDbDictionary
280
0
281
1
  3
ACAD_GROUP
350
D
  3
ACAD_MLINESTYLE
350
17
  3
ACAD_LAYOUT
350
1A
  3
ACAD_PLOTSETTINGS
350
19
  3
ACAD_PLOTSTYLENAME
350
E
  0
DICTIONARY
  5
D
102
{ACAD_REACTORS
330
C
102
}
100
AcDbDictionary
280
0
281
1
  0
ACDBDICTIONARYWDFLT
  5
E
102
{ACAD_REACTORS
330
C
102
}
100
AcDbDictionary
281
1
  3
Normal
350
F
100
AcDbDictionaryWithDefault
340
F
  0
DICTIONARY
  5
17
102
{ACAD_REACTORS
330
C
102
}
100
AcDbDictionary
280
0
281
1
  3
Standard
350
18
  0
DICTIONARY
  5
19
102
{ACAD_REACTORS
330
C
102
}
100
AcDbDictionary
281
1
  0
DICTIONARY
  5
1A
102
{ACAD_REACTORS
330
C
102
}
100
AcDbDictionary
281
1
  3
Model
350
24D
  3
Layout1
350
24E
  0
ACDBPLACEHOLDER
  5
F
102
{ACAD_REACTORS
330
E
102
}
  0
MLINESTYLE
  5
18
102
{ACAD_REACTORS
330
17
102
}
100
AcDbMlineStyle
  2
STANDARD
 70
0
  3

 62
256
 51
90.0
 52
90.0
 71
2
 49
0.5
 62
256
  6
BYLAYER
 49
-0.5
 62
256
  6
BYLAYER
  0
LAYOUT
  5
24D
102
{ACAD_REACTORS
330
1A
102
}
100
AcDbPlotSettings
  1

  2
none_device
  4

  6

 40
0.0
 41
0.0
 42
0.0
 43
0.0
 44
210.0
 45
297.0
 46
0.0
 47
0.0
 48
0.0
 49
0.0
140
0.0
141
0.0
142
1.0
143
1.0
 70
1024
 72
1
 73
0
 74
0
  7

 75
0
147
1.0
148
0.0
149
0.0
100
AcDbLayout
  1
Model
 70
0
 71
0
 10
0.0
 20
0.0
 11
210.0
 21
297.0
 12
0.0
 22
0.0
 32
0.0
 14
0.0
 24
0.0
 34
0.0
 15
0.0
 25
0.0
 35
0.0
146
0.0
 13
0.0
 23
0.0
 33
0.0
 16
1.0
 26
0.0
 36
0.0
 17
0.0
 27
1.0
 37
0.0
 76
0
330
210
345
0
346
0
  0
LAYOUT
  5
24E
102
{ACAD_REACTORS
330
1A
102
}
100
AcDbPlotSettings
  1

  2
none_device
  4

  6

 40
0.0
 41
0.0
 42
0.0
 43
0.0
 44
210.0
 45
297.0
 46
0.0
 47
0.0
 48
0.0
 49
0.0
140
0.0
141
0.0
142
1.0
143
1.0
 70
0
 72
1
 73
0
 74
0
  7

 75
0
147
1.0
148
0.0
149
0.0
100
AcDbLayout
  1
Layout1
 70
0
 71
1
 10
0.0
 20
0.0
 11
210.0
 21
297.0
 12
0.0
 22
0.0
 32
0.0
 14
0.0
 24
0.0
 34
0.0
 15
0.0
 25
0.0
 35
0.0
146
0.0
 13
0.0
 23
0.0
 33
0.0
 16
1.0
 26
0.0
 36
0.0
 17
0.0
 27
1.0
 37
0.0
 76
0
330
211
345
0
346
0
  0
ENDSEC
  0
EOF
