  0
SECTION
  2
HEADER
  9
$ACADVER
  1
AC1009
  9
$DWGCODEPAGE
  3
ansi_1250
  9
$INSBASE
 10
0.0
 20
0.0
 30
0.0
  9
$EXTMIN
 10
-5.728346
 20
-1.212598
 30
0.0
  9
$EXTMAX
 10
5.728346
 20
9.496063
 30
0.0
  9
$LIMMIN
 10
0.0
 20
0.0
  9
$LIMMAX
 10
0.0
 20
0.0
  9
$ORTHOMODE
 70
     0
  9
$REGENMODE
 70
     1
  9
$FILLMODE
 70
     1
  9
$QTEXTMODE
 70
     0
  9
$MIRRTEXT
 70
     1
  9
$DRAGMODE
 70
     2
  9
$LTSCALE
 40
1.0
  9
$OSMODE
 70
     0
  9
$ATTMODE
 70
     1
  9
$TEXTSIZE
 40
0.2
  9
$TRACEWID
 40
0.05
  9
$TEXTSTYLE
  7
STANDARD
  9
$CLAYER
  8
0
  9
$CELTYPE
  6
CONTINUOUS
  9
$CECOLOR
 62
   256
  9
$DIMSCALE
 40
1.0
  9
$DIMASZ
 40
0.18
  9
$DIMEXO
 40
0.0625
  9
$DIMDLI
 40
0.38
  9
$DIMRND
 40
0.0
  9
$DIMDLE
 40
0.0
  9
$DIMEXE
 40
0.18
  9
$DIMTP
 40
0.0
  9
$DIMTM
 40
0.0
  9
$DIMTXT
 40
0.18
  9
$DIMCEN
 40
0.09
  9
$DIMTSZ
 40
0.0
  9
$DIMTOL
 70
     0
  9
$DIMLIM
 70
     0
  9
$DIMTIH
 70
     1
  9
$DIMTOH
 70
     1
  9
$DIMSE1
 70
     0
  9
$DIMSE2
 70
     0
  9
$DIMTAD
 70
     0
  9
$DIMZIN
 70
     0
  9
$DIMBLK
  1

  9
$DIMASO
 70
     1
  9
$DIMSHO
 70
     1
  9
$DIMPOST
  1

  9
$DIMAPOST
  1

  9
$DIMALT
 70
     0
  9
$DIMALTD
 70
     2
  9
$DIMALTF
 40
25.4
  9
$DIMLFAC
 40
1.0
  9
$DIMTOFL
 70
     0
  9
$DIMTVP
 40
0.0
  9
$DIMTIX
 70
     0
  9
$DIMSOXD
 70
     0
  9
$DIMSAH
 70
     0
  9
$DIMBLK1
  1

  9
$DIMBLK2
  1

  9
$DIMSTYLE
  2
STANDARD
  9
$DIMCLRD
 70
     0
  9
$DIMCLRE
 70
     0
  9
$DIMCLRT
 70
     0
  9
$DIMTFAC
 40
1.0
  9
$DIMGAP
 40
0.09
  9
$LUNITS
 70
     2
  9
$LUPREC
 70
     4
  9
$AXISMODE
 70
     0
  9
$AXISUNIT
 10
0.0
 20
0.0
  9
$SKETCHINC
 40
0.1
  9
$FILLETRAD
 40
0.0
  9
$AUNITS
 70
     0
  9
$AUPREC
 70
     0
  9
$MENU
  1
acad
  9
$ELEVATION
 40
0.0
  9
$PELEVATION
 40
0.0
  9
$THICKNESS
 40
0.0
  9
$LIMCHECK
 70
     0
  9
$BLIPMODE
 70
     1
  9
$CHAMFERA
 40
0.0
  9
$CHAMFERB
 40
0.0
  9
$SKPOLY
 70
     0
  9
$TDCREATE
 40
0.000000000
  9
$TDUPDATE
 40
0.000000000
  9
$TDINDWG
 40
0.0000000000
  9
$TDUSRTIMER
 40
0.0000000000
  9
$USRTIMER
 70
     1
  9
$ANGBASE
 50
0.0
  9
$ANGDIR
 70
     0
  9
$PDMODE
 70
     0
  9
$PDSIZE
 40
0.0
  9
$PLINEWID
 40
0.0
  9
$COORDS
 70
     0
  9
$SPLFRAME
 70
     0
  9
$SPLINETYPE
 70
     6
  9
$SPLINESEGS
 70
     8
  9
$ATTDIA
 70
     0
  9
$ATTREQ
 70
     1
  9
$HANDLING
 70
     1
  9
$HANDSEED
  5
4A3
  9
$SURFTAB1
 70
     6
  9
$SURFTAB2
 70
     6
  9
$SURFTYPE
 70
     6
  9
$SURFU
 70
     6
  9
$SURFV
 70
     6
  9
$UCSNAME
  2

  9
$UCSORG
 10
0.0
 20
0.0
 30
0.0
  9
$UCSXDIR
 10
1.0
 20
0.0
 30
0.0
  9
$UCSYDIR
 10
0.0
 20
1.0
 30
0.0
  9
$PUCSNAME
  2

  9
$PUCSORG
 10
0.0
 20
0.0
 30
0.0
  9
$PUCSXDIR
 10
1.0
 20
0.0
 30
0.0
  9
$PUCSYDIR
 10
0.0
 20
1.0
 30
0.0
  9
$USERI1
 70
     0
  9
$USERI2
 70
     0
  9
$USERI3
 70
     0
  9
$USERI4
 70
     0
  9
$USERI5
 70
     0
  9
$USERR1
 40
0.0
  9
$USERR2
 40
0.0
  9
$USERR3
 40
0.0
  9
$USERR4
 40
0.0
  9
$USERR5
 40
0.0
  9
$WORLDVIEW
 70
     1
  9
$SHADEDGE
 70
     3
  9
$SHADEDIF
 70
    70
  9
$TILEMODE
 70
     1
  9
$MAXACTVP
 70
    16
  9
$PINSBASE
 10
0.0
 20
0.0
 30
0.0
  9
$PLIMCHECK
 70
     0
  9
$PEXTMIN
 10
1.000000E+20
 20
1.000000E+20
 30
1.000000E+20
  9
$PEXTMAX
 10
-1.000000E+20
 20
-1.000000E+20
 30
-1.000000E+20
  9
$PLIMMIN
 10
0.0
 20
0.0
  9
$PLIMMAX
 10
12.0
 20
9.0
  9
$UNITMODE
 70
     0
  9
$VISRETAIN
 70
     0
  9
$PLINEGEN
 70
     1
  9
$PSLTSCALE
 70
     0
  9
$TREEDEPTH
 70
  3020
  0
ENDSEC
  0
SECTION
  2
TABLES
  0
TABLE
  2
VPORT
 70
     1
  0
VPORT
  2
*ACTIVE
 70
     0
 10
0.0
 20
0.0
 11
1.0
 21
1.0
 12
6.591288
 22
4.579184
 13
0.0
 23
0.0
 14
1.0
 24
1.0
 15
0.0
 25
0.0
 16
0.0
 26
0.0
 36
1.0
 17
0.0
 27
0.0
 37
0.0
 40
9.158369
 41
0.688564
 42
50.0
 43
0.0
 44
0.0
 50
0.0
 51
0.0
 71
     0
 72
   100
 73
     1
 74
     1
 75
     0
 76
     0
 77
     0
 78
     0
  0
ENDTAB
  0
TABLE
  2
LTYPE
 70
     5
  0
LTYPE
  2
CONTINUOUS
 70
    64
  3
Solid line
 72
    65
 73
     0
 40
0.0
  0
LTYPE
  2
CENTER
 70
    64
  3
Center ____ _ ____ _ ____ _ ____ _ ____ _ ____
 72
    65
 73
     4
 40
50.8
 49
31.75
 49
-6.35
 49
6.35
 49
-6.35
  0
LTYPE
  2
HIDDEN
 70
    64
  3
Hidden __ __ __ __ __ __ __ __ __ __ __ __ __ __
 72
    65
 73
     2
 40
9.525
 49
6.35
 49
-3.175
  0
LTYPE
  2
CENTER2
 70
    64
  3
Center (.5x) ___ _ ___ _ ___ _ ___ _ ___ _ ___
 72
    65
 73
     4
 40
28.575
 49
19.05
 49
-3.175
 49
3.175
 49
-3.175
  0
LTYPE
  2
HIDDEN2
 70
    64
  3
Hidden (.5x) _ _ _ _ _ _ _ _ _ _ _ _ _ _ _ _ _
 72
    65
 73
     2
 40
4.7625
 49
3.175
 49
-1.5875
  0
ENDTAB
  0
TABLE
  2
LAYER
 70
     1
  0
LAYER
  2
0
 70
     0
 62
     7
  6
CONTINUOUS
  0
ENDTAB
  0
TABLE
  2
STYLE
 70
     1
  0
STYLE
  2
STANDARD
 70
     0
 40
0.0
 41
1.0
 50
0.0
 71
     0
 42
0.0
  3
txt
  4

  0
ENDTAB
  0
TABLE
  2
VIEW
 70
     0
  0
ENDTAB
  0
TABLE
  2
UCS
 70
     0
  0
ENDTAB
  0
TABLE
  2
APPID
 70
     1
  0
APPID
  2
ACAD
 70
     0
  0
ENDTAB
  0
TABLE
  2
DIMSTYLE
 70
     1
  0
DIMSTYLE
  2
STANDARD
 70
     0
  3

  4

  5

  6

  7

 40
1.0
 41
0.18
 42
0.0625
 43
0.38
 44
0.18
 45
0.0
 46
0.0
 47
0.0
 48
0.0
 71
     0
 72
     0
 73
     1
 74
     1
 75
     0
 76
     0
 77
     0
 78
     0
140
0.18
141
0.09
142
0.0
143
25.4
144
1.0
145
0.0
146
1.0
147
0.09
170
     0
171
     2
172
     0
173
     0
174
     0
175
     0
176
     0
177
     0
178
     0
  0
ENDTAB
  0
ENDSEC
  0
SECTION
  2
BLOCKS
  0
ENDSEC
  0
SECTION
  2
ENTITIES
  0
LINE
  8
0
  6
CONTINUOUS
 62
     7
  5
275
 10
-1.593684
 20
-0.031417
 30
0.0
 11
-2.041699
 21
-0.031417
 31
0.0
  0
LINE
  8
0
  6
CONTINUOUS
 62
     7
  5
276
 10
-0.697655
 20
-0.031417
 30
0.0
 11
-1.593684
 21
-0.031417
 31
0.0
  0
LINE
  8
0
  6
CONTINUOUS
 62
     7
  5
277
 10
-0.24964
 20
-0.031417
 30
0.0
 11
-0.697655
 21
-0.031417
 31
0.0
  0
LINE
  8
0
  6
CONTINUOUS
 62
     7
  5
278
 10
-0.379278
 20
-1.212598
 30
0.0
 11
-0.375743
 21
-1.209653
 31
0.0
  0
LINE
  8
0
  6
CONTINUOUS
 62
     7
  5
279
 10
-0.375743
 20
-1.209653
 30
0.0
 11
-0.372203
 21
-1.206601
 31
0.0
  0
LINE
  8
0
  6
CONTINUOUS
 62
     7
  5
27A
 10
-0.372203
 20
-1.206601
 30
0.0
 11
-0.368656
 21
-1.203443
 31
0.0
  0
LINE
  8
0
  6
CONTINUOUS
 62
     7
  5
27B
 10
-0.368656
 20
-1.203443
 30
0.0
 11
-0.365104
 21
-1.200178
 31
0.0
  0
LINE
  8
0
  6
CONTINUOUS
 62
     7
  5
27C
 10
-0.365104
 20
-1.200178
 30
0.0
 11
-0.361545
 21
-1.196806
 31
0.0
  0
LINE
  8
0
  6
CONTINUOUS
 62
     7
  5
27D
 10
-0.361545
 20
-1.196806
 30
0.0
 11
-0.357978
 21
-1.193327
 31
0.0
  0
LINE
  8
0
  6
CONTINUOUS
 62
     7
  5
27E
 10
-0.357978
 20
-1.193327
 30
0.0
 11
-0.354405
 21
-1.18974
 31
0.0
  0
LINE
  8
0
  6
CONTINUOUS
 62
     7
  5
27F
 10
-0.354405
 20
-1.18974
 30
0.0
 11
-0.350824
 21
-1.186046
 31
0.0
  0
LINE
  8
0
  6
CONTINUOUS
 62
     7
  5
280
 10
-0.350824
 20
-1.186046
 30
0.0
 11
-0.347234
 21
-1.182243
 31
0.0
  0
LINE
  8
0
  6
CONTINUOUS
 62
     7
  5
281
 10
-0.347234
 20
-1.182243
 30
0.0
 11
-0.343636
 21
-1.178333
 31
0.0
  0
LINE
  8
0
  6
CONTINUOUS
 62
     7
  5
282
 10
-0.343636
 20
-1.178333
 30
0.0
 11
-0.340029
 21
-1.174313
 31
0.0
  0
LINE
  8
0
  6
CONTINUOUS
 62
     7
  5
283
 10
-0.340029
 20
-1.174313
 30
0.0
 11
-0.336412
 21
-1.170184
 31
0.0
  0
LINE
  8
0
  6
CONTINUOUS
 62
     7
  5
284
 10
-0.336412
 20
-1.170184
 30
0.0
 11
-0.332786
 21
-1.165946
 31
0.0
  0
LINE
  8
0
  6
CONTINUOUS
 62
     7
  5
285
 10
-0.332786
 20
-1.165946
 30
0.0
 11
-0.329149
 21
-1.161598
 31
0.0
  0
LINE
  8
0
  6
CONTINUOUS
 62
     7
  5
286
 10
-0.329149
 20
-1.161598
 30
0.0
 11
-0.325501
 21
-1.15714
 31
0.0
  0
LINE
  8
0
  6
CONTINUOUS
 62
     7
  5
287
 10
-0.325501
 20
-1.15714
 30
0.0
 11
-0.321843
 21
-1.15257
 31
0.0
  0
LINE
  8
0
  6
CONTINUOUS
 62
     7
  5
288
 10
-0.321843
 20
-1.15257
 30
0.0
 11
-0.318173
 21
-1.14789
 31
0.0
  0
LINE
  8
0
  6
CONTINUOUS
 62
     7
  5
289
 10
-0.318173
 20
-1.14789
 30
0.0
 11
-0.314491
 21
-1.143097
 31
0.0
  0
LINE
  8
0
  6
CONTINUOUS
 62
     7
  5
28A
 10
-0.314491
 20
-1.143097
 30
0.0
 11
-0.310796
 21
-1.138192
 31
0.0
  0
LINE
  8
0
  6
CONTINUOUS
 62
     7
  5
28B
 10
-0.310796
 20
-1.138192
 30
0.0
 11
-0.307089
 21
-1.133174
 31
0.0
  0
LINE
  8
0
  6
CONTINUOUS
 62
     7
  5
28C
 10
-0.307089
 20
-1.133174
 30
0.0
 11
-0.303369
 21
-1.128042
 31
0.0
  0
LINE
  8
0
  6
CONTINUOUS
 62
     7
  5
28D
 10
-0.303369
 20
-1.128042
 30
0.0
 11
-0.299634
 21
-1.122796
 31
0.0
  0
LINE
  8
0
  6
CONTINUOUS
 62
     7
  5
28E
 10
-0.299634
 20
-1.122796
 30
0.0
 11
-0.295886
 21
-1.117435
 31
0.0
  0
LINE
  8
0
  6
CONTINUOUS
 62
     7
  5
28F
 10
-0.295886
 20
-1.117435
 30
0.0
 11
-0.292123
 21
-1.111958
 31
0.0
  0
LINE
  8
0
  6
CONTINUOUS
 62
     7
  5
290
 10
-0.292123
 20
-1.111958
 30
0.0
 11
-0.288345
 21
-1.106365
 31
0.0
  0
LINE
  8
0
  6
CONTINUOUS
 62
     7
  5
291
 10
-0.288345
 20
-1.106365
 30
0.0
 11
-0.284552
 21
-1.100655
 31
0.0
  0
LINE
  8
0
  6
CONTINUOUS
 62
     7
  5
292
 10
-0.284552
 20
-1.100655
 30
0.0
 11
-0.280743
 21
-1.094827
 31
0.0
  0
LINE
  8
0
  6
CONTINUOUS
 62
     7
  5
293
 10
-0.280743
 20
-1.094827
 30
0.0
 11
-0.276917
 21
-1.088881
 31
0.0
  0
LINE
  8
0
  6
CONTINUOUS
 62
     7
  5
294
 10
-0.276917
 20
-1.088881
 30
0.0
 11
-0.273075
 21
-1.082815
 31
0.0
  0
LINE
  8
0
  6
CONTINUOUS
 62
     7
  5
295
 10
-0.273075
 20
-1.082815
 30
0.0
 11
-0.269215
 21
-1.076628
 31
0.0
  0
LINE
  8
0
  6
CONTINUOUS
 62
     7
  5
296
 10
-0.269215
 20
-1.076628
 30
0.0
 11
-0.265338
 21
-1.07032
 31
0.0
  0
LINE
  8
0
  6
CONTINUOUS
 62
     7
  5
297
 10
-0.265338
 20
-1.07032
 30
0.0
 11
-0.261442
 21
-1.063891
 31
0.0
  0
LINE
  8
0
  6
CONTINUOUS
 62
     7
  5
298
 10
-0.261442
 20
-1.063891
 30
0.0
 11
-0.257527
 21
-1.057338
 31
0.0
  0
LINE
  8
0
  6
CONTINUOUS
 62
     7
  5
299
 10
-0.257527
 20
-1.057338
 30
0.0
 11
-0.253593
 21
-1.05066
 31
0.0
  0
LINE
  8
0
  6
CONTINUOUS
 62
     7
  5
29A
 10
-0.253593
 20
-1.05066
 30
0.0
 11
-0.24964
 21
-1.043858
 31
0.0
  0
LINE
  8
0
  6
CONTINUOUS
 62
     7
  5
29B
 10
-0.347062
 20
-1.212598
 30
0.0
 11
-0.379278
 21
-1.212598
 31
0.0
  0
LINE
  8
0
  6
CONTINUOUS
 62
     7
  5
29C
 10
-0.697655
 20
-1.043858
 30
0.0
 11
-0.693701
 21
-1.05066
 31
0.0
  0
LINE
  8
0
  6
CONTINUOUS
 62
     7
  5
29D
 10
-0.693701
 20
-1.05066
 30
0.0
 11
-0.689767
 21
-1.057338
 31
0.0
  0
LINE
  8
0
  6
CONTINUOUS
 62
     7
  5
29E
 10
-0.689767
 20
-1.057338
 30
0.0
 11
-0.685853
 21
-1.063891
 31
0.0
  0
LINE
  8
0
  6
CONTINUOUS
 62
     7
  5
29F
 10
-0.685853
 20
-1.063891
 30
0.0
 11
-0.681957
 21
-1.07032
 31
0.0
  0
LINE
  8
0
  6
CONTINUOUS
 62
     7
  5
2A0
 10
-0.681957
 20
-1.07032
 30
0.0
 11
-0.678079
 21
-1.076628
 31
0.0
  0
LINE
  8
0
  6
CONTINUOUS
 62
     7
  5
2A1
 10
-0.678079
 20
-1.076628
 30
0.0
 11
-0.67422
 21
-1.082815
 31
0.0
  0
LINE
  8
0
  6
CONTINUOUS
 62
     7
  5
2A2
 10
-0.67422
 20
-1.082815
 30
0.0
 11
-0.670377
 21
-1.088881
 31
0.0
  0
LINE
  8
0
  6
CONTINUOUS
 62
     7
  5
2A3
 10
-0.670377
 20
-1.088881
 30
0.0
 11
-0.666552
 21
-1.094827
 31
0.0
  0
LINE
  8
0
  6
CONTINUOUS
 62
     7
  5
2A4
 10
-0.666552
 20
-1.094827
 30
0.0
 11
-0.662742
 21
-1.100655
 31
0.0
  0
LINE
  8
0
  6
CONTINUOUS
 62
     7
  5
2A5
 10
-0.662742
 20
-1.100655
 30
0.0
 11
-0.658949
 21
-1.106365
 31
0.0
  0
LINE
  8
0
  6
CONTINUOUS
 62
     7
  5
2A6
 10
-0.658949
 20
-1.106365
 30
0.0
 11
-0.655171
 21
-1.111958
 31
0.0
  0
LINE
  8
0
  6
CONTINUOUS
 62
     7
  5
2A7
 10
-0.655171
 20
-1.111958
 30
0.0
 11
-0.651408
 21
-1.117435
 31
0.0
  0
LINE
  8
0
  6
CONTINUOUS
 62
     7
  5
2A8
 10
-0.651408
 20
-1.117435
 30
0.0
 11
-0.64766
 21
-1.122796
 31
0.0
  0
LINE
  8
0
  6
CONTINUOUS
 62
     7
  5
2A9
 10
-0.64766
 20
-1.122796
 30
0.0
 11
-0.643926
 21
-1.128042
 31
0.0
  0
LINE
  8
0
  6
CONTINUOUS
 62
     7
  5
2AA
 10
-0.643926
 20
-1.128042
 30
0.0
 11
-0.640205
 21
-1.133174
 31
0.0
  0
LINE
  8
0
  6
CONTINUOUS
 62
     7
  5
2AB
 10
-0.640205
 20
-1.133174
 30
0.0
 11
-0.636498
 21
-1.138192
 31
0.0
  0
LINE
  8
0
  6
CONTINUOUS
 62
     7
  5
2AC
 10
-0.636498
 20
-1.138192
 30
0.0
 11
-0.632804
 21
-1.143097
 31
0.0
  0
LINE
  8
0
  6
CONTINUOUS
 62
     7
  5
2AD
 10
-0.632804
 20
-1.143097
 30
0.0
 11
-0.629122
 21
-1.14789
 31
0.0
  0
LINE
  8
0
  6
CONTINUOUS
 62
     7
  5
2AE
 10
-0.629122
 20
-1.14789
 30
0.0
 11
-0.625452
 21
-1.15257
 31
0.0
  0
LINE
  8
0
  6
CONTINUOUS
 62
     7
  5
2AF
 10
-0.625452
 20
-1.15257
 30
0.0
 11
-0.621793
 21
-1.15714
 31
0.0
  0
LINE
  8
0
  6
CONTINUOUS
 62
     7
  5
2B0
 10
-0.621793
 20
-1.15714
 30
0.0
 11
-0.618146
 21
-1.161598
 31
0.0
  0
LINE
  8
0
  6
CONTINUOUS
 62
     7
  5
2B1
 10
-0.618146
 20
-1.161598
 30
0.0
 11
-0.614509
 21
-1.165946
 31
0.0
  0
LINE
  8
0
  6
CONTINUOUS
 62
     7
  5
2B2
 10
-0.614509
 20
-1.165946
 30
0.0
 11
-0.610882
 21
-1.170184
 31
0.0
  0
LINE
  8
0
  6
CONTINUOUS
 62
     7
  5
2B3
 10
-0.610882
 20
-1.170184
 30
0.0
 11
-0.607266
 21
-1.174313
 31
0.0
  0
LINE
  8
0
  6
CONTINUOUS
 62
     7
  5
2B4
 10
-0.607266
 20
-1.174313
 30
0.0
 11
-0.603659
 21
-1.178333
 31
0.0
  0
LINE
  8
0
  6
CONTINUOUS
 62
     7
  5
2B5
 10
-0.603659
 20
-1.178333
 30
0.0
 11
-0.60006
 21
-1.182243
 31
0.0
  0
LINE
  8
0
  6
CONTINUOUS
 62
     7
  5
2B6
 10
-0.60006
 20
-1.182243
 30
0.0
 11
-0.596471
 21
-1.186046
 31
0.0
  0
LINE
  8
0
  6
CONTINUOUS
 62
     7
  5
2B7
 10
-0.596471
 20
-1.186046
 30
0.0
 11
-0.592889
 21
-1.18974
 31
0.0
  0
LINE
  8
0
  6
CONTINUOUS
 62
     7
  5
2B8
 10
-0.592889
 20
-1.18974
 30
0.0
 11
-0.589316
 21
-1.193327
 31
0.0
  0
LINE
  8
0
  6
CONTINUOUS
 62
     7
  5
2B9
 10
-0.589316
 20
-1.193327
 30
0.0
 11
-0.58575
 21
-1.196806
 31
0.0
  0
LINE
  8
0
  6
CONTINUOUS
 62
     7
  5
2BA
 10
-0.58575
 20
-1.196806
 30
0.0
 11
-0.582191
 21
-1.200178
 31
0.0
  0
LINE
  8
0
  6
CONTINUOUS
 62
     7
  5
2BB
 10
-0.582191
 20
-1.200178
 30
0.0
 11
-0.578638
 21
-1.203443
 31
0.0
  0
LINE
  8
0
  6
CONTINUOUS
 62
     7
  5
2BC
 10
-0.578638
 20
-1.203443
 30
0.0
 11
-0.575092
 21
-1.206601
 31
0.0
  0
LINE
  8
0
  6
CONTINUOUS
 62
     7
  5
2BD
 10
-0.575092
 20
-1.206601
 30
0.0
 11
-0.571551
 21
-1.209653
 31
0.0
  0
LINE
  8
0
  6
CONTINUOUS
 62
     7
  5
2BE
 10
-0.571551
 20
-1.209653
 30
0.0
 11
-0.568016
 21
-1.212598
 31
0.0
  0
LINE
  8
0
  6
CONTINUOUS
 62
     7
  5
2BF
 10
-0.956931
 20
-1.212598
 30
0.0
 11
-0.949861
 21
-1.209653
 31
0.0
  0
LINE
  8
0
  6
CONTINUOUS
 62
     7
  5
2C0
 10
-0.949861
 20
-1.209653
 30
0.0
 11
-0.94278
 21
-1.206601
 31
0.0
  0
LINE
  8
0
  6
CONTINUOUS
 62
     7
  5
2C1
 10
-0.94278
 20
-1.206601
 30
0.0
 11
-0.935687
 21
-1.203443
 31
0.0
  0
LINE
  8
0
  6
CONTINUOUS
 62
     7
  5
2C2
 10
-0.935687
 20
-1.203443
 30
0.0
 11
-0.928582
 21
-1.200178
 31
0.0
  0
LINE
  8
0
  6
CONTINUOUS
 62
     7
  5
2C3
 10
-0.928582
 20
-1.200178
 30
0.0
 11
-0.921464
 21
-1.196806
 31
0.0
  0
LINE
  8
0
  6
CONTINUOUS
 62
     7
  5
2C4
 10
-0.921464
 20
-1.196806
 30
0.0
 11
-0.914332
 21
-1.193327
 31
0.0
  0
LINE
  8
0
  6
CONTINUOUS
 62
     7
  5
2C5
 10
-0.914332
 20
-1.193327
 30
0.0
 11
-0.907185
 21
-1.18974
 31
0.0
  0
LINE
  8
0
  6
CONTINUOUS
 62
     7
  5
2C6
 10
-0.907185
 20
-1.18974
 30
0.0
 11
-0.900022
 21
-1.186046
 31
0.0
  0
LINE
  8
0
  6
CONTINUOUS
 62
     7
  5
2C7
 10
-0.900022
 20
-1.186046
 30
0.0
 11
-0.892843
 21
-1.182243
 31
0.0
  0
LINE
  8
0
  6
CONTINUOUS
 62
     7
  5
2C8
 10
-0.892843
 20
-1.182243
 30
0.0
 11
-0.885647
 21
-1.178333
 31
0.0
  0
LINE
  8
0
  6
CONTINUOUS
 62
     7
  5
2C9
 10
-0.885647
 20
-1.178333
 30
0.0
 11
-0.878432
 21
-1.174313
 31
0.0
  0
LINE
  8
0
  6
CONTINUOUS
 62
     7
  5
2CA
 10
-0.878432
 20
-1.174313
 30
0.0
 11
-0.871199
 21
-1.170184
 31
0.0
  0
LINE
  8
0
  6
CONTINUOUS
 62
     7
  5
2CB
 10
-0.871199
 20
-1.170184
 30
0.0
 11
-0.863946
 21
-1.165946
 31
0.0
  0
LINE
  8
0
  6
CONTINUOUS
 62
     7
  5
2CC
 10
-0.863946
 20
-1.165946
 30
0.0
 11
-0.856673
 21
-1.161598
 31
0.0
  0
LINE
  8
0
  6
CONTINUOUS
 62
     7
  5
2CD
 10
-0.856673
 20
-1.161598
 30
0.0
 11
-0.849378
 21
-1.15714
 31
0.0
  0
LINE
  8
0
  6
CONTINUOUS
 62
     7
  5
2CE
 10
-0.849378
 20
-1.15714
 30
0.0
 11
-0.842061
 21
-1.15257
 31
0.0
  0
LINE
  8
0
  6
CONTINUOUS
 62
     7
  5
2CF
 10
-0.842061
 20
-1.15257
 30
0.0
 11
-0.83472
 21
-1.14789
 31
0.0
  0
LINE
  8
0
  6
CONTINUOUS
 62
     7
  5
2D0
 10
-0.83472
 20
-1.14789
 30
0.0
 11
-0.827356
 21
-1.143097
 31
0.0
  0
LINE
  8
0
  6
CONTINUOUS
 62
     7
  5
2D1
 10
-0.827356
 20
-1.143097
 30
0.0
 11
-0.819967
 21
-1.138192
 31
0.0
  0
LINE
  8
0
  6
CONTINUOUS
 62
     7
  5
2D2
 10
-0.819967
 20
-1.138192
 30
0.0
 11
-0.812553
 21
-1.133174
 31
0.0
  0
LINE
  8
0
  6
CONTINUOUS
 62
     7
  5
2D3
 10
-0.812553
 20
-1.133174
 30
0.0
 11
-0.805112
 21
-1.128042
 31
0.0
  0
LINE
  8
0
  6
CONTINUOUS
 62
     7
  5
2D4
 10
-0.805112
 20
-1.128042
 30
0.0
 11
-0.797644
 21
-1.122796
 31
0.0
  0
LINE
  8
0
  6
CONTINUOUS
 62
     7
  5
2D5
 10
-0.797644
 20
-1.122796
 30
0.0
 11
-0.790147
 21
-1.117435
 31
0.0
  0
LINE
  8
0
  6
CONTINUOUS
 62
     7
  5
2D6
 10
-0.790147
 20
-1.117435
 30
0.0
 11
-0.782622
 21
-1.111958
 31
0.0
  0
LINE
  8
0
  6
CONTINUOUS
 62
     7
  5
2D7
 10
-0.782622
 20
-1.111958
 30
0.0
 11
-0.775066
 21
-1.106365
 31
0.0
  0
LINE
  8
0
  6
CONTINUOUS
 62
     7
  5
2D8
 10
-0.775066
 20
-1.106365
 30
0.0
 11
-0.767479
 21
-1.100655
 31
0.0
  0
LINE
  8
0
  6
CONTINUOUS
 62
     7
  5
2D9
 10
-0.767479
 20
-1.100655
 30
0.0
 11
-0.759861
 21
-1.094827
 31
0.0
  0
LINE
  8
0
  6
CONTINUOUS
 62
     7
  5
2DA
 10
-0.759861
 20
-1.094827
 30
0.0
 11
-0.752209
 21
-1.088881
 31
0.0
  0
LINE
  8
0
  6
CONTINUOUS
 62
     7
  5
2DB
 10
-0.752209
 20
-1.088881
 30
0.0
 11
-0.744525
 21
-1.082815
 31
0.0
  0
LINE
  8
0
  6
CONTINUOUS
 62
     7
  5
2DC
 10
-0.744525
 20
-1.082815
 30
0.0
 11
-0.736805
 21
-1.076628
 31
0.0
  0
LINE
  8
0
  6
CONTINUOUS
 62
     7
  5
2DD
 10
-0.736805
 20
-1.076628
 30
0.0
 11
-0.72905
 21
-1.07032
 31
0.0
  0
LINE
  8
0
  6
CONTINUOUS
 62
     7
  5
2DE
 10
-0.72905
 20
-1.07032
 30
0.0
 11
-0.721258
 21
-1.063891
 31
0.0
  0
LINE
  8
0
  6
CONTINUOUS
 62
     7
  5
2DF
 10
-0.721258
 20
-1.063891
 30
0.0
 11
-0.713429
 21
-1.057338
 31
0.0
  0
LINE
  8
0
  6
CONTINUOUS
 62
     7
  5
2E0
 10
-0.713429
 20
-1.057338
 30
0.0
 11
-0.705562
 21
-1.05066
 31
0.0
  0
LINE
  8
0
  6
CONTINUOUS
 62
     7
  5
2E1
 10
-0.705562
 20
-1.05066
 30
0.0
 11
-0.697655
 21
-1.043858
 31
0.0
  0
LINE
  8
0
  6
CONTINUOUS
 62
     7
  5
2E2
 10
-0.568016
 20
-1.212598
 30
0.0
 11
-0.956931
 21
-1.212598
 31
0.0
  0
LINE
  8
0
  6
CONTINUOUS
 62
     7
  5
2E3
 10
-1.593684
 20
-1.043858
 30
0.0
 11
-1.585777
 21
-1.05066
 31
0.0
  0
LINE
  8
0
  6
CONTINUOUS
 62
     7
  5
2E4
 10
-1.585777
 20
-1.05066
 30
0.0
 11
-1.577909
 21
-1.057338
 31
0.0
  0
LINE
  8
0
  6
CONTINUOUS
 62
     7
  5
2E5
 10
-1.577909
 20
-1.057338
 30
0.0
 11
-1.57008
 21
-1.063891
 31
0.0
  0
LINE
  8
0
  6
CONTINUOUS
 62
     7
  5
2E6
 10
-1.57008
 20
-1.063891
 30
0.0
 11
-1.562289
 21
-1.07032
 31
0.0
  0
LINE
  8
0
  6
CONTINUOUS
 62
     7
  5
2E7
 10
-1.562289
 20
-1.07032
 30
0.0
 11
-1.554534
 21
-1.076628
 31
0.0
  0
LINE
  8
0
  6
CONTINUOUS
 62
     7
  5
2E8
 10
-1.554534
 20
-1.076628
 30
0.0
 11
-1.546814
 21
-1.082815
 31
0.0
  0
LINE
  8
0
  6
CONTINUOUS
 62
     7
  5
2E9
 10
-1.546814
 20
-1.082815
 30
0.0
 11
-1.539129
 21
-1.088881
 31
0.0
  0
LINE
  8
0
  6
CONTINUOUS
 62
     7
  5
2EA
 10
-1.539129
 20
-1.088881
 30
0.0
 11
-1.531478
 21
-1.094827
 31
0.0
  0
LINE
  8
0
  6
CONTINUOUS
 62
     7
  5
2EB
 10
-1.531478
 20
-1.094827
 30
0.0
 11
-1.523859
 21
-1.100655
 31
0.0
  0
LINE
  8
0
  6
CONTINUOUS
 62
     7
  5
2EC
 10
-1.523859
 20
-1.100655
 30
0.0
 11
-1.516273
 21
-1.106365
 31
0.0
  0
LINE
  8
0
  6
CONTINUOUS
 62
     7
  5
2ED
 10
-1.516273
 20
-1.106365
 30
0.0
 11
-1.508717
 21
-1.111958
 31
0.0
  0
LINE
  8
0
  6
CONTINUOUS
 62
     7
  5
2EE
 10
-1.508717
 20
-1.111958
 30
0.0
 11
-1.501191
 21
-1.117435
 31
0.0
  0
LINE
  8
0
  6
CONTINUOUS
 62
     7
  5
2EF
 10
-1.501191
 20
-1.117435
 30
0.0
 11
-1.493695
 21
-1.122796
 31
0.0
  0
LINE
  8
0
  6
CONTINUOUS
 62
     7
  5
2F0
 10
-1.493695
 20
-1.122796
 30
0.0
 11
-1.486227
 21
-1.128042
 31
0.0
  0
LINE
  8
0
  6
CONTINUOUS
 62
     7
  5
2F1
 10
-1.486227
 20
-1.128042
 30
0.0
 11
-1.478786
 21
-1.133174
 31
0.0
  0
LINE
  8
0
  6
CONTINUOUS
 62
     7
  5
2F2
 10
-1.478786
 20
-1.133174
 30
0.0
 11
-1.471371
 21
-1.138192
 31
0.0
  0
LINE
  8
0
  6
CONTINUOUS
 62
     7
  5
2F3
 10
-1.471371
 20
-1.138192
 30
0.0
 11
-1.463982
 21
-1.143097
 31
0.0
  0
LINE
  8
0
  6
CONTINUOUS
 62
     7
  5
2F4
 10
-1.463982
 20
-1.143097
 30
0.0
 11
-1.456618
 21
-1.14789
 31
0.0
  0
LINE
  8
0
  6
CONTINUOUS
 62
     7
  5
2F5
 10
-1.456618
 20
-1.14789
 30
0.0
 11
-1.449278
 21
-1.15257
 31
0.0
  0
LINE
  8
0
  6
CONTINUOUS
 62
     7
  5
2F6
 10
-1.449278
 20
-1.15257
 30
0.0
 11
-1.441961
 21
-1.15714
 31
0.0
  0
LINE
  8
0
  6
CONTINUOUS
 62
     7
  5
2F7
 10
-1.441961
 20
-1.15714
 30
0.0
 11
-1.434666
 21
-1.161598
 31
0.0
  0
LINE
  8
0
  6
CONTINUOUS
 62
     7
  5
2F8
 10
-1.434666
 20
-1.161598
 30
0.0
 11
-1.427392
 21
-1.165946
 31
0.0
  0
LINE
  8
0
  6
CONTINUOUS
 62
     7
  5
2F9
 10
-1.427392
 20
-1.165946
 30
0.0
 11
-1.42014
 21
-1.170184
 31
0.0
  0
LINE
  8
0
  6
CONTINUOUS
 62
     7
  5
2FA
 10
-1.42014
 20
-1.170184
 30
0.0
 11
-1.412906
 21
-1.174313
 31
0.0
  0
LINE
  8
0
  6
CONTINUOUS
 62
     7
  5
2FB
 10
-1.412906
 20
-1.174313
 30
0.0
 11
-1.405692
 21
-1.178333
 31
0.0
  0
LINE
  8
0
  6
CONTINUOUS
 62
     7
  5
2FC
 10
-1.405692
 20
-1.178333
 30
0.0
 11
-1.398496
 21
-1.182243
 31
0.0
  0
LINE
  8
0
  6
CONTINUOUS
 62
     7
  5
2FD
 10
-1.398496
 20
-1.182243
 30
0.0
 11
-1.391316
 21
-1.186046
 31
0.0
  0
LINE
  8
0
  6
CONTINUOUS
 62
     7
  5
2FE
 10
-1.391316
 20
-1.186046
 30
0.0
 11
-1.384154
 21
-1.18974
 31
0.0
  0
LINE
  8
0
  6
CONTINUOUS
 62
     7
  5
2FF
 10
-1.384154
 20
-1.18974
 30
0.0
 11
-1.377007
 21
-1.193327
 31
0.0
  0
LINE
  8
0
  6
CONTINUOUS
 62
     7
  5
300
 10
-1.377007
 20
-1.193327
 30
0.0
 11
-1.369875
 21
-1.196806
 31
0.0
  0
LINE
  8
0
  6
CONTINUOUS
 62
     7
  5
301
 10
-1.369875
 20
-1.196806
 30
0.0
 11
-1.362756
 21
-1.200178
 31
0.0
  0
LINE
  8
0
  6
CONTINUOUS
 62
     7
  5
302
 10
-1.362756
 20
-1.200178
 30
0.0
 11
-1.355651
 21
-1.203443
 31
0.0
  0
LINE
  8
0
  6
CONTINUOUS
 62
     7
  5
303
 10
-1.355651
 20
-1.203443
 30
0.0
 11
-1.348559
 21
-1.206601
 31
0.0
  0
LINE
  8
0
  6
CONTINUOUS
 62
     7
  5
304
 10
-1.348559
 20
-1.206601
 30
0.0
 11
-1.341478
 21
-1.209653
 31
0.0
  0
LINE
  8
0
  6
CONTINUOUS
 62
     7
  5
305
 10
-1.341478
 20
-1.209653
 30
0.0
 11
-1.334407
 21
-1.212598
 31
0.0
  0
LINE
  8
0
  6
CONTINUOUS
 62
     7
  5
306
 10
-1.723322
 20
-1.212598
 30
0.0
 11
-1.719787
 21
-1.209653
 31
0.0
  0
LINE
  8
0
  6
CONTINUOUS
 62
     7
  5
307
 10
-1.719787
 20
-1.209653
 30
0.0
 11
-1.716247
 21
-1.206601
 31
0.0
  0
LINE
  8
0
  6
CONTINUOUS
 62
     7
  5
308
 10
-1.716247
 20
-1.206601
 30
0.0
 11
-1.7127
 21
-1.203443
 31
0.0
  0
LINE
  8
0
  6
CONTINUOUS
 62
     7
  5
309
 10
-1.7127
 20
-1.203443
 30
0.0
 11
-1.709148
 21
-1.200178
 31
0.0
  0
LINE
  8
0
  6
CONTINUOUS
 62
     7
  5
30A
 10
-1.709148
 20
-1.200178
 30
0.0
 11
-1.705589
 21
-1.196806
 31
0.0
  0
LINE
  8
0
  6
CONTINUOUS
 62
     7
  5
30B
 10
-1.705589
 20
-1.196806
 30
0.0
 11
-1.702023
 21
-1.193327
 31
0.0
  0
LINE
  8
0
  6
CONTINUOUS
 62
     7
  5
30C
 10
-1.702023
 20
-1.193327
 30
0.0
 11
-1.698449
 21
-1.18974
 31
0.0
  0
LINE
  8
0
  6
CONTINUOUS
 62
     7
  5
30D
 10
-1.698449
 20
-1.18974
 30
0.0
 11
-1.694868
 21
-1.186046
 31
0.0
  0
LINE
  8
0
  6
CONTINUOUS
 62
     7
  5
30E
 10
-1.694868
 20
-1.186046
 30
0.0
 11
-1.691278
 21
-1.182243
 31
0.0
  0
LINE
  8
0
  6
CONTINUOUS
 62
     7
  5
30F
 10
-1.691278
 20
-1.182243
 30
0.0
 11
-1.68768
 21
-1.178333
 31
0.0
  0
LINE
  8
0
  6
CONTINUOUS
 62
     7
  5
310
 10
-1.68768
 20
-1.178333
 30
0.0
 11
-1.684073
 21
-1.174313
 31
0.0
  0
LINE
  8
0
  6
CONTINUOUS
 62
     7
  5
311
 10
-1.684073
 20
-1.174313
 30
0.0
 11
-1.680456
 21
-1.170184
 31
0.0
  0
LINE
  8
0
  6
CONTINUOUS
 62
     7
  5
312
 10
-1.680456
 20
-1.170184
 30
0.0
 11
-1.67683
 21
-1.165946
 31
0.0
  0
LINE
  8
0
  6
CONTINUOUS
 62
     7
  5
313
 10
-1.67683
 20
-1.165946
 30
0.0
 11
-1.673193
 21
-1.161598
 31
0.0
  0
LINE
  8
0
  6
CONTINUOUS
 62
     7
  5
314
 10
-1.673193
 20
-1.161598
 30
0.0
 11
-1.669546
 21
-1.15714
 31
0.0
  0
LINE
  8
0
  6
CONTINUOUS
 62
     7
  5
315
 10
-1.669546
 20
-1.15714
 30
0.0
 11
-1.665887
 21
-1.15257
 31
0.0
  0
LINE
  8
0
  6
CONTINUOUS
 62
     7
  5
316
 10
-1.665887
 20
-1.15257
 30
0.0
 11
-1.662217
 21
-1.14789
 31
0.0
  0
LINE
  8
0
  6
CONTINUOUS
 62
     7
  5
317
 10
-1.662217
 20
-1.14789
 30
0.0
 11
-1.658535
 21
-1.143097
 31
0.0
  0
LINE
  8
0
  6
CONTINUOUS
 62
     7
  5
318
 10
-1.658535
 20
-1.143097
 30
0.0
 11
-1.65484
 21
-1.138192
 31
0.0
  0
LINE
  8
0
  6
CONTINUOUS
 62
     7
  5
319
 10
-1.65484
 20
-1.138192
 30
0.0
 11
-1.651133
 21
-1.133174
 31
0.0
  0
LINE
  8
0
  6
CONTINUOUS
 62
     7
  5
31A
 10
-1.651133
 20
-1.133174
 30
0.0
 11
-1.647413
 21
-1.128042
 31
0.0
  0
LINE
  8
0
  6
CONTINUOUS
 62
     7
  5
31B
 10
-1.647413
 20
-1.128042
 30
0.0
 11
-1.643679
 21
-1.122796
 31
0.0
  0
LINE
  8
0
  6
CONTINUOUS
 62
     7
  5
31C
 10
-1.643679
 20
-1.122796
 30
0.0
 11
-1.63993
 21
-1.117435
 31
0.0
  0
LINE
  8
0
  6
CONTINUOUS
 62
     7
  5
31D
 10
-1.63993
 20
-1.117435
 30
0.0
 11
-1.636167
 21
-1.111958
 31
0.0
  0
LINE
  8
0
  6
CONTINUOUS
 62
     7
  5
31E
 10
-1.636167
 20
-1.111958
 30
0.0
 11
-1.63239
 21
-1.106365
 31
0.0
  0
LINE
  8
0
  6
CONTINUOUS
 62
     7
  5
31F
 10
-1.63239
 20
-1.106365
 30
0.0
 11
-1.628596
 21
-1.100655
 31
0.0
  0
LINE
  8
0
  6
CONTINUOUS
 62
     7
  5
320
 10
-1.628596
 20
-1.100655
 30
0.0
 11
-1.624787
 21
-1.094827
 31
0.0
  0
LINE
  8
0
  6
CONTINUOUS
 62
     7
  5
321
 10
-1.624787
 20
-1.094827
 30
0.0
 11
-1.620961
 21
-1.088881
 31
0.0
  0
LINE
  8
0
  6
CONTINUOUS
 62
     7
  5
322
 10
-1.620961
 20
-1.088881
 30
0.0
 11
-1.617119
 21
-1.082815
 31
0.0
  0
LINE
  8
0
  6
CONTINUOUS
 62
     7
  5
323
 10
-1.617119
 20
-1.082815
 30
0.0
 11
-1.613259
 21
-1.076628
 31
0.0
  0
LINE
  8
0
  6
CONTINUOUS
 62
     7
  5
324
 10
-1.613259
 20
-1.076628
 30
0.0
 11
-1.609382
 21
-1.07032
 31
0.0
  0
LINE
  8
0
  6
CONTINUOUS
 62
     7
  5
325
 10
-1.609382
 20
-1.07032
 30
0.0
 11
-1.605486
 21
-1.063891
 31
0.0
  0
LINE
  8
0
  6
CONTINUOUS
 62
     7
  5
326
 10
-1.605486
 20
-1.063891
 30
0.0
 11
-1.601571
 21
-1.057338
 31
0.0
  0
LINE
  8
0
  6
CONTINUOUS
 62
     7
  5
327
 10
-1.601571
 20
-1.057338
 30
0.0
 11
-1.597638
 21
-1.05066
 31
0.0
  0
LINE
  8
0
  6
CONTINUOUS
 62
     7
  5
328
 10
-1.597638
 20
-1.05066
 30
0.0
 11
-1.593684
 21
-1.043858
 31
0.0
  0
LINE
  8
0
  6
CONTINUOUS
 62
     7
  5
329
 10
-1.334407
 20
-1.212598
 30
0.0
 11
-1.723322
 21
-1.212598
 31
0.0
  0
LINE
  8
0
  6
CONTINUOUS
 62
     7
  5
32A
 10
-1.91206
 20
-1.212598
 30
0.0
 11
-1.944277
 21
-1.212598
 31
0.0
  0
LINE
  8
0
  6
CONTINUOUS
 62
     7
  5
32B
 10
-2.041699
 20
-1.043858
 30
0.0
 11
-2.037745
 21
-1.05066
 31
0.0
  0
LINE
  8
0
  6
CONTINUOUS
 62
     7
  5
32C
 10
-2.037745
 20
-1.05066
 30
0.0
 11
-2.033811
 21
-1.057338
 31
0.0
  0
LINE
  8
0
  6
CONTINUOUS
 62
     7
  5
32D
 10
-2.033811
 20
-1.057338
 30
0.0
 11
-2.029897
 21
-1.063891
 31
0.0
  0
LINE
  8
0
  6
CONTINUOUS
 62
     7
  5
32E
 10
-2.029897
 20
-1.063891
 30
0.0
 11
-2.026001
 21
-1.07032
 31
0.0
  0
LINE
  8
0
  6
CONTINUOUS
 62
     7
  5
32F
 10
-2.026001
 20
-1.07032
 30
0.0
 11
-2.022123
 21
-1.076628
 31
0.0
  0
LINE
  8
0
  6
CONTINUOUS
 62
     7
  5
330
 10
-2.022123
 20
-1.076628
 30
0.0
 11
-2.018264
 21
-1.082815
 31
0.0
  0
LINE
  8
0
  6
CONTINUOUS
 62
     7
  5
331
 10
-2.018264
 20
-1.082815
 30
0.0
 11
-2.014421
 21
-1.088881
 31
0.0
  0
LINE
  8
0
  6
CONTINUOUS
 62
     7
  5
332
 10
-2.014421
 20
-1.088881
 30
0.0
 11
-2.010596
 21
-1.094827
 31
0.0
  0
LINE
  8
0
  6
CONTINUOUS
 62
     7
  5
333
 10
-2.010596
 20
-1.094827
 30
0.0
 11
-2.006786
 21
-1.100655
 31
0.0
  0
LINE
  8
0
  6
CONTINUOUS
 62
     7
  5
334
 10
-2.006786
 20
-1.100655
 30
0.0
 11
-2.002993
 21
-1.106365
 31
0.0
  0
LINE
  8
0
  6
CONTINUOUS
 62
     7
  5
335
 10
-2.002993
 20
-1.106365
 30
0.0
 11
-1.999215
 21
-1.111958
 31
0.0
  0
LINE
  8
0
  6
CONTINUOUS
 62
     7
  5
336
 10
-1.999215
 20
-1.111958
 30
0.0
 11
-1.995452
 21
-1.117435
 31
0.0
  0
LINE
  8
0
  6
CONTINUOUS
 62
     7
  5
337
 10
-1.995452
 20
-1.117435
 30
0.0
 11
-1.991704
 21
-1.122796
 31
0.0
  0
LINE
  8
0
  6
CONTINUOUS
 62
     7
  5
338
 10
-1.991704
 20
-1.122796
 30
0.0
 11
-1.98797
 21
-1.128042
 31
0.0
  0
LINE
  8
0
  6
CONTINUOUS
 62
     7
  5
339
 10
-1.98797
 20
-1.128042
 30
0.0
 11
-1.984249
 21
-1.133174
 31
0.0
  0
LINE
  8
0
  6
CONTINUOUS
 62
     7
  5
33A
 10
-1.984249
 20
-1.133174
 30
0.0
 11
-1.980542
 21
-1.138192
 31
0.0
  0
LINE
  8
0
  6
CONTINUOUS
 62
     7
  5
33B
 10
-1.980542
 20
-1.138192
 30
0.0
 11
-1.976848
 21
-1.143097
 31
0.0
  0
LINE
  8
0
  6
CONTINUOUS
 62
     7
  5
33C
 10
-1.976848
 20
-1.143097
 30
0.0
 11
-1.973166
 21
-1.14789
 31
0.0
  0
LINE
  8
0
  6
CONTINUOUS
 62
     7
  5
33D
 10
-1.973166
 20
-1.14789
 30
0.0
 11
-1.969496
 21
-1.15257
 31
0.0
  0
LINE
  8
0
  6
CONTINUOUS
 62
     7
  5
33E
 10
-1.969496
 20
-1.15257
 30
0.0
 11
-1.965837
 21
-1.15714
 31
0.0
  0
LINE
  8
0
  6
CONTINUOUS
 62
     7
  5
33F
 10
-1.965837
 20
-1.15714
 30
0.0
 11
-1.96219
 21
-1.161598
 31
0.0
  0
LINE
  8
0
  6
CONTINUOUS
 62
     7
  5
340
 10
-1.96219
 20
-1.161598
 30
0.0
 11
-1.958553
 21
-1.165946
 31
0.0
  0
LINE
  8
0
  6
CONTINUOUS
 62
     7
  5
341
 10
-1.958553
 20
-1.165946
 30
0.0
 11
-1.954926
 21
-1.170184
 31
0.0
  0
LINE
  8
0
  6
CONTINUOUS
 62
     7
  5
342
 10
-1.954926
 20
-1.170184
 30
0.0
 11
-1.95131
 21
-1.174313
 31
0.0
  0
LINE
  8
0
  6
CONTINUOUS
 62
     7
  5
343
 10
-1.95131
 20
-1.174313
 30
0.0
 11
-1.947703
 21
-1.178333
 31
0.0
  0
LINE
  8
0
  6
CONTINUOUS
 62
     7
  5
344
 10
-1.947703
 20
-1.178333
 30
0.0
 11
-1.944105
 21
-1.182243
 31
0.0
  0
LINE
  8
0
  6
CONTINUOUS
 62
     7
  5
345
 10
-1.944105
 20
-1.182243
 30
0.0
 11
-1.940515
 21
-1.186046
 31
0.0
  0
LINE
  8
0
  6
CONTINUOUS
 62
     7
  5
346
 10
-1.940515
 20
-1.186046
 30
0.0
 11
-1.936934
 21
-1.18974
 31
0.0
  0
LINE
  8
0
  6
CONTINUOUS
 62
     7
  5
347
 10
-1.936934
 20
-1.18974
 30
0.0
 11
-1.93336
 21
-1.193327
 31
0.0
  0
LINE
  8
0
  6
CONTINUOUS
 62
     7
  5
348
 10
-1.93336
 20
-1.193327
 30
0.0
 11
-1.929794
 21
-1.196806
 31
0.0
  0
LINE
  8
0
  6
CONTINUOUS
 62
     7
  5
349
 10
-1.929794
 20
-1.196806
 30
0.0
 11
-1.926235
 21
-1.200178
 31
0.0
  0
LINE
  8
0
  6
CONTINUOUS
 62
     7
  5
34A
 10
-1.926235
 20
-1.200178
 30
0.0
 11
-1.922682
 21
-1.203443
 31
0.0
  0
LINE
  8
0
  6
CONTINUOUS
 62
     7
  5
34B
 10
-1.922682
 20
-1.203443
 30
0.0
 11
-1.919136
 21
-1.206601
 31
0.0
  0
LINE
  8
0
  6
CONTINUOUS
 62
     7
  5
34C
 10
-1.919136
 20
-1.206601
 30
0.0
 11
-1.915595
 21
-1.209653
 31
0.0
  0
LINE
  8
0
  6
CONTINUOUS
 62
     7
  5
34D
 10
-1.915595
 20
-1.209653
 30
0.0
 11
-1.91206
 21
-1.212598
 31
0.0
  0
LINE
  8
0
  6
CONTINUOUS
 62
     7
  5
34E
 10
-2.041699
 20
-0.031417
 30
0.0
 11
-2.041699
 21
-1.043858
 31
0.0
  0
LINE
  8
0
  6
CONTINUOUS
 62
     7
  5
34F
 10
-1.91206
 20
-1.212598
 30
0.0
 11
-1.723322
 21
-1.212598
 31
0.0
  0
LINE
  8
0
  6
CONTINUOUS
 62
     7
  5
350
 10
-1.593684
 20
-0.031417
 30
0.0
 11
-1.593684
 21
-1.043858
 31
0.0
  0
LINE
  8
0
  6
CONTINUOUS
 62
     7
  5
351
 10
-1.334407
 20
-1.212598
 30
0.0
 11
-0.956931
 21
-1.212598
 31
0.0
  0
LINE
  8
0
  6
CONTINUOUS
 62
     7
  5
352
 10
-0.697655
 20
-0.031417
 30
0.0
 11
-0.697655
 21
-1.043858
 31
0.0
  0
LINE
  8
0
  6
CONTINUOUS
 62
     7
  5
353
 10
-0.568016
 20
-1.212598
 30
0.0
 11
-0.379278
 21
-1.212598
 31
0.0
  0
LINE
  8
0
  6
CONTINUOUS
 62
     7
  5
354
 10
-0.24964
 20
-0.031417
 30
0.0
 11
-0.24964
 21
-1.043858
 31
0.0
  0
CIRCLE
  8
0
  6
CONTINUOUS
 62
     7
  5
355
 10
5.158583
 20
8.926299
 30
0.0
 40
0.398835
  0
CIRCLE
  8
0
  6
CONTINUOUS
 62
     7
  5
356
 10
5.158583
 20
0.569764
 30
0.0
 40
0.398835
  0
CIRCLE
  8
0
  6
CONTINUOUS
 62
     7
  5
357
 10
-5.158583
 20
8.926299
 30
0.0
 40
0.398835
  0
CIRCLE
  8
0
  6
CONTINUOUS
 62
     7
  5
358
 10
-5.158583
 20
0.569764
 30
0.0
 40
0.398835
  0
LINE
  8
0
  6
CONTINUOUS
 62
     7
  5
359
 10
4.588819
 20
9.211181
 30
0.0
 11
4.588819
 21
9.472934
 31
0.0
  0
LINE
  8
0
  6
CONTINUOUS
 62
     7
  5
35A
 10
4.588819
 20
8.926299
 30
0.0
 11
4.588819
 21
9.211181
 31
0.0
  0
LINE
  8
0
  6
CONTINUOUS
 62
     7
  5
35B
 10
4.588819
 20
9.472934
 30
0.0
 11
5.237442
 21
9.472934
 31
0.0
  0
LINE
  8
0
  6
CONTINUOUS
 62
     7
  5
35C
 10
5.063622
 20
9.496063
 30
0.0
 11
5.068353
 21
9.496046
 31
0.0
  0
LINE
  8
0
  6
CONTINUOUS
 62
     7
  5
35D
 10
5.068353
 20
9.496046
 30
0.0
 11
5.073107
 21
9.495995
 31
0.0
  0
LINE
  8
0
  6
CONTINUOUS
 62
     7
  5
35E
 10
5.073107
 20
9.495995
 30
0.0
 11
5.077884
 21
9.49591
 31
0.0
  0
LINE
  8
0
  6
CONTINUOUS
 62
     7
  5
35F
 10
5.077884
 20
9.49591
 30
0.0
 11
5.082682
 21
9.49579
 31
0.0
  0
LINE
  8
0
  6
CONTINUOUS
 62
     7
  5
360
 10
5.082682
 20
9.49579
 30
0.0
 11
5.087501
 21
9.495634
 31
0.0
  0
LINE
  8
0
  6
CONTINUOUS
 62
     7
  5
361
 10
5.087501
 20
9.495634
 30
0.0
 11
5.09234
 21
9.495442
 31
0.0
  0
LINE
  8
0
  6
CONTINUOUS
 62
     7
  5
362
 10
5.09234
 20
9.495442
 30
0.0
 11
5.097198
 21
9.495214
 31
0.0
  0
LINE
  8
0
  6
CONTINUOUS
 62
     7
  5
363
 10
5.097198
 20
9.495214
 30
0.0
 11
5.102073
 21
9.49495
 31
0.0
  0
LINE
  8
0
  6
CONTINUOUS
 62
     7
  5
364
 10
5.102073
 20
9.49495
 30
0.0
 11
5.106966
 21
9.494648
 31
0.0
  0
LINE
  8
0
  6
CONTINUOUS
 62
     7
  5
365
 10
5.106966
 20
9.494648
 30
0.0
 11
5.111876
 21
9.494309
 31
0.0
  0
LINE
  8
0
  6
CONTINUOUS
 62
     7
  5
366
 10
5.111876
 20
9.494309
 30
0.0
 11
5.1168
 21
9.493932
 31
0.0
  0
LINE
  8
0
  6
CONTINUOUS
 62
     7
  5
367
 10
5.1168
 20
9.493932
 30
0.0
 11
5.12174
 21
9.493517
 31
0.0
  0
LINE
  8
0
  6
CONTINUOUS
 62
     7
  5
368
 10
5.12174
 20
9.493517
 30
0.0
 11
5.126693
 21
9.493064
 31
0.0
  0
LINE
  8
0
  6
CONTINUOUS
 62
     7
  5
369
 10
5.126693
 20
9.493064
 30
0.0
 11
5.13166
 21
9.492572
 31
0.0
  0
LINE
  8
0
  6
CONTINUOUS
 62
     7
  5
36A
 10
5.13166
 20
9.492572
 30
0.0
 11
5.136638
 21
9.492041
 31
0.0
  0
LINE
  8
0
  6
CONTINUOUS
 62
     7
  5
36B
 10
5.136638
 20
9.492041
 30
0.0
 11
5.141627
 21
9.49147
 31
0.0
  0
LINE
  8
0
  6
CONTINUOUS
 62
     7
  5
36C
 10
5.141627
 20
9.49147
 30
0.0
 11
5.146627
 21
9.49086
 31
0.0
  0
LINE
  8
0
  6
CONTINUOUS
 62
     7
  5
36D
 10
5.146627
 20
9.49086
 30
0.0
 11
5.151637
 21
9.49021
 31
0.0
  0
LINE
  8
0
  6
CONTINUOUS
 62
     7
  5
36E
 10
5.151637
 20
9.49021
 30
0.0
 11
5.156655
 21
9.48952
 31
0.0
  0
LINE
  8
0
  6
CONTINUOUS
 62
     7
  5
36F
 10
5.156655
 20
9.48952
 30
0.0
 11
5.161681
 21
9.48879
 31
0.0
  0
LINE
  8
0
  6
CONTINUOUS
 62
     7
  5
370
 10
5.161681
 20
9.48879
 30
0.0
 11
5.166714
 21
9.48802
 31
0.0
  0
LINE
  8
0
  6
CONTINUOUS
 62
     7
  5
371
 10
5.166714
 20
9.48802
 30
0.0
 11
5.171753
 21
9.487209
 31
0.0
  0
LINE
  8
0
  6
CONTINUOUS
 62
     7
  5
372
 10
5.171753
 20
9.487209
 30
0.0
 11
5.176797
 21
9.486358
 31
0.0
  0
LINE
  8
0
  6
CONTINUOUS
 62
     7
  5
373
 10
5.176797
 20
9.486358
 30
0.0
 11
5.181846
 21
9.485465
 31
0.0
  0
LINE
  8
0
  6
CONTINUOUS
 62
     7
  5
374
 10
5.181846
 20
9.485465
 30
0.0
 11
5.186898
 21
9.484532
 31
0.0
  0
LINE
  8
0
  6
CONTINUOUS
 62
     7
  5
375
 10
5.186898
 20
9.484532
 30
0.0
 11
5.191953
 21
9.483558
 31
0.0
  0
LINE
  8
0
  6
CONTINUOUS
 62
     7
  5
376
 10
5.191953
 20
9.483558
 30
0.0
 11
5.19701
 21
9.482542
 31
0.0
  0
LINE
  8
0
  6
CONTINUOUS
 62
     7
  5
377
 10
5.19701
 20
9.482542
 30
0.0
 11
5.202069
 21
9.481486
 31
0.0
  0
LINE
  8
0
  6
CONTINUOUS
 62
     7
  5
378
 10
5.202069
 20
9.481486
 30
0.0
 11
5.207127
 21
9.480388
 31
0.0
  0
LINE
  8
0
  6
CONTINUOUS
 62
     7
  5
379
 10
5.207127
 20
9.480388
 30
0.0
 11
5.212186
 21
9.479249
 31
0.0
  0
LINE
  8
0
  6
CONTINUOUS
 62
     7
  5
37A
 10
5.212186
 20
9.479249
 30
0.0
 11
5.217243
 21
9.478068
 31
0.0
  0
LINE
  8
0
  6
CONTINUOUS
 62
     7
  5
37B
 10
5.217243
 20
9.478068
 30
0.0
 11
5.222297
 21
9.476847
 31
0.0
  0
LINE
  8
0
  6
CONTINUOUS
 62
     7
  5
37C
 10
5.222297
 20
9.476847
 30
0.0
 11
5.22735
 21
9.475584
 31
0.0
  0
LINE
  8
0
  6
CONTINUOUS
 62
     7
  5
37D
 10
5.22735
 20
9.475584
 30
0.0
 11
5.232398
 21
9.47428
 31
0.0
  0
LINE
  8
0
  6
CONTINUOUS
 62
     7
  5
37E
 10
5.232398
 20
9.47428
 30
0.0
 11
5.237442
 21
9.472934
 31
0.0
  0
LINE
  8
0
  6
CONTINUOUS
 62
     7
  5
37F
 10
-5.063622
 20
9.496063
 30
0.0
 11
5.063622
 21
9.496063
 31
0.0
  0
LINE
  8
0
  6
CONTINUOUS
 62
     7
  5
380
 10
-5.237442
 20
9.472934
 30
0.0
 11
-5.232398
 21
9.47428
 31
0.0
  0
LINE
  8
0
  6
CONTINUOUS
 62
     7
  5
381
 10
-5.232398
 20
9.47428
 30
0.0
 11
-5.22735
 21
9.475584
 31
0.0
  0
LINE
  8
0
  6
CONTINUOUS
 62
     7
  5
382
 10
-5.22735
 20
9.475584
 30
0.0
 11
-5.222297
 21
9.476847
 31
0.0
  0
LINE
  8
0
  6
CONTINUOUS
 62
     7
  5
383
 10
-5.222297
 20
9.476847
 30
0.0
 11
-5.217243
 21
9.478068
 31
0.0
  0
LINE
  8
0
  6
CONTINUOUS
 62
     7
  5
384
 10
-5.217243
 20
9.478068
 30
0.0
 11
-5.212186
 21
9.479249
 31
0.0
  0
LINE
  8
0
  6
CONTINUOUS
 62
     7
  5
385
 10
-5.212186
 20
9.479249
 30
0.0
 11
-5.207127
 21
9.480388
 31
0.0
  0
LINE
  8
0
  6
CONTINUOUS
 62
     7
  5
386
 10
-5.207127
 20
9.480388
 30
0.0
 11
-5.202069
 21
9.481486
 31
0.0
  0
LINE
  8
0
  6
CONTINUOUS
 62
     7
  5
387
 10
-5.202069
 20
9.481486
 30
0.0
 11
-5.19701
 21
9.482542
 31
0.0
  0
LINE
  8
0
  6
CONTINUOUS
 62
     7
  5
388
 10
-5.19701
 20
9.482542
 30
0.0
 11
-5.191953
 21
9.483558
 31
0.0
  0
LINE
  8
0
  6
CONTINUOUS
 62
     7
  5
389
 10
-5.191953
 20
9.483558
 30
0.0
 11
-5.186898
 21
9.484532
 31
0.0
  0
LINE
  8
0
  6
CONTINUOUS
 62
     7
  5
38A
 10
-5.186898
 20
9.484532
 30
0.0
 11
-5.181846
 21
9.485465
 31
0.0
  0
LINE
  8
0
  6
CONTINUOUS
 62
     7
  5
38B
 10
-5.181846
 20
9.485465
 30
0.0
 11
-5.176797
 21
9.486358
 31
0.0
  0
LINE
  8
0
  6
CONTINUOUS
 62
     7
  5
38C
 10
-5.176797
 20
9.486358
 30
0.0
 11
-5.171753
 21
9.487209
 31
0.0
  0
LINE
  8
0
  6
CONTINUOUS
 62
     7
  5
38D
 10
-5.171753
 20
9.487209
 30
0.0
 11
-5.166714
 21
9.48802
 31
0.0
  0
LINE
  8
0
  6
CONTINUOUS
 62
     7
  5
38E
 10
-5.166714
 20
9.48802
 30
0.0
 11
-5.161681
 21
9.48879
 31
0.0
  0
LINE
  8
0
  6
CONTINUOUS
 62
     7
  5
38F
 10
-5.161681
 20
9.48879
 30
0.0
 11
-5.156655
 21
9.48952
 31
0.0
  0
LINE
  8
0
  6
CONTINUOUS
 62
     7
  5
390
 10
-5.156655
 20
9.48952
 30
0.0
 11
-5.151637
 21
9.49021
 31
0.0
  0
LINE
  8
0
  6
CONTINUOUS
 62
     7
  5
391
 10
-5.151637
 20
9.49021
 30
0.0
 11
-5.146627
 21
9.49086
 31
0.0
  0
LINE
  8
0
  6
CONTINUOUS
 62
     7
  5
392
 10
-5.146627
 20
9.49086
 30
0.0
 11
-5.141627
 21
9.49147
 31
0.0
  0
LINE
  8
0
  6
CONTINUOUS
 62
     7
  5
393
 10
-5.141627
 20
9.49147
 30
0.0
 11
-5.136638
 21
9.492041
 31
0.0
  0
LINE
  8
0
  6
CONTINUOUS
 62
     7
  5
394
 10
-5.136638
 20
9.492041
 30
0.0
 11
-5.13166
 21
9.492572
 31
0.0
  0
LINE
  8
0
  6
CONTINUOUS
 62
     7
  5
395
 10
-5.13166
 20
9.492572
 30
0.0
 11
-5.126693
 21
9.493064
 31
0.0
  0
LINE
  8
0
  6
CONTINUOUS
 62
     7
  5
396
 10
-5.126693
 20
9.493064
 30
0.0
 11
-5.12174
 21
9.493517
 31
0.0
  0
LINE
  8
0
  6
CONTINUOUS
 62
     7
  5
397
 10
-5.12174
 20
9.493517
 30
0.0
 11
-5.1168
 21
9.493932
 31
0.0
  0
LINE
  8
0
  6
CONTINUOUS
 62
     7
  5
398
 10
-5.1168
 20
9.493932
 30
0.0
 11
-5.111876
 21
9.494309
 31
0.0
  0
LINE
  8
0
  6
CONTINUOUS
 62
     7
  5
399
 10
-5.111876
 20
9.494309
 30
0.0
 11
-5.106966
 21
9.494648
 31
0.0
  0
LINE
  8
0
  6
CONTINUOUS
 62
     7
  5
39A
 10
-5.106966
 20
9.494648
 30
0.0
 11
-5.102073
 21
9.49495
 31
0.0
  0
LINE
  8
0
  6
CONTINUOUS
 62
     7
  5
39B
 10
-5.102073
 20
9.49495
 30
0.0
 11
-5.097198
 21
9.495214
 31
0.0
  0
LINE
  8
0
  6
CONTINUOUS
 62
     7
  5
39C
 10
-5.097198
 20
9.495214
 30
0.0
 11
-5.09234
 21
9.495442
 31
0.0
  0
LINE
  8
0
  6
CONTINUOUS
 62
     7
  5
39D
 10
-5.09234
 20
9.495442
 30
0.0
 11
-5.087501
 21
9.495634
 31
0.0
  0
LINE
  8
0
  6
CONTINUOUS
 62
     7
  5
39E
 10
-5.087501
 20
9.495634
 30
0.0
 11
-5.082682
 21
9.49579
 31
0.0
  0
LINE
  8
0
  6
CONTINUOUS
 62
     7
  5
39F
 10
-5.082682
 20
9.49579
 30
0.0
 11
-5.077884
 21
9.49591
 31
0.0
  0
LINE
  8
0
  6
CONTINUOUS
 62
     7
  5
3A0
 10
-5.077884
 20
9.49591
 30
0.0
 11
-5.073107
 21
9.495995
 31
0.0
  0
LINE
  8
0
  6
CONTINUOUS
 62
     7
  5
3A1
 10
-5.073107
 20
9.495995
 30
0.0
 11
-5.068353
 21
9.496046
 31
0.0
  0
LINE
  8
0
  6
CONTINUOUS
 62
     7
  5
3A2
 10
-5.068353
 20
9.496046
 30
0.0
 11
-5.063622
 21
9.496063
 31
0.0
  0
LINE
  8
0
  6
CONTINUOUS
 62
     7
  5
3A3
 10
-5.237442
 20
9.472934
 30
0.0
 11
-4.588819
 21
9.472934
 31
0.0
  0
LINE
  8
0
  6
CONTINUOUS
 62
     7
  5
3A4
 10
-4.588819
 20
9.472934
 30
0.0
 11
-4.588819
 21
9.211181
 31
0.0
  0
LINE
  8
0
  6
CONTINUOUS
 62
     7
  5
3A5
 10
5.705218
 20
9.005159
 30
0.0
 11
5.705218
 21
8.356535
 31
0.0
  0
ARC
  8
0
  6
CONTINUOUS
 62
     7
  5
3A6
 10
5.063622
 20
8.831339
 30
0.0
 40
0.664724
 50
15.158629
 51
74.841371
  0
LINE
  8
0
  6
CONTINUOUS
 62
     7
  5
3A7
 10
4.588819
 20
0.023129
 30
0.0
 11
4.588819
 21
0.284882
 31
0.0
  0
LINE
  8
0
  6
CONTINUOUS
 62
     7
  5
3A8
 10
4.588819
 20
0.284882
 30
0.0
 11
4.588819
 21
0.569764
 31
0.0
  0
LINE
  8
0
  6
CONTINUOUS
 62
     7
  5
3A9
 10
-4.588819
 20
9.211181
 30
0.0
 11
-4.588819
 21
8.926299
 31
0.0
  0
ARC
  8
0
  6
CONTINUOUS
 62
     7
  5
3AA
 10
-5.158583
 20
8.926299
 30
0.0
 40
0.569764
 50
270.0
 51
0.0
  0
LINE
  8
0
  6
CONTINUOUS
 62
     7
  5
3AB
 10
-5.158583
 20
8.356535
 30
0.0
 11
-5.443465
 21
8.356535
 31
0.0
  0
LINE
  8
0
  6
CONTINUOUS
 62
     7
  5
3AC
 10
-5.443465
 20
1.139528
 30
0.0
 11
-5.158583
 21
1.139528
 31
0.0
  0
ARC
  8
0
  6
CONTINUOUS
 62
     7
  5
3AD
 10
-5.158583
 20
0.569764
 30
0.0
 40
0.569764
 50
0.0
 51
90.0
  0
LINE
  8
0
  6
CONTINUOUS
 62
     7
  5
3AE
 10
-4.588819
 20
0.569764
 30
0.0
 11
-4.588819
 21
0.284882
 31
0.0
  0
ARC
  8
0
  6
CONTINUOUS
 62
     7
  5
3AF
 10
5.158583
 20
0.569764
 30
0.0
 40
0.569764
 50
90.0
 51
180.0
  0
LINE
  8
0
  6
CONTINUOUS
 62
     7
  5
3B0
 10
5.158583
 20
1.139528
 30
0.0
 11
5.443465
 21
1.139528
 31
0.0
  0
LINE
  8
0
  6
CONTINUOUS
 62
     7
  5
3B1
 10
5.443465
 20
8.356535
 30
0.0
 11
5.158583
 21
8.356535
 31
0.0
  0
ARC
  8
0
  6
CONTINUOUS
 62
     7
  5
3B2
 10
5.158583
 20
8.926299
 30
0.0
 40
0.569764
 50
180.0
 51
270.0
  0
ARC
  8
0
  6
CONTINUOUS
 62
     7
  5
3B3
 10
-3.917953
 20
7.644331
 30
0.0
 40
0.664724
 50
90.0
 51
180.0
  0
LINE
  8
0
  6
CONTINUOUS
 62
     7
  5
3B4
 10
-3.917953
 20
8.309055
 30
0.0
 11
3.917953
 21
8.309055
 31
0.0
  0
ARC
  8
0
  6
CONTINUOUS
 62
     7
  5
3B5
 10
3.917953
 20
7.644331
 30
0.0
 40
0.664724
 50
0.0
 51
90.0
  0
LINE
  8
0
  6
CONTINUOUS
 62
     7
  5
3B6
 10
4.582677
 20
7.644331
 30
0.0
 11
4.582677
 21
1.851732
 31
0.0
  0
ARC
  8
0
  6
CONTINUOUS
 62
     7
  5
3B7
 10
3.917953
 20
1.851732
 30
0.0
 40
0.664724
 50
270.0
 51
0.0
  0
LINE
  8
0
  6
CONTINUOUS
 62
     7
  5
3B8
 10
3.917953
 20
1.187008
 30
0.0
 11
-3.917953
 21
1.187008
 31
0.0
  0
ARC
  8
0
  6
CONTINUOUS
 62
     7
  5
3B9
 10
-3.917953
 20
1.851732
 30
0.0
 40
0.664724
 50
180.0
 51
270.0
  0
LINE
  8
0
  6
CONTINUOUS
 62
     7
  5
3BA
 10
-4.582677
 20
1.851732
 30
0.0
 11
-4.582677
 21
7.644331
 31
0.0
  0
LINE
  8
0
  6
CONTINUOUS
 62
     7
  5
3BB
 10
5.237442
 20
0.023129
 30
0.0
 11
4.588819
 21
0.023129
 31
0.0
  0
ARC
  8
0
  6
CONTINUOUS
 62
     7
  5
3BC
 10
5.063622
 20
0.664724
 30
0.0
 40
0.664724
 50
285.158629
 51
344.841371
  0
LINE
  8
0
  6
CONTINUOUS
 62
     7
  5
3BD
 10
5.705218
 20
1.139528
 30
0.0
 11
5.705218
 21
0.490904
 31
0.0
  0
LINE
  8
0
  6
CONTINUOUS
 62
     7
  5
3BE
 10
-4.588819
 20
0.284882
 30
0.0
 11
-4.588819
 21
0.023129
 31
0.0
  0
LINE
  8
0
  6
CONTINUOUS
 62
     7
  5
3BF
 10
-4.588819
 20
0.023129
 30
0.0
 11
-5.237442
 21
0.023129
 31
0.0
  0
LINE
  8
0
  6
CONTINUOUS
 62
     7
  5
3C0
 10
-5.063622
 20
0.0
 30
0.0
 11
-5.06834
 21
0.000017
 31
0.0
  0
LINE
  8
0
  6
CONTINUOUS
 62
     7
  5
3C1
 10
-5.06834
 20
0.000017
 30
0.0
 11
-5.073082
 21
0.000067
 31
0.0
  0
LINE
  8
0
  6
CONTINUOUS
 62
     7
  5
3C2
 10
-5.073082
 20
0.000067
 30
0.0
 11
-5.077849
 21
0.000152
 31
0.0
  0
LINE
  8
0
  6
CONTINUOUS
 62
     7
  5
3C3
 10
-5.077849
 20
0.000152
 30
0.0
 11
-5.082639
 21
0.000272
 31
0.0
  0
LINE
  8
0
  6
CONTINUOUS
 62
     7
  5
3C4
 10
-5.082639
 20
0.000272
 30
0.0
 11
-5.087452
 21
0.000427
 31
0.0
  0
LINE
  8
0
  6
CONTINUOUS
 62
     7
  5
3C5
 10
-5.087452
 20
0.000427
 30
0.0
 11
-5.092286
 21
0.000618
 31
0.0
  0
LINE
  8
0
  6
CONTINUOUS
 62
     7
  5
3C6
 10
-5.092286
 20
0.000618
 30
0.0
 11
-5.09714
 21
0.000846
 31
0.0
  0
LINE
  8
0
  6
CONTINUOUS
 62
     7
  5
3C7
 10
-5.09714
 20
0.000846
 30
0.0
 11
-5.102013
 21
0.00111
 31
0.0
  0
LINE
  8
0
  6
CONTINUOUS
 62
     7
  5
3C8
 10
-5.102013
 20
0.00111
 30
0.0
 11
-5.106905
 21
0.001411
 31
0.0
  0
LINE
  8
0
  6
CONTINUOUS
 62
     7
  5
3C9
 10
-5.106905
 20
0.001411
 30
0.0
 11
-5.111815
 21
0.001749
 31
0.0
  0
LINE
  8
0
  6
CONTINUOUS
 62
     7
  5
3CA
 10
-5.111815
 20
0.001749
 30
0.0
 11
-5.116741
 21
0.002126
 31
0.0
  0
LINE
  8
0
  6
CONTINUOUS
 62
     7
  5
3CB
 10
-5.116741
 20
0.002126
 30
0.0
 11
-5.121683
 21
0.002541
 31
0.0
  0
LINE
  8
0
  6
CONTINUOUS
 62
     7
  5
3CC
 10
-5.121683
 20
0.002541
 30
0.0
 11
-5.126639
 21
0.002994
 31
0.0
  0
LINE
  8
0
  6
CONTINUOUS
 62
     7
  5
3CD
 10
-5.126639
 20
0.002994
 30
0.0
 11
-5.131609
 21
0.003486
 31
0.0
  0
LINE
  8
0
  6
CONTINUOUS
 62
     7
  5
3CE
 10
-5.131609
 20
0.003486
 30
0.0
 11
-5.136591
 21
0.004017
 31
0.0
  0
LINE
  8
0
  6
CONTINUOUS
 62
     7
  5
3CF
 10
-5.136591
 20
0.004017
 30
0.0
 11
-5.141585
 21
0.004588
 31
0.0
  0
LINE
  8
0
  6
CONTINUOUS
 62
     7
  5
3D0
 10
-5.141585
 20
0.004588
 30
0.0
 11
-5.14659
 21
0.005198
 31
0.0
  0
LINE
  8
0
  6
CONTINUOUS
 62
     7
  5
3D1
 10
-5.14659
 20
0.005198
 30
0.0
 11
-5.151605
 21
0.005848
 31
0.0
  0
LINE
  8
0
  6
CONTINUOUS
 62
     7
  5
3D2
 10
-5.151605
 20
0.005848
 30
0.0
 11
-5.156628
 21
0.006539
 31
0.0
  0
LINE
  8
0
  6
CONTINUOUS
 62
     7
  5
3D3
 10
-5.156628
 20
0.006539
 30
0.0
 11
-5.16166
 21
0.007269
 31
0.0
  0
LINE
  8
0
  6
CONTINUOUS
 62
     7
  5
3D4
 10
-5.16166
 20
0.007269
 30
0.0
 11
-5.166698
 21
0.00804
 31
0.0
  0
LINE
  8
0
  6
CONTINUOUS
 62
     7
  5
3D5
 10
-5.166698
 20
0.00804
 30
0.0
 11
-5.171742
 21
0.008852
 31
0.0
  0
LINE
  8
0
  6
CONTINUOUS
 62
     7
  5
3D6
 10
-5.171742
 20
0.008852
 30
0.0
 11
-5.176791
 21
0.009704
 31
0.0
  0
LINE
  8
0
  6
CONTINUOUS
 62
     7
  5
3D7
 10
-5.176791
 20
0.009704
 30
0.0
 11
-5.181845
 21
0.010598
 31
0.0
  0
LINE
  8
0
  6
CONTINUOUS
 62
     7
  5
3D8
 10
-5.181845
 20
0.010598
 30
0.0
 11
-5.186901
 21
0.011532
 31
0.0
  0
LINE
  8
0
  6
CONTINUOUS
 62
     7
  5
3D9
 10
-5.186901
 20
0.011532
 30
0.0
 11
-5.19196
 21
0.012507
 31
0.0
  0
LINE
  8
0
  6
CONTINUOUS
 62
     7
  5
3DA
 10
-5.19196
 20
0.012507
 30
0.0
 11
-5.19702
 21
0.013523
 31
0.0
  0
LINE
  8
0
  6
CONTINUOUS
 62
     7
  5
3DB
 10
-5.19702
 20
0.013523
 30
0.0
 11
-5.202081
 21
0.01458
 31
0.0
  0
LINE
  8
0
  6
CONTINUOUS
 62
     7
  5
3DC
 10
-5.202081
 20
0.01458
 30
0.0
 11
-5.207141
 21
0.015678
 31
0.0
  0
LINE
  8
0
  6
CONTINUOUS
 62
     7
  5
3DD
 10
-5.207141
 20
0.015678
 30
0.0
 11
-5.2122
 21
0.016818
 31
0.0
  0
LINE
  8
0
  6
CONTINUOUS
 62
     7
  5
3DE
 10
-5.2122
 20
0.016818
 30
0.0
 11
-5.217256
 21
0.017998
 31
0.0
  0
LINE
  8
0
  6
CONTINUOUS
 62
     7
  5
3DF
 10
-5.217256
 20
0.017998
 30
0.0
 11
-5.22231
 21
0.019219
 31
0.0
  0
LINE
  8
0
  6
CONTINUOUS
 62
     7
  5
3E0
 10
-5.22231
 20
0.019219
 30
0.0
 11
-5.227359
 21
0.020482
 31
0.0
  0
LINE
  8
0
  6
CONTINUOUS
 62
     7
  5
3E1
 10
-5.227359
 20
0.020482
 30
0.0
 11
-5.232404
 21
0.021785
 31
0.0
  0
LINE
  8
0
  6
CONTINUOUS
 62
     7
  5
3E2
 10
-5.232404
 20
0.021785
 30
0.0
 11
-5.237442
 21
0.023129
 31
0.0
  0
LINE
  8
0
  6
CONTINUOUS
 62
     7
  5
3E3
 10
5.063622
 20
0.0
 30
0.0
 11
-5.063622
 21
0.0
 31
0.0
  0
LINE
  8
0
  6
CONTINUOUS
 62
     7
  5
3E4
 10
5.237442
 20
0.023129
 30
0.0
 11
5.232404
 21
0.021785
 31
0.0
  0
LINE
  8
0
  6
CONTINUOUS
 62
     7
  5
3E5
 10
5.232404
 20
0.021785
 30
0.0
 11
5.227359
 21
0.020482
 31
0.0
  0
LINE
  8
0
  6
CONTINUOUS
 62
     7
  5
3E6
 10
5.227359
 20
0.020482
 30
0.0
 11
5.22231
 21
0.019219
 31
0.0
  0
LINE
  8
0
  6
CONTINUOUS
 62
     7
  5
3E7
 10
5.22231
 20
0.019219
 30
0.0
 11
5.217256
 21
0.017998
 31
0.0
  0
LINE
  8
0
  6
CONTINUOUS
 62
     7
  5
3E8
 10
5.217256
 20
0.017998
 30
0.0
 11
5.2122
 21
0.016818
 31
0.0
  0
LINE
  8
0
  6
CONTINUOUS
 62
     7
  5
3E9
 10
5.2122
 20
0.016818
 30
0.0
 11
5.207141
 21
0.015678
 31
0.0
  0
LINE
  8
0
  6
CONTINUOUS
 62
     7
  5
3EA
 10
5.207141
 20
0.015678
 30
0.0
 11
5.202081
 21
0.01458
 31
0.0
  0
LINE
  8
0
  6
CONTINUOUS
 62
     7
  5
3EB
 10
5.202081
 20
0.01458
 30
0.0
 11
5.19702
 21
0.013523
 31
0.0
  0
LINE
  8
0
  6
CONTINUOUS
 62
     7
  5
3EC
 10
5.19702
 20
0.013523
 30
0.0
 11
5.19196
 21
0.012507
 31
0.0
  0
LINE
  8
0
  6
CONTINUOUS
 62
     7
  5
3ED
 10
5.19196
 20
0.012507
 30
0.0
 11
5.186901
 21
0.011532
 31
0.0
  0
LINE
  8
0
  6
CONTINUOUS
 62
     7
  5
3EE
 10
5.186901
 20
0.011532
 30
0.0
 11
5.181845
 21
0.010598
 31
0.0
  0
LINE
  8
0
  6
CONTINUOUS
 62
     7
  5
3EF
 10
5.181845
 20
0.010598
 30
0.0
 11
5.176791
 21
0.009704
 31
0.0
  0
LINE
  8
0
  6
CONTINUOUS
 62
     7
  5
3F0
 10
5.176791
 20
0.009704
 30
0.0
 11
5.171742
 21
0.008852
 31
0.0
  0
LINE
  8
0
  6
CONTINUOUS
 62
     7
  5
3F1
 10
5.171742
 20
0.008852
 30
0.0
 11
5.166698
 21
0.00804
 31
0.0
  0
LINE
  8
0
  6
CONTINUOUS
 62
     7
  5
3F2
 10
5.166698
 20
0.00804
 30
0.0
 11
5.16166
 21
0.007269
 31
0.0
  0
LINE
  8
0
  6
CONTINUOUS
 62
     7
  5
3F3
 10
5.16166
 20
0.007269
 30
0.0
 11
5.156628
 21
0.006539
 31
0.0
  0
LINE
  8
0
  6
CONTINUOUS
 62
     7
  5
3F4
 10
5.156628
 20
0.006539
 30
0.0
 11
5.151605
 21
0.005848
 31
0.0
  0
LINE
  8
0
  6
CONTINUOUS
 62
     7
  5
3F5
 10
5.151605
 20
0.005848
 30
0.0
 11
5.14659
 21
0.005198
 31
0.0
  0
LINE
  8
0
  6
CONTINUOUS
 62
     7
  5
3F6
 10
5.14659
 20
0.005198
 30
0.0
 11
5.141585
 21
0.004588
 31
0.0
  0
LINE
  8
0
  6
CONTINUOUS
 62
     7
  5
3F7
 10
5.141585
 20
0.004588
 30
0.0
 11
5.136591
 21
0.004017
 31
0.0
  0
LINE
  8
0
  6
CONTINUOUS
 62
     7
  5
3F8
 10
5.136591
 20
0.004017
 30
0.0
 11
5.131609
 21
0.003486
 31
0.0
  0
LINE
  8
0
  6
CONTINUOUS
 62
     7
  5
3F9
 10
5.131609
 20
0.003486
 30
0.0
 11
5.126639
 21
0.002994
 31
0.0
  0
LINE
  8
0
  6
CONTINUOUS
 62
     7
  5
3FA
 10
5.126639
 20
0.002994
 30
0.0
 11
5.121683
 21
0.002541
 31
0.0
  0
LINE
  8
0
  6
CONTINUOUS
 62
     7
  5
3FB
 10
5.121683
 20
0.002541
 30
0.0
 11
5.116741
 21
0.002126
 31
0.0
  0
LINE
  8
0
  6
CONTINUOUS
 62
     7
  5
3FC
 10
5.116741
 20
0.002126
 30
0.0
 11
5.111815
 21
0.001749
 31
0.0
  0
LINE
  8
0
  6
CONTINUOUS
 62
     7
  5
3FD
 10
5.111815
 20
0.001749
 30
0.0
 11
5.106905
 21
0.001411
 31
0.0
  0
LINE
  8
0
  6
CONTINUOUS
 62
     7
  5
3FE
 10
5.106905
 20
0.001411
 30
0.0
 11
5.102013
 21
0.00111
 31
0.0
  0
LINE
  8
0
  6
CONTINUOUS
 62
     7
  5
3FF
 10
5.102013
 20
0.00111
 30
0.0
 11
5.09714
 21
0.000846
 31
0.0
  0
LINE
  8
0
  6
CONTINUOUS
 62
     7
  5
400
 10
5.09714
 20
0.000846
 30
0.0
 11
5.092286
 21
0.000618
 31
0.0
  0
LINE
  8
0
  6
CONTINUOUS
 62
     7
  5
401
 10
5.092286
 20
0.000618
 30
0.0
 11
5.087452
 21
0.000427
 31
0.0
  0
LINE
  8
0
  6
CONTINUOUS
 62
     7
  5
402
 10
5.087452
 20
0.000427
 30
0.0
 11
5.082639
 21
0.000272
 31
0.0
  0
LINE
  8
0
  6
CONTINUOUS
 62
     7
  5
403
 10
5.082639
 20
0.000272
 30
0.0
 11
5.077849
 21
0.000152
 31
0.0
  0
LINE
  8
0
  6
CONTINUOUS
 62
     7
  5
404
 10
5.077849
 20
0.000152
 30
0.0
 11
5.073082
 21
0.000067
 31
0.0
  0
LINE
  8
0
  6
CONTINUOUS
 62
     7
  5
405
 10
5.073082
 20
0.000067
 30
0.0
 11
5.06834
 21
0.000017
 31
0.0
  0
LINE
  8
0
  6
CONTINUOUS
 62
     7
  5
406
 10
5.06834
 20
0.000017
 30
0.0
 11
5.063622
 21
0.0
 31
0.0
  0
LINE
  8
0
  6
CONTINUOUS
 62
     7
  5
407
 10
-5.705218
 20
0.490904
 30
0.0
 11
-5.705218
 21
1.139528
 31
0.0
  0
ARC
  8
0
  6
CONTINUOUS
 62
     7
  5
408
 10
-5.063622
 20
0.664724
 30
0.0
 40
0.664724
 50
195.158629
 51
254.841371
  0
LINE
  8
0
  6
CONTINUOUS
 62
     7
  5
409
 10
5.705218
 20
8.356535
 30
0.0
 11
5.443465
 21
8.356535
 31
0.0
  0
LINE
  8
0
  6
CONTINUOUS
 62
     7
  5
40A
 10
5.443465
 20
1.139528
 30
0.0
 11
5.705218
 21
1.139528
 31
0.0
  0
LINE
  8
0
  6
CONTINUOUS
 62
     7
  5
40B
 10
5.728346
 20
0.664724
 30
0.0
 11
5.72833
 21
0.660007
 31
0.0
  0
LINE
  8
0
  6
CONTINUOUS
 62
     7
  5
40C
 10
5.72833
 20
0.660007
 30
0.0
 11
5.728279
 21
0.655264
 31
0.0
  0
LINE
  8
0
  6
CONTINUOUS
 62
     7
  5
40D
 10
5.728279
 20
0.655264
 30
0.0
 11
5.728194
 21
0.650497
 31
0.0
  0
LINE
  8
0
  6
CONTINUOUS
 62
     7
  5
40E
 10
5.728194
 20
0.650497
 30
0.0
 11
5.728074
 21
0.645707
 31
0.0
  0
LINE
  8
0
  6
CONTINUOUS
 62
     7
  5
40F
 10
5.728074
 20
0.645707
 30
0.0
 11
5.727919
 21
0.640895
 31
0.0
  0
LINE
  8
0
  6
CONTINUOUS
 62
     7
  5
410
 10
5.727919
 20
0.640895
 30
0.0
 11
5.727728
 21
0.636061
 31
0.0
  0
LINE
  8
0
  6
CONTINUOUS
 62
     7
  5
411
 10
5.727728
 20
0.636061
 30
0.0
 11
5.727501
 21
0.631207
 31
0.0
  0
LINE
  8
0
  6
CONTINUOUS
 62
     7
  5
412
 10
5.727501
 20
0.631207
 30
0.0
 11
5.727237
 21
0.626333
 31
0.0
  0
LINE
  8
0
  6
CONTINUOUS
 62
     7
  5
413
 10
5.727237
 20
0.626333
 30
0.0
 11
5.726936
 21
0.621441
 31
0.0
  0
LINE
  8
0
  6
CONTINUOUS
 62
     7
  5
414
 10
5.726936
 20
0.621441
 30
0.0
 11
5.726597
 21
0.616531
 31
0.0
  0
LINE
  8
0
  6
CONTINUOUS
 62
     7
  5
415
 10
5.726597
 20
0.616531
 30
0.0
 11
5.726221
 21
0.611605
 31
0.0
  0
LINE
  8
0
  6
CONTINUOUS
 62
     7
  5
416
 10
5.726221
 20
0.611605
 30
0.0
 11
5.725806
 21
0.606664
 31
0.0
  0
LINE
  8
0
  6
CONTINUOUS
 62
     7
  5
417
 10
5.725806
 20
0.606664
 30
0.0
 11
5.725353
 21
0.601708
 31
0.0
  0
LINE
  8
0
  6
CONTINUOUS
 62
     7
  5
418
 10
5.725353
 20
0.601708
 30
0.0
 11
5.724861
 21
0.596738
 31
0.0
  0
LINE
  8
0
  6
CONTINUOUS
 62
     7
  5
419
 10
5.724861
 20
0.596738
 30
0.0
 11
5.724329
 21
0.591755
 31
0.0
  0
LINE
  8
0
  6
CONTINUOUS
 62
     7
  5
41A
 10
5.724329
 20
0.591755
 30
0.0
 11
5.723759
 21
0.586761
 31
0.0
  0
LINE
  8
0
  6
CONTINUOUS
 62
     7
  5
41B
 10
5.723759
 20
0.586761
 30
0.0
 11
5.723148
 21
0.581756
 31
0.0
  0
LINE
  8
0
  6
CONTINUOUS
 62
     7
  5
41C
 10
5.723148
 20
0.581756
 30
0.0
 11
5.722498
 21
0.576742
 31
0.0
  0
LINE
  8
0
  6
CONTINUOUS
 62
     7
  5
41D
 10
5.722498
 20
0.576742
 30
0.0
 11
5.721808
 21
0.571718
 31
0.0
  0
LINE
  8
0
  6
CONTINUOUS
 62
     7
  5
41E
 10
5.721808
 20
0.571718
 30
0.0
 11
5.721077
 21
0.566687
 31
0.0
  0
LINE
  8
0
  6
CONTINUOUS
 62
     7
  5
41F
 10
5.721077
 20
0.566687
 30
0.0
 11
5.720306
 21
0.561649
 31
0.0
  0
LINE
  8
0
  6
CONTINUOUS
 62
     7
  5
420
 10
5.720306
 20
0.561649
 30
0.0
 11
5.719494
 21
0.556604
 31
0.0
  0
LINE
  8
0
  6
CONTINUOUS
 62
     7
  5
421
 10
5.719494
 20
0.556604
 30
0.0
 11
5.718642
 21
0.551555
 31
0.0
  0
LINE
  8
0
  6
CONTINUOUS
 62
     7
  5
422
 10
5.718642
 20
0.551555
 30
0.0
 11
5.717749
 21
0.546502
 31
0.0
  0
LINE
  8
0
  6
CONTINUOUS
 62
     7
  5
423
 10
5.717749
 20
0.546502
 30
0.0
 11
5.716815
 21
0.541445
 31
0.0
  0
LINE
  8
0
  6
CONTINUOUS
 62
     7
  5
424
 10
5.716815
 20
0.541445
 30
0.0
 11
5.71584
 21
0.536386
 31
0.0
  0
LINE
  8
0
  6
CONTINUOUS
 62
     7
  5
425
 10
5.71584
 20
0.536386
 30
0.0
 11
5.714824
 21
0.531326
 31
0.0
  0
LINE
  8
0
  6
CONTINUOUS
 62
     7
  5
426
 10
5.714824
 20
0.531326
 30
0.0
 11
5.713766
 21
0.526266
 31
0.0
  0
LINE
  8
0
  6
CONTINUOUS
 62
     7
  5
427
 10
5.713766
 20
0.526266
 30
0.0
 11
5.712668
 21
0.521206
 31
0.0
  0
LINE
  8
0
  6
CONTINUOUS
 62
     7
  5
428
 10
5.712668
 20
0.521206
 30
0.0
 11
5.711529
 21
0.516147
 31
0.0
  0
LINE
  8
0
  6
CONTINUOUS
 62
     7
  5
429
 10
5.711529
 20
0.516147
 30
0.0
 11
5.710348
 21
0.51109
 31
0.0
  0
LINE
  8
0
  6
CONTINUOUS
 62
     7
  5
42A
 10
5.710348
 20
0.51109
 30
0.0
 11
5.709127
 21
0.506037
 31
0.0
  0
LINE
  8
0
  6
CONTINUOUS
 62
     7
  5
42B
 10
5.709127
 20
0.506037
 30
0.0
 11
5.707865
 21
0.500988
 31
0.0
  0
LINE
  8
0
  6
CONTINUOUS
 62
     7
  5
42C
 10
5.707865
 20
0.500988
 30
0.0
 11
5.706562
 21
0.495943
 31
0.0
  0
LINE
  8
0
  6
CONTINUOUS
 62
     7
  5
42D
 10
5.706562
 20
0.495943
 30
0.0
 11
5.705218
 21
0.490904
 31
0.0
  0
LINE
  8
0
  6
CONTINUOUS
 62
     7
  5
42E
 10
5.728346
 20
8.831339
 30
0.0
 11
5.728346
 21
0.664724
 31
0.0
  0
LINE
  8
0
  6
CONTINUOUS
 62
     7
  5
42F
 10
5.705218
 20
9.005159
 30
0.0
 11
5.706562
 21
9.00012
 31
0.0
  0
LINE
  8
0
  6
CONTINUOUS
 62
     7
  5
430
 10
5.706562
 20
9.00012
 30
0.0
 11
5.707865
 21
8.995075
 31
0.0
  0
LINE
  8
0
  6
CONTINUOUS
 62
     7
  5
431
 10
5.707865
 20
8.995075
 30
0.0
 11
5.709127
 21
8.990026
 31
0.0
  0
LINE
  8
0
  6
CONTINUOUS
 62
     7
  5
432
 10
5.709127
 20
8.990026
 30
0.0
 11
5.710348
 21
8.984973
 31
0.0
  0
LINE
  8
0
  6
CONTINUOUS
 62
     7
  5
433
 10
5.710348
 20
8.984973
 30
0.0
 11
5.711529
 21
8.979916
 31
0.0
  0
LINE
  8
0
  6
CONTINUOUS
 62
     7
  5
434
 10
5.711529
 20
8.979916
 30
0.0
 11
5.712668
 21
8.974857
 31
0.0
  0
LINE
  8
0
  6
CONTINUOUS
 62
     7
  5
435
 10
5.712668
 20
8.974857
 30
0.0
 11
5.713766
 21
8.969797
 31
0.0
  0
LINE
  8
0
  6
CONTINUOUS
 62
     7
  5
436
 10
5.713766
 20
8.969797
 30
0.0
 11
5.714824
 21
8.964737
 31
0.0
  0
LINE
  8
0
  6
CONTINUOUS
 62
     7
  5
437
 10
5.714824
 20
8.964737
 30
0.0
 11
5.71584
 21
8.959677
 31
0.0
  0
LINE
  8
0
  6
CONTINUOUS
 62
     7
  5
438
 10
5.71584
 20
8.959677
 30
0.0
 11
5.716815
 21
8.954618
 31
0.0
  0
LINE
  8
0
  6
CONTINUOUS
 62
     7
  5
439
 10
5.716815
 20
8.954618
 30
0.0
 11
5.717749
 21
8.949561
 31
0.0
  0
LINE
  8
0
  6
CONTINUOUS
 62
     7
  5
43A
 10
5.717749
 20
8.949561
 30
0.0
 11
5.718642
 21
8.944508
 31
0.0
  0
LINE
  8
0
  6
CONTINUOUS
 62
     7
  5
43B
 10
5.718642
 20
8.944508
 30
0.0
 11
5.719494
 21
8.939459
 31
0.0
  0
LINE
  8
0
  6
CONTINUOUS
 62
     7
  5
43C
 10
5.719494
 20
8.939459
 30
0.0
 11
5.720306
 21
8.934414
 31
0.0
  0
LINE
  8
0
  6
CONTINUOUS
 62
     7
  5
43D
 10
5.720306
 20
8.934414
 30
0.0
 11
5.721077
 21
8.929376
 31
0.0
  0
LINE
  8
0
  6
CONTINUOUS
 62
     7
  5
43E
 10
5.721077
 20
8.929376
 30
0.0
 11
5.721808
 21
8.924345
 31
0.0
  0
LINE
  8
0
  6
CONTINUOUS
 62
     7
  5
43F
 10
5.721808
 20
8.924345
 30
0.0
 11
5.722498
 21
8.919321
 31
0.0
  0
LINE
  8
0
  6
CONTINUOUS
 62
     7
  5
440
 10
5.722498
 20
8.919321
 30
0.0
 11
5.723148
 21
8.914307
 31
0.0
  0
LINE
  8
0
  6
CONTINUOUS
 62
     7
  5
441
 10
5.723148
 20
8.914307
 30
0.0
 11
5.723759
 21
8.909302
 31
0.0
  0
LINE
  8
0
  6
CONTINUOUS
 62
     7
  5
442
 10
5.723759
 20
8.909302
 30
0.0
 11
5.724329
 21
8.904308
 31
0.0
  0
LINE
  8
0
  6
CONTINUOUS
 62
     7
  5
443
 10
5.724329
 20
8.904308
 30
0.0
 11
5.724861
 21
8.899325
 31
0.0
  0
LINE
  8
0
  6
CONTINUOUS
 62
     7
  5
444
 10
5.724861
 20
8.899325
 30
0.0
 11
5.725353
 21
8.894355
 31
0.0
  0
LINE
  8
0
  6
CONTINUOUS
 62
     7
  5
445
 10
5.725353
 20
8.894355
 30
0.0
 11
5.725806
 21
8.889399
 31
0.0
  0
LINE
  8
0
  6
CONTINUOUS
 62
     7
  5
446
 10
5.725806
 20
8.889399
 30
0.0
 11
5.726221
 21
8.884458
 31
0.0
  0
LINE
  8
0
  6
CONTINUOUS
 62
     7
  5
447
 10
5.726221
 20
8.884458
 30
0.0
 11
5.726597
 21
8.879532
 31
0.0
  0
LINE
  8
0
  6
CONTINUOUS
 62
     7
  5
448
 10
5.726597
 20
8.879532
 30
0.0
 11
5.726936
 21
8.874622
 31
0.0
  0
LINE
  8
0
  6
CONTINUOUS
 62
     7
  5
449
 10
5.726936
 20
8.874622
 30
0.0
 11
5.727237
 21
8.86973
 31
0.0
  0
LINE
  8
0
  6
CONTINUOUS
 62
     7
  5
44A
 10
5.727237
 20
8.86973
 30
0.0
 11
5.727501
 21
8.864856
 31
0.0
  0
LINE
  8
0
  6
CONTINUOUS
 62
     7
  5
44B
 10
5.727501
 20
8.864856
 30
0.0
 11
5.727728
 21
8.860002
 31
0.0
  0
LINE
  8
0
  6
CONTINUOUS
 62
     7
  5
44C
 10
5.727728
 20
8.860002
 30
0.0
 11
5.727919
 21
8.855168
 31
0.0
  0
LINE
  8
0
  6
CONTINUOUS
 62
     7
  5
44D
 10
5.727919
 20
8.855168
 30
0.0
 11
5.728074
 21
8.850356
 31
0.0
  0
LINE
  8
0
  6
CONTINUOUS
 62
     7
  5
44E
 10
5.728074
 20
8.850356
 30
0.0
 11
5.728194
 21
8.845566
 31
0.0
  0
LINE
  8
0
  6
CONTINUOUS
 62
     7
  5
44F
 10
5.728194
 20
8.845566
 30
0.0
 11
5.728279
 21
8.840799
 31
0.0
  0
LINE
  8
0
  6
CONTINUOUS
 62
     7
  5
450
 10
5.728279
 20
8.840799
 30
0.0
 11
5.72833
 21
8.836056
 31
0.0
  0
LINE
  8
0
  6
CONTINUOUS
 62
     7
  5
451
 10
5.72833
 20
8.836056
 30
0.0
 11
5.728346
 21
8.831339
 31
0.0
  0
LINE
  8
0
  6
CONTINUOUS
 62
     7
  5
452
 10
-5.443465
 20
8.356535
 30
0.0
 11
-5.705218
 21
8.356535
 31
0.0
  0
LINE
  8
0
  6
CONTINUOUS
 62
     7
  5
453
 10
-5.705218
 20
8.356535
 30
0.0
 11
-5.705218
 21
9.005159
 31
0.0
  0
LINE
  8
0
  6
CONTINUOUS
 62
     7
  5
454
 10
-5.728346
 20
8.831339
 30
0.0
 11
-5.72833
 21
8.836056
 31
0.0
  0
LINE
  8
0
  6
CONTINUOUS
 62
     7
  5
455
 10
-5.72833
 20
8.836056
 30
0.0
 11
-5.728279
 21
8.840799
 31
0.0
  0
LINE
  8
0
  6
CONTINUOUS
 62
     7
  5
456
 10
-5.728279
 20
8.840799
 30
0.0
 11
-5.728194
 21
8.845566
 31
0.0
  0
LINE
  8
0
  6
CONTINUOUS
 62
     7
  5
457
 10
-5.728194
 20
8.845566
 30
0.0
 11
-5.728074
 21
8.850356
 31
0.0
  0
LINE
  8
0
  6
CONTINUOUS
 62
     7
  5
458
 10
-5.728074
 20
8.850356
 30
0.0
 11
-5.727919
 21
8.855168
 31
0.0
  0
LINE
  8
0
  6
CONTINUOUS
 62
     7
  5
459
 10
-5.727919
 20
8.855168
 30
0.0
 11
-5.727728
 21
8.860002
 31
0.0
  0
LINE
  8
0
  6
CONTINUOUS
 62
     7
  5
45A
 10
-5.727728
 20
8.860002
 30
0.0
 11
-5.727501
 21
8.864856
 31
0.0
  0
LINE
  8
0
  6
CONTINUOUS
 62
     7
  5
45B
 10
-5.727501
 20
8.864856
 30
0.0
 11
-5.727237
 21
8.86973
 31
0.0
  0
LINE
  8
0
  6
CONTINUOUS
 62
     7
  5
45C
 10
-5.727237
 20
8.86973
 30
0.0
 11
-5.726936
 21
8.874622
 31
0.0
  0
LINE
  8
0
  6
CONTINUOUS
 62
     7
  5
45D
 10
-5.726936
 20
8.874622
 30
0.0
 11
-5.726597
 21
8.879532
 31
0.0
  0
LINE
  8
0
  6
CONTINUOUS
 62
     7
  5
45E
 10
-5.726597
 20
8.879532
 30
0.0
 11
-5.726221
 21
8.884458
 31
0.0
  0
LINE
  8
0
  6
CONTINUOUS
 62
     7
  5
45F
 10
-5.726221
 20
8.884458
 30
0.0
 11
-5.725806
 21
8.889399
 31
0.0
  0
LINE
  8
0
  6
CONTINUOUS
 62
     7
  5
460
 10
-5.725806
 20
8.889399
 30
0.0
 11
-5.725353
 21
8.894355
 31
0.0
  0
LINE
  8
0
  6
CONTINUOUS
 62
     7
  5
461
 10
-5.725353
 20
8.894355
 30
0.0
 11
-5.724861
 21
8.899325
 31
0.0
  0
LINE
  8
0
  6
CONTINUOUS
 62
     7
  5
462
 10
-5.724861
 20
8.899325
 30
0.0
 11
-5.724329
 21
8.904308
 31
0.0
  0
LINE
  8
0
  6
CONTINUOUS
 62
     7
  5
463
 10
-5.724329
 20
8.904308
 30
0.0
 11
-5.723759
 21
8.909302
 31
0.0
  0
LINE
  8
0
  6
CONTINUOUS
 62
     7
  5
464
 10
-5.723759
 20
8.909302
 30
0.0
 11
-5.723148
 21
8.914307
 31
0.0
  0
LINE
  8
0
  6
CONTINUOUS
 62
     7
  5
465
 10
-5.723148
 20
8.914307
 30
0.0
 11
-5.722498
 21
8.919321
 31
0.0
  0
LINE
  8
0
  6
CONTINUOUS
 62
     7
  5
466
 10
-5.722498
 20
8.919321
 30
0.0
 11
-5.721808
 21
8.924345
 31
0.0
  0
LINE
  8
0
  6
CONTINUOUS
 62
     7
  5
467
 10
-5.721808
 20
8.924345
 30
0.0
 11
-5.721077
 21
8.929376
 31
0.0
  0
LINE
  8
0
  6
CONTINUOUS
 62
     7
  5
468
 10
-5.721077
 20
8.929376
 30
0.0
 11
-5.720306
 21
8.934414
 31
0.0
  0
LINE
  8
0
  6
CONTINUOUS
 62
     7
  5
469
 10
-5.720306
 20
8.934414
 30
0.0
 11
-5.719494
 21
8.939459
 31
0.0
  0
LINE
  8
0
  6
CONTINUOUS
 62
     7
  5
46A
 10
-5.719494
 20
8.939459
 30
0.0
 11
-5.718642
 21
8.944508
 31
0.0
  0
LINE
  8
0
  6
CONTINUOUS
 62
     7
  5
46B
 10
-5.718642
 20
8.944508
 30
0.0
 11
-5.717749
 21
8.949561
 31
0.0
  0
LINE
  8
0
  6
CONTINUOUS
 62
     7
  5
46C
 10
-5.717749
 20
8.949561
 30
0.0
 11
-5.716815
 21
8.954618
 31
0.0
  0
LINE
  8
0
  6
CONTINUOUS
 62
     7
  5
46D
 10
-5.716815
 20
8.954618
 30
0.0
 11
-5.71584
 21
8.959677
 31
0.0
  0
LINE
  8
0
  6
CONTINUOUS
 62
     7
  5
46E
 10
-5.71584
 20
8.959677
 30
0.0
 11
-5.714824
 21
8.964737
 31
0.0
  0
LINE
  8
0
  6
CONTINUOUS
 62
     7
  5
46F
 10
-5.714824
 20
8.964737
 30
0.0
 11
-5.713766
 21
8.969797
 31
0.0
  0
LINE
  8
0
  6
CONTINUOUS
 62
     7
  5
470
 10
-5.713766
 20
8.969797
 30
0.0
 11
-5.712668
 21
8.974857
 31
0.0
  0
LINE
  8
0
  6
CONTINUOUS
 62
     7
  5
471
 10
-5.712668
 20
8.974857
 30
0.0
 11
-5.711529
 21
8.979916
 31
0.0
  0
LINE
  8
0
  6
CONTINUOUS
 62
     7
  5
472
 10
-5.711529
 20
8.979916
 30
0.0
 11
-5.710348
 21
8.984973
 31
0.0
  0
LINE
  8
0
  6
CONTINUOUS
 62
     7
  5
473
 10
-5.710348
 20
8.984973
 30
0.0
 11
-5.709127
 21
8.990026
 31
0.0
  0
LINE
  8
0
  6
CONTINUOUS
 62
     7
  5
474
 10
-5.709127
 20
8.990026
 30
0.0
 11
-5.707865
 21
8.995075
 31
0.0
  0
LINE
  8
0
  6
CONTINUOUS
 62
     7
  5
475
 10
-5.707865
 20
8.995075
 30
0.0
 11
-5.706562
 21
9.00012
 31
0.0
  0
LINE
  8
0
  6
CONTINUOUS
 62
     7
  5
476
 10
-5.706562
 20
9.00012
 30
0.0
 11
-5.705218
 21
9.005159
 31
0.0
  0
LINE
  8
0
  6
CONTINUOUS
 62
     7
  5
477
 10
-5.728346
 20
0.664724
 30
0.0
 11
-5.728346
 21
8.831339
 31
0.0
  0
LINE
  8
0
  6
CONTINUOUS
 62
     7
  5
478
 10
-5.705218
 20
0.490904
 30
0.0
 11
-5.706562
 21
0.495943
 31
0.0
  0
LINE
  8
0
  6
CONTINUOUS
 62
     7
  5
479
 10
-5.706562
 20
0.495943
 30
0.0
 11
-5.707865
 21
0.500988
 31
0.0
  0
LINE
  8
0
  6
CONTINUOUS
 62
     7
  5
47A
 10
-5.707865
 20
0.500988
 30
0.0
 11
-5.709127
 21
0.506037
 31
0.0
  0
LINE
  8
0
  6
CONTINUOUS
 62
     7
  5
47B
 10
-5.709127
 20
0.506037
 30
0.0
 11
-5.710348
 21
0.51109
 31
0.0
  0
LINE
  8
0
  6
CONTINUOUS
 62
     7
  5
47C
 10
-5.710348
 20
0.51109
 30
0.0
 11
-5.711529
 21
0.516147
 31
0.0
  0
LINE
  8
0
  6
CONTINUOUS
 62
     7
  5
47D
 10
-5.711529
 20
0.516147
 30
0.0
 11
-5.712668
 21
0.521206
 31
0.0
  0
LINE
  8
0
  6
CONTINUOUS
 62
     7
  5
47E
 10
-5.712668
 20
0.521206
 30
0.0
 11
-5.713766
 21
0.526266
 31
0.0
  0
LINE
  8
0
  6
CONTINUOUS
 62
     7
  5
47F
 10
-5.713766
 20
0.526266
 30
0.0
 11
-5.714824
 21
0.531326
 31
0.0
  0
LINE
  8
0
  6
CONTINUOUS
 62
     7
  5
480
 10
-5.714824
 20
0.531326
 30
0.0
 11
-5.71584
 21
0.536386
 31
0.0
  0
LINE
  8
0
  6
CONTINUOUS
 62
     7
  5
481
 10
-5.71584
 20
0.536386
 30
0.0
 11
-5.716815
 21
0.541445
 31
0.0
  0
LINE
  8
0
  6
CONTINUOUS
 62
     7
  5
482
 10
-5.716815
 20
0.541445
 30
0.0
 11
-5.717749
 21
0.546502
 31
0.0
  0
LINE
  8
0
  6
CONTINUOUS
 62
     7
  5
483
 10
-5.717749
 20
0.546502
 30
0.0
 11
-5.718642
 21
0.551555
 31
0.0
  0
LINE
  8
0
  6
CONTINUOUS
 62
     7
  5
484
 10
-5.718642
 20
0.551555
 30
0.0
 11
-5.719494
 21
0.556604
 31
0.0
  0
LINE
  8
0
  6
CONTINUOUS
 62
     7
  5
485
 10
-5.719494
 20
0.556604
 30
0.0
 11
-5.720306
 21
0.561649
 31
0.0
  0
LINE
  8
0
  6
CONTINUOUS
 62
     7
  5
486
 10
-5.720306
 20
0.561649
 30
0.0
 11
-5.721077
 21
0.566687
 31
0.0
  0
LINE
  8
0
  6
CONTINUOUS
 62
     7
  5
487
 10
-5.721077
 20
0.566687
 30
0.0
 11
-5.721808
 21
0.571718
 31
0.0
  0
LINE
  8
0
  6
CONTINUOUS
 62
     7
  5
488
 10
-5.721808
 20
0.571718
 30
0.0
 11
-5.722498
 21
0.576742
 31
0.0
  0
LINE
  8
0
  6
CONTINUOUS
 62
     7
  5
489
 10
-5.722498
 20
0.576742
 30
0.0
 11
-5.723148
 21
0.581756
 31
0.0
  0
LINE
  8
0
  6
CONTINUOUS
 62
     7
  5
48A
 10
-5.723148
 20
0.581756
 30
0.0
 11
-5.723759
 21
0.586761
 31
0.0
  0
LINE
  8
0
  6
CONTINUOUS
 62
     7
  5
48B
 10
-5.723759
 20
0.586761
 30
0.0
 11
-5.724329
 21
0.591755
 31
0.0
  0
LINE
  8
0
  6
CONTINUOUS
 62
     7
  5
48C
 10
-5.724329
 20
0.591755
 30
0.0
 11
-5.724861
 21
0.596738
 31
0.0
  0
LINE
  8
0
  6
CONTINUOUS
 62
     7
  5
48D
 10
-5.724861
 20
0.596738
 30
0.0
 11
-5.725353
 21
0.601708
 31
0.0
  0
LINE
  8
0
  6
CONTINUOUS
 62
     7
  5
48E
 10
-5.725353
 20
0.601708
 30
0.0
 11
-5.725806
 21
0.606664
 31
0.0
  0
LINE
  8
0
  6
CONTINUOUS
 62
     7
  5
48F
 10
-5.725806
 20
0.606664
 30
0.0
 11
-5.726221
 21
0.611605
 31
0.0
  0
LINE
  8
0
  6
CONTINUOUS
 62
     7
  5
490
 10
-5.726221
 20
0.611605
 30
0.0
 11
-5.726597
 21
0.616531
 31
0.0
  0
LINE
  8
0
  6
CONTINUOUS
 62
     7
  5
491
 10
-5.726597
 20
0.616531
 30
0.0
 11
-5.726936
 21
0.621441
 31
0.0
  0
LINE
  8
0
  6
CONTINUOUS
 62
     7
  5
492
 10
-5.726936
 20
0.621441
 30
0.0
 11
-5.727237
 21
0.626333
 31
0.0
  0
LINE
  8
0
  6
CONTINUOUS
 62
     7
  5
493
 10
-5.727237
 20
0.626333
 30
0.0
 11
-5.727501
 21
0.631207
 31
0.0
  0
LINE
  8
0
  6
CONTINUOUS
 62
     7
  5
494
 10
-5.727501
 20
0.631207
 30
0.0
 11
-5.727728
 21
0.636061
 31
0.0
  0
LINE
  8
0
  6
CONTINUOUS
 62
     7
  5
495
 10
-5.727728
 20
0.636061
 30
0.0
 11
-5.727919
 21
0.640895
 31
0.0
  0
LINE
  8
0
  6
CONTINUOUS
 62
     7
  5
496
 10
-5.727919
 20
0.640895
 30
0.0
 11
-5.728074
 21
0.645707
 31
0.0
  0
LINE
  8
0
  6
CONTINUOUS
 62
     7
  5
497
 10
-5.728074
 20
0.645707
 30
0.0
 11
-5.728194
 21
0.650497
 31
0.0
  0
LINE
  8
0
  6
CONTINUOUS
 62
     7
  5
498
 10
-5.728194
 20
0.650497
 30
0.0
 11
-5.728279
 21
0.655264
 31
0.0
  0
LINE
  8
0
  6
CONTINUOUS
 62
     7
  5
499
 10
-5.728279
 20
0.655264
 30
0.0
 11
-5.72833
 21
0.660007
 31
0.0
  0
LINE
  8
0
  6
CONTINUOUS
 62
     7
  5
49A
 10
-5.72833
 20
0.660007
 30
0.0
 11
-5.728346
 21
0.664724
 31
0.0
  0
LINE
  8
0
  6
CONTINUOUS
 62
     7
  5
49B
 10
-5.705218
 20
1.139528
 30
0.0
 11
-5.443465
 21
1.139528
 31
0.0
  0
ARC
  8
0
  6
CONTINUOUS
 62
     7
  5
49C
 10
-5.063622
 20
8.831339
 30
0.0
 40
0.664724
 50
105.158629
 51
164.841371
  0
LINE
  8
0
  6
CONTINUOUS
 62
     7
  5
49D
 10
-0.347062
 20
-1.212598
 30
0.0
 11
-0.24964
 21
-1.043858
 31
0.0
  0
LINE
  8
0
  6
CONTINUOUS
 62
     7
  5
49E
 10
-2.041699
 20
-1.043858
 30
0.0
 11
-1.944277
 21
-1.212598
 31
0.0
  0
LINE
  8
0
  6
CONTINUOUS
 62
     7
  5
49F
 10
-0.524882
 20
-0.031417
 30
0.0
 11
-0.524882
 21
0.0
 31
0.0
  0
LINE
  8
0
  6
CONTINUOUS
 62
     7
  5
4A0
 10
-1.766457
 20
0.0
 30
0.0
 11
-1.766457
 21
-0.031417
 31
0.0
  0
ENDSEC
  0
EOF
