999
DXF file: C:\Users\sesa63760\Dev\_Creo\CAD\MCADUE0001440_3D-CAD\drw0001_2.dxf
999
Pro/ENGINEER 2019471 by Parametric Technology Corporation
  0
SECTION
  2
HEADER
  9
$ACADVER
  1
AC1024
  9
$DWGCODEPAGE
  3
ANSI_1252
  9
$EXTMAX
 10
1573.1951112626
 20
2224.9473716428
 30
0.0
  9
$EXTMIN
 10
0.0
 20
0.0
 30
0.0
  9
$LIMMIN
 10
0.0
 20
0.0
  9
$LIMMAX
 10
1573.1951112626
 20
2224.9473716428
  9
$VIEWCTR
 10
786.5975556313
 20
1112.4736858214
  9
$VIEWSIZE
 40
2224.9473716428
  9
$CLAYER
  8
0
  9
$LTSCALE
 40
145.0336064478
  9
$CELTYPE
  6
BYLAYER
  9
$DIMSCALE
 40
1.0
  9
$DIMASZ
 40
18.7285132293
  9
$DIMEXO
 40
1.0
  9
$DIMDLI
 40
100.2050371821
  9
$DIMEXE
 40
1.0
  9
$DIMCEN
 40
23.7327719642
  9
$DIMLFAC
 40
1.0
  9
$DIMBLK
  1
_FILLED
  9
$DIMALT
 70
0
  9
$DIMALTF
 40
0.0393700787
  9
$DIMTXT
 40
26.219918521
  9
$DIMTOL
 70
1
  9
$DIMLIM
 70
0
  9
$DIMTFAC
 40
1.0
  9
$DIMTP
 40
0.01
  9
$DIMTM
 40
0.01
  9
$DIMGAP
 40
0.625
  9
$DIMDSEP
 70
46
  9
$AUNITS
 70
0
  9
$PDMODE
 70
3
  9
$PDSIZE
 40
0.3125
  9
$HANDSEED
  5
2BD
  9
$TILEMODE
 70
1
  9
$MEASUREMENT
 70
1
  9
$INSUNITS
 70
4
  0
ENDSEC
  0
SECTION
  2
CLASSES
  0
CLASS
  1
ACDBDICTIONARYWDFLT
  2
AcDbDictionaryWithDefault
  3
AutoCAD 2000
 90
0
 91
1
280
0
281
0
  0
CLASS
  1
ACDBPLACEHOLDER
  2
AcDbPlaceHolder
  3
AutoCAD 2000
 90
0
 91
1
280
0
281
0
  0
CLASS
  1
LAYOUT
  2
AcDbLayout
  3
AutoCAD 2000
 90
0
 91
0
280
0
281
0
  0
ENDSEC
  0
SECTION
  2
TABLES
  0
TABLE
  2
VPORT
  5
8
100
AcDbSymbolTable
 70
2
  0
VPORT
  5
1F4
100
AcDbSymbolTableRecord
100
AcDbViewportTableRecord
  2
*ACTIVE
 70
0
 10
0.0
 20
0.0
 11
1.0
 21
1.0
 12
786.5975556313
 22
1112.4736858214
 13
0.0
 23
0.0
 14
1.0
 24
1.0
 15
0.0
 25
0.0
 16
0.0
 26
0.0
 36
1.0
 17
0.0
 27
0.0
 37
0.0
 40
2224.9473716428
 41
0.7070707071
 42
50.0
 43
0.0
 44
0.0
 50
0.0
 51
0.0
 71
0
 72
100
 73
1
 74
1
 75
0
 76
0
 77
0
 78
0
  0
ENDTAB
  0
TABLE
  2
LTYPE
  5
5
100
AcDbSymbolTable
 70
6
  0
LTYPE
  5
14
100
AcDbSymbolTableRecord
100
AcDbLinetypeTableRecord
  2
BYBLOCK
 70
0
  3

 72
65
 73
0
 40
0.0
  0
LTYPE
  5
15
100
AcDbSymbolTableRecord
100
AcDbLinetypeTableRecord
  2
BYLAYER
 70
0
  3

 72
65
 73
0
 40
0.0
  0
LTYPE
  5
16
100
AcDbSymbolTableRecord
100
AcDbLinetypeTableRecord
  2
CONTINUOUS
 70
64
  3
Solid line
 72
65
 73
0
 40
0.0
  0
LTYPE
  5
1F5
100
AcDbSymbolTableRecord
100
AcDbLinetypeTableRecord
  2
CENTER
 70
64
  3
____ _ ____ _ ____ _ ____ _ ____ _ ____ _ ____
 72
65
 73
4
 40
0.6
 49
0.375
 74
0
 49
-0.075
 74
0
 49
0.075
 74
0
 49
-0.075
 74
0
  0
LTYPE
  5
1F6
100
AcDbSymbolTableRecord
100
AcDbLinetypeTableRecord
  2
HIDDEN
 70
64
  3
- - - - - - - - - - - - - - - - - - - -
 72
65
 73
2
 40
0.2
 49
0.1
 74
0
 49
-0.1
 74
0
  0
LTYPE
  5
1F7
100
AcDbSymbolTableRecord
100
AcDbLinetypeTableRecord
  2
PHANTOM
 70
64
  3
_____ _ _ _____ _ _ _____ _ _ _____
 72
65
 73
6
 40
0.8
 49
0.45
 74
0
 49
-0.05
 74
0
 49
0.1
 74
0
 49
-0.05
 74
0
 49
0.1
 74
0
 49
-0.05
 74
0
  0
LTYPE
  5
1F8
100
AcDbSymbolTableRecord
100
AcDbLinetypeTableRecord
  2
DOT
 70
64
  3
. . . . . . . . . . . . . . . . . . . .
 72
65
 73
2
 40
0.2
 49
0.1
 74
0
 49
-0.1
 74
0
  0
LTYPE
  5
1F9
100
AcDbSymbolTableRecord
100
AcDbLinetypeTableRecord
  2
DASHED
 70
64
  3
- - - - - - - - - - - - - - - - - - - -
 72
65
 73
2
 40
0.2
 49
0.1
 74
0
 49
-0.1
 74
0
  0
ENDTAB
  0
TABLE
  2
LAYER
  5
2
100
AcDbSymbolTable
 70
36
  0
LAYER
  5
10
100
AcDbSymbolTableRecord
100
AcDbLayerTableRecord
  2
0
 70
0
 62
7
  6
CONTINUOUS
370
-3
390
F
  0
LAYER
  5
1FA
100
AcDbSymbolTableRecord
100
AcDbLayerTableRecord
  2
DEFAULT_1
 70
0
 62
7
  6
CENTER
370
-3
390
F
  0
LAYER
  5
1FB
100
AcDbSymbolTableRecord
100
AcDbLayerTableRecord
  2
DEFAULT_2
 70
0
 62
8
  6
HIDDEN
370
-3
390
F
  0
LAYER
  5
1FC
100
AcDbSymbolTableRecord
100
AcDbLayerTableRecord
  2
DEFAULT_3
 70
0
 62
7
  6
PHANTOM
370
-3
390
F
  0
LAYER
  5
1FD
100
AcDbSymbolTableRecord
100
AcDbLayerTableRecord
  2
00_COMPONENTS
 70
0
 62
7
  6
CONTINUOUS
370
-3
390
F
  0
LAYER
  5
1FE
100
AcDbSymbolTableRecord
100
AcDbLayerTableRecord
  2
01_1_DEFAULT_DATUMS
 70
0
 62
7
  6
CONTINUOUS
370
-3
390
F
  0
LAYER
  5
1FF
100
AcDbSymbolTableRecord
100
AcDbLayerTableRecord
  2
01_PLANES
 70
0
 62
7
  6
CONTINUOUS
370
-3
390
F
  0
LAYER
  5
200
100
AcDbSymbolTableRecord
100
AcDbLayerTableRecord
  2
02_COORD_SYS
 70
0
 62
7
  6
CONTINUOUS
370
-3
390
F
  0
LAYER
  5
201
100
AcDbSymbolTableRecord
100
AcDbLayerTableRecord
  2
03_AXES
 70
0
 62
7
  6
CONTINUOUS
370
-3
390
F
  0
LAYER
  5
202
100
AcDbSymbolTableRecord
100
AcDbLayerTableRecord
  2
04_POINTS
 70
0
 62
7
  6
CONTINUOUS
370
-3
390
F
  0
LAYER
  5
203
100
AcDbSymbolTableRecord
100
AcDbLayerTableRecord
  2
05_CURVES
 70
0
 62
7
  6
CONTINUOUS
370
-3
390
F
  0
LAYER
  5
204
100
AcDbSymbolTableRecord
100
AcDbLayerTableRecord
  2
06_SURFS
 70
0
 62
7
  6
CONTINUOUS
370
-3
390
F
  0
LAYER
  5
205
100
AcDbSymbolTableRecord
100
AcDbLayerTableRecord
  2
07_COSMETICS
 70
0
 62
7
  6
CONTINUOUS
370
-3
390
F
  0
LAYER
  5
206
100
AcDbSymbolTableRecord
100
AcDbLayerTableRecord
  2
10_NOTES
 70
0
 62
7
  6
CONTINUOUS
370
-3
390
F
  0
LAYER
  5
207
100
AcDbSymbolTableRecord
100
AcDbLayerTableRecord
  2
11_NOTES_PUB
 70
0
 62
7
  6
CONTINUOUS
370
-3
390
F
  0
LAYER
  5
208
100
AcDbSymbolTableRecord
100
AcDbLayerTableRecord
  2
13_REF_GTOL
 70
0
 62
7
  6
CONTINUOUS
370
-3
390
F
  0
LAYER
  5
209
100
AcDbSymbolTableRecord
100
AcDbLayerTableRecord
  2
16_MISC
 70
0
 62
7
  6
CONTINUOUS
370
-3
390
F
  0
LAYER
  5
20A
100
AcDbSymbolTableRecord
100
AcDbLayerTableRecord
  2
17_NO_PRINT
 70
0
 62
7
  6
CONTINUOUS
370
-3
390
F
  0
LAYER
  5
20B
100
AcDbSymbolTableRecord
100
AcDbLayerTableRecord
  2
18_DATUM_CAMS_JOINTS
 70
0
 62
7
  6
CONTINUOUS
370
-3
390
F
  0
LAYER
  5
20C
100
AcDbSymbolTableRecord
100
AcDbLayerTableRecord
  2
19_DATUM_FUNCTIONAL
 70
0
 62
7
  6
CONTINUOUS
370
-3
390
F
  0
LAYER
  5
20D
100
AcDbSymbolTableRecord
100
AcDbLayerTableRecord
  2
20_DATUM_KINEMATIC_SCHEME
 70
0
 62
7
  6
CONTINUOUS
370
-3
390
F
  0
ENDTAB
  0
TABLE
  2
STYLE
  5
3
100
AcDbSymbolTable
 70
1
  0
STYLE
  5
11
100
AcDbSymbolTableRecord
100
AcDbTextStyleTableRecord
  2
STANDARD
 70
0
 40
0.0
 41
0.8
 50
0.0
 71
0
 42
0.2
  3
txt
  4

  0
STYLE
  5
20E
100
AcDbSymbolTableRecord
100
AcDbTextStyleTableRecord
  2
TEXTSTYLE_1
 70
0
 40
0.0
 41
0.8
 50
0.0
 71
0
 42
0.2
  3
gdt
  4

  0
ENDTAB
  0
TABLE
  2
VIEW
  5
6
100
AcDbSymbolTable
 70
0
  0
ENDTAB
  0
TABLE
  2
UCS
  5
7
100
AcDbSymbolTable
 70
0
  0
ENDTAB
  0
TABLE
  2
APPID
  5
9
100
AcDbSymbolTable
 70
1
  0
APPID
  5
20F
100
AcDbSymbolTableRecord
100
AcDbRegAppTableRecord
  2
ACAD
 70
0
  0
ENDTAB
  0
TABLE
  2
BLOCK_RECORD
  5
1
100
AcDbSymbolTable
 70
0
  0
BLOCK_RECORD
  5
210
100
AcDbSymbolTableRecord
100
AcDbBlockTableRecord
  2
*Model_Space
  0
BLOCK_RECORD
  5
211
100
AcDbSymbolTableRecord
100
AcDbBlockTableRecord
  2
*Paper_Space
  0
BLOCK_RECORD
  5
212
100
AcDbSymbolTableRecord
100
AcDbBlockTableRecord
  2
_FILLED
  0
ENDTAB
  0
TABLE
  2
DIMSTYLE
  5
A
100
AcDbSymbolTable
 70
1
100
AcDbDimStyleTable
 71
0
  0
DIMSTYLE
105
213
100
AcDbSymbolTableRecord
100
AcDbDimStyleTableRecord
  2
STANDARD
 70
0
  3

  4

 40
1.0
 41
18.7285132293
 42
1.0
 43
0.38
 44
1.0
 45
0.0
 46
0.0
 47
0.01
 48
0.01
140
26.219918521
141
0.09
142
0.0
143
25.4
144
1.0
145
0.0
146
1.0
147
0.625
 71
1
 72
0
 73
0
 74
0
 75
0
 76
0
 77
1
 78
8
 79
2
170
0
171
1
172
0
173
0
174
0
175
0
176
0
177
0
178
0
270
2
179
2
271
2
272
2
273
2
274
2
275
0
280
0
281
0
282
0
283
1
284
8
285
0
286
0
287
3
288
0
340
11
278
46
341
212
342
212
343
212
344
212
  0
ENDTAB
  0
ENDSEC
  0
SECTION
  2
BLOCKS
  0
BLOCK
  5
20
100
AcDbEntity
  8
0
100
AcDbBlockBegin
  2
*Model_Space
 70
0
 10
0.0
 20
0.0
 30
0.0
  3
*Model_Space
  1

  0
ENDBLK
  5
21
100
AcDbEntity
  8
0
100
AcDbBlockEnd
  0
BLOCK
  5
1C
100
AcDbEntity
  8
0
100
AcDbBlockBegin
  2
*Paper_Space
 70
0
 10
0.0
 20
0.0
 30
0.0
  3
*Paper_Space
  1

  0
ENDBLK
  5
1D
100
AcDbEntity
  8
0
100
AcDbBlockEnd
  0
BLOCK
  5
214
100
AcDbEntity
  8
0
100
AcDbBlockBegin
  2
_FILLED
 70
64
 10
0.0
 20
0.0
  3
_FILLED
  1

  0
SOLID
  5
215
100
AcDbEntity
  8
0
  6
BYBLOCK
 62
0
100
AcDbTrace
 10
0.0
 20
0.0
 11
-1.0
 21
0.25
 12
-1.0
 22
-0.25
 13
-1.0
 23
-0.25
  0
ENDBLK
  5
216
100
AcDbEntity
  8
0
  6
BYBLOCK
 62
0
100
AcDbBlockEnd
  0
ENDSEC
  0
SECTION
  2
ENTITIES
  0
LINE
  5
217
100
AcDbEntity
  8
0
100
AcDbLine
 62
7
  6
CONTINUOUS
 10
172.5375359343
 20
570.4387151268
 11
172.5144233755
 21
575.3887151268
  0
LINE
  5
218
100
AcDbEntity
  8
0
100
AcDbLine
 62
7
  6
CONTINUOUS
 10
172.5375359343
 20
945.4387151268
 11
172.5144233755
 21
950.3887151268
  0
LINE
  5
219
100
AcDbEntity
  8
0
100
AcDbLine
 62
7
  6
CONTINUOUS
 10
172.5375359343
 20
1245.4387151268
 11
172.5144233755
 21
1250.3887151268
  0
LINE
  5
21A
100
AcDbEntity
  8
0
100
AcDbLine
 62
7
  6
CONTINUOUS
 10
172.5375359343
 20
1620.4387151268
 11
172.5144233755
 21
1625.3887151268
  0
LINE
  5
21B
100
AcDbEntity
  8
0
100
AcDbLine
 62
7
  6
CONTINUOUS
 10
172.4913108168
 20
1733.3887151268
 11
172.4913108168
 21
1641.3887151268
  0
LINE
  5
21C
100
AcDbEntity
  8
0
100
AcDbLine
 62
7
  6
CONTINUOUS
 10
172.4913108168
 20
1625.3887151268
 11
172.4913108168
 21
1266.3887151268
  0
LINE
  5
21D
100
AcDbEntity
  8
0
100
AcDbLine
 62
7
  6
CONTINUOUS
 10
172.4913108168
 20
1250.3887151268
 11
172.4913108168
 21
966.3887151268
  0
LINE
  5
21E
100
AcDbEntity
  8
0
100
AcDbLine
 62
7
  6
CONTINUOUS
 10
172.4913108168
 20
950.3887151268
 11
172.4913108168
 21
591.3887151268
  0
LINE
  5
21F
100
AcDbEntity
  8
0
100
AcDbLine
 62
7
  6
CONTINUOUS
 10
172.4913108168
 20
575.3887151268
 11
172.4913108168
 21
483.3887151268
  0
LINE
  5
220
100
AcDbEntity
  8
0
100
AcDbLine
 62
7
  6
CONTINUOUS
 10
172.5144233755
 20
1641.3887151268
 11
172.5144233755
 21
1625.3887151268
  0
LINE
  5
221
100
AcDbEntity
  8
0
100
AcDbLine
 62
7
  6
CONTINUOUS
 10
172.5144233755
 20
1266.3887151268
 11
172.5144233755
 21
1250.3887151268
  0
LINE
  5
222
100
AcDbEntity
  8
0
100
AcDbLine
 62
7
  6
CONTINUOUS
 10
172.5144233755
 20
966.3887151268
 11
172.5144233755
 21
950.3887151268
  0
LINE
  5
223
100
AcDbEntity
  8
0
100
AcDbLine
 62
7
  6
CONTINUOUS
 10
172.5144233755
 20
591.3887151268
 11
172.5144233755
 21
575.3887151268
  0
LINE
  5
224
100
AcDbEntity
  8
0
100
AcDbLine
 62
7
  6
CONTINUOUS
 10
173.9903108168
 20
488.3892188037
 11
173.9903108168
 21
1728.3892188037
  0
LINE
  5
225
100
AcDbEntity
  8
0
100
AcDbLine
 62
7
  6
CONTINUOUS
 10
174.4213108168
 20
485.3287151269
 11
174.4213108168
 21
488.3892188037
  0
LINE
  5
226
100
AcDbEntity
  8
0
100
AcDbLine
 62
7
  6
CONTINUOUS
 10
174.4213108168
 20
1728.3892188037
 11
174.4213108168
 21
1731.4487151269
  0
LINE
  5
227
100
AcDbEntity
  8
0
100
AcDbLine
 62
7
  6
CONTINUOUS
 10
174.8503108168
 20
1726.9058723144
 11
174.8503108168
 21
489.8625675806
  0
LINE
  5
228
100
AcDbEntity
  8
0
100
AcDbLine
 62
7
  6
CONTINUOUS
 10
178.8411867155
 20
533.3792188037
 11
178.8411867155
 21
1683.3892188037
  0
LINE
  5
229
100
AcDbEntity
  8
0
100
AcDbLine
 62
7
  6
CONTINUOUS
 10
172.5144233755
 20
1641.3887151268
 11
172.5375359343
 21
1646.3387151268
  0
LINE
  5
22A
100
AcDbEntity
  8
0
100
AcDbLine
 62
7
  6
CONTINUOUS
 10
172.5144233755
 20
1266.3887151268
 11
172.5375359343
 21
1271.3387151268
  0
LINE
  5
22B
100
AcDbEntity
  8
0
100
AcDbLine
 62
7
  6
CONTINUOUS
 10
172.5144233755
 20
966.3887151268
 11
172.5375359343
 21
971.3387151268
  0
LINE
  5
22C
100
AcDbEntity
  8
0
100
AcDbLine
 62
7
  6
CONTINUOUS
 10
172.5144233755
 20
591.3887151268
 11
172.5375359343
 21
596.3387151268
  0
LINE
  5
22D
100
AcDbEntity
  8
0
100
AcDbLine
 62
7
  6
CONTINUOUS
 10
172.4913108168
 20
483.3887151268
 11
1422.4903108168
 21
483.3887151268
  0
LINE
  5
22E
100
AcDbEntity
  8
0
100
AcDbLine
 62
7
  6
CONTINUOUS
 10
1420.5603108168
 20
485.3287151268
 11
924.4203108168
 21
485.3287151268
  0
LINE
  5
22F
100
AcDbEntity
  8
0
100
AcDbLine
 62
7
  6
CONTINUOUS
 10
920.5613108168
 20
485.3287151268
 11
174.4213108168
 21
485.3287151268
  0
LINE
  5
230
100
AcDbEntity
  8
0
100
AcDbLine
 62
7
  6
CONTINUOUS
 10
1420.9903108168
 20
488.3892188037
 11
923.9903108168
 21
488.3892188037
  0
LINE
  5
231
100
AcDbEntity
  8
0
100
AcDbLine
 62
7
  6
CONTINUOUS
 10
920.9903108168
 20
488.3892188037
 11
173.9903108168
 21
488.3892188037
  0
LINE
  5
232
100
AcDbEntity
  8
0
100
AcDbLine
 62
7
  6
CONTINUOUS
 10
174.7764491887
 20
489.1690034111
 11
920.204172445
 21
489.1690034111
  0
LINE
  5
233
100
AcDbEntity
  8
0
100
AcDbLine
 62
7
  6
CONTINUOUS
 10
924.7764491887
 20
489.1690034111
 11
1420.204172445
 21
489.1690034111
  0
LINE
  5
234
100
AcDbEntity
  8
0
100
AcDbLine
 62
7
  6
CONTINUOUS
 10
1419.6642861928
 20
492.9570992491
 11
925.3163354408
 21
492.9570992491
  0
LINE
  5
235
100
AcDbEntity
  8
0
100
AcDbLine
 62
7
  6
CONTINUOUS
 10
919.6642861928
 20
492.9570992491
 11
175.3163354408
 21
492.9570992491
  0
LINE
  5
236
100
AcDbEntity
  8
0
100
AcDbLine
 62
7
  6
CONTINUOUS
 10
923.9903108168
 20
519.5471931165
 11
920.9903108168
 21
519.5471931165
  0
LINE
  5
237
100
AcDbEntity
  8
0
100
AcDbLine
 62
7
  6
CONTINUOUS
 10
920.9903108168
 20
521.6227151268
 11
923.9903108168
 21
521.6227151268
  0
LINE
  5
238
100
AcDbEntity
  8
0
100
AcDbLine
 62
7
  6
CONTINUOUS
 10
229.7403108168
 20
1684.4305968473
 11
229.7403108168
 21
1683.3892188037
  0
LINE
  5
239
100
AcDbEntity
  8
0
100
AcDbLine
 62
7
  6
CONTINUOUS
 10
229.7403108168
 20
533.3792188037
 11
229.7403108168
 21
532.3468334064
  0
LINE
  5
23A
100
AcDbEntity
  8
0
100
AcDbLine
 62
7
  6
CONTINUOUS
 10
1365.2403108168
 20
532.3482126094
 11
979.7403108168
 21
532.3482126094
  0
LINE
  5
23B
100
AcDbEntity
  8
0
100
AcDbLine
 62
7
  6
CONTINUOUS
 10
865.2403108168
 20
532.3482126094
 11
229.7403108168
 21
532.3482126094
  0
LINE
  5
23C
100
AcDbEntity
  8
0
100
AcDbLine
 62
7
  6
CONTINUOUS
 10
1416.1349872668
 20
533.3792188037
 11
1365.2403108168
 21
533.3792188037
  0
LINE
  5
23D
100
AcDbEntity
  8
0
100
AcDbLine
 62
7
  6
CONTINUOUS
 10
979.7403108168
 20
533.3792188037
 11
928.8456343646
 21
533.3792188037
  0
LINE
  5
23E
100
AcDbEntity
  8
0
100
AcDbLine
 62
7
  6
CONTINUOUS
 10
916.1349846102
 20
533.3792188037
 11
865.2403108168
 21
533.3792188037
  0
LINE
  5
23F
100
AcDbEntity
  8
0
100
AcDbLine
 62
7
  6
CONTINUOUS
 10
229.7403108168
 20
533.3792188037
 11
178.8456370211
 21
533.3792188037
  0
LINE
  5
240
100
AcDbEntity
  8
0
100
AcDbLine
 62
7
  6
CONTINUOUS
 10
923.9903108168
 20
558.494793094
 11
920.9903108168
 21
558.494793094
  0
LINE
  5
241
100
AcDbEntity
  8
0
100
AcDbLine
 62
7
  6
CONTINUOUS
 10
172.5375359343
 20
570.4387151268
 11
173.9903108168
 21
570.4387151268
  0
LINE
  5
242
100
AcDbEntity
  8
0
100
AcDbLine
 62
7
  6
CONTINUOUS
 10
1420.9903108168
 20
570.4387151268
 11
1422.4440856994
 21
570.4387151268
  0
LINE
  5
243
100
AcDbEntity
  8
0
100
AcDbLine
 62
7
  6
CONTINUOUS
 10
1422.4440856994
 20
596.3387151268
 11
1420.9903108168
 21
596.3387151268
  0
LINE
  5
244
100
AcDbEntity
  8
0
100
AcDbLine
 62
7
  6
CONTINUOUS
 10
173.9903108168
 20
596.3387151268
 11
172.5375359343
 21
596.3387151268
  0
LINE
  5
245
100
AcDbEntity
  8
0
100
AcDbLine
 62
7
  6
CONTINUOUS
 10
920.2041105955
 20
1727.5993748217
 11
920.9903108168
 21
1728.3892188037
  0
LINE
  5
246
100
AcDbEntity
  8
0
100
AcDbLine
 62
7
  6
CONTINUOUS
 10
917.4988399172
 20
1728.3892188037
 11
920.5613108168
 21
1731.4487151268
  0
LINE
  5
247
100
AcDbEntity
  8
0
100
AcDbLine
 62
7
  6
CONTINUOUS
 10
920.9903108168
 20
488.3892188037
 11
920.204172445
 21
489.1690034111
  0
LINE
  5
248
100
AcDbEntity
  8
0
100
AcDbLine
 62
7
  6
CONTINUOUS
 10
920.5613108168
 20
485.3287151268
 11
917.4977648898
 21
488.3892188037
  0
LINE
  5
249
100
AcDbEntity
  8
0
100
AcDbLine
 62
7
  6
CONTINUOUS
 10
172.5375359343
 20
945.4387151268
 11
173.9903108168
 21
945.4387151268
  0
LINE
  5
24A
100
AcDbEntity
  8
0
100
AcDbLine
 62
7
  6
CONTINUOUS
 10
1420.9903108168
 20
945.4387151268
 11
1422.4440856994
 21
945.4387151268
  0
LINE
  5
24B
100
AcDbEntity
  8
0
100
AcDbLine
 62
7
  6
CONTINUOUS
 10
1422.4440856994
 20
971.3387151268
 11
1420.9903108168
 21
971.3387151268
  0
LINE
  5
24C
100
AcDbEntity
  8
0
100
AcDbLine
 62
7
  6
CONTINUOUS
 10
173.9903108168
 20
971.3387151268
 11
172.5375359343
 21
971.3387151268
  0
LINE
  5
24D
100
AcDbEntity
  8
0
100
AcDbLine
 62
7
  6
CONTINUOUS
 10
1420.2041105955
 20
1727.5993748217
 11
1420.9903108168
 21
1728.3892188037
  0
LINE
  5
24E
100
AcDbEntity
  8
0
100
AcDbLine
 62
7
  6
CONTINUOUS
 10
1417.4978399172
 20
1728.3892188037
 11
1420.5603108168
 21
1731.4487151268
  0
LINE
  5
24F
100
AcDbEntity
  8
0
100
AcDbLine
 62
7
  6
CONTINUOUS
 10
177.4847900496
 20
488.3892188037
 11
174.4213108168
 21
485.3287151268
  0
LINE
  5
250
100
AcDbEntity
  8
0
100
AcDbLine
 62
7
  6
CONTINUOUS
 10
174.7764491887
 20
489.1690034111
 11
173.9903108168
 21
488.3892188037
  0
LINE
  5
251
100
AcDbEntity
  8
0
100
AcDbLine
 62
7
  6
CONTINUOUS
 10
1420.9903108168
 20
488.3892188037
 11
1420.204172445
 21
489.1690034111
  0
LINE
  5
252
100
AcDbEntity
  8
0
100
AcDbLine
 62
7
  6
CONTINUOUS
 10
1420.5603108168
 20
485.3287151268
 11
1417.4967648898
 21
488.3892188037
  0
LINE
  5
253
100
AcDbEntity
  8
0
100
AcDbLine
 62
7
  6
CONTINUOUS
 10
174.4213108168
 20
1731.4487151268
 11
177.4838483888
 21
1728.3892188037
  0
LINE
  5
254
100
AcDbEntity
  8
0
100
AcDbLine
 62
7
  6
CONTINUOUS
 10
173.9903108168
 20
1728.3892188037
 11
174.7765110381
 21
1727.5993748217
  0
LINE
  5
255
100
AcDbEntity
  8
0
100
AcDbLine
 62
7
  6
CONTINUOUS
 10
865.2403108168
 20
1684.4292054046
 11
865.2403108168
 21
1683.3892188037
  0
LINE
  5
256
100
AcDbEntity
  8
0
100
AcDbLine
 62
7
  6
CONTINUOUS
 10
865.2403108168
 20
533.3792188037
 11
865.2403108168
 21
532.3482126094
  0
LINE
  5
257
100
AcDbEntity
  8
0
100
AcDbLine
 62
7
  6
CONTINUOUS
 10
916.1394349224
 20
1683.3892188037
 11
916.1394349224
 21
533.3792188037
  0
LINE
  5
258
100
AcDbEntity
  8
0
100
AcDbLine
 62
7
  6
CONTINUOUS
 10
920.1303108168
 20
489.8625675806
 11
920.1303108168
 21
1726.9058723144
  0
LINE
  5
259
100
AcDbEntity
  8
0
100
AcDbLine
 62
7
  6
CONTINUOUS
 10
920.5613108168
 20
1731.4487151268
 11
920.5613108168
 21
1728.3892188037
  0
LINE
  5
25A
100
AcDbEntity
  8
0
100
AcDbLine
 62
7
  6
CONTINUOUS
 10
920.5613108168
 20
488.3892188037
 11
920.5613108168
 21
485.3287151268
  0
LINE
  5
25B
100
AcDbEntity
  8
0
100
AcDbLine
 62
7
  6
CONTINUOUS
 10
920.9903108168
 20
1728.3892188037
 11
920.9903108168
 21
488.3892188037
  0
LINE
  5
25C
100
AcDbEntity
  8
0
100
AcDbLine
 62
7
  6
CONTINUOUS
 10
922.4907437316
 20
1697.2302371372
 11
922.4907437316
 21
1733.3878402887
  0
LINE
  5
25D
100
AcDbEntity
  8
0
100
AcDbLine
 62
7
  6
CONTINUOUS
 10
922.4908108168
 20
483.3895050341
 11
922.4908108168
 21
519.5471931165
  0
LINE
  5
25E
100
AcDbEntity
  8
0
100
AcDbLine
 62
7
  6
CONTINUOUS
 10
923.9903108168
 20
488.3892188037
 11
923.9903108168
 21
1728.3892188037
  0
LINE
  5
25F
100
AcDbEntity
  8
0
100
AcDbLine
 62
7
  6
CONTINUOUS
 10
924.4203108168
 20
485.3287151269
 11
924.4203108168
 21
488.3892188037
  0
LINE
  5
260
100
AcDbEntity
  8
0
100
AcDbLine
 62
7
  6
CONTINUOUS
 10
924.4203108168
 20
1728.3892188037
 11
924.4203108168
 21
1731.4487151269
  0
LINE
  5
261
100
AcDbEntity
  8
0
100
AcDbLine
 62
7
  6
CONTINUOUS
 10
924.8503108168
 20
1726.9058723144
 11
924.8503108168
 21
489.8625675806
  0
LINE
  5
262
100
AcDbEntity
  8
0
100
AcDbLine
 62
7
  6
CONTINUOUS
 10
928.8411867155
 20
533.3792188037
 11
928.8411867155
 21
1683.3892188037
  0
LINE
  5
263
100
AcDbEntity
  8
0
100
AcDbLine
 62
7
  6
CONTINUOUS
 10
979.7403108168
 20
1684.4305968473
 11
979.7403108168
 21
1683.3892188037
  0
LINE
  5
264
100
AcDbEntity
  8
0
100
AcDbLine
 62
7
  6
CONTINUOUS
 10
979.7403108168
 20
533.3792188037
 11
979.7403108168
 21
532.3468334064
  0
LINE
  5
265
100
AcDbEntity
  8
0
100
AcDbLine
 62
7
  6
CONTINUOUS
 10
172.5375359343
 20
1245.4387151268
 11
173.9903108168
 21
1245.4387151268
  0
LINE
  5
266
100
AcDbEntity
  8
0
100
AcDbLine
 62
7
  6
CONTINUOUS
 10
1420.9903108168
 20
1245.4387151268
 11
1422.4440856994
 21
1245.4387151268
  0
LINE
  5
267
100
AcDbEntity
  8
0
100
AcDbLine
 62
7
  6
CONTINUOUS
 10
1422.4440856994
 20
1271.3387151268
 11
1420.9903108168
 21
1271.3387151268
  0
LINE
  5
268
100
AcDbEntity
  8
0
100
AcDbLine
 62
7
  6
CONTINUOUS
 10
173.9903108168
 20
1271.3387151268
 11
172.5375359343
 21
1271.3387151268
  0
LINE
  5
269
100
AcDbEntity
  8
0
100
AcDbLine
 62
7
  6
CONTINUOUS
 10
927.4837900496
 20
488.3892188037
 11
924.4203108168
 21
485.3287151268
  0
LINE
  5
26A
100
AcDbEntity
  8
0
100
AcDbLine
 62
7
  6
CONTINUOUS
 10
924.7764491887
 20
489.1690034111
 11
923.9903108168
 21
488.3892188037
  0
LINE
  5
26B
100
AcDbEntity
  8
0
100
AcDbLine
 62
7
  6
CONTINUOUS
 10
172.5375359343
 20
1620.4387151268
 11
173.9903108168
 21
1620.4387151268
  0
LINE
  5
26C
100
AcDbEntity
  8
0
100
AcDbLine
 62
7
  6
CONTINUOUS
 10
1420.9903108168
 20
1620.4387151268
 11
1422.4440856994
 21
1620.4387151268
  0
LINE
  5
26D
100
AcDbEntity
  8
0
100
AcDbLine
 62
7
  6
CONTINUOUS
 10
1422.4440856994
 20
1646.3387151268
 11
1420.9903108168
 21
1646.3387151268
  0
LINE
  5
26E
100
AcDbEntity
  8
0
100
AcDbLine
 62
7
  6
CONTINUOUS
 10
173.9903108168
 20
1646.3387151268
 11
172.5375359343
 21
1646.3387151268
  0
LINE
  5
26F
100
AcDbEntity
  8
0
100
AcDbLine
 62
7
  6
CONTINUOUS
 10
924.4203108168
 20
1731.4487151268
 11
927.4828483888
 21
1728.3892188037
  0
LINE
  5
270
100
AcDbEntity
  8
0
100
AcDbLine
 62
7
  6
CONTINUOUS
 10
923.9903108168
 20
1728.3892188037
 11
924.7765110381
 21
1727.5993748217
  0
LINE
  5
271
100
AcDbEntity
  8
0
100
AcDbLine
 62
7
  6
CONTINUOUS
 10
1365.2403108168
 20
1684.4292054046
 11
1365.2403108168
 21
1683.3892188037
  0
LINE
  5
272
100
AcDbEntity
  8
0
100
AcDbLine
 62
7
  6
CONTINUOUS
 10
1365.2403108168
 20
533.3792188037
 11
1365.2403108168
 21
532.3482126094
  0
LINE
  5
273
100
AcDbEntity
  8
0
100
AcDbLine
 62
7
  6
CONTINUOUS
 10
920.9903108168
 20
1658.2826371596
 11
923.9903108168
 21
1658.2826371596
  0
LINE
  5
274
100
AcDbEntity
  8
0
100
AcDbLine
 62
7
  6
CONTINUOUS
 10
1416.1394349224
 20
1683.3892188037
 11
1365.2403108168
 21
1683.3892188037
  0
LINE
  5
275
100
AcDbEntity
  8
0
100
AcDbLine
 62
7
  6
CONTINUOUS
 10
979.7403108168
 20
1683.3892188037
 11
928.8411867155
 21
1683.3892188037
  0
LINE
  5
276
100
AcDbEntity
  8
0
100
AcDbLine
 62
7
  6
CONTINUOUS
 10
916.1394349224
 20
1683.3892188037
 11
865.2403108168
 21
1683.3892188037
  0
LINE
  5
277
100
AcDbEntity
  8
0
100
AcDbLine
 62
7
  6
CONTINUOUS
 10
229.7403108168
 20
1683.3892188037
 11
178.8411867155
 21
1683.3892188037
  0
LINE
  5
278
100
AcDbEntity
  8
0
100
AcDbLine
 62
7
  6
CONTINUOUS
 10
1365.2403108168
 20
1684.4305968473
 11
979.7403108168
 21
1684.4305968473
  0
LINE
  5
279
100
AcDbEntity
  8
0
100
AcDbLine
 62
7
  6
CONTINUOUS
 10
865.2403108168
 20
1684.4305968473
 11
229.7403108168
 21
1684.4305968473
  0
LINE
  5
27A
100
AcDbEntity
  8
0
100
AcDbLine
 62
7
  6
CONTINUOUS
 10
920.9903108168
 20
1695.1547151268
 11
923.9903108168
 21
1695.1547151268
  0
LINE
  5
27B
100
AcDbEntity
  8
0
100
AcDbLine
 62
7
  6
CONTINUOUS
 10
920.9903108168
 20
1697.2302371372
 11
923.9903108168
 21
1697.2302371372
  0
LINE
  5
27C
100
AcDbEntity
  8
0
100
AcDbLine
 62
7
  6
CONTINUOUS
 10
1422.4440856994
 20
596.3387151268
 11
1422.4671982581
 21
591.3887151268
  0
LINE
  5
27D
100
AcDbEntity
  8
0
100
AcDbLine
 62
7
  6
CONTINUOUS
 10
1422.4440856994
 20
971.3387151268
 11
1422.4671982581
 21
966.3887151268
  0
LINE
  5
27E
100
AcDbEntity
  8
0
100
AcDbLine
 62
7
  6
CONTINUOUS
 10
1422.4440856994
 20
1271.3387151268
 11
1422.4671982581
 21
1266.3887151268
  0
LINE
  5
27F
100
AcDbEntity
  8
0
100
AcDbLine
 62
7
  6
CONTINUOUS
 10
1422.4440856994
 20
1646.3387151268
 11
1422.4671982581
 21
1641.3887151268
  0
LINE
  5
280
100
AcDbEntity
  8
0
100
AcDbLine
 62
7
  6
CONTINUOUS
 10
1416.1394349224
 20
1683.3892188037
 11
1416.1394349224
 21
533.3792188037
  0
LINE
  5
281
100
AcDbEntity
  8
0
100
AcDbLine
 62
7
  6
CONTINUOUS
 10
1420.1303108168
 20
489.8625675806
 11
1420.1303108168
 21
1726.9058723144
  0
LINE
  5
282
100
AcDbEntity
  8
0
100
AcDbLine
 62
7
  6
CONTINUOUS
 10
1420.5603108168
 20
1731.4487151268
 11
1420.5603108168
 21
1728.3892188037
  0
LINE
  5
283
100
AcDbEntity
  8
0
100
AcDbLine
 62
7
  6
CONTINUOUS
 10
1420.5603108168
 20
488.3892188037
 11
1420.5603108168
 21
485.3287151268
  0
LINE
  5
284
100
AcDbEntity
  8
0
100
AcDbLine
 62
7
  6
CONTINUOUS
 10
1420.9903108168
 20
1728.3892188037
 11
1420.9903108168
 21
488.3892188037
  0
LINE
  5
285
100
AcDbEntity
  8
0
100
AcDbLine
 62
7
  6
CONTINUOUS
 10
1422.4671982581
 20
575.3887151268
 11
1422.4671982581
 21
591.3887151268
  0
LINE
  5
286
100
AcDbEntity
  8
0
100
AcDbLine
 62
7
  6
CONTINUOUS
 10
1422.4671982581
 20
950.3887151268
 11
1422.4671982581
 21
966.3887151268
  0
LINE
  5
287
100
AcDbEntity
  8
0
100
AcDbLine
 62
7
  6
CONTINUOUS
 10
1422.4671982581
 20
1250.3887151268
 11
1422.4671982581
 21
1266.3887151268
  0
LINE
  5
288
100
AcDbEntity
  8
0
100
AcDbLine
 62
7
  6
CONTINUOUS
 10
1422.4671982581
 20
1625.3887151268
 11
1422.4671982581
 21
1641.3887151268
  0
LINE
  5
289
100
AcDbEntity
  8
0
100
AcDbLine
 62
7
  6
CONTINUOUS
 10
1422.4903108168
 20
483.3887151268
 11
1422.4903108168
 21
575.3887151268
  0
LINE
  5
28A
100
AcDbEntity
  8
0
100
AcDbLine
 62
7
  6
CONTINUOUS
 10
1422.4903108168
 20
591.3887151268
 11
1422.4903108168
 21
950.3887151268
  0
LINE
  5
28B
100
AcDbEntity
  8
0
100
AcDbLine
 62
7
  6
CONTINUOUS
 10
1422.4903108168
 20
966.3887151268
 11
1422.4903108168
 21
1250.3887151268
  0
LINE
  5
28C
100
AcDbEntity
  8
0
100
AcDbLine
 62
7
  6
CONTINUOUS
 10
1422.4903108168
 20
1266.3887151268
 11
1422.4903108168
 21
1625.3887151268
  0
LINE
  5
28D
100
AcDbEntity
  8
0
100
AcDbLine
 62
7
  6
CONTINUOUS
 10
1422.4903108168
 20
1641.3887151268
 11
1422.4903108168
 21
1733.3887151268
  0
LINE
  5
28E
100
AcDbEntity
  8
0
100
AcDbLine
 62
7
  6
CONTINUOUS
 10
1422.4671982581
 20
1625.3887151268
 11
1422.4440856994
 21
1620.4387151268
  0
LINE
  5
28F
100
AcDbEntity
  8
0
100
AcDbLine
 62
7
  6
CONTINUOUS
 10
1422.4671982581
 20
1250.3887151268
 11
1422.4440856994
 21
1245.4387151268
  0
LINE
  5
290
100
AcDbEntity
  8
0
100
AcDbLine
 62
7
  6
CONTINUOUS
 10
1422.4671982581
 20
950.3887151268
 11
1422.4440856994
 21
945.4387151268
  0
LINE
  5
291
100
AcDbEntity
  8
0
100
AcDbLine
 62
7
  6
CONTINUOUS
 10
1422.4671982581
 20
575.3887151268
 11
1422.4440856994
 21
570.4387151268
  0
LINE
  5
292
100
AcDbEntity
  8
0
100
AcDbLine
 62
7
  6
CONTINUOUS
 10
175.3163353746
 20
1723.8113407308
 11
919.664286259
 21
1723.8113407308
  0
LINE
  5
293
100
AcDbEntity
  8
0
100
AcDbLine
 62
7
  6
CONTINUOUS
 10
925.3163353746
 20
1723.8113407308
 11
1419.664286259
 21
1723.8113407308
  0
LINE
  5
294
100
AcDbEntity
  8
0
100
AcDbLine
 62
7
  6
CONTINUOUS
 10
1420.2041105955
 20
1727.5993748217
 11
924.7765110381
 21
1727.5993748217
  0
LINE
  5
295
100
AcDbEntity
  8
0
100
AcDbLine
 62
7
  6
CONTINUOUS
 10
920.2041105955
 20
1727.5993748217
 11
174.7765110381
 21
1727.5993748217
  0
LINE
  5
296
100
AcDbEntity
  8
0
100
AcDbLine
 62
7
  6
CONTINUOUS
 10
1420.9903108168
 20
1728.3892188037
 11
923.9903108168
 21
1728.3892188037
  0
LINE
  5
297
100
AcDbEntity
  8
0
100
AcDbLine
 62
7
  6
CONTINUOUS
 10
920.9903108168
 20
1728.3892188037
 11
173.9903108168
 21
1728.3892188037
  0
LINE
  5
298
100
AcDbEntity
  8
0
100
AcDbLine
 62
7
  6
CONTINUOUS
 10
174.4213108168
 20
1731.4487151268
 11
920.5613108168
 21
1731.4487151268
  0
LINE
  5
299
100
AcDbEntity
  8
0
100
AcDbLine
 62
7
  6
CONTINUOUS
 10
924.4203108168
 20
1731.4487151268
 11
1420.5603108168
 21
1731.4487151268
  0
LINE
  5
29A
100
AcDbEntity
  8
0
100
AcDbLine
 62
7
  6
CONTINUOUS
 10
1422.4903108168
 20
1733.3887151268
 11
172.4913108168
 21
1733.3887151268
  0
SPLINE
  5
29B
100
AcDbEntity
  8
0
100
AcDbSpline
 62
7
  6
CONTINUOUS
 70
0
 71
3
 72
19
 73
15
 74
0
 42
0.0000001
 43
0.0000001
 44
0.0000000001
 40
0.0
 40
0.0
 40
0.0
 40
0.0
 40
0.2500706687
 40
0.3751065409
 40
0.500142374
 40
0.6251780392
 40
0.7502126619
 40
0.8127306765
 40
0.8752477553
 40
0.9065070082
 40
0.9377650551
 40
0.9690212794
 40
0.9845433048
 40
1.0
 40
1.0
 40
1.0
 40
1.0
 10
1419.6642861928
 20
492.9570992491
 30
0.0
 10
1419.569448031
 20
496.3559188835
 30
0.0
 10
1419.4018092723
 20
501.4535411033
 30
0.0
 10
1419.1088720997
 20
508.2475852535
 30
0.0
 10
1418.846024018
 20
513.3411083896
 30
0.0
 10
1418.5261521822
 20
518.4314667812
 30
0.0
 10
1418.1925290692
 20
522.6686533693
 30
0.0
 10
1417.8540459094
 20
526.0525796768
 30
0.0
 10
1417.598487482
 20
528.1611215078
 30
0.0
 10
1417.3442170518
 20
529.8452708835
 30
0.0
 10
1417.1194762804
 20
531.0911699589
 30
0.0
 10
1416.865455979
 20
532.1523227067
 30
0.0
 10
1416.6057489957
 20
532.8979680326
 30
0.0
 10
1416.3450980026
 20
533.3746474292
 30
0.0
 10
1416.1349872668
 20
533.3792188037
 30
0.0
  0
SPLINE
  5
29C
100
AcDbEntity
  8
0
100
AcDbSpline
 62
7
  6
CONTINUOUS
 70
0
 71
3
 72
9
 73
5
 74
0
 42
0.0000001
 43
0.0000001
 44
0.0000000001
 40
0.0
 40
0.0
 40
0.0
 40
0.0
 40
0.71333237
 40
1.0
 40
1.0
 40
1.0
 40
1.0
 10
924.8503108168
 20
489.8625675806
 30
0.0
 10
924.8418152218
 20
489.6966796745
 30
0.0
 10
924.7988489439
 20
489.4849367321
 30
0.0
 10
924.8238417574
 20
489.2160129414
 30
0.0
 10
924.7764491887
 20
489.1690034111
 30
0.0
  0
SPLINE
  5
29D
100
AcDbEntity
  8
0
100
AcDbSpline
 62
7
  6
CONTINUOUS
 70
0
 71
3
 72
9
 73
5
 74
0
 42
0.0000001
 43
0.0000001
 44
0.0000000001
 40
0.0
 40
0.0
 40
0.0
 40
0.0
 40
0.28666763
 40
1.0
 40
1.0
 40
1.0
 40
1.0
 10
1420.204172445
 20
489.1690034111
 30
0.0
 10
1420.1567798762
 20
489.2160129414
 30
0.0
 10
1420.1817726897
 20
489.4849367321
 30
0.0
 10
1420.1388064118
 20
489.6966796745
 30
0.0
 10
1420.1303108168
 20
489.8625675806
 30
0.0
  0
SPLINE
  5
29E
100
AcDbEntity
  8
0
100
AcDbSpline
 62
7
  6
CONTINUOUS
 70
0
 71
3
 72
9
 73
5
 74
0
 42
0.0000001
 43
0.0000001
 44
0.0000000001
 40
0.0
 40
0.0
 40
0.0
 40
0.0
 40
0.4355793734
 40
1.0
 40
1.0
 40
1.0
 40
1.0
 10
1420.130382665
 20
489.8612405195
 30
0.0
 10
1420.1073999366
 20
490.3153490653
 30
0.0
 10
1419.8319146084
 20
491.3308384688
 30
0.0
 10
1419.6807761171
 20
492.3681447548
 30
0.0
 10
1419.6643423643
 20
492.9570992491
 30
0.0
  0
SPLINE
  5
29F
100
AcDbEntity
  8
0
100
AcDbSpline
 62
7
  6
CONTINUOUS
 70
0
 71
3
 72
9
 73
5
 74
0
 42
0.0000001
 43
0.0000001
 44
0.0000000001
 40
0.0
 40
0.0
 40
0.0
 40
0.0
 40
0.5644206209
 40
1.0
 40
1.0
 40
1.0
 40
1.0
 10
925.3162792693
 20
492.9570992491
 30
0.0
 10
925.2998455167
 20
492.3681447609
 30
0.0
 10
925.1487070254
 20
491.3308384754
 30
0.0
 10
924.8732216974
 20
490.3153490723
 30
0.0
 10
924.8502389687
 20
489.8612405208
 30
0.0
  0
SPLINE
  5
2A0
100
AcDbEntity
  8
0
100
AcDbSpline
 62
7
  6
CONTINUOUS
 70
0
 71
3
 72
19
 73
15
 74
0
 42
0.0000001
 43
0.0000001
 44
0.0000000001
 40
0.0
 40
0.0
 40
0.0
 40
0.0
 40
0.2500706682
 40
0.3751065402
 40
0.5001423731
 40
0.6251780379
 40
0.7502126601
 40
0.8127306746
 40
0.8752477536
 40
0.906507006
 40
0.9377650525
 40
0.9690212848
 40
0.9845433118
 40
1.0
 40
1.0
 40
1.0
 40
1.0
 10
1419.664286259
 20
1723.8113407308
 30
0.0
 10
1419.5694480998
 20
1720.4125208999
 30
0.0
 10
1419.4018099835
 20
1715.3148983616
 30
0.0
 10
1419.1088720148
 20
1708.5208538496
 30
0.0
 10
1418.8460239353
 20
1703.4273304254
 30
0.0
 10
1418.5261519799
 20
1698.3369717346
 30
0.0
 10
1418.192527404
 20
1694.0997850509
 30
0.0
 10
1417.8540469581
 20
1690.7158582774
 30
0.0
 10
1417.5984880558
 20
1688.6073163585
 30
0.0
 10
1417.3442169048
 20
1686.9231670092
 30
0.0
 10
1417.1194755398
 20
1685.6772678329
 30
0.0
 10
1416.8654553294
 20
1684.6161149924
 30
0.0
 10
1416.6057494421
 20
1683.8704690496
 30
0.0
 10
1416.3450979218
 20
1683.3937901764
 30
0.0
 10
1416.1349872693
 20
1683.3892188037
 30
0.0
  0
SPLINE
  5
2A1
100
AcDbEntity
  8
0
100
AcDbSpline
 62
7
  6
CONTINUOUS
 70
0
 71
3
 72
19
 73
15
 74
0
 42
0.0000001
 43
0.0000001
 44
0.0000000001
 40
0.0
 40
0.0
 40
0.0
 40
0.0
 40
0.2500706687
 40
0.3751065409
 40
0.500142374
 40
0.6251780392
 40
0.750212662
 40
0.8127306765
 40
0.8752477554
 40
0.9065070082
 40
0.9377650551
 40
0.9690212794
 40
0.9845433048
 40
1.0
 40
1.0
 40
1.0
 40
1.0
 10
925.3163353746
 20
1723.8113407308
 30
0.0
 10
925.4111735339
 20
1720.4125208985
 30
0.0
 10
925.5788122903
 20
1715.3148983819
 30
0.0
 10
925.8717494634
 20
1708.5208538359
 30
0.0
 10
926.1345975474
 20
1703.4273304031
 30
0.0
 10
926.454469388
 20
1698.3369717146
 30
0.0
 10
926.7880925075
 20
1694.0997848791
 30
0.0
 10
927.1265756748
 20
1690.7158583737
 30
0.0
 10
927.3821341085
 20
1688.6073164192
 30
0.0
 10
927.636404545
 20
1686.9231669439
 30
0.0
 10
927.8611453225
 20
1685.6772677959
 30
0.0
 10
928.1151656296
 20
1684.6161149812
 30
0.0
 10
928.3748726217
 20
1683.8704696162
 30
0.0
 10
928.635523619
 20
1683.3937901742
 30
0.0
 10
928.845634367
 20
1683.3892188037
 30
0.0
  0
SPLINE
  5
2A2
100
AcDbEntity
  8
0
100
AcDbSpline
 62
7
  6
CONTINUOUS
 70
0
 71
3
 72
19
 73
15
 74
0
 42
0.0000001
 43
0.0000001
 44
0.0000000001
 40
0.0
 40
0.0
 40
0.0
 40
0.0
 40
0.2500706682
 40
0.3751065402
 40
0.5001423731
 40
0.6251780379
 40
0.7502126601
 40
0.8127306746
 40
0.8752477536
 40
0.906507006
 40
0.9377650525
 40
0.9690212848
 40
0.9845433118
 40
1.0
 40
1.0
 40
1.0
 40
1.0
 10
925.3163354408
 20
492.9570992491
 30
0.0
 10
925.4111736026
 20
496.3559188821
 30
0.0
 10
925.5788117211
 20
501.4535411237
 30
0.0
 10
925.8717496893
 20
508.24758524
 30
0.0
 10
926.1345977666
 20
513.3411083674
 30
0.0
 10
926.4544697172
 20
518.4314667613
 30
0.0
 10
926.7880942866
 20
522.6686531977
 30
0.0
 10
927.126574725
 20
526.0525797732
 30
0.0
 10
927.3821336211
 20
528.1611215686
 30
0.0
 10
927.6364047657
 20
529.8452708187
 30
0.0
 10
927.8611461247
 20
531.0911699213
 30
0.0
 10
928.115166329
 20
532.1523226978
 30
0.0
 10
928.3748722084
 20
532.8979685952
 30
0.0
 10
928.635523724
 20
533.3746474355
 30
0.0
 10
928.8456343646
 20
533.3792188037
 30
0.0
  0
SPLINE
  5
2A3
100
AcDbEntity
  8
0
100
AcDbSpline
 62
7
  6
CONTINUOUS
 70
0
 71
3
 72
9
 73
5
 74
0
 42
0.0000001
 43
0.0000001
 44
0.0000000001
 40
0.0
 40
0.0
 40
0.0
 40
0.0
 40
0.5644206144
 40
1.0
 40
1.0
 40
1.0
 40
1.0
 10
1419.6643424305
 20
1723.8113407308
 30
0.0
 10
1419.6807761809
 20
1724.4002951906
 30
0.0
 10
1419.8319146487
 20
1725.4376014397
 30
0.0
 10
1420.1073999352
 20
1726.4530908121
 30
0.0
 10
1420.1303826611
 20
1726.9071993539
 30
0.0
  0
SPLINE
  5
2A4
100
AcDbEntity
  8
0
100
AcDbSpline
 62
7
  6
CONTINUOUS
 70
0
 71
3
 72
9
 73
5
 74
0
 42
0.0000001
 43
0.0000001
 44
0.0000000001
 40
0.0
 40
0.0
 40
0.0
 40
0.0
 40
0.713009832
 40
1.0
 40
1.0
 40
1.0
 40
1.0
 10
1420.1303108168
 20
1726.9058723144
 30
0.0
 10
1420.1388016782
 20
1727.0716678075
 30
0.0
 10
1420.1814564805
 20
1727.2837552106
 30
0.0
 10
1420.1569703756
 20
1727.5520161234
 30
0.0
 10
1420.2041105955
 20
1727.5993748217
 30
0.0
  0
SPLINE
  5
2A5
100
AcDbEntity
  8
0
100
AcDbSpline
 62
7
  6
CONTINUOUS
 70
0
 71
3
 72
9
 73
5
 74
0
 42
0.0000001
 43
0.0000001
 44
0.0000000001
 40
0.0
 40
0.0
 40
0.0
 40
0.0
 40
0.286990168
 40
1.0
 40
1.0
 40
1.0
 40
1.0
 10
924.7765110381
 20
1727.5993748217
 30
0.0
 10
924.823651258
 20
1727.5520161234
 30
0.0
 10
924.7991651531
 20
1727.2837552106
 30
0.0
 10
924.8418199554
 20
1727.0716678075
 30
0.0
 10
924.8503108168
 20
1726.9058723144
 30
0.0
  0
SPLINE
  5
2A6
100
AcDbEntity
  8
0
100
AcDbSpline
 62
7
  6
CONTINUOUS
 70
0
 71
3
 72
9
 73
5
 74
0
 42
0.0000001
 43
0.0000001
 44
0.0000000001
 40
0.0
 40
0.0
 40
0.0
 40
0.0
 40
0.4355793799
 40
1.0
 40
1.0
 40
1.0
 40
1.0
 10
924.8502389725
 20
1726.9071993551
 30
0.0
 10
924.8732216981
 20
1726.4530908191
 30
0.0
 10
925.1487069847
 20
1725.4376014463
 30
0.0
 10
925.2998454526
 20
1724.4002951967
 30
0.0
 10
925.3162792031
 20
1723.8113407308
 30
0.0
  0
SPLINE
  5
2A7
100
AcDbEntity
  8
0
100
AcDbSpline
 62
7
  6
CONTINUOUS
 70
0
 71
3
 72
19
 73
15
 74
0
 42
0.0000001
 43
0.0000001
 44
0.0000000001
 40
0.0
 40
0.0
 40
0.0
 40
0.0
 40
0.2500667636
 40
0.3751006835
 40
0.5001345593
 40
0.6251682692
 40
0.750200939
 40
0.8127179775
 40
0.8752341098
 40
0.9064928828
 40
0.9377503835
 40
0.9690112572
 40
0.9845142996
 40
1.0
 40
1.0
 40
1.0
 40
1.0
 10
919.6642861928
 20
492.9570992491
 30
0.0
 10
919.5694496823
 20
496.3558597063
 30
0.0
 10
919.4018141632
 20
501.4533931743
 30
0.0
 10
919.1088845762
 20
508.2473190736
 30
0.0
 10
918.8460433736
 20
513.3407535423
 30
0.0
 10
918.5261823647
 20
518.4310234961
 30
0.0
 10
918.1925743358
 20
522.6681369989
 30
0.0
 10
917.8541061224
 20
526.0520056256
 30
0.0
 10
917.5985738364
 20
528.1605137477
 30
0.0
 10
917.3443100735
 20
529.8446343833
 30
0.0
 10
917.1196406502
 20
531.0905901631
 30
0.0
 10
916.8655366335
 20
532.151530064
 30
0.0
 10
916.6059291802
 20
532.8973819436
 30
0.0
 10
916.3454892503
 20
533.374638859
 30
0.0
 10
916.1349846102
 20
533.3792188037
 30
0.0
  0
SPLINE
  5
2A8
100
AcDbEntity
  8
0
100
AcDbSpline
 62
7
  6
CONTINUOUS
 70
0
 71
3
 72
9
 73
5
 74
0
 42
0.0000001
 43
0.0000001
 44
0.0000000001
 40
0.0
 40
0.0
 40
0.0
 40
0.0
 40
0.7133323694
 40
1.0
 40
1.0
 40
1.0
 40
1.0
 10
174.8503108168
 20
489.8625675806
 30
0.0
 10
174.8418152221
 20
489.6966796746
 30
0.0
 10
174.7988489437
 20
489.4849367323
 30
0.0
 10
174.8238417575
 20
489.2160129415
 30
0.0
 10
174.7764491887
 20
489.1690034111
 30
0.0
  0
SPLINE
  5
2A9
100
AcDbEntity
  8
0
100
AcDbSpline
 62
7
  6
CONTINUOUS
 70
0
 71
3
 72
9
 73
5
 74
0
 42
0.0000001
 43
0.0000001
 44
0.0000000001
 40
0.0
 40
0.0
 40
0.0
 40
0.0
 40
0.2866676306
 40
1.0
 40
1.0
 40
1.0
 40
1.0
 10
920.204172445
 20
489.1690034111
 30
0.0
 10
920.1567798761
 20
489.2160129415
 30
0.0
 10
920.1817726899
 20
489.4849367323
 30
0.0
 10
920.1388064115
 20
489.6966796746
 30
0.0
 10
920.1303108168
 20
489.8625675806
 30
0.0
  0
SPLINE
  5
2AA
100
AcDbEntity
  8
0
100
AcDbSpline
 62
7
  6
CONTINUOUS
 70
0
 71
3
 72
9
 73
5
 74
0
 42
0.0000001
 43
0.0000001
 44
0.0000000001
 40
0.0
 40
0.0
 40
0.0
 40
0.0
 40
0.435579532
 40
1.0
 40
1.0
 40
1.0
 40
1.0
 10
920.1303826632
 20
489.8612405541
 30
0.0
 10
920.1073999273
 20
490.3153492602
 30
0.0
 10
919.8319146042
 20
491.3308386532
 30
0.0
 10
919.6807761123
 20
492.3681449267
 30
0.0
 10
919.6643423643
 20
492.9570992491
 30
0.0
  0
SPLINE
  5
2AB
100
AcDbEntity
  8
0
100
AcDbSpline
 62
7
  6
CONTINUOUS
 70
0
 71
3
 72
9
 73
5
 74
0
 42
0.0000001
 43
0.0000001
 44
0.0000000001
 40
0.0
 40
0.0
 40
0.0
 40
0.0
 40
0.5644204624
 40
1.0
 40
1.0
 40
1.0
 40
1.0
 10
175.3162792693
 20
492.9570992491
 30
0.0
 10
175.2998455215
 20
492.3681449328
 30
0.0
 10
175.1487070295
 20
491.3308386597
 30
0.0
 10
174.8732217066
 20
490.3153492671
 30
0.0
 10
174.8502389705
 20
489.8612405553
 30
0.0
  0
SPLINE
  5
2AC
100
AcDbEntity
  8
0
100
AcDbSpline
 62
7
  6
CONTINUOUS
 70
0
 71
3
 72
19
 73
15
 74
0
 42
0.0000001
 43
0.0000001
 44
0.0000000001
 40
0.0
 40
0.0
 40
0.0
 40
0.0
 40
0.2500667636
 40
0.3751006835
 40
0.5001345593
 40
0.625168269
 40
0.7502009385
 40
0.812717977
 40
0.8752341094
 40
0.9064928823
 40
0.9377503829
 40
0.9690112645
 40
0.9845143112
 40
1.0
 40
1.0
 40
1.0
 40
1.0
 10
919.664286259
 20
1723.8113407308
 30
0.0
 10
919.5694497511
 20
1720.4125800804
 30
0.0
 10
919.4018150528
 20
1715.3150462936
 30
0.0
 10
919.1088847302
 20
1708.5211200352
 30
0.0
 10
918.8460432186
 20
1703.4276853002
 30
0.0
 10
918.5261821771
 20
1698.337415048
 30
0.0
 10
918.1925726089
 20
1694.1003014604
 30
0.0
 10
917.8541072467
 20
1690.7164323605
 30
0.0
 10
917.5985747339
 20
1688.6079241222
 30
0.0
 10
917.3443091414
 20
1686.9238036406
 30
0.0
 10
917.1196393207
 20
1685.6778478483
 30
0.0
 10
916.8655376614
 20
1684.6169070201
 30
0.0
 10
916.6059287482
 20
1683.8710556273
 30
0.0
 10
916.3454891068
 20
1683.3937987452
 30
0.0
 10
916.1349846128
 20
1683.3892188037
 30
0.0
  0
SPLINE
  5
2AD
100
AcDbEntity
  8
0
100
AcDbSpline
 62
7
  6
CONTINUOUS
 70
0
 71
3
 72
19
 73
15
 74
0
 42
0.0000001
 43
0.0000001
 44
0.0000000001
 40
0.0
 40
0.0
 40
0.0
 40
0.0
 40
0.2500667636
 40
0.3751006835
 40
0.5001345593
 40
0.6251682692
 40
0.750200939
 40
0.8127179775
 40
0.8752341098
 40
0.9064928828
 40
0.9377503835
 40
0.9690112572
 40
0.9845142996
 40
1.0
 40
1.0
 40
1.0
 40
1.0
 10
175.3163353746
 20
1723.8113407308
 30
0.0
 10
175.4111718826
 20
1720.4125800758
 30
0.0
 10
175.5788073994
 20
1715.3150463109
 30
0.0
 10
175.8717369869
 20
1708.5211200159
 30
0.0
 10
176.1345781919
 20
1703.4276852503
 30
0.0
 10
176.4544392054
 20
1698.3374149997
 30
0.0
 10
176.7880472408
 20
1694.1003012495
 30
0.0
 10
177.1265154618
 20
1690.7164324248
 30
0.0
 10
177.3820477541
 20
1688.6079241793
 30
0.0
 10
177.6363115233
 20
1686.9238034442
 30
0.0
 10
177.8609809528
 20
1685.6778475917
 30
0.0
 10
178.115084975
 20
1684.6169076239
 30
0.0
 10
178.3746924372
 20
1683.8710557053
 30
0.0
 10
178.6351323712
 20
1683.3937987444
 30
0.0
 10
178.8456370237
 20
1683.3892188037
 30
0.0
  0
SPLINE
  5
2AE
100
AcDbEntity
  8
0
100
AcDbSpline
 62
7
  6
CONTINUOUS
 70
0
 71
3
 72
19
 73
15
 74
0
 42
0.0000001
 43
0.0000001
 44
0.0000000001
 40
0.0
 40
0.0
 40
0.0
 40
0.0
 40
0.2500667636
 40
0.3751006835
 40
0.5001345593
 40
0.625168269
 40
0.7502009385
 40
0.812717977
 40
0.8752341094
 40
0.9064928823
 40
0.9377503829
 40
0.9690112645
 40
0.9845143112
 40
1.0
 40
1.0
 40
1.0
 40
1.0
 10
175.3163354408
 20
492.9570992491
 30
0.0
 10
175.4111719512
 20
496.3558597016
 30
0.0
 10
175.5788066519
 20
501.4533931917
 30
0.0
 10
175.871736974
 20
508.2473190544
 30
0.0
 10
176.1345784833
 20
513.3407534926
 30
0.0
 10
176.45443952
 20
518.4310234479
 30
0.0
 10
176.7880490818
 20
522.6681367882
 30
0.0
 10
177.1265144364
 20
526.0520056902
 30
0.0
 10
177.382046943
 20
528.1605138049
 30
0.0
 10
177.6363125291
 20
529.8446341872
 30
0.0
 10
177.8609823438
 20
531.0905899059
 30
0.0
 10
178.115083997
 20
532.1515306702
 30
0.0
 10
178.3746929023
 20
532.8973820174
 30
0.0
 10
178.635132539
 20
533.3746388667
 30
0.0
 10
178.8456370211
 20
533.3792188037
 30
0.0
  0
SPLINE
  5
2AF
100
AcDbEntity
  8
0
100
AcDbSpline
 62
7
  6
CONTINUOUS
 70
0
 71
3
 72
9
 73
5
 74
0
 42
0.0000001
 43
0.0000001
 44
0.0000000001
 40
0.0
 40
0.0
 40
0.0
 40
0.0
 40
0.5644204559
 40
1.0
 40
1.0
 40
1.0
 40
1.0
 10
919.6643424305
 20
1723.8113407308
 30
0.0
 10
919.6807761761
 20
1724.4002950187
 30
0.0
 10
919.8319146446
 20
1725.4376012553
 30
0.0
 10
920.1073999259
 20
1726.4530906173
 30
0.0
 10
920.1303826592
 20
1726.9071993194
 30
0.0
  0
SPLINE
  5
2B0
100
AcDbEntity
  8
0
100
AcDbSpline
 62
7
  6
CONTINUOUS
 70
0
 71
3
 72
9
 73
5
 74
0
 42
0.0000001
 43
0.0000001
 44
0.0000000001
 40
0.0
 40
0.0
 40
0.0
 40
0.0
 40
0.7130098315
 40
1.0
 40
1.0
 40
1.0
 40
1.0
 10
920.1303108168
 20
1726.9058723144
 30
0.0
 10
920.1388016779
 20
1727.0716678073
 30
0.0
 10
920.1814564807
 20
1727.2837552105
 30
0.0
 10
920.1569703755
 20
1727.5520161234
 30
0.0
 10
920.2041105955
 20
1727.5993748217
 30
0.0
  0
SPLINE
  5
2B1
100
AcDbEntity
  8
0
100
AcDbSpline
 62
7
  6
CONTINUOUS
 70
0
 71
3
 72
9
 73
5
 74
0
 42
0.0000001
 43
0.0000001
 44
0.0000000001
 40
0.0
 40
0.0
 40
0.0
 40
0.0
 40
0.2869901685
 40
1.0
 40
1.0
 40
1.0
 40
1.0
 10
174.7765110381
 20
1727.5993748217
 30
0.0
 10
174.8236512581
 20
1727.5520161234
 30
0.0
 10
174.799165153
 20
1727.2837552105
 30
0.0
 10
174.8418199557
 20
1727.0716678073
 30
0.0
 10
174.8503108168
 20
1726.9058723144
 30
0.0
  0
SPLINE
  5
2B2
100
AcDbEntity
  8
0
100
AcDbSpline
 62
7
  6
CONTINUOUS
 70
0
 71
3
 72
9
 73
5
 74
0
 42
0.0000001
 43
0.0000001
 44
0.0000000001
 40
0.0
 40
0.0
 40
0.0
 40
0.0
 40
0.4355795385
 40
1.0
 40
1.0
 40
1.0
 40
1.0
 10
174.8502389743
 20
1726.9071993206
 30
0.0
 10
174.8732217074
 20
1726.4530906242
 30
0.0
 10
175.1487069889
 20
1725.4376012618
 30
0.0
 10
175.2998454574
 20
1724.4002950248
 30
0.0
 10
175.3162792031
 20
1723.8113407308
 30
0.0
  0
SPLINE
  5
2B3
100
AcDbEntity
  8
0
100
AcDbSpline
 62
7
  6
CONTINUOUS
 70
0
 71
3
 72
10
 73
6
 74
0
 42
0.0000001
 43
0.0000001
 44
0.0000000001
 40
0.0
 40
0.0
 40
0.0
 40
0.0
 40
0.1050994727
 40
0.3536389058
 40
1.0
 40
1.0
 40
1.0
 40
1.0
 10
172.4902945475
 20
1733.3887151268
 30
0.0
 10
172.5160815124
 20
1733.296353411
 30
0.0
 10
172.8294759259
 20
1733.1165165998
 30
0.0
 10
173.381925417
 20
1732.418032262
 30
0.0
 10
173.998974104
 20
1731.8603410694
 30
0.0
 10
174.4213080925
 20
1731.4487151268
 30
0.0
  0
SPLINE
  5
2B4
100
AcDbEntity
  8
0
100
AcDbSpline
 62
7
  6
CONTINUOUS
 70
0
 71
3
 72
10
 73
6
 74
0
 42
0.0000001
 43
0.0000001
 44
0.0000000001
 40
0.0
 40
0.0
 40
0.0
 40
0.0
 40
0.6450346668
 40
0.892850656
 40
1.0
 40
1.0
 40
1.0
 40
1.0
 10
920.5613135419
 20
1731.4487151268
 30
0.0
 10
920.9837695738
 20
1731.8604600184
 30
0.0
 10
921.5285284754
 20
1732.4965267832
 30
0.0
 10
922.2256667718
 20
1733.041334674
 30
0.0
 10
922.4052630482
 20
1733.3696443876
 30
0.0
 10
922.5013830876
 20
1733.3887151268
 30
0.0
  0
SPLINE
  5
2B5
100
AcDbEntity
  8
0
100
AcDbSpline
 62
7
  6
CONTINUOUS
 70
0
 71
3
 72
10
 73
6
 74
0
 42
0.0000001
 43
0.0000001
 44
0.0000000001
 40
0.0
 40
0.0
 40
0.0
 40
0.0
 40
0.1049531118
 40
0.3536866928
 40
1.0
 40
1.0
 40
1.0
 40
1.0
 10
922.4892945475
 20
1733.3887151268
 30
0.0
 10
922.5826796709
 20
1733.3675185034
 30
0.0
 10
922.7521752341
 20
1733.0365331998
 30
0.0
 10
923.4590957278
 20
1732.5002248637
 30
0.0
 10
923.9980049184
 20
1731.8603110363
 30
0.0
 10
924.4203080925
 20
1731.4487151268
 30
0.0
  0
SPLINE
  5
2B6
100
AcDbEntity
  8
0
100
AcDbSpline
 62
7
  6
CONTINUOUS
 70
0
 71
3
 72
10
 73
6
 74
0
 42
0.0000001
 43
0.0000001
 44
0.0000000001
 40
0.0
 40
0.0
 40
0.0
 40
0.0
 40
0.646376871
 40
0.8949063743
 40
1.0
 40
1.0
 40
1.0
 40
1.0
 10
1420.5603135408
 20
1731.4487151268
 30
0.0
 10
1420.9826576697
 20
1731.8603509527
 30
0.0
 10
1421.5997038547
 20
1732.4180522671
 30
0.0
 10
1422.152162691
 20
1733.1165270401
 30
0.0
 10
1422.4655400171
 20
1733.296358586
 30
0.0
 10
1422.4913255369
 20
1733.3887151268
 30
0.0
  0
SPLINE
  5
2B7
100
AcDbEntity
  8
0
100
AcDbSpline
 62
7
  6
CONTINUOUS
 70
0
 71
3
 72
10
 73
6
 74
0
 42
0.0000001
 43
0.0000001
 44
0.0000000001
 40
0.0
 40
0.0
 40
0.0
 40
0.0
 40
0.6451245065
 40
0.8929870485
 40
1.0
 40
1.0
 40
1.0
 40
1.0
 10
924.4203080918
 20
485.3287151268
 30
0.0
 10
923.9978599866
 20
484.916977961
 30
0.0
 10
923.4531918634
 20
484.2818551419
 30
0.0
 10
922.7559957092
 20
483.7352657131
 30
0.0
 10
922.5765839368
 20
483.4089410856
 30
0.0
 10
922.4808436252
 20
483.3887151268
 30
0.0
  0
SPLINE
  5
2B8
100
AcDbEntity
  8
0
100
AcDbSpline
 62
7
  6
CONTINUOUS
 70
0
 71
3
 72
10
 73
6
 74
0
 42
0.0000001
 43
0.0000001
 44
0.0000000001
 40
0.0
 40
0.0
 40
0.0
 40
0.0
 40
0.1050994727
 40
0.3536389058
 40
1.0
 40
1.0
 40
1.0
 40
1.0
 10
1422.4913270861
 20
483.3887151268
 30
0.0
 10
1422.465540121
 20
483.4810768426
 30
0.0
 10
1422.1521457079
 20
483.6609136539
 30
0.0
 10
1421.5996962164
 20
484.3593979916
 30
0.0
 10
1420.9826475296
 20
484.9170891843
 30
0.0
 10
1420.5603135411
 20
485.3287151268
 30
0.0
  0
SPLINE
  5
2B9
100
AcDbEntity
  8
0
100
AcDbSpline
 62
7
  6
CONTINUOUS
 70
0
 71
3
 72
10
 73
6
 74
0
 42
0.0000001
 43
0.0000001
 44
0.0000000001
 40
0.0
 40
0.0
 40
0.0
 40
0.0
 40
0.646376871
 40
0.8949063743
 40
1.0
 40
1.0
 40
1.0
 40
1.0
 10
174.4213080929
 20
485.3287151268
 30
0.0
 10
173.9989639639
 20
484.9170793009
 30
0.0
 10
173.3819177791
 20
484.3593779865
 30
0.0
 10
172.8294589424
 20
483.6609032136
 30
0.0
 10
172.5160816167
 20
483.4810716676
 30
0.0
 10
172.4902960968
 20
483.3887151268
 30
0.0
  0
SPLINE
  5
2BA
100
AcDbEntity
  8
0
100
AcDbSpline
 62
7
  6
CONTINUOUS
 70
0
 71
3
 72
10
 73
6
 74
0
 42
0.0000001
 43
0.0000001
 44
0.0000000001
 40
0.0
 40
0.0
 40
0.0
 40
0.0
 40
0.1070219959
 40
0.3548929316
 40
1.0
 40
1.0
 40
1.0
 40
1.0
 10
922.5007928801
 20
483.3887151268
 30
0.0
 10
922.4050441058
 20
483.4089428735
 30
0.0
 10
922.2256099254
 20
483.7352719652
 30
0.0
 10
921.5284276607
 20
484.2818806653
 30
0.0
 10
920.9837518653
 20
484.9169874949
 30
0.0
 10
920.5613135421
 20
485.3287151268
 30
0.0
  0
ENDSEC
  0
SECTION
  2
OBJECTS
  0
DICTIONARY
  5
C
100
AcDbDictionary
280
0
281
1
  3
ACAD_GROUP
350
D
  3
ACAD_MLINESTYLE
350
17
  3
ACAD_LAYOUT
350
1A
  3
ACAD_PLOTSETTINGS
350
19
  3
ACAD_PLOTSTYLENAME
350
E
  0
DICTIONARY
  5
D
102
{ACAD_REACTORS
330
C
102
}
100
AcDbDictionary
280
0
281
1
  0
ACDBDICTIONARYWDFLT
  5
E
102
{ACAD_REACTORS
330
C
102
}
100
AcDbDictionary
281
1
  3
Normal
350
F
100
AcDbDictionaryWithDefault
340
F
  0
DICTIONARY
  5
17
102
{ACAD_REACTORS
330
C
102
}
100
AcDbDictionary
280
0
281
1
  3
Standard
350
18
  0
DICTIONARY
  5
19
102
{ACAD_REACTORS
330
C
102
}
100
AcDbDictionary
281
1
  0
DICTIONARY
  5
1A
102
{ACAD_REACTORS
330
C
102
}
100
AcDbDictionary
281
1
  3
Model
350
2BB
  3
Layout1
350
2BC
  0
ACDBPLACEHOLDER
  5
F
102
{ACAD_REACTORS
330
E
102
}
  0
MLINESTYLE
  5
18
102
{ACAD_REACTORS
330
17
102
}
100
AcDbMlineStyle
  2
STANDARD
 70
0
  3

 62
256
 51
90.0
 52
90.0
 71
2
 49
0.5
 62
256
  6
BYLAYER
 49
-0.5
 62
256
  6
BYLAYER
  0
LAYOUT
  5
2BB
102
{ACAD_REACTORS
330
1A
102
}
100
AcDbPlotSettings
  1

  2
none_device
  4

  6

 40
0.0
 41
0.0
 42
0.0
 43
0.0
 44
210.0
 45
297.0
 46
0.0
 47
0.0
 48
0.0
 49
0.0
140
0.0
141
0.0
142
1.0
143
1.0
 70
1024
 72
1
 73
0
 74
0
  7

 75
0
147
1.0
148
0.0
149
0.0
100
AcDbLayout
  1
Model
 70
0
 71
0
 10
0.0
 20
0.0
 11
210.0
 21
297.0
 12
0.0
 22
0.0
 32
0.0
 14
0.0
 24
0.0
 34
0.0
 15
0.0
 25
0.0
 35
0.0
146
0.0
 13
0.0
 23
0.0
 33
0.0
 16
1.0
 26
0.0
 36
0.0
 17
0.0
 27
1.0
 37
0.0
 76
0
330
210
345
0
346
0
  0
LAYOUT
  5
2BC
102
{ACAD_REACTORS
330
1A
102
}
100
AcDbPlotSettings
  1

  2
none_device
  4

  6

 40
0.0
 41
0.0
 42
0.0
 43
0.0
 44
210.0
 45
297.0
 46
0.0
 47
0.0
 48
0.0
 49
0.0
140
0.0
141
0.0
142
1.0
143
1.0
 70
0
 72
1
 73
0
 74
0
  7

 75
0
147
1.0
148
0.0
149
0.0
100
AcDbLayout
  1
Layout1
 70
0
 71
1
 10
0.0
 20
0.0
 11
210.0
 21
297.0
 12
0.0
 22
0.0
 32
0.0
 14
0.0
 24
0.0
 34
0.0
 15
0.0
 25
0.0
 35
0.0
146
0.0
 13
0.0
 23
0.0
 33
0.0
 16
1.0
 26
0.0
 36
0.0
 17
0.0
 27
1.0
 37
0.0
 76
0
330
211
345
0
346
0
  0
ENDSEC
  0
EOF
