999
DXF file: C:\Users\sesa63760\Dev\_Creo\CAD\MCADUE0001301_3D-CAD\drw0001_7.dxf
999
Pro/ENGINEER 2019471 by Parametric Technology Corporation
  0
SECTION
  2
HEADER
  9
$ACADVER
  1
AC1024
  9
$DWGCODEPAGE
  3
ANSI_1252
  9
$EXTMAX
 10
505.6251795858
 20
715.0984682713
 30
0.0
  9
$EXTMIN
 10
0.0
 20
0.0
 30
0.0
  9
$LIMMIN
 10
0.0
 20
0.0
  9
$LIMMAX
 10
505.6251795858
 20
715.0984682713
  9
$VIEWCTR
 10
252.8125897929
 20
357.5492341357
  9
$VIEWSIZE
 40
715.0984682713
  9
$CLAYER
  8
0
  9
$LTSCALE
 40
46.6138260799
  9
$CELTYPE
  6
BYLAYER
  9
$DIMSCALE
 40
1.0
  9
$DIMASZ
 40
6.019347376
  9
$DIMEXO
 40
1.0
  9
$DIMDLI
 40
32.2059162007
  9
$DIMEXE
 40
1.0
  9
$DIMCEN
 40
7.6277169949
  9
$DIMLFAC
 40
1.0
  9
$DIMBLK
  1
_FILLED
  9
$DIMALT
 70
0
  9
$DIMALTF
 40
0.0393700787
  9
$DIMTXT
 40
8.4270863264
  9
$DIMTOL
 70
1
  9
$DIMLIM
 70
0
  9
$DIMTFAC
 40
1.0
  9
$DIMTP
 40
0.01
  9
$DIMTM
 40
0.01
  9
$DIMGAP
 40
0.625
  9
$DIMDSEP
 70
46
  9
$AUNITS
 70
0
  9
$PDMODE
 70
3
  9
$PDSIZE
 40
0.3125
  9
$HANDSEED
  5
301
  9
$TILEMODE
 70
1
  9
$MEASUREMENT
 70
1
  9
$INSUNITS
 70
4
  0
ENDSEC
  0
SECTION
  2
CLASSES
  0
CLASS
  1
ACDBDICTIONARYWDFLT
  2
AcDbDictionaryWithDefault
  3
AutoCAD 2000
 90
0
 91
1
280
0
281
0
  0
CLASS
  1
ACDBPLACEHOLDER
  2
AcDbPlaceHolder
  3
AutoCAD 2000
 90
0
 91
1
280
0
281
0
  0
CLASS
  1
LAYOUT
  2
AcDbLayout
  3
AutoCAD 2000
 90
0
 91
0
280
0
281
0
  0
ENDSEC
  0
SECTION
  2
TABLES
  0
TABLE
  2
VPORT
  5
8
100
AcDbSymbolTable
 70
2
  0
VPORT
  5
1F4
100
AcDbSymbolTableRecord
100
AcDbViewportTableRecord
  2
*ACTIVE
 70
0
 10
0.0
 20
0.0
 11
1.0
 21
1.0
 12
252.8125897929
 22
357.5492341357
 13
0.0
 23
0.0
 14
1.0
 24
1.0
 15
0.0
 25
0.0
 16
0.0
 26
0.0
 36
1.0
 17
0.0
 27
0.0
 37
0.0
 40
715.0984682713
 41
0.7070707071
 42
50.0
 43
0.0
 44
0.0
 50
0.0
 51
0.0
 71
0
 72
100
 73
1
 74
1
 75
0
 76
0
 77
0
 78
0
  0
ENDTAB
  0
TABLE
  2
LTYPE
  5
5
100
AcDbSymbolTable
 70
6
  0
LTYPE
  5
14
100
AcDbSymbolTableRecord
100
AcDbLinetypeTableRecord
  2
BYBLOCK
 70
0
  3

 72
65
 73
0
 40
0.0
  0
LTYPE
  5
15
100
AcDbSymbolTableRecord
100
AcDbLinetypeTableRecord
  2
BYLAYER
 70
0
  3

 72
65
 73
0
 40
0.0
  0
LTYPE
  5
16
100
AcDbSymbolTableRecord
100
AcDbLinetypeTableRecord
  2
CONTINUOUS
 70
64
  3
Solid line
 72
65
 73
0
 40
0.0
  0
LTYPE
  5
1F5
100
AcDbSymbolTableRecord
100
AcDbLinetypeTableRecord
  2
CENTER
 70
64
  3
____ _ ____ _ ____ _ ____ _ ____ _ ____ _ ____
 72
65
 73
4
 40
0.6
 49
0.375
 74
0
 49
-0.075
 74
0
 49
0.075
 74
0
 49
-0.075
 74
0
  0
LTYPE
  5
1F6
100
AcDbSymbolTableRecord
100
AcDbLinetypeTableRecord
  2
HIDDEN
 70
64
  3
- - - - - - - - - - - - - - - - - - - -
 72
65
 73
2
 40
0.2
 49
0.1
 74
0
 49
-0.1
 74
0
  0
LTYPE
  5
1F7
100
AcDbSymbolTableRecord
100
AcDbLinetypeTableRecord
  2
PHANTOM
 70
64
  3
_____ _ _ _____ _ _ _____ _ _ _____
 72
65
 73
6
 40
0.8
 49
0.45
 74
0
 49
-0.05
 74
0
 49
0.1
 74
0
 49
-0.05
 74
0
 49
0.1
 74
0
 49
-0.05
 74
0
  0
LTYPE
  5
1F8
100
AcDbSymbolTableRecord
100
AcDbLinetypeTableRecord
  2
DOT
 70
64
  3
. . . . . . . . . . . . . . . . . . . .
 72
65
 73
2
 40
0.2
 49
0.1
 74
0
 49
-0.1
 74
0
  0
LTYPE
  5
1F9
100
AcDbSymbolTableRecord
100
AcDbLinetypeTableRecord
  2
DASHED
 70
64
  3
- - - - - - - - - - - - - - - - - - - -
 72
65
 73
2
 40
0.2
 49
0.1
 74
0
 49
-0.1
 74
0
  0
ENDTAB
  0
TABLE
  2
LAYER
  5
2
100
AcDbSymbolTable
 70
36
  0
LAYER
  5
10
100
AcDbSymbolTableRecord
100
AcDbLayerTableRecord
  2
0
 70
0
 62
7
  6
CONTINUOUS
370
-3
390
F
  0
LAYER
  5
1FA
100
AcDbSymbolTableRecord
100
AcDbLayerTableRecord
  2
DEFAULT_1
 70
0
 62
7
  6
CENTER
370
-3
390
F
  0
LAYER
  5
1FB
100
AcDbSymbolTableRecord
100
AcDbLayerTableRecord
  2
DEFAULT_2
 70
0
 62
8
  6
HIDDEN
370
-3
390
F
  0
LAYER
  5
1FC
100
AcDbSymbolTableRecord
100
AcDbLayerTableRecord
  2
DEFAULT_3
 70
0
 62
7
  6
PHANTOM
370
-3
390
F
  0
LAYER
  5
1FD
100
AcDbSymbolTableRecord
100
AcDbLayerTableRecord
  2
00_COMPONENTS
 70
0
 62
7
  6
CONTINUOUS
370
-3
390
F
  0
LAYER
  5
1FE
100
AcDbSymbolTableRecord
100
AcDbLayerTableRecord
  2
01_1_DEFAULT_DATUMS
 70
0
 62
7
  6
CONTINUOUS
370
-3
390
F
  0
LAYER
  5
1FF
100
AcDbSymbolTableRecord
100
AcDbLayerTableRecord
  2
01_PLANES
 70
0
 62
7
  6
CONTINUOUS
370
-3
390
F
  0
LAYER
  5
200
100
AcDbSymbolTableRecord
100
AcDbLayerTableRecord
  2
02_COORD_SYS
 70
0
 62
7
  6
CONTINUOUS
370
-3
390
F
  0
LAYER
  5
201
100
AcDbSymbolTableRecord
100
AcDbLayerTableRecord
  2
03_AXES
 70
0
 62
7
  6
CONTINUOUS
370
-3
390
F
  0
LAYER
  5
202
100
AcDbSymbolTableRecord
100
AcDbLayerTableRecord
  2
04_POINTS
 70
0
 62
7
  6
CONTINUOUS
370
-3
390
F
  0
LAYER
  5
203
100
AcDbSymbolTableRecord
100
AcDbLayerTableRecord
  2
05_CURVES
 70
0
 62
7
  6
CONTINUOUS
370
-3
390
F
  0
LAYER
  5
204
100
AcDbSymbolTableRecord
100
AcDbLayerTableRecord
  2
06_SURFS
 70
0
 62
7
  6
CONTINUOUS
370
-3
390
F
  0
LAYER
  5
205
100
AcDbSymbolTableRecord
100
AcDbLayerTableRecord
  2
07_COSMETICS
 70
0
 62
7
  6
CONTINUOUS
370
-3
390
F
  0
LAYER
  5
206
100
AcDbSymbolTableRecord
100
AcDbLayerTableRecord
  2
10_NOTES
 70
0
 62
7
  6
CONTINUOUS
370
-3
390
F
  0
LAYER
  5
207
100
AcDbSymbolTableRecord
100
AcDbLayerTableRecord
  2
11_NOTES_PUB
 70
0
 62
7
  6
CONTINUOUS
370
-3
390
F
  0
LAYER
  5
208
100
AcDbSymbolTableRecord
100
AcDbLayerTableRecord
  2
13_REF_GTOL
 70
0
 62
7
  6
CONTINUOUS
370
-3
390
F
  0
LAYER
  5
209
100
AcDbSymbolTableRecord
100
AcDbLayerTableRecord
  2
16_MISC
 70
0
 62
7
  6
CONTINUOUS
370
-3
390
F
  0
LAYER
  5
20A
100
AcDbSymbolTableRecord
100
AcDbLayerTableRecord
  2
17_NO_PRINT
 70
0
 62
7
  6
CONTINUOUS
370
-3
390
F
  0
LAYER
  5
20B
100
AcDbSymbolTableRecord
100
AcDbLayerTableRecord
  2
18_DATUM_CAMS_JOINTS
 70
0
 62
7
  6
CONTINUOUS
370
-3
390
F
  0
LAYER
  5
20C
100
AcDbSymbolTableRecord
100
AcDbLayerTableRecord
  2
19_DATUM_FUNCTIONAL
 70
0
 62
7
  6
CONTINUOUS
370
-3
390
F
  0
LAYER
  5
20D
100
AcDbSymbolTableRecord
100
AcDbLayerTableRecord
  2
20_DATUM_KINEMATIC_SCHEME
 70
0
 62
7
  6
CONTINUOUS
370
-3
390
F
  0
ENDTAB
  0
TABLE
  2
STYLE
  5
3
100
AcDbSymbolTable
 70
1
  0
STYLE
  5
11
100
AcDbSymbolTableRecord
100
AcDbTextStyleTableRecord
  2
STANDARD
 70
0
 40
0.0
 41
0.8
 50
0.0
 71
0
 42
0.2
  3
txt
  4

  0
STYLE
  5
20E
100
AcDbSymbolTableRecord
100
AcDbTextStyleTableRecord
  2
TEXTSTYLE_1
 70
0
 40
0.0
 41
0.8
 50
0.0
 71
0
 42
0.2
  3
gdt
  4

  0
ENDTAB
  0
TABLE
  2
VIEW
  5
6
100
AcDbSymbolTable
 70
0
  0
ENDTAB
  0
TABLE
  2
UCS
  5
7
100
AcDbSymbolTable
 70
0
  0
ENDTAB
  0
TABLE
  2
APPID
  5
9
100
AcDbSymbolTable
 70
1
  0
APPID
  5
20F
100
AcDbSymbolTableRecord
100
AcDbRegAppTableRecord
  2
ACAD
 70
0
  0
ENDTAB
  0
TABLE
  2
BLOCK_RECORD
  5
1
100
AcDbSymbolTable
 70
0
  0
BLOCK_RECORD
  5
210
100
AcDbSymbolTableRecord
100
AcDbBlockTableRecord
  2
*Model_Space
  0
BLOCK_RECORD
  5
211
100
AcDbSymbolTableRecord
100
AcDbBlockTableRecord
  2
*Paper_Space
  0
BLOCK_RECORD
  5
212
100
AcDbSymbolTableRecord
100
AcDbBlockTableRecord
  2
_FILLED
  0
ENDTAB
  0
TABLE
  2
DIMSTYLE
  5
A
100
AcDbSymbolTable
 70
1
100
AcDbDimStyleTable
 71
0
  0
DIMSTYLE
105
213
100
AcDbSymbolTableRecord
100
AcDbDimStyleTableRecord
  2
STANDARD
 70
0
  3

  4

 40
1.0
 41
6.019347376
 42
1.0
 43
0.38
 44
1.0
 45
0.0
 46
0.0
 47
0.01
 48
0.01
140
8.4270863264
141
0.09
142
0.0
143
25.4
144
1.0
145
0.0
146
1.0
147
0.625
 71
1
 72
0
 73
0
 74
0
 75
0
 76
0
 77
1
 78
8
 79
2
170
0
171
1
172
0
173
0
174
0
175
0
176
0
177
0
178
0
270
2
179
2
271
2
272
2
273
2
274
2
275
0
280
0
281
0
282
0
283
1
284
8
285
0
286
0
287
3
288
0
340
11
278
46
341
212
342
212
343
212
344
212
  0
ENDTAB
  0
ENDSEC
  0
SECTION
  2
BLOCKS
  0
BLOCK
  5
20
100
AcDbEntity
  8
0
100
AcDbBlockBegin
  2
*Model_Space
 70
0
 10
0.0
 20
0.0
 30
0.0
  3
*Model_Space
  1

  0
ENDBLK
  5
21
100
AcDbEntity
  8
0
100
AcDbBlockEnd
  0
BLOCK
  5
1C
100
AcDbEntity
  8
0
100
AcDbBlockBegin
  2
*Paper_Space
 70
0
 10
0.0
 20
0.0
 30
0.0
  3
*Paper_Space
  1

  0
ENDBLK
  5
1D
100
AcDbEntity
  8
0
100
AcDbBlockEnd
  0
BLOCK
  5
214
100
AcDbEntity
  8
0
100
AcDbBlockBegin
  2
_FILLED
 70
64
 10
0.0
 20
0.0
  3
_FILLED
  1

  0
SOLID
  5
215
100
AcDbEntity
  8
0
  6
BYBLOCK
 62
0
100
AcDbTrace
 10
0.0
 20
0.0
 11
-1.0
 21
0.25
 12
-1.0
 22
-0.25
 13
-1.0
 23
-0.25
  0
ENDBLK
  5
216
100
AcDbEntity
  8
0
  6
BYBLOCK
 62
0
100
AcDbBlockEnd
  0
ENDSEC
  0
SECTION
  2
ENTITIES
  0
LINE
  5
217
100
AcDbEntity
  8
0
100
AcDbLine
 62
7
  6
CONTINUOUS
 10
57.1185934504
 20
241.1361014754
 11
64.9275495747
 21
235.6682115315
  0
LINE
  5
218
100
AcDbEntity
  8
0
100
AcDbLine
 62
7
  6
CONTINUOUS
 10
57.806885174
 20
242.1190839285
 11
63.2761005799
 21
238.2894980732
  0
LINE
  5
219
100
AcDbEntity
  8
0
100
AcDbLine
 62
7
  6
CONTINUOUS
 10
53.6878633159
 20
264.4997946846
 11
53.6878633159
 21
485.8997946846
  0
LINE
  5
21A
100
AcDbEntity
  8
0
100
AcDbLine
 62
7
  6
CONTINUOUS
 10
54.8878633159
 20
264.4997946846
 11
54.8878633159
 21
485.8997946846
  0
LINE
  5
21B
100
AcDbEntity
  8
0
100
AcDbLine
 62
7
  6
CONTINUOUS
 10
55.7540380467
 20
253.7894980732
 11
55.7540380467
 21
243.7573880171
  0
LINE
  5
21C
100
AcDbEntity
  8
0
100
AcDbLine
 62
7
  6
CONTINUOUS
 10
56.1878633159
 20
261.2997946846
 11
56.1878633159
 21
260.7997946846
  0
LINE
  5
21D
100
AcDbEntity
  8
0
100
AcDbLine
 62
7
  6
CONTINUOUS
 10
56.9540380467
 20
253.7894980732
 11
56.9540380467
 21
243.7573880171
  0
LINE
  5
21E
100
AcDbEntity
  8
0
100
AcDbLine
 62
7
  6
CONTINUOUS
 10
58.1878633159
 20
259.7997946846
 11
58.1878633159
 21
261.2997946846
  0
LINE
  5
21F
100
AcDbEntity
  8
0
100
AcDbLine
 62
7
  6
CONTINUOUS
 10
59.5757308733
 20
259.0997946846
 11
59.5757308733
 21
259.271500198
  0
LINE
  5
220
100
AcDbEntity
  8
0
100
AcDbLine
 62
7
  6
CONTINUOUS
 10
58.2956542121
 20
259.7997946846
 11
58.3887000699
 21
259.7183892305
  0
LINE
  5
221
100
AcDbEntity
  8
0
100
AcDbLine
 62
7
  6
CONTINUOUS
 10
58.2587217929
 20
259.5946411774
 11
58.0242606417
 21
259.7997946846
  0
LINE
  5
222
100
AcDbEntity
  8
0
100
AcDbLine
 62
7
  6
CONTINUOUS
 10
65.4684551525
 20
259.271500198
 11
65.4684551525
 21
259.0997946846
  0
LINE
  5
223
100
AcDbEntity
  8
0
100
AcDbLine
 62
7
  6
CONTINUOUS
 10
69.1878633159
 20
488.4997946846
 11
69.1878633159
 21
488.2997946846
  0
LINE
  5
224
100
AcDbEntity
  8
0
100
AcDbLine
 62
7
  6
CONTINUOUS
 10
82.1878633159
 20
488.2997946846
 11
82.1878633159
 21
488.4997946846
  0
LINE
  5
225
100
AcDbEntity
  8
0
100
AcDbLine
 62
7
  6
CONTINUOUS
 10
69.4644344294
 20
259.4997946846
 11
69.5173325236
 21
259.7997946846
  0
LINE
  5
226
100
AcDbEntity
  8
0
100
AcDbLine
 62
7
  6
CONTINUOUS
 10
71.4563934952
 20
258.6089856893
 11
70.7722744044
 21
255.0894980732
  0
LINE
  5
227
100
AcDbEntity
  8
0
100
AcDbLine
 62
7
  6
CONTINUOUS
 10
72.3003494469
 20
255.0894980732
 11
72.9288342704
 21
258.3227721962
  0
LINE
  5
228
100
AcDbEntity
  8
0
100
AcDbLine
 62
7
  6
CONTINUOUS
 10
72.4807039407
 20
255.0894980732
 11
73.2249236746
 21
258.9181766939
  0
LINE
  5
229
100
AcDbEntity
  8
0
100
AcDbLine
 62
7
  6
CONTINUOUS
 10
74.4028762947
 20
258.9181766939
 11
73.6586565608
 21
255.0894980732
  0
LINE
  5
22A
100
AcDbEntity
  8
0
100
AcDbLine
 62
7
  6
CONTINUOUS
 10
65.4684545299
 20
259.2715060558
 11
65.6193935157
 21
259.7997946846
  0
LINE
  5
22B
100
AcDbEntity
  8
0
100
AcDbLine
 62
7
  6
CONTINUOUS
 10
65.819315435
 20
259.7997946846
 11
65.660759942
 21
259.2448504591
  0
LINE
  5
22C
100
AcDbEntity
  8
0
100
AcDbLine
 62
7
  6
CONTINUOUS
 10
432.9728503371
 20
258.6892058994
 11
434.1508029729
 21
258.9181766969
  0
LINE
  5
22D
100
AcDbEntity
  8
0
100
AcDbLine
 62
7
  6
CONTINUOUS
 10
417.6793216324
 20
232.9498999084
 11
416.3219463598
 21
232.9498999084
  0
LINE
  5
22E
100
AcDbEntity
  8
0
100
AcDbLine
 62
7
  6
CONTINUOUS
 10
387.1861294668
 20
232.9498999084
 11
385.828754461
 21
232.9498999084
  0
LINE
  5
22F
100
AcDbEntity
  8
0
100
AcDbLine
 62
7
  6
CONTINUOUS
 10
413.2953200403
 20
233.5084308813
 11
390.2127471887
 21
233.5084308813
  0
LINE
  5
230
100
AcDbEntity
  8
0
100
AcDbLine
 62
7
  6
CONTINUOUS
 10
73.2249236746
 20
258.9181766939
 11
74.4028762947
 21
258.6892058994
  0
LINE
  5
231
100
AcDbEntity
  8
0
100
AcDbLine
 62
7
  6
CONTINUOUS
 10
413.3749687183
 20
234.2508827894
 11
390.1330970715
 21
234.2508827894
  0
LINE
  5
232
100
AcDbEntity
  8
0
100
AcDbLine
 62
7
  6
CONTINUOUS
 10
66.7629941711
 20
235.0894980732
 11
440.7450819223
 21
235.0894980732
  0
LINE
  5
233
100
AcDbEntity
  8
0
100
AcDbLine
 62
7
  6
CONTINUOUS
 10
444.2319755135
 20
238.2894980732
 11
63.2761005799
 21
238.2894980732
  0
LWPOLYLINE
  5
234
100
AcDbEntity
  8
0
100
AcDbPolyline
 62
7
  6
CONTINUOUS
 90
3
 70
0
 10
389.2995852195
 20
229.124033683
 10
389.3196863076
 20
229.122398909
 10
389.3843815307
 20
229.1310679735
  0
LINE
  5
235
100
AcDbEntity
  8
0
100
AcDbLine
 62
7
  6
CONTINUOUS
 10
55.7540380467
 20
253.7894980732
 11
451.7540380467
 21
253.7894980732
  0
LINE
  5
236
100
AcDbEntity
  8
0
100
AcDbLine
 62
7
  6
CONTINUOUS
 10
57.8455474924
 20
255.0894980732
 11
449.6625286009
 21
255.0894980732
  0
LINE
  5
237
100
AcDbEntity
  8
0
100
AcDbLine
 62
7
  6
CONTINUOUS
 10
74.4028762947
 20
258.9181766939
 11
432.9728503371
 21
258.9181766939
  0
LINE
  5
238
100
AcDbEntity
  8
0
100
AcDbLine
 62
7
  6
CONTINUOUS
 10
59.5757308637
 20
259.0997946846
 11
65.4684551525
 21
259.0997946846
  0
LINE
  5
239
100
AcDbEntity
  8
0
100
AcDbLine
 62
7
  6
CONTINUOUS
 10
65.4684545299
 20
259.2715060558
 11
59.5750020472
 21
259.2714943394
  0
LINE
  5
23A
100
AcDbEntity
  8
0
100
AcDbLine
 62
7
  6
CONTINUOUS
 10
69.296555833
 20
259.2997946846
 11
65.6764582921
 21
259.2997946846
  0
LINE
  5
23B
100
AcDbEntity
  8
0
100
AcDbLine
 62
7
  6
CONTINUOUS
 10
69.4644344294
 20
259.4997946846
 11
65.7336011493
 21
259.4997946846
  0
LINE
  5
23C
100
AcDbEntity
  8
0
100
AcDbLine
 62
7
  6
CONTINUOUS
 10
57.9878633159
 20
259.7997946846
 11
70.4747663118
 21
259.7997946846
  0
LINE
  5
23D
100
AcDbEntity
  8
0
100
AcDbLine
 62
7
  6
CONTINUOUS
 10
443.437863316
 20
260.0997946846
 11
441.9378633158
 21
260.0997946846
  0
LINE
  5
23E
100
AcDbEntity
  8
0
100
AcDbLine
 62
7
  6
CONTINUOUS
 10
447.6878633159
 20
261.0997946846
 11
437.6878633159
 21
261.0997946846
  0
LINE
  5
23F
100
AcDbEntity
  8
0
100
AcDbLine
 62
7
  6
CONTINUOUS
 10
56.8878633159
 20
261.2997946847
 11
450.4878633159
 21
261.2997946847
  0
LINE
  5
240
100
AcDbEntity
  8
0
100
AcDbLine
 62
7
  6
CONTINUOUS
 10
453.687863314
 20
264.4997946846
 11
53.6878633178
 21
264.4997946846
  0
LWPOLYLINE
  5
241
100
AcDbEntity
  8
0
100
AcDbPolyline
 62
7
  6
CONTINUOUS
 90
3
 70
0
 10
414.1236945627
 20
229.1310679735
 10
414.1883760616
 20
229.1223984879
 10
414.2084908738
 20
229.124033683
  0
LINE
  5
242
100
AcDbEntity
  8
0
100
AcDbLine
 62
7
  6
CONTINUOUS
 10
413.5346099058
 20
229.3173091447
 11
413.5398737875
 21
229.3162323432
  0
LINE
  5
243
100
AcDbEntity
  8
0
100
AcDbLine
 62
7
  6
CONTINUOUS
 10
61.8722561488
 20
239.2724805263
 11
61.1839644252
 21
238.2894980732
  0
LINE
  5
244
100
AcDbEntity
  8
0
100
AcDbLine
 62
7
  6
CONTINUOUS
 10
64.9275495748
 20
235.6682115316
 11
65.1728452185
 21
236.0185300163
  0
LINE
  5
245
100
AcDbEntity
  8
0
100
AcDbLine
 62
7
  6
CONTINUOUS
 10
413.535911638
 20
229.3171241152
 11
413.5398737875
 21
229.3162323432
  0
LINE
  5
246
100
AcDbEntity
  8
0
100
AcDbLine
 62
7
  6
CONTINUOUS
 10
409.0354715076
 20
229.1579245006
 11
409.2060322726
 21
229.1073655743
  0
LINE
  5
247
100
AcDbEntity
  8
0
100
AcDbLine
 62
7
  6
CONTINUOUS
 10
409.0353175291
 20
229.1578782424
 11
409.1935205512
 21
229.1091066522
  0
LINE
  5
248
100
AcDbEntity
  8
0
100
AcDbLine
 62
7
  6
CONTINUOUS
 10
394.2471683774
 20
229.100793756
 11
394.1954219995
 21
229.1167588098
  0
LINE
  5
249
100
AcDbEntity
  8
0
100
AcDbLine
 62
7
  6
CONTINUOUS
 10
399.2526049883
 20
229.1000138935
 11
399.2501233822
 21
229.1007936849
  0
LINE
  5
24A
100
AcDbEntity
  8
0
100
AcDbLine
 62
7
  6
CONTINUOUS
 10
399.2526049883
 20
229.1000138935
 11
399.2510927947
 21
229.1004994692
  0
LINE
  5
24B
100
AcDbEntity
  8
0
100
AcDbLine
 62
7
  6
CONTINUOUS
 10
69.2966145031
 20
259.2997946846
 11
69.4644344294
 21
259.4997946846
  0
LWPOLYLINE
  5
24C
100
AcDbEntity
  8
0
100
AcDbPolyline
 62
7
  6
CONTINUOUS
 90
4
 70
0
 10
414.0015025265
 20
229.1939556717
 10
414.0965292264
 20
229.1629541053
 10
414.1678651438
 20
229.1388916769
 10
414.2047542782
 20
229.1256826553
  0
LINE
  5
24D
100
AcDbEntity
  8
0
100
AcDbLine
 62
7
  6
CONTINUOUS
 10
414.0015025265
 20
229.1939556717
 11
414.2047542782
 21
229.1256826553
  0
LINE
  5
24E
100
AcDbEntity
  8
0
100
AcDbLine
 62
7
  6
CONTINUOUS
 10
414.2047542782
 20
229.1256826553
 11
414.2084450182
 21
229.1243239803
  0
LINE
  5
24F
100
AcDbEntity
  8
0
100
AcDbLine
 62
7
  6
CONTINUOUS
 10
442.5805265185
 20
235.6682115316
 11
442.3352308748
 21
236.0185300163
  0
LINE
  5
250
100
AcDbEntity
  8
0
100
AcDbLine
 62
7
  6
CONTINUOUS
 10
445.6358199445
 20
239.2724805263
 11
446.3241116681
 21
238.2894980731
  0
LINE
  5
251
100
AcDbEntity
  8
0
100
AcDbLine
 62
7
  6
CONTINUOUS
 10
385.8287544548
 20
232.9499000864
 11
385.7540380467
 21
235.0894980732
  0
LINE
  5
252
100
AcDbEntity
  8
0
100
AcDbLine
 62
7
  6
CONTINUOUS
 10
53.6878633161
 20
485.8997946846
 11
453.6878633157
 21
485.8997946846
  0
LINE
  5
253
100
AcDbEntity
  8
0
100
AcDbLine
 62
7
  6
CONTINUOUS
 10
451.2878633159
 20
488.2997946846
 11
56.0878633159
 21
488.2997946846
  0
LINE
  5
254
100
AcDbEntity
  8
0
100
AcDbLine
 62
7
  6
CONTINUOUS
 10
69.1878633159
 20
488.4997946846
 11
82.1878633159
 21
488.4997946846
  0
LINE
  5
255
100
AcDbEntity
  8
0
100
AcDbLine
 62
7
  6
CONTINUOUS
 10
425.1878633159
 20
488.4997946846
 11
438.1878633159
 21
488.4997946846
  0
LINE
  5
256
100
AcDbEntity
  8
0
100
AcDbLine
 62
7
  6
CONTINUOUS
 10
433.7170700709
 20
255.0894980732
 11
432.9728503371
 21
258.9181766939
  0
LINE
  5
257
100
AcDbEntity
  8
0
100
AcDbLine
 62
7
  6
CONTINUOUS
 10
434.1508029571
 20
258.9181766939
 11
434.895022691
 21
255.0894980732
  0
LINE
  5
258
100
AcDbEntity
  8
0
100
AcDbLine
 62
7
  6
CONTINUOUS
 10
425.1878633159
 20
488.4997946846
 11
425.1878633159
 21
488.2997946846
  0
LINE
  5
259
100
AcDbEntity
  8
0
100
AcDbLine
 62
7
  6
CONTINUOUS
 10
417.6793216386
 20
232.9499000864
 11
417.7540380467
 21
235.0894980732
  0
LWPOLYLINE
  5
25A
100
AcDbEntity
  8
0
100
AcDbPolyline
 62
7
  6
CONTINUOUS
 90
4
 70
0
 10
389.2996459347
 20
229.1243225682
 10
389.3075514429
 20
229.1272167027
 10
389.3633111929
 20
229.1468451574
 10
389.4929416124
 20
229.1896945265
  0
LINE
  5
25B
100
AcDbEntity
  8
0
100
AcDbLine
 62
7
  6
CONTINUOUS
 10
389.299631095
 20
229.1243239789
 11
389.4929416124
 21
229.1896945265
  0
LINE
  5
25C
100
AcDbEntity
  8
0
100
AcDbLine
 62
7
  6
CONTINUOUS
 10
437.6878633159
 20
261.2997946846
 11
437.6878633159
 21
261.0997946846
  0
LINE
  5
25D
100
AcDbEntity
  8
0
100
AcDbLine
 62
7
  6
CONTINUOUS
 10
438.1878633159
 20
488.2997946846
 11
438.1878633159
 21
488.4997946846
  0
LINE
  5
25E
100
AcDbEntity
  8
0
100
AcDbLine
 62
7
  6
CONTINUOUS
 10
447.6878633159
 20
261.0997946846
 11
447.6878633159
 21
261.2997946846
  0
LINE
  5
25F
100
AcDbEntity
  8
0
100
AcDbLine
 62
7
  6
CONTINUOUS
 10
450.5540380467
 20
253.7894980732
 11
450.5540380467
 21
243.7573880171
  0
LINE
  5
260
100
AcDbEntity
  8
0
100
AcDbLine
 62
7
  6
CONTINUOUS
 10
451.7540380467
 20
253.7894980732
 11
451.7540380467
 21
243.7573880171
  0
LINE
  5
261
100
AcDbEntity
  8
0
100
AcDbLine
 62
7
  6
CONTINUOUS
 10
452.4878633159
 20
264.4997946846
 11
452.4878633159
 21
485.8997946846
  0
LINE
  5
262
100
AcDbEntity
  8
0
100
AcDbLine
 62
7
  6
CONTINUOUS
 10
453.687863314
 20
264.4997946846
 11
453.6878633157
 21
485.8997946846
  0
LINE
  5
263
100
AcDbEntity
  8
0
100
AcDbLine
 62
7
  6
CONTINUOUS
 10
444.2319755135
 20
238.2894980732
 11
449.7011909194
 21
242.1190839285
  0
LINE
  5
264
100
AcDbEntity
  8
0
100
AcDbLine
 62
7
  6
CONTINUOUS
 10
442.5805265186
 20
235.6682115315
 11
450.389482643
 21
241.1361014754
  0
ARC
  5
265
100
AcDbEntity
  8
0
100
AcDbCircle
 62
7
  6
CONTINUOUS
 10
6.3990309764
 20
199.0904100107
 40
90.5719956319
100
AcDbArc
 50
41.6645580542
 51
41.8616641953
  0
ARC
  5
266
100
AcDbEntity
  8
0
100
AcDbCircle
 62
7
  6
CONTINUOUS
 10
128.7889911022
 20
307.966213598
 40
73.236562574
100
AcDbArc
 50
221.6447210539
 51
221.9510835388
  0
ARC
  5
267
100
AcDbEntity
  8
0
100
AcDbCircle
 62
7
  6
CONTINUOUS
 10
97.1778952835
 20
279.5861375186
 40
30.7549361013
100
AcDbArc
 50
221.9979862657
 51
222.2232335721
  0
ARC
  5
268
100
AcDbEntity
  8
0
100
AcDbCircle
 62
7
  6
CONTINUOUS
 10
69.9625668354
 20
241.2414836893
 40
7.0370339824
100
AcDbArc
 50
226.8789414161
 51
228.0302349067
  0
ARC
  5
269
100
AcDbEntity
  8
0
100
AcDbCircle
 62
7
  6
CONTINUOUS
 10
58.9540380467
 20
243.7573880171
 40
3.2
100
AcDbArc
 50
180.0
 51
235.0000000003
  0
ARC
  5
26A
100
AcDbEntity
  8
0
100
AcDbCircle
 62
7
  6
CONTINUOUS
 10
66.7629941711
 20
238.2894980732
 40
3.2
100
AcDbArc
 50
234.9999999998
 51
270.0
  0
ARC
  5
26B
100
AcDbEntity
  8
0
100
AcDbCircle
 62
7
  6
CONTINUOUS
 10
56.8878633159
 20
264.4997946846
 40
3.2
100
AcDbArc
 50
180.0
 51
261.5716923683
  0
ARC
  5
26C
100
AcDbEntity
  8
0
100
AcDbCircle
 62
7
  6
CONTINUOUS
 10
70.4747663118
 20
258.7997946846
 40
2.5
100
AcDbArc
 50
349.0
 51
90.0
  0
ARC
  5
26D
100
AcDbEntity
  8
0
100
AcDbCircle
 62
7
  6
CONTINUOUS
 10
57.9878633159
 20
261.9197946846
 40
2.12
100
AcDbArc
 50
211.8907918018
 51
270.0
  0
ARC
  5
26E
100
AcDbEntity
  8
0
100
AcDbCircle
 62
7
  6
CONTINUOUS
 10
59.5757308739
 20
261.0997946846
 40
2.0
100
AcDbArc
 50
228.8140748343
 51
269.9999997064
  0
ARC
  5
26F
100
AcDbEntity
  8
0
100
AcDbCircle
 62
7
  6
CONTINUOUS
 10
71.2616693077
 20
259.2997946846
 40
2.0
100
AcDbArc
 50
349.0
 51
90.0
  0
ARC
  5
270
100
AcDbEntity
  8
0
100
AcDbCircle
 62
7
  6
CONTINUOUS
 10
56.8878633159
 20
264.4997946846
 40
2.0
100
AcDbArc
 50
180.0
 51
226.5235182336
  0
ARC
  5
271
100
AcDbEntity
  8
0
100
AcDbCircle
 62
7
  6
CONTINUOUS
 10
58.8650552974
 20
243.7110665297
 40
1.8996824549
100
AcDbArc
 50
198.1305904439
 51
216.8694095595
  0
ARC
  5
272
100
AcDbEntity
  8
0
100
AcDbCircle
 62
7
  6
CONTINUOUS
 10
59.5756803631
 20
261.0712875705
 40
1.7997933589
100
AcDbArc
 50
228.7375470409
 51
269.9784060546
  0
ARC
  5
273
100
AcDbEntity
  8
0
100
AcDbCircle
 62
7
  6
CONTINUOUS
 10
57.0540380467
 20
253.7894980732
 40
1.3
100
AcDbArc
 50
67.2282201082
 51
180.0
  0
ARC
  5
274
100
AcDbEntity
  8
0
100
AcDbCircle
 62
7
  6
CONTINUOUS
 10
70.4747663118
 20
258.7997946846
 40
1.0
100
AcDbArc
 50
349.0
 51
90.0
  0
ARC
  5
275
100
AcDbEntity
  8
0
100
AcDbCircle
 62
7
  6
CONTINUOUS
 10
65.4684551525
 20
259.2997946846
 40
0.2
100
AcDbArc
 50
270.0
 51
344.0546040991
  0
ARC
  5
276
100
AcDbEntity
  8
0
100
AcDbCircle
 62
7
  6
CONTINUOUS
 10
75.6878633159
 20
467.8747946846
 40
21.625
100
AcDbArc
 50
72.5076754749
 51
107.4923245251
  0
ARC
  5
277
100
AcDbEntity
  8
0
100
AcDbCircle
 62
7
  6
CONTINUOUS
 10
56.0878633159
 20
485.8997946846
 40
2.4
100
AcDbArc
 50
90.0
 51
180.0
  0
ARC
  5
278
100
AcDbEntity
  8
0
100
AcDbCircle
 62
7
  6
CONTINUOUS
 10
410.4495948359
 20
208.9181608115
 40
20.6523949243
100
AcDbArc
 50
83.5256001589
 51
83.6626078613
  0
ARC
  5
279
100
AcDbEntity
  8
0
100
AcDbCircle
 62
7
  6
CONTINUOUS
 10
395.1822370424
 20
216.4328989408
 40
13.3050250011
100
AcDbArc
 50
72.1928896097
 51
72.3831793801
  0
ARC
  5
27A
100
AcDbEntity
  8
0
100
AcDbCircle
 62
7
  6
CONTINUOUS
 10
396.3560470014
 20
220.1287541786
 40
9.4272452632
100
AcDbArc
 50
72.384461371
 51
72.9801577944
  0
ARC
  5
27B
100
AcDbEntity
  8
0
100
AcDbCircle
 62
7
  6
CONTINUOUS
 10
411.8320947796
 20
221.1334644689
 40
8.3708501476
100
AcDbArc
 50
100.8383511913
 51
101.0051385257
  0
ARC
  5
27C
100
AcDbEntity
  8
0
100
AcDbCircle
 62
7
  6
CONTINUOUS
 10
406.7540380467
 20
221.4769980732
 40
8.0125
100
AcDbArc
 50
73.4581824105
 51
107.7230053173
  0
ARC
  5
27D
100
AcDbEntity
  8
0
100
AcDbCircle
 62
7
  6
CONTINUOUS
 10
401.7540380467
 20
221.4769980732
 40
8.0125
100
AcDbArc
 50
72.2771256203
 51
107.7229088571
  0
ARC
  5
27E
100
AcDbEntity
  8
0
100
AcDbCircle
 62
7
  6
CONTINUOUS
 10
411.7540380467
 20
221.4769980732
 40
8.0125
100
AcDbArc
 50
72.7977724508
 51
107.7229302363
  0
ARC
  5
27F
100
AcDbEntity
  8
0
100
AcDbCircle
 62
7
  6
CONTINUOUS
 10
391.7540380467
 20
221.4769980732
 40
8.0125
100
AcDbArc
 50
72.2771274623
 51
107.2022275492
  0
ARC
  5
280
100
AcDbEntity
  8
0
100
AcDbCircle
 62
7
  6
CONTINUOUS
 10
396.7540380467
 20
221.4769980732
 40
8.0125
100
AcDbArc
 50
72.2771431598
 51
107.7229236181
  0
ARC
  5
281
100
AcDbEntity
  8
0
100
AcDbCircle
 62
7
  6
CONTINUOUS
 10
391.7099658689
 20
221.6138174665
 40
7.8861774491
100
AcDbArc
 50
96.7492484649
 51
97.1404837662
  0
ARC
  5
282
100
AcDbEntity
  8
0
100
AcDbCircle
 62
7
  6
CONTINUOUS
 10
396.2142342449
 20
223.3562682609
 40
6.0706040099
100
AcDbArc
 50
107.1560958456
 51
108.4380281722
  0
ARC
  5
283
100
AcDbEntity
  8
0
100
AcDbCircle
 62
7
  6
CONTINUOUS
 10
402.4193567569
 20
223.6291034162
 40
5.7708237339
100
AcDbArc
 50
71.4469784613
 51
71.7602771137
  0
ARC
  5
284
100
AcDbEntity
  8
0
100
AcDbCircle
 62
7
  6
CONTINUOUS
 10
400.9962179843
 20
223.9033490179
 40
5.4813786686
100
AcDbArc
 50
108.2129456094
 51
108.5479102971
  0
ARC
  5
285
100
AcDbEntity
  8
0
100
AcDbCircle
 62
7
  6
CONTINUOUS
 10
389.8263177629
 20
233.0894980732
 40
4.0
100
AcDbArc
 50
182.0000025522
 51
262.434012146
  0
ARC
  5
286
100
AcDbEntity
  8
0
100
AcDbCircle
 62
7
  6
CONTINUOUS
 10
408.064973368
 20
226.1328668442
 40
3.1907297036
100
AcDbArc
 50
71.9113682715
 51
73.4843566198
  0
ARC
  5
287
100
AcDbEntity
  8
0
100
AcDbCircle
 62
7
  6
CONTINUOUS
 10
409.0331539579
 20
229.9031183056
 40
0.8341256971
100
AcDbArc
 50
285.8077844053
 51
286.2020511288
  0
ARC
  5
288
100
AcDbEntity
  8
0
100
AcDbCircle
 62
7
  6
CONTINUOUS
 10
404.0746963298
 20
229.773953872
 40
0.6977778772
100
AcDbArc
 50
285.0199808663
 51
285.2189171269
  0
ARC
  5
289
100
AcDbEntity
  8
0
100
AcDbCircle
 62
7
  6
CONTINUOUS
 10
394.2540380467
 20
229.2997313711
 40
0.2
100
AcDbArc
 50
252.2754902644
 51
287.7229124085
  0
ARC
  5
28A
100
AcDbEntity
  8
0
100
AcDbCircle
 62
7
  6
CONTINUOUS
 10
399.2540380467
 20
229.2997313711
 40
0.2
100
AcDbArc
 50
252.2748613845
 51
287.7229124086
  0
ARC
  5
28B
100
AcDbEntity
  8
0
100
AcDbCircle
 62
7
  6
CONTINUOUS
 10
404.2540380467
 20
229.2997313711
 40
0.2
100
AcDbArc
 50
252.2770875914
 51
287.7191902167
  0
ARC
  5
28C
100
AcDbEntity
  8
0
100
AcDbCircle
 62
7
  6
CONTINUOUS
 10
409.2540380467
 20
229.2997313711
 40
0.2
100
AcDbArc
 50
252.3870918975
 51
287.7221981834
  0
ARC
  5
28D
100
AcDbEntity
  8
0
100
AcDbCircle
 62
7
  6
CONTINUOUS
 10
394.2551214541
 20
229.2971932738
 40
0.1972527175
100
AcDbArc
 50
268.4206564701
 51
287.6497521178
  0
ARC
  5
28E
100
AcDbEntity
  8
0
100
AcDbCircle
 62
7
  6
CONTINUOUS
 10
404.2525819221
 20
229.2959796458
 40
0.1959803306
100
AcDbArc
 50
252.35379937
 51
270.8615594419
  0
ARC
  5
28F
100
AcDbEntity
  8
0
100
AcDbCircle
 62
7
  6
CONTINUOUS
 10
399.2554939262
 20
229.2959752285
 40
0.1959761813
100
AcDbArc
 50
269.1552789304
 51
287.651756332
  0
ARC
  5
290
100
AcDbEntity
  8
0
100
AcDbCircle
 62
7
  6
CONTINUOUS
 10
394.2524893125
 20
229.2953628522
 40
0.1953674916
100
AcDbArc
 50
252.3518122134
 51
269.1775229989
  0
ARC
  5
291
100
AcDbEntity
  8
0
100
AcDbCircle
 62
7
  6
CONTINUOUS
 10
399.2524291574
 20
229.2953716147
 40
0.1953573612
100
AcDbArc
 50
252.3494514162
 51
270.0515132934
  0
ARC
  5
292
100
AcDbEntity
  8
0
100
AcDbCircle
 62
7
  6
CONTINUOUS
 10
404.2556563402
 20
229.2953281749
 40
0.1953132623
100
AcDbArc
 50
269.9625615924
 51
287.6610299848
  0
ARC
  5
293
100
AcDbEntity
  8
0
100
AcDbCircle
 62
7
  6
CONTINUOUS
 10
409.2557590316
 20
229.2940529526
 40
0.1940672937
100
AcDbArc
 50
281.4916285089
 51
287.8024618979
  0
ARC
  5
294
100
AcDbEntity
  8
0
100
AcDbCircle
 62
7
  6
CONTINUOUS
 10
409.2515846115
 20
229.2903263059
 40
0.1902816511
100
AcDbArc
 50
256.3960950674
 51
262.6217562148
  0
ARC
  5
295
100
AcDbEntity
  8
0
100
AcDbCircle
 62
7
  6
CONTINUOUS
 10
436.6203439836
 20
242.2192772003
 40
8.3831285735
100
AcDbArc
 50
313.1683910458
 51
315.8352053207
  0
ARC
  5
296
100
AcDbEntity
  8
0
100
AcDbCircle
 62
7
  6
CONTINUOUS
 10
413.6817583305
 20
233.0894980732
 40
4.0
100
AcDbArc
 50
277.5659878539
 51
357.9999974478
  0
ARC
  5
297
100
AcDbEntity
  8
0
100
AcDbCircle
 62
7
  6
CONTINUOUS
 10
414.1455935855
 20
231.6488706914
 40
2.4099996135
100
AcDbArc
 50
255.4434128129
 51
256.2796887419
  0
ARC
  5
298
100
AcDbEntity
  8
0
100
AcDbCircle
 62
7
  6
CONTINUOUS
 10
378.6056063187
 20
307.949373214
 40
73.2112702229
100
AcDbArc
 50
318.0487430766
 51
318.3553138934
  0
ARC
  5
299
100
AcDbEntity
  8
0
100
AcDbCircle
 62
7
  6
CONTINUOUS
 10
410.201318401
 20
279.5829814954
 40
30.7502329129
100
AcDbArc
 50
317.7767548091
 51
318.00179255
  0
ARC
  5
29A
100
AcDbEntity
  8
0
100
AcDbCircle
 62
7
  6
CONTINUOUS
 10
436.1140573241
 20
259.2997946846
 40
2.0
100
AcDbArc
 50
90.0
 51
191.0000000006
  0
ARC
  5
29B
100
AcDbEntity
  8
0
100
AcDbCircle
 62
7
  6
CONTINUOUS
 10
500.9837244976
 20
199.0841346506
 40
90.5814181823
100
AcDbArc
 50
138.1383744608
 51
138.3354321707
  0
ARC
  5
29C
100
AcDbEntity
  8
0
100
AcDbCircle
 62
7
  6
CONTINUOUS
 10
444.3904805933
 20
251.4901850841
 40
6.5662650801
100
AcDbArc
 50
25.3494767574
 51
26.4942587887
  0
ARC
  5
29D
100
AcDbEntity
  8
0
100
AcDbCircle
 62
7
  6
CONTINUOUS
 10
440.7450819223
 20
238.2894980732
 40
3.2
100
AcDbArc
 50
270.0
 51
305.0000000002
  0
ARC
  5
29E
100
AcDbEntity
  8
0
100
AcDbCircle
 62
7
  6
CONTINUOUS
 10
448.5540380467
 20
243.7573880171
 40
3.2
100
AcDbArc
 50
304.9999999995
 51
360.0
  0
ARC
  5
29F
100
AcDbEntity
  8
0
100
AcDbCircle
 62
7
  6
CONTINUOUS
 10
448.6430207956
 20
243.71106653
 40
1.8996824553
100
AcDbArc
 50
323.1305904435
 51
341.8694095601
  0
ARC
  5
2A0
100
AcDbEntity
  8
0
100
AcDbCircle
 62
7
  6
CONTINUOUS
 10
442.6878633159
 20
272.8185446846
 40
12.7408438324
100
AcDbArc
 50
273.3747129721
 51
293.1063268583
  0
ARC
  5
2A1
100
AcDbEntity
  8
0
100
AcDbCircle
 62
7
  6
CONTINUOUS
 10
442.6878633159
 20
272.8185446846
 40
12.7408438324
100
AcDbArc
 50
246.8936731417
 51
266.6252870275
  0
ARC
  5
2A2
100
AcDbEntity
  8
0
100
AcDbCircle
 62
7
  6
CONTINUOUS
 10
450.4878633159
 20
264.4997946846
 40
3.2
100
AcDbArc
 50
270.0
 51
360.0
  0
ARC
  5
2A3
100
AcDbEntity
  8
0
100
AcDbCircle
 62
7
  6
CONTINUOUS
 10
450.4878633159
 20
264.4997946846
 40
2.0
100
AcDbArc
 50
313.4671432025
 51
360.0
  0
ARC
  5
2A4
100
AcDbEntity
  8
0
100
AcDbCircle
 62
7
  6
CONTINUOUS
 10
450.4540380467
 20
253.7894980732
 40
1.3
100
AcDbArc
 50
0.0
 51
112.7790999789
  0
ARC
  5
2A5
100
AcDbEntity
  8
0
100
AcDbCircle
 62
7
  6
CONTINUOUS
 10
431.6878633159
 20
467.8747946846
 40
21.625
100
AcDbArc
 50
72.5076754749
 51
107.4923245251
  0
ARC
  5
2A6
100
AcDbEntity
  8
0
100
AcDbCircle
 62
7
  6
CONTINUOUS
 10
451.2878633159
 20
485.8997946846
 40
2.4
100
AcDbArc
 50
0.0
 51
90.0
  0
SPLINE
  5
2A7
100
AcDbEntity
  8
0
100
AcDbSpline
 62
7
  6
CONTINUOUS
 70
0
 71
3
 72
8
 73
4
 74
0
 42
0.0000001
 43
0.0000001
 44
0.0000000001
 40
0.0
 40
0.0
 40
0.0
 40
0.0
 40
1.0
 40
1.0
 40
1.0
 40
1.0
 10
389.8725582916
 20
229.2958051675
 30
0.0
 10
389.9062385322
 20
229.2845343508
 30
0.0
 10
389.9443247862
 20
229.282586421
 30
0.0
 10
389.9789695177
 20
229.2904051482
 30
0.0
  0
SPLINE
  5
2A8
100
AcDbEntity
  8
0
100
AcDbSpline
 62
7
  6
CONTINUOUS
 70
0
 71
3
 72
12
 73
8
 74
0
 42
0.0000001
 43
0.0000001
 44
0.0000000001
 40
0.0
 40
0.0
 40
0.0
 40
0.0
 40
0.2442949502
 40
0.3670588413
 40
0.4906886903
 40
0.7416915711
 40
1.0
 40
1.0
 40
1.0
 40
1.0
 10
390.2127494888
 20
233.5084207998
 30
0.0
 10
390.0127725895
 20
233.5240138701
 30
0.0
 10
389.7148795431
 20
233.6107192841
 30
0.0
 10
389.3663654298
 20
233.8148125249
 30
0.0
 10
389.0515667485
 20
234.0777446416
 30
0.0
 10
388.733247491
 20
234.4983129526
 30
0.0
 10
388.5742286499
 20
234.8884221453
 30
0.0
 10
388.5067702957
 20
235.0894980894
 30
0.0
  0
SPLINE
  5
2A9
100
AcDbEntity
  8
0
100
AcDbSpline
 62
7
  6
CONTINUOUS
 70
0
 71
3
 72
11
 73
7
 74
0
 42
0.0000001
 43
0.0000001
 44
0.0000000001
 40
0.0
 40
0.0
 40
0.0
 40
0.0
 40
0.2422832541
 40
0.4976241
 40
0.7541595829
 40
1.0
 40
1.0
 40
1.0
 40
1.0
 10
387.1861294491
 20
232.9498999922
 30
0.0
 10
387.199459141
 20
232.5620680211
 30
0.0
 10
387.3424696701
 20
231.7648819236
 30
0.0
 10
387.9031917446
 20
230.6740986187
 30
0.0
 10
388.7728559699
 20
229.8001404068
 30
0.0
 10
389.4997170496
 20
229.4224346797
 30
0.0
 10
389.8725590628
 20
229.2958071678
 30
0.0
  0
SPLINE
  5
2AA
100
AcDbEntity
  8
0
100
AcDbSpline
 62
7
  6
CONTINUOUS
 70
0
 71
3
 72
9
 73
5
 74
0
 42
0.0000001
 43
0.0000001
 44
0.0000000001
 40
0.0
 40
0.0
 40
0.0
 40
0.0
 40
0.2199289246
 40
1.0
 40
1.0
 40
1.0
 40
1.0
 10
389.8725589932
 20
229.2958071914
 30
0.0
 10
389.878548476
 20
229.2964557415
 30
0.0
 10
389.9056752618
 20
229.3004179307
 30
0.0
 10
389.932277217
 20
229.3071730982
 30
0.0
 10
389.953010471
 20
229.312344313
 30
0.0
  0
SPLINE
  5
2AB
100
AcDbEntity
  8
0
100
AcDbSpline
 62
7
  6
CONTINUOUS
 70
0
 71
3
 72
9
 73
5
 74
0
 42
0.0000001
 43
0.0000001
 44
0.0000000001
 40
0.0
 40
0.0
 40
0.0
 40
0.0
 40
0.2101736906
 40
1.0
 40
1.0
 40
1.0
 40
1.0
 10
389.953010471
 20
229.312344313
 30
0.0
 10
389.9612074001
 20
229.3143887621
 30
0.0
 10
390.0001847387
 20
229.3242022844
 30
0.0
 10
390.0393702695
 20
229.3332545736
 30
0.0
 10
390.0705179866
 20
229.3393964413
 30
0.0
  0
SPLINE
  5
2AC
100
AcDbEntity
  8
0
100
AcDbSpline
 62
7
  6
CONTINUOUS
 70
0
 71
3
 72
9
 73
5
 74
0
 42
0.0000001
 43
0.0000001
 44
0.0000000001
 40
0.0
 40
0.0
 40
0.0
 40
0.0
 40
0.2000844544
 40
1.0
 40
1.0
 40
1.0
 40
1.0
 10
390.0705179866
 20
229.3393964413
 30
0.0
 10
390.0962644124
 20
229.3444732544
 30
0.0
 10
390.225486832
 20
229.3670145418
 30
0.0
 10
390.3555051416
 20
229.3847252909
 30
0.0
 10
390.4586659916
 20
229.403821223
 30
0.0
  0
SPLINE
  5
2AD
100
AcDbEntity
  8
0
100
AcDbSpline
 62
7
  6
CONTINUOUS
 70
0
 71
3
 72
9
 73
5
 74
0
 42
0.0000001
 43
0.0000001
 44
0.0000000001
 40
0.0
 40
0.0
 40
0.0
 40
0.0
 40
0.2221543976
 40
1.0
 40
1.0
 40
1.0
 40
1.0
 10
390.4586659916
 20
229.403821223
 30
0.0
 10
390.4786648925
 20
229.4069240092
 30
0.0
 10
390.5686760191
 20
229.4208519456
 30
0.0
 10
390.6590188829
 20
229.4336472979
 30
0.0
 10
390.7296912459
 20
229.4388195832
 30
0.0
  0
SPLINE
  5
2AE
100
AcDbEntity
  8
0
100
AcDbSpline
 62
7
  6
CONTINUOUS
 70
0
 71
3
 72
9
 73
5
 74
0
 42
0.0000001
 43
0.0000001
 44
0.0000000001
 40
0.0
 40
0.0
 40
0.0
 40
0.0
 40
0.2436102416
 40
1.0
 40
1.0
 40
1.0
 40
1.0
 10
390.2127285819
 20
233.5084377556
 30
0.0
 10
390.2004395878
 20
233.5678647838
 30
0.0
 10
390.1566078269
 20
233.8131421866
 30
0.0
 10
390.1361657685
 20
234.0624875892
 30
0.0
 10
390.1331135251
 20
234.2508827984
 30
0.0
  0
SPLINE
  5
2AF
100
AcDbEntity
  8
0
100
AcDbSpline
 62
7
  6
CONTINUOUS
 70
0
 71
3
 72
9
 73
5
 74
0
 42
0.0000001
 43
0.0000001
 44
0.0000000001
 40
0.0
 40
0.0
 40
0.0
 40
0.0
 40
0.2436103422
 40
1.0
 40
1.0
 40
1.0
 40
1.0
 10
413.29533678
 20
233.5084377891
 30
0.0
 10
413.307626145
 20
233.5678648044
 30
0.0
 10
413.3514594266
 20
233.8131420909
 30
0.0
 10
413.3719030579
 20
234.0624875176
 30
0.0
 10
413.3749564747
 20
234.2508827988
 30
0.0
  0
SPLINE
  5
2B0
100
AcDbEntity
  8
0
100
AcDbSpline
 62
7
  6
CONTINUOUS
 70
0
 71
3
 72
10
 73
6
 74
0
 42
0.0000001
 43
0.0000001
 44
0.0000000001
 40
0.0
 40
0.0
 40
0.0
 40
0.0
 40
0.4116035403
 40
0.6833858233
 40
1.0
 40
1.0
 40
1.0
 40
1.0
 10
389.4929416124
 20
229.1896945265
 30
0.0
 10
389.5444667355
 20
229.2061497372
 30
0.0
 10
389.6306050814
 20
229.2316207143
 30
0.0
 10
389.7573418663
 20
229.2663592201
 30
0.0
 10
389.8325818945
 20
229.2843294896
 30
0.0
 10
389.8725667914
 20
229.2958315133
 30
0.0
  0
SPLINE
  5
2B1
100
AcDbEntity
  8
0
100
AcDbSpline
 62
7
  6
CONTINUOUS
 70
0
 71
3
 72
9
 73
5
 74
0
 42
0.0000001
 43
0.0000001
 44
0.0000000001
 40
0.0
 40
0.0
 40
0.0
 40
0.0
 40
0.2120708232
 40
1.0
 40
1.0
 40
1.0
 40
1.0
 10
409.2603718932
 20
229.1007801926
 30
0.0
 10
409.2580424468
 20
229.1004481383
 30
0.0
 10
409.2469536622
 20
229.0996882778
 30
0.0
 10
409.2358178718
 20
229.100490615
 30
0.0
 10
409.227148826
 20
229.1016201875
 30
0.0
  0
SPLINE
  5
2B2
100
AcDbEntity
  8
0
100
AcDbSpline
 62
7
  6
CONTINUOUS
 70
0
 71
3
 72
9
 73
5
 74
0
 42
0.0000001
 43
0.0000001
 44
0.0000000001
 40
0.0
 40
0.0
 40
0.0
 40
0.0
 40
0.2166709316
 40
1.0
 40
1.0
 40
1.0
 40
1.0
 10
409.2603718932
 20
229.1007801926
 30
0.0
 10
409.2628415956
 20
229.1006437303
 30
0.0
 10
409.274266678
 20
229.1004311554
 30
0.0
 10
409.2856579731
 20
229.1020993982
 30
0.0
 10
409.2944220407
 20
229.1038759661
 30
0.0
  0
SPLINE
  5
2B3
100
AcDbEntity
  8
0
100
AcDbSpline
 62
7
  6
CONTINUOUS
 70
0
 71
3
 72
8
 73
4
 74
0
 42
0.0000001
 43
0.0000001
 44
0.0000000001
 40
0.0
 40
0.0
 40
0.0
 40
0.0
 40
1.0
 40
1.0
 40
1.0
 40
1.0
 10
412.7211842044
 20
229.4309152636
 30
0.0
 10
412.7402793254
 20
229.4285955124
 30
0.0
 10
412.7604959114
 20
229.4316681243
 30
0.0
 10
412.7783437858
 20
229.4388415662
 30
0.0
  0
SPLINE
  5
2B4
100
AcDbEntity
  8
0
100
AcDbSpline
 62
7
  6
CONTINUOUS
 70
0
 71
3
 72
10
 73
6
 74
0
 42
0.0000001
 43
0.0000001
 44
0.0000000001
 40
0.0
 40
0.0
 40
0.0
 40
0.0
 40
0.2084080207
 40
0.4486733961
 40
1.0
 40
1.0
 40
1.0
 40
1.0
 10
412.729267369
 20
229.4443516235
 30
0.0
 10
412.5579788703
 20
229.4633653815
 30
0.0
 10
412.1882688932
 20
229.497865665
 30
0.0
 10
411.3608254179
 20
229.5096469555
 30
0.0
 10
410.7058307304
 20
229.4407214117
 30
0.0
 10
410.2580504055
 20
229.3549920947
 30
0.0
  0
SPLINE
  5
2B5
100
AcDbEntity
  8
0
100
AcDbSpline
 62
7
  6
CONTINUOUS
 70
0
 71
3
 72
10
 73
6
 74
0
 42
0.0000001
 43
0.0000001
 44
0.0000000001
 40
0.0
 40
0.0
 40
0.0
 40
0.0
 40
0.6526801362
 40
0.8674921675
 40
1.0
 40
1.0
 40
1.0
 40
1.0
 10
410.234124339
 20
229.3503752427
 30
0.0
 10
410.0259279506
 20
229.309886595
 30
0.0
 10
409.7513132739
 20
229.2447294571
 30
0.0
 10
409.4386780049
 20
229.1559872476
 30
0.0
 10
409.331032513
 20
229.1220341805
 30
0.0
 10
409.2898853952
 20
229.1093420762
 30
0.0
  0
LINE
  5
2B6
100
AcDbEntity
  8
0
100
AcDbLine
 62
7
  6
CONTINUOUS
 10
409.2898853952
 20
229.1093420762
 11
409.2658962837
 21
229.102120997
  0
SPLINE
  5
2B7
100
AcDbEntity
  8
0
100
AcDbSpline
 62
7
  6
CONTINUOUS
 70
0
 71
3
 72
15
 73
11
 74
0
 42
0.0000001
 43
0.0000001
 44
0.0000000001
 40
0.0
 40
0.0
 40
0.0
 40
0.0
 40
0.2070581756
 40
0.3920123269
 40
0.5518542533
 40
0.6859433666
 40
0.7946954602
 40
0.8801491571
 40
0.9461473517
 40
1.0
 40
1.0
 40
1.0
 40
1.0
 10
415.477835037
 20
235.0894992107
 30
0.0
 10
415.4924455962
 20
234.9235885208
 30
0.0
 10
415.5289650382
 20
234.6101573259
 30
0.0
 10
415.6080131935
 20
234.1730266646
 30
0.0
 10
415.7043509313
 20
233.799626599
 30
0.0
 10
415.8131198607
 20
233.4939765723
 30
0.0
 10
415.9302231018
 20
233.2563446215
 30
0.0
 10
416.0531576279
 20
233.0854093308
 30
0.0
 10
416.1817324377
 20
232.9773685436
 30
0.0
 10
416.2786261415
 20
232.9498996002
 30
0.0
 10
416.3219439566
 20
232.9498987794
 30
0.0
  0
SPLINE
  5
2B8
100
AcDbEntity
  8
0
100
AcDbSpline
 62
7
  6
CONTINUOUS
 70
0
 71
3
 72
9
 73
5
 74
0
 42
0.0000001
 43
0.0000001
 44
0.0000000001
 40
0.0
 40
0.0
 40
0.0
 40
0.0
 40
0.5834956017
 40
1.0
 40
1.0
 40
1.0
 40
1.0
 10
413.6355090393
 20
229.2958315256
 30
0.0
 10
413.7067680727
 20
229.2762526164
 30
0.0
 10
413.8298919249
 20
229.2463822723
 30
0.0
 10
413.9511724646
 20
229.209750762
 30
0.0
 10
414.0015025265
 20
229.1939556717
 30
0.0
  0
SPLINE
  5
2B9
100
AcDbEntity
  8
0
100
AcDbSpline
 62
7
  6
CONTINUOUS
 70
0
 71
3
 72
8
 73
4
 74
0
 42
0.0000001
 43
0.0000001
 44
0.0000000001
 40
0.0
 40
0.0
 40
0.0
 40
0.0
 40
1.0
 40
1.0
 40
1.0
 40
1.0
 10
413.6355091458
 20
229.2958315654
 30
0.0
 10
413.6019170081
 20
229.284580551
 30
0.0
 10
413.5639424213
 20
229.2826015763
 30
0.0
 10
413.5293723198
 20
229.2903427086
 30
0.0
  0
SPLINE
  5
2BA
100
AcDbEntity
  8
0
100
AcDbSpline
 62
7
  6
CONTINUOUS
 70
0
 71
3
 72
11
 73
7
 74
0
 42
0.0000001
 43
0.0000001
 44
0.0000000001
 40
0.0
 40
0.0
 40
0.0
 40
0.0
 40
0.2458414597
 40
0.5023773188
 40
0.7577177802
 40
1.0
 40
1.0
 40
1.0
 40
1.0
 10
413.6355167145
 20
229.2958071739
 30
0.0
 10
414.0083603092
 20
229.4224352261
 30
0.0
 10
414.7352233126
 20
229.8001425562
 30
0.0
 10
415.6048874412
 20
230.6741033094
 30
0.0
 10
416.1656071202
 20
231.7648858814
 30
0.0
 10
416.3086167556
 20
232.5620696757
 30
0.0
 10
416.3219464025
 20
232.9498999921
 30
0.0
  0
SPLINE
  5
2BB
100
AcDbEntity
  8
0
100
AcDbSpline
 62
7
  6
CONTINUOUS
 70
0
 71
3
 72
13
 73
9
 74
0
 42
0.0000001
 43
0.0000001
 44
0.0000000001
 40
0.0
 40
0.0
 40
0.0
 40
0.0
 40
0.2580813403
 40
0.5088019697
 40
0.6323863914
 40
0.7550039484
 40
0.8775044854
 40
1.0
 40
1.0
 40
1.0
 40
1.0
 10
415.0013164479
 20
235.0894980937
 30
0.0
 10
414.9344756229
 20
234.8881896974
 30
0.0
 10
414.7743349297
 20
234.4984959993
 30
0.0
 10
414.456253562
 20
234.0777201768
 30
0.0
 10
414.1418296112
 20
233.8146868862
 30
0.0
 10
413.8790336522
 20
233.6606914659
 30
0.0
 10
413.5950233378
 20
233.5539991452
 30
0.0
 10
413.3957063142
 20
233.5160502372
 30
0.0
 10
413.2953177386
 20
233.5084206972
 30
0.0
  0
SPLINE
  5
2BC
100
AcDbEntity
  8
0
100
AcDbSpline
 62
7
  6
CONTINUOUS
 70
0
 71
3
 72
12
 73
8
 74
0
 42
0.0000001
 43
0.0000001
 44
0.0000000001
 40
0.0
 40
0.0
 40
0.0
 40
0.0
 40
0.1938307039
 40
0.3579347685
 40
0.6326986516
 40
0.8498011439
 40
1.0
 40
1.0
 40
1.0
 40
1.0
 10
412.7783460019
 20
229.4388287532
 30
0.0
 10
412.8278978161
 20
229.4366654322
 30
0.0
 10
412.9187444156
 20
229.4232897931
 30
0.0
 10
413.0788862211
 20
229.4000409869
 30
0.0
 10
413.2441874049
 20
229.37074769
 30
0.0
 10
413.4069951918
 20
229.3476832497
 30
0.0
 10
413.4984289055
 20
229.3256227874
 30
0.0
 10
413.535911638
 20
229.3171241152
 30
0.0
  0
SPLINE
  5
2BD
100
AcDbEntity
  8
0
100
AcDbSpline
 62
7
  6
CONTINUOUS
 70
0
 71
3
 72
8
 73
4
 74
0
 42
0.0000001
 43
0.0000001
 44
0.0000000001
 40
0.0
 40
0.0
 40
0.0
 40
0.0
 40
1.0
 40
1.0
 40
1.0
 40
1.0
 10
413.5739837468
 20
229.3076401753
 30
0.0
 10
413.58450076
 20
229.3050851251
 30
0.0
 10
413.5950461091
 20
229.3026243242
 30
0.0
 10
413.6056645161
 20
229.3005302179
 30
0.0
  0
SPLINE
  5
2BE
100
AcDbEntity
  8
0
100
AcDbSpline
 62
7
  6
CONTINUOUS
 70
0
 71
3
 72
8
 73
4
 74
0
 42
0.0000001
 43
0.0000001
 44
0.0000000001
 40
0.0
 40
0.0
 40
0.0
 40
0.0
 40
1.0
 40
1.0
 40
1.0
 40
1.0
 10
413.6056645161
 20
229.3005302179
 30
0.0
 10
413.6155486646
 20
229.2985809183
 30
0.0
 10
413.6255075584
 20
229.2969523404
 30
0.0
 10
413.635516795
 20
229.2958072012
 30
0.0
  0
LINE
  5
2BF
100
AcDbEntity
  8
0
100
AcDbLine
 62
7
  6
CONTINUOUS
 10
404.4169291644
 20
229.1504995184
 11
404.3005129203
 21
229.1132680483
  0
SPLINE
  5
2C0
100
AcDbEntity
  8
0
100
AcDbSpline
 62
7
  6
CONTINUOUS
 70
0
 71
3
 72
9
 73
5
 74
0
 42
0.0000001
 43
0.0000001
 44
0.0000000001
 40
0.0
 40
0.0
 40
0.0
 40
0.0
 40
0.2730734834
 40
1.0
 40
1.0
 40
1.0
 40
1.0
 10
404.3005129203
 20
229.1132680483
 30
0.0
 10
404.2966495372
 20
229.1120587057
 30
0.0
 10
404.2824887276
 20
229.1076728478
 30
0.0
 10
404.2682670543
 20
229.1034758756
 30
0.0
 10
404.2578684514
 20
229.1006471516
 30
0.0
  0
SPLINE
  5
2C1
100
AcDbEntity
  8
0
100
AcDbSpline
 62
7
  6
CONTINUOUS
 70
0
 71
3
 72
10
 73
6
 74
0
 42
0.0000001
 43
0.0000001
 44
0.0000000001
 40
0.0
 40
0.0
 40
0.0
 40
0.0
 40
0.541087331
 40
0.8139815849
 40
1.0
 40
1.0
 40
1.0
 40
1.0
 10
407.8929558695
 20
229.4214957792
 30
0.0
 10
407.2663437927
 20
229.5104873417
 30
0.0
 10
406.3026043309
 20
229.5309009864
 30
0.0
 10
405.1454312561
 20
229.3486527639
 30
0.0
 10
404.6250147214
 20
229.2140798286
 30
0.0
 10
404.4169291644
 20
229.1504995184
 30
0.0
  0
SPLINE
  5
2C2
100
AcDbEntity
  8
0
100
AcDbSpline
 62
7
  6
CONTINUOUS
 70
0
 71
3
 72
9
 73
5
 74
0
 42
0.0000001
 43
0.0000001
 44
0.0000000001
 40
0.0
 40
0.0
 40
0.0
 40
0.0
 40
0.4721190567
 40
1.0
 40
1.0
 40
1.0
 40
1.0
 10
408.3314707607
 20
229.3472152961
 30
0.0
 10
408.2628079336
 20
229.360897367
 30
0.0
 10
408.11769055
 20
229.3918642968
 30
0.0
 10
407.9704804783
 20
229.4106332482
 30
0.0
 10
407.8929558695
 20
229.4214957792
 30
0.0
  0
SPLINE
  5
2C3
100
AcDbEntity
  8
0
100
AcDbSpline
 62
7
  6
CONTINUOUS
 70
0
 71
3
 72
9
 73
5
 74
0
 42
0.0000001
 43
0.0000001
 44
0.0000000001
 40
0.0
 40
0.0
 40
0.0
 40
0.0
 40
0.2322401279
 40
1.0
 40
1.0
 40
1.0
 40
1.0
 10
408.7579681844
 20
229.2489778717
 30
0.0
 10
408.7250345758
 20
229.2569361799
 30
0.0
 10
408.5831629471
 20
229.2909364665
 30
0.0
 10
408.4409740698
 20
229.3236583292
 30
0.0
 10
408.3314707607
 20
229.3472152961
 30
0.0
  0
SPLINE
  5
2C4
100
AcDbEntity
  8
0
100
AcDbSpline
 62
7
  6
CONTINUOUS
 70
0
 71
3
 72
9
 73
5
 74
0
 42
0.0000001
 43
0.0000001
 44
0.0000000001
 40
0.0
 40
0.0
 40
0.0
 40
0.0
 40
0.2246164636
 40
1.0
 40
1.0
 40
1.0
 40
1.0
 10
408.9720248163
 20
229.1919539158
 30
0.0
 10
408.956123338
 20
229.1966727595
 30
0.0
 10
408.8851737887
 20
229.2171582275
 30
0.0
 10
408.8136138049
 20
229.2354835924
 30
0.0
 10
408.7579681844
 20
229.2489778717
 30
0.0
  0
SPLINE
  5
2C5
100
AcDbEntity
  8
0
100
AcDbSpline
 62
7
  6
CONTINUOUS
 70
0
 71
3
 72
9
 73
5
 74
0
 42
0.0000001
 43
0.0000001
 44
0.0000000001
 40
0.0
 40
0.0
 40
0.0
 40
0.0
 40
0.224687603
 40
1.0
 40
1.0
 40
1.0
 40
1.0
 10
409.2603789522
 20
229.1005384151
 30
0.0
 10
409.2560907271
 20
229.1016792924
 30
0.0
 10
409.237053254
 20
229.1069369198
 30
0.0
 10
409.218174627
 20
229.1127517392
 30
0.0
 10
409.2035772235
 20
229.1173741259
 30
0.0
  0
SPLINE
  5
2C6
100
AcDbEntity
  8
0
100
AcDbSpline
 62
7
  6
CONTINUOUS
 70
0
 71
3
 72
9
 73
5
 74
0
 42
0.0000001
 43
0.0000001
 44
0.0000000001
 40
0.0
 40
0.0
 40
0.0
 40
0.0
 40
0.2295793194
 40
1.0
 40
1.0
 40
1.0
 40
1.0
 10
409.2035772235
 20
229.1173741259
 30
0.0
 10
409.198289269
 20
229.1190485998
 30
0.0
 10
409.1752802181
 20
229.1264186988
 30
0.0
 10
409.1523406355
 20
229.1340031472
 30
0.0
 10
409.1346721309
 20
229.1398592729
 30
0.0
  0
LINE
  5
2C7
100
AcDbEntity
  8
0
100
AcDbLine
 62
7
  6
CONTINUOUS
 10
409.1346721309
 20
229.1398592729
 11
409.0556561037
 21
229.1659022476
  0
SPLINE
  5
2C8
100
AcDbEntity
  8
0
100
AcDbSpline
 62
7
  6
CONTINUOUS
 70
0
 71
3
 72
13
 73
9
 74
0
 42
0.0000001
 43
0.0000001
 44
0.0000000001
 40
0.0
 40
0.0
 40
0.0
 40
0.0
 40
0.3399735922
 40
0.6246003093
 40
0.7432656555
 40
0.8453563944
 40
0.9308204452
 40
1.0
 40
1.0
 40
1.0
 40
1.0
 10
390.2127471887
 20
233.5084308813
 30
0.0
 10
390.2333844931
 20
233.0421886225
 30
0.0
 10
390.2779225422
 20
232.1859129978
 30
0.0
 10
390.3628673669
 20
231.168646681
 30
0.0
 10
390.4552223164
 20
230.4809079821
 30
0.0
 10
390.5304154946
 20
230.0670651787
 30
0.0
 10
390.6166506637
 20
229.7250911299
 30
0.0
 10
390.6892754629
 20
229.5247683816
 30
0.0
 10
390.729693486
 20
229.4388325345
 30
0.0
  0
SPLINE
  5
2C9
100
AcDbEntity
  8
0
100
AcDbSpline
 62
7
  6
CONTINUOUS
 70
0
 71
3
 72
13
 73
9
 74
0
 42
0.0000001
 43
0.0000001
 44
0.0000000001
 40
0.0
 40
0.0
 40
0.0
 40
0.0
 40
0.0691823748
 40
0.1546491362
 40
0.2567401167
 40
0.3754049118
 40
0.6600298206
 40
1.0
 40
1.0
 40
1.0
 40
1.0
 10
412.7783437609
 20
229.4388417104
 30
0.0
 10
412.8187631641
 20
229.5247812591
 30
0.0
 10
412.8914102082
 20
229.7251030461
 30
0.0
 10
412.9776724393
 20
230.0670799685
 30
0.0
 10
413.0528609539
 20
230.4809274836
 30
0.0
 10
413.1452097967
 20
231.1686643587
 30
0.0
 10
413.2301590574
 20
232.1859231332
 30
0.0
 10
413.2746828226
 20
233.0421929839
 30
0.0
 10
413.2953200403
 20
233.5084308813
 30
0.0
  0
LINE
  5
2CA
100
AcDbEntity
  8
0
100
AcDbLine
 62
7
  6
CONTINUOUS
 10
394.2496832628
 20
229.1000160153
 11
394.2477085206
 21
229.1006237248
  0
SPLINE
  5
2CB
100
AcDbEntity
  8
0
100
AcDbSpline
 62
7
  6
CONTINUOUS
 70
0
 71
3
 72
10
 73
6
 74
0
 42
0.0000001
 43
0.0000001
 44
0.0000000001
 40
0.0
 40
0.0
 40
0.0
 40
0.0
 40
0.1751291739
 40
0.4732791165
 40
1.0
 40
1.0
 40
1.0
 40
1.0
 10
394.1967797884
 20
229.1163754821
 30
0.0
 10
394.0043230473
 20
229.1758103154
 30
0.0
 10
393.4794773607
 20
229.322006802
 30
0.0
 10
392.3439598541
 20
229.5192910102
 30
0.0
 10
391.3847585769
 20
229.5165414065
 30
0.0
 10
390.7831478198
 20
229.4453436947
 30
0.0
  0
SPLINE
  5
2CC
100
AcDbEntity
  8
0
100
AcDbSpline
 62
7
  6
CONTINUOUS
 70
0
 71
3
 72
8
 73
4
 74
0
 42
0.0000001
 43
0.0000001
 44
0.0000000001
 40
0.0
 40
0.0
 40
0.0
 40
0.0
 40
1.0
 40
1.0
 40
1.0
 40
1.0
 10
390.729693432
 20
229.4388322227
 30
0.0
 10
390.747556019
 20
229.4316630634
 30
0.0
 10
390.7677839074
 20
229.4285946607
 30
0.0
 10
390.7868909544
 20
229.430916215
 30
0.0
  0
SPLINE
  5
2CD
100
AcDbEntity
  8
0
100
AcDbSpline
 62
7
  6
CONTINUOUS
 70
0
 71
3
 72
11
 73
7
 74
0
 42
0.0000001
 43
0.0000001
 44
0.0000000001
 40
0.0
 40
0.0
 40
0.0
 40
0.0
 40
0.2330730645
 40
0.5573680231
 40
0.8288871141
 40
1.0
 40
1.0
 40
1.0
 40
1.0
 10
399.1154287162
 20
229.1431185934
 30
0.0
 10
398.7620366606
 20
229.2511573501
 30
0.0
 10
397.8988906356
 20
229.4536820083
 30
0.0
 10
396.5790500788
 20
229.5410148724
 30
0.0
 10
395.3653346293
 20
229.4060956509
 30
0.0
 10
394.682758212
 20
229.2368574575
 30
0.0
 10
394.4235519982
 20
229.1567587691
 30
0.0
  0
LINE
  5
2CE
100
AcDbEntity
  8
0
100
AcDbLine
 62
7
  6
CONTINUOUS
 10
394.2942311828
 20
229.1152457123
 11
394.2510246783
 21
229.1004869434
  0
LINE
  5
2CF
100
AcDbEntity
  8
0
100
AcDbLine
 62
7
  6
CONTINUOUS
 10
394.2510246783
 20
229.1004869434
 11
394.2496832628
 21
229.1000160153
  0
SPLINE
  5
2D0
100
AcDbEntity
  8
0
100
AcDbSpline
 62
7
  6
CONTINUOUS
 70
0
 71
3
 72
11
 73
7
 74
0
 42
0.0000001
 43
0.0000001
 44
0.0000000001
 40
0.0
 40
0.0
 40
0.0
 40
0.0
 40
0.1796237687
 40
0.4998635057
 40
0.8201597846
 40
1.0
 40
1.0
 40
1.0
 40
1.0
 10
404.2255868122
 20
229.1099737445
 30
0.0
 10
403.9402143626
 20
229.2040083451
 30
0.0
 10
403.1293146489
 20
229.4156891774
 30
0.0
 10
401.7549182815
 20
229.555054036
 30
0.0
 10
400.3801087172
 20
229.4159274267
 30
0.0
 10
399.5687703149
 20
229.2041497594
 30
0.0
 10
399.283015545
 20
229.1101186029
 30
0.0
  0
SPLINE
  5
2D1
100
AcDbEntity
  8
0
100
AcDbSpline
 62
7
  6
CONTINUOUS
 70
0
 71
3
 72
11
 73
7
 74
0
 42
0.0000001
 43
0.0000001
 44
0.0000000001
 40
0.0
 40
0.0
 40
0.0
 40
0.0
 40
0.2305685044
 40
0.4666363369
 40
0.7214090069
 40
1.0
 40
1.0
 40
1.0
 40
1.0
 10
413.3749688744
 20
234.2509013427
 30
0.0
 10
413.4744829266
 20
234.2509287247
 30
0.0
 10
413.6788776054
 20
234.2902826092
 30
0.0
 10
413.9393879091
 20
234.4756268886
 30
0.0
 10
414.1273552261
 20
234.7555835878
 30
0.0
 10
414.2057521676
 20
234.973689785
 30
0.0
 10
414.2380965526
 20
235.0894985414
 30
0.0
  0
SPLINE
  5
2D2
100
AcDbEntity
  8
0
100
AcDbSpline
 62
7
  6
CONTINUOUS
 70
0
 71
3
 72
11
 73
7
 74
0
 42
0.0000001
 43
0.0000001
 44
0.0000000001
 40
0.0
 40
0.0
 40
0.0
 40
0.0
 40
0.2785908891
 40
0.5333637018
 40
0.7694316758
 40
1.0
 40
1.0
 40
1.0
 40
1.0
 10
389.2699796484
 20
235.0894984319
 30
0.0
 10
389.30232376
 20
234.9736906451
 30
0.0
 10
389.380720032
 20
234.7555861881
 30
0.0
 10
389.5686848352
 20
234.4756311503
 30
0.0
 10
389.8291912784
 20
234.290286155
 30
0.0
 10
390.0335837363
 20
234.2509299861
 30
0.0
 10
390.1330969137
 20
234.2509013583
 30
0.0
  0
SPLINE
  5
2D3
100
AcDbEntity
  8
0
100
AcDbSpline
 62
7
  6
CONTINUOUS
 70
0
 71
3
 72
15
 73
11
 74
0
 42
0.0000001
 43
0.0000001
 44
0.0000000001
 40
0.0
 40
0.0
 40
0.0
 40
0.0
 40
0.0538526437
 40
0.1198508209
 40
0.2053044996
 40
0.3140565805
 40
0.4481456904
 40
0.6079876242
 40
0.7929417944
 40
1.0
 40
1.0
 40
1.0
 40
1.0
 10
387.1861318703
 20
232.9498987841
 30
0.0
 10
387.2294496863
 20
232.9498995565
 30
0.0
 10
387.326343417
 20
232.9773684008
 30
0.0
 10
387.4549182774
 20
233.0854091159
 30
0.0
 10
387.5778528414
 20
233.2563443599
 30
0.0
 10
387.6949561196
 20
233.4939762939
 30
0.0
 10
387.8037250852
 20
233.7996263367
 30
0.0
 10
387.9000628568
 20
234.1730264546
 30
0.0
 10
387.9791110397
 20
234.6101572044
 30
0.0
 10
388.0156304927
 20
234.923588471
 30
0.0
 10
388.0302410556
 20
235.0894992022
 30
0.0
  0
SPLINE
  5
2D4
100
AcDbEntity
  8
0
100
AcDbSpline
 62
7
  6
CONTINUOUS
 70
0
 71
3
 72
13
 73
9
 74
0
 42
0.0000001
 43
0.0000001
 44
0.0000000001
 40
0.0
 40
0.0
 40
0.0
 40
0.0
 40
0.384938141
 40
0.7040148195
 40
0.8253802357
 40
0.9161052585
 40
0.9736669852
 40
1.0
 40
1.0
 40
1.0
 40
1.0
 10
58.3904250202
 20
259.7168750964
 30
0.0
 10
58.3749300056
 20
259.6995206191
 30
0.0
 10
58.346123051
 20
259.6682664307
 30
0.0
 10
58.3107357792
 20
259.6328345334
 30
0.0
 10
58.287112506
 20
259.6114445903
 30
0.0
 10
58.2739428718
 20
259.6010748948
 30
0.0
 10
58.2659473297
 20
259.5956130127
 30
0.0
 10
58.2599194151
 20
259.5935932579
 30
0.0
 10
58.2587216581
 20
259.5946412953
 30
0.0
  0
SPLINE
  5
2D5
100
AcDbEntity
  8
0
100
AcDbSpline
 62
7
  6
CONTINUOUS
 70
0
 71
3
 72
12
 73
8
 74
0
 42
0.0000001
 43
0.0000001
 44
0.0000000001
 40
0.0
 40
0.0
 40
0.0
 40
0.0
 40
0.0321341104
 40
0.0925849467
 40
0.3069191049
 40
0.6240065741
 40
1.0
 40
1.0
 40
1.0
 40
1.0
 10
65.660759942
 20
259.2448504591
 30
0.0
 10
65.6601795726
 20
259.2428191662
 30
0.0
 10
65.6538072902
 20
259.2395295922
 30
0.0
 10
65.6342909671
 20
259.2382855769
 30
0.0
 10
65.5947890682
 20
259.2422258397
 30
0.0
 10
65.5365521672
 20
259.25364556
 30
0.0
 10
65.4922587023
 20
259.2648454223
 30
0.0
 10
65.4684554407
 20
259.2715103327
 30
0.0
  0
SPLINE
  5
2D6
100
AcDbEntity
  8
0
100
AcDbSpline
 62
7
  6
CONTINUOUS
 70
0
 71
3
 72
9
 73
5
 74
0
 42
0.0000001
 43
0.0000001
 44
0.0000000001
 40
0.0
 40
0.0
 40
0.0
 40
0.0
 40
0.2136114236
 40
1.0
 40
1.0
 40
1.0
 40
1.0
 10
449.6625301728
 20
255.0894979589
 30
0.0
 10
449.6877134572
 20
255.089502998
 30
0.0
 10
449.8061557485
 20
255.069920968
 30
0.0
 10
449.9004221025
 20
254.9832447492
 30
0.0
 10
449.9612808979
 20
254.9133069733
 30
0.0
  0
SPLINE
  5
2D7
100
AcDbEntity
  8
0
100
AcDbSpline
 62
7
  6
CONTINUOUS
 70
0
 71
3
 72
9
 73
5
 74
0
 42
0.0000001
 43
0.0000001
 44
0.0000000001
 40
0.0
 40
0.0
 40
0.0
 40
0.0
 40
0.213268501
 40
1.0
 40
1.0
 40
1.0
 40
1.0
 10
449.9612808979
 20
254.9133069733
 30
0.0
 10
449.9884330985
 20
254.8821041783
 30
0.0
 10
450.1066533761
 20
254.7279132211
 30
0.0
 10
450.199002164
 20
254.5559683663
 30
0.0
 10
450.2671503915
 20
254.4194493576
 30
0.0
  0
SPLINE
  5
2D8
100
AcDbEntity
  8
0
100
AcDbSpline
 62
7
  6
CONTINUOUS
 70
0
 71
3
 72
8
 73
4
 74
0
 42
0.0000001
 43
0.0000001
 44
0.0000000001
 40
0.0
 40
0.0
 40
0.0
 40
0.0
 40
1.0
 40
1.0
 40
1.0
 40
1.0
 10
450.3245008586
 20
254.3014553649
 30
0.0
 10
450.3909871931
 20
254.161327341
 30
0.0
 10
450.4535491456
 20
254.0193548903
 30
0.0
 10
450.5157047155
 20
253.8772528815
 30
0.0
  0
LINE
  5
2D9
100
AcDbEntity
  8
0
100
AcDbLine
 62
7
  6
CONTINUOUS
 10
450.5157047155
 20
253.8772528815
 11
450.5540380467
 21
253.7894980732
  0
SPLINE
  5
2DA
100
AcDbEntity
  8
0
100
AcDbSpline
 62
7
  6
CONTINUOUS
 70
0
 71
3
 72
8
 73
4
 74
0
 42
0.0000001
 43
0.0000001
 44
0.0000000001
 40
0.0
 40
0.0
 40
0.0
 40
0.0
 40
1.0
 40
1.0
 40
1.0
 40
1.0
 10
65.6731518641
 20
235.6682115316
 30
0.0
 10
65.770189423
 20
235.5683811133
 30
0.0
 10
65.8733300715
 20
235.4736743376
 30
0.0
 10
65.9842517874
 20
235.3895388921
 30
0.0
  0
SPLINE
  5
2DB
100
AcDbEntity
  8
0
100
AcDbSpline
 62
7
  6
CONTINUOUS
 70
0
 71
3
 72
9
 73
5
 74
0
 42
0.0000001
 43
0.0000001
 44
0.0000000001
 40
0.0
 40
0.0
 40
0.0
 40
0.0
 40
0.2779771858
 40
1.0
 40
1.0
 40
1.0
 40
1.0
 10
65.9842517874
 20
235.3895388921
 30
0.0
 10
66.0464440693
 20
235.3423653039
 30
0.0
 10
66.2776542416
 20
235.1844248634
 30
0.0
 10
66.5602420258
 20
235.0894980732
 30
0.0
 10
66.7629941711
 20
235.0894980732
 30
0.0
  0
SPLINE
  5
2DC
100
AcDbEntity
  8
0
100
AcDbSpline
 62
7
  6
CONTINUOUS
 70
0
 71
3
 72
8
 73
4
 74
0
 42
0.0000001
 43
0.0000001
 44
0.0000000001
 40
0.0
 40
0.0
 40
0.0
 40
0.0
 40
1.0
 40
1.0
 40
1.0
 40
1.0
 10
63.2761005799
 20
238.2894980732
 30
0.0
 10
63.539624123
 20
237.9517972412
 30
0.0
 10
63.8030524797
 20
237.6139032366
 30
0.0
 10
64.0750670365
 20
237.2830035681
 30
0.0
  0
SPLINE
  5
2DD
100
AcDbEntity
  8
0
100
AcDbSpline
 62
7
  6
CONTINUOUS
 70
0
 71
3
 72
9
 73
5
 74
0
 42
0.0000001
 43
0.0000001
 44
0.0000000001
 40
0.0
 40
0.0
 40
0.0
 40
0.0
 40
0.2624608538
 40
1.0
 40
1.0
 40
1.0
 40
1.0
 10
64.0750670365
 20
237.2830035681
 30
0.0
 10
64.1637826851
 20
237.1750829515
 30
0.0
 10
64.5053630622
 20
236.7670278306
 30
0.0
 10
64.8658640496
 20
236.3733743584
 30
0.0
 10
65.1524579017
 20
236.1050745043
 30
0.0
  0
SPLINE
  5
2DE
100
AcDbEntity
  8
0
100
AcDbSpline
 62
7
  6
CONTINUOUS
 70
0
 71
3
 72
8
 73
4
 74
0
 42
0.0000001
 43
0.0000001
 44
0.0000000001
 40
0.0
 40
0.0
 40
0.0
 40
0.0
 40
1.0
 40
1.0
 40
1.0
 40
1.0
 10
65.2566322941
 20
236.0094642548
 30
0.0
 10
65.3901004871
 20
235.889455854
 30
0.0
 10
65.5285291997
 20
235.7745132707
 30
0.0
 10
65.6731518641
 20
235.6682115316
 30
0.0
  0
SPLINE
  5
2DF
100
AcDbEntity
  8
0
100
AcDbSpline
 62
7
  6
CONTINUOUS
 70
0
 71
3
 72
9
 73
5
 74
0
 42
0.0000001
 43
0.0000001
 44
0.0000000001
 40
0.0
 40
0.0
 40
0.0
 40
0.0
 40
0.2403804548
 40
1.0
 40
1.0
 40
1.0
 40
1.0
 10
441.8349242292
 20
235.6682115316
 30
0.0
 10
441.8788215204
 20
235.7004772792
 30
0.0
 10
442.0589856572
 20
235.8380395178
 30
0.0
 10
442.2299374145
 20
235.9874162533
 30
0.0
 10
442.3556181748
 20
236.1050745023
 30
0.0
  0
SPLINE
  5
2E0
100
AcDbEntity
  8
0
100
AcDbSpline
 62
7
  6
CONTINUOUS
 70
0
 71
3
 72
9
 73
5
 74
0
 42
0.0000001
 43
0.0000001
 44
0.0000000001
 40
0.0
 40
0.0
 40
0.0
 40
0.0
 40
0.2408949704
 40
1.0
 40
1.0
 40
1.0
 40
1.0
 10
442.633887748
 20
236.3785464178
 30
0.0
 10
442.7014900595
 20
236.4480122162
 30
0.0
 10
442.977711901
 20
236.74067646
 30
0.0
 10
443.2390430716
 20
237.0470482294
 30
0.0
 10
443.4330091447
 20
237.2830036483
 30
0.0
  0
SPLINE
  5
2E1
100
AcDbEntity
  8
0
100
AcDbSpline
 62
7
  6
CONTINUOUS
 70
0
 71
3
 72
8
 73
4
 74
0
 42
0.0000001
 43
0.0000001
 44
0.0000000001
 40
0.0
 40
0.0
 40
0.0
 40
0.0
 40
1.0
 40
1.0
 40
1.0
 40
1.0
 10
443.4330091447
 20
237.2830036483
 30
0.0
 10
443.7050236782
 20
237.6139032853
 30
0.0
 10
443.9684519944
 20
237.9517972721
 30
0.0
 10
444.2319755135
 20
238.2894980732
 30
0.0
  0
SPLINE
  5
2E2
100
AcDbEntity
  8
0
100
AcDbSpline
 62
7
  6
CONTINUOUS
 70
0
 71
3
 72
9
 73
5
 74
0
 42
0.0000001
 43
0.0000001
 44
0.0000000001
 40
0.0
 40
0.0
 40
0.0
 40
0.0
 40
0.2317565907
 40
1.0
 40
1.0
 40
1.0
 40
1.0
 10
440.7450819223
 20
235.0894980732
 30
0.0
 10
440.8102628823
 20
235.0894980732
 30
0.0
 10
441.0920776604
 20
235.1174379105
 30
0.0
 10
441.3516769713
 20
235.2589630841
 30
0.0
 10
441.5238243059
 20
235.3895388921
 30
0.0
  0
SPLINE
  5
2E3
100
AcDbEntity
  8
0
100
AcDbSpline
 62
7
  6
CONTINUOUS
 70
0
 71
3
 72
8
 73
4
 74
0
 42
0.0000001
 43
0.0000001
 44
0.0000000001
 40
0.0
 40
0.0
 40
0.0
 40
0.0
 40
1.0
 40
1.0
 40
1.0
 40
1.0
 10
441.5238243059
 20
235.3895388921
 30
0.0
 10
441.6347460219
 20
235.4736743376
 30
0.0
 10
441.7378866704
 20
235.5683811133
 30
0.0
 10
441.8349242292
 20
235.6682115316
 30
0.0
  0
LINE
  5
2E4
100
AcDbEntity
  8
0
100
AcDbLine
 62
7
  6
CONTINUOUS
 10
56.9540380467
 20
253.7894980732
 11
56.9923699252
 21
253.8772495481
  0
SPLINE
  5
2E5
100
AcDbEntity
  8
0
100
AcDbSpline
 62
7
  6
CONTINUOUS
 70
0
 71
3
 72
8
 73
4
 74
0
 42
0.0000001
 43
0.0000001
 44
0.0000000001
 40
0.0
 40
0.0
 40
0.0
 40
0.0
 40
1.0
 40
1.0
 40
1.0
 40
1.0
 10
56.9923699252
 20
253.8772495481
 30
0.0
 10
57.0545226526
 20
254.0193450444
 30
0.0
 10
57.1170817491
 20
254.161310975
 30
0.0
 10
57.1835645649
 20
254.3014328034
 30
0.0
  0
SPLINE
  5
2E6
100
AcDbEntity
  8
0
100
AcDbSpline
 62
7
  6
CONTINUOUS
 70
0
 71
3
 72
9
 73
5
 74
0
 42
0.0000001
 43
0.0000001
 44
0.0000000001
 40
0.0
 40
0.0
 40
0.0
 40
0.0
 40
0.2881111975
 40
1.0
 40
1.0
 40
1.0
 40
1.0
 10
57.1835645649
 20
254.3014328034
 30
0.0
 10
57.2128791436
 20
254.3632173759
 30
0.0
 10
57.3178188184
 20
254.5755552619
 30
0.0
 10
57.435692878
 20
254.785542577
 30
0.0
 10
57.5465719256
 20
254.9130500821
 30
0.0
  0
SPLINE
  5
2E7
100
AcDbEntity
  8
0
100
AcDbSpline
 62
7
  6
CONTINUOUS
 70
0
 71
3
 72
8
 73
4
 74
0
 42
0.0000001
 43
0.0000001
 44
0.0000000001
 40
0.0
 40
0.0
 40
0.0
 40
0.0
 40
1.0
 40
1.0
 40
1.0
 40
1.0
 10
57.5465719256
 20
254.9130500821
 30
0.0
 10
57.5729378307
 20
254.9433700645
 30
0.0
 10
57.6011991657
 20
254.9722826657
 30
0.0
 10
57.6319614014
 20
254.998131208
 30
0.0
  0
SPLINE
  5
2E8
100
AcDbEntity
  8
0
100
AcDbSpline
 62
7
  6
CONTINUOUS
 70
0
 71
3
 72
9
 73
5
 74
0
 42
0.0000001
 43
0.0000001
 44
0.0000000001
 40
0.0
 40
0.0
 40
0.0
 40
0.0
 40
0.2829317489
 40
1.0
 40
1.0
 40
1.0
 40
1.0
 10
57.6319614014
 20
254.998131208
 30
0.0
 10
57.6489149521
 20
255.0123767452
 30
0.0
 10
57.7110149383
 20
255.0594459676
 30
0.0
 10
57.7894232687
 20
255.0895101889
 30
0.0
 10
57.8455455773
 20
255.0894979255
 30
0.0
  0
SPLINE
  5
2E9
100
AcDbEntity
  8
0
100
AcDbSpline
 62
7
  6
CONTINUOUS
 70
0
 71
3
 72
8
 73
4
 74
0
 42
0.0000001
 43
0.0000001
 44
0.0000000001
 40
0.0
 40
0.0
 40
0.0
 40
0.0
 40
1.0
 40
1.0
 40
1.0
 40
1.0
 10
56.9540380467
 20
243.7573880171
 30
0.0
 10
56.9596988503
 20
243.5295107439
 30
0.0
 10
56.9949170345
 20
243.3170200691
 30
0.0
 10
57.0596925992
 20
243.1199159927
 30
0.0
  0
SPLINE
  5
2EA
100
AcDbEntity
  8
0
100
AcDbSpline
 62
7
  6
CONTINUOUS
 70
0
 71
3
 72
8
 73
4
 74
0
 42
0.0000001
 43
0.0000001
 44
0.0000000001
 40
0.0
 40
0.0
 40
0.0
 40
0.0
 40
1.0
 40
1.0
 40
1.0
 40
1.0
 10
57.3452996239
 20
242.5712700031
 30
0.0
 10
57.4696040934
 20
242.4051547132
 30
0.0
 10
57.6234659434
 20
242.2544260216
 30
0.0
 10
57.806885174
 20
242.1190839285
 30
0.0
  0
SPLINE
  5
2EB
100
AcDbEntity
  8
0
100
AcDbSpline
 62
7
  6
CONTINUOUS
 70
0
 71
3
 72
8
 73
4
 74
0
 42
0.0000001
 43
0.0000001
 44
0.0000000001
 40
0.0
 40
0.0
 40
0.0
 40
0.0
 40
1.0
 40
1.0
 40
1.0
 40
1.0
 10
449.7011909194
 20
242.1190839285
 30
0.0
 10
449.88461015
 20
242.2544260217
 30
0.0
 10
450.038472
 20
242.4051547132
 30
0.0
 10
450.1627764695
 20
242.5712700032
 30
0.0
  0
SPLINE
  5
2EC
100
AcDbEntity
  8
0
100
AcDbSpline
 62
7
  6
CONTINUOUS
 70
0
 71
3
 72
8
 73
4
 74
0
 42
0.0000001
 43
0.0000001
 44
0.0000000001
 40
0.0
 40
0.0
 40
0.0
 40
0.0
 40
1.0
 40
1.0
 40
1.0
 40
1.0
 10
450.4483834942
 20
243.1199159929
 30
0.0
 10
450.5131590589
 20
243.3170200693
 30
0.0
 10
450.5483772431
 20
243.529510744
 30
0.0
 10
450.5540380467
 20
243.7573880171
 30
0.0
  0
SPLINE
  5
2ED
100
AcDbEntity
  8
0
100
AcDbSpline
 62
7
  6
CONTINUOUS
 70
0
 71
3
 72
9
 73
5
 74
0
 42
0.0000001
 43
0.0000001
 44
0.0000000001
 40
0.0
 40
0.0
 40
0.0
 40
0.0
 40
0.2608063932
 40
1.0
 40
1.0
 40
1.0
 40
1.0
 10
433.5224282146
 20
259.5321852704
 30
0.0
 10
433.6070211866
 20
259.6264852471
 30
0.0
 10
433.9329208892
 20
259.9864153461
 30
0.0
 10
434.2717122694
 20
260.3365792178
 30
0.0
 10
434.5431114146
 20
260.5716545241
 30
0.0
  0
SPLINE
  5
2EE
100
AcDbEntity
  8
0
100
AcDbSpline
 62
7
  6
CONTINUOUS
 70
0
 71
3
 72
9
 73
5
 74
0
 42
0.0000001
 43
0.0000001
 44
0.0000000001
 40
0.0
 40
0.0
 40
0.0
 40
0.0
 40
0.2846498671
 40
1.0
 40
1.0
 40
1.0
 40
1.0
 10
434.5431114146
 20
260.5716545241
 30
0.0
 10
434.6685915719
 20
260.68034052
 30
0.0
 10
435.1198253144
 20
261.0427258797
 30
0.0
 10
435.6968702353
 20
261.2997946846
 30
0.0
 10
436.1140573241
 20
261.2997946846
 30
0.0
  0
SPLINE
  5
2EF
100
AcDbEntity
  8
0
100
AcDbSpline
 62
7
  6
CONTINUOUS
 70
0
 71
3
 72
9
 73
5
 74
0
 42
0.0000001
 43
0.0000001
 44
0.0000000001
 40
0.0
 40
0.0
 40
0.0
 40
0.0
 40
0.2250737804
 40
1.0
 40
1.0
 40
1.0
 40
1.0
 10
71.2616693077
 20
261.2997946846
 30
0.0
 10
71.3933301018
 20
261.2997946846
 30
0.0
 10
71.9804689815
 20
261.2232393276
 30
0.0
 10
72.4892369946
 20
260.8689808727
 30
0.0
 10
72.8319282257
 20
260.5722495495
 30
0.0
  0
SPLINE
  5
2F0
100
AcDbEntity
  8
0
100
AcDbSpline
 62
7
  6
CONTINUOUS
 70
0
 71
3
 72
9
 73
5
 74
0
 42
0.0000001
 43
0.0000001
 44
0.0000000001
 40
0.0
 40
0.0
 40
0.0
 40
0.0
 40
0.2370206935
 40
1.0
 40
1.0
 40
1.0
 40
1.0
 10
72.8319282257
 20
260.5722495495
 30
0.0
 10
72.9190307333
 20
260.4968287626
 30
0.0
 10
73.2768824827
 20
260.1674403592
 30
0.0
 10
73.6056042444
 20
259.8083018177
 30
0.0
 10
73.8532689546
 20
259.5322181531
 30
0.0
  0
SPLINE
  5
2F1
100
AcDbEntity
  8
0
100
AcDbSpline
 62
7
  6
CONTINUOUS
 70
0
 71
3
 72
9
 73
5
 74
0
 42
0.0000001
 43
0.0000001
 44
0.0000000001
 40
0.0
 40
0.0
 40
0.0
 40
0.0
 40
0.2133920439
 40
1.0
 40
1.0
 40
1.0
 40
1.0
 10
450.4878633159
 20
261.2997946846
 30
0.0
 10
450.538528969
 20
261.2997946846
 30
0.0
 10
450.7770619579
 20
261.3382402935
 30
0.0
 10
450.9683367735
 20
261.5114412027
 30
0.0
 10
451.0910674141
 20
261.6522178924
 30
0.0
  0
SPLINE
  5
2F2
100
AcDbEntity
  8
0
100
AcDbSpline
 62
7
  6
CONTINUOUS
 70
0
 71
3
 72
9
 73
5
 74
0
 42
0.0000001
 43
0.0000001
 44
0.0000000001
 40
0.0
 40
0.0
 40
0.0
 40
0.0
 40
0.2227669548
 40
1.0
 40
1.0
 40
1.0
 40
1.0
 10
451.0910674141
 20
261.6522178924
 30
0.0
 10
451.1255724992
 20
261.691796531
 30
0.0
 10
451.2734348898
 20
261.8756049902
 30
0.0
 10
451.3978464924
 20
262.0770893609
 30
0.0
 10
451.487690395
 20
262.2367456786
 30
0.0
  0
SPLINE
  5
2F3
100
AcDbEntity
  8
0
100
AcDbSpline
 62
7
  6
CONTINUOUS
 70
0
 71
3
 72
9
 73
5
 74
0
 42
0.0000001
 43
0.0000001
 44
0.0000000001
 40
0.0
 40
0.0
 40
0.0
 40
0.0
 40
0.2335691573
 40
1.0
 40
1.0
 40
1.0
 40
1.0
 10
451.487690395
 20
262.2367456786
 30
0.0
 10
451.5185141081
 20
262.2915206869
 30
0.0
 10
451.6467958905
 20
262.5281108867
 30
0.0
 10
451.7628800435
 20
262.7711268847
 30
0.0
 10
451.8481609336
 20
262.9589117081
 30
0.0
  0
SPLINE
  5
2F4
100
AcDbEntity
  8
0
100
AcDbSpline
 62
7
  6
CONTINUOUS
 70
0
 71
3
 72
9
 73
5
 74
0
 42
0.0000001
 43
0.0000001
 44
0.0000000001
 40
0.0
 40
0.0
 40
0.0
 40
0.0
 40
0.2381565478
 40
1.0
 40
1.0
 40
1.0
 40
1.0
 10
451.8481609336
 20
262.9589117081
 30
0.0
 10
451.9029310555
 20
263.0795131425
 30
0.0
 10
452.1261565883
 20
263.5889832254
 30
0.0
 10
452.3312169625
 20
264.1060994584
 30
0.0
 10
452.4878633159
 20
264.4997946846
 30
0.0
  0
SPLINE
  5
2F5
100
AcDbEntity
  8
0
100
AcDbSpline
 62
7
  6
CONTINUOUS
 70
0
 71
3
 72
9
 73
5
 74
0
 42
0.0000001
 43
0.0000001
 44
0.0000000001
 40
0.0
 40
0.0
 40
0.0
 40
0.0
 40
0.2578740625
 40
1.0
 40
1.0
 40
1.0
 40
1.0
 10
54.8878633158
 20
264.4997946846
 30
0.0
 10
54.9408702957
 20
264.3665736137
 30
0.0
 10
55.1465353036
 20
263.8500481102
 30
0.0
 10
55.3567764837
 20
263.3350116673
 30
0.0
 10
55.5273853356
 20
262.9593090705
 30
0.0
  0
SPLINE
  5
2F6
100
AcDbEntity
  8
0
100
AcDbSpline
 62
7
  6
CONTINUOUS
 70
0
 71
3
 72
9
 73
5
 74
0
 42
0.0000001
 43
0.0000001
 44
0.0000000001
 40
0.0
 40
0.0
 40
0.0
 40
0.0
 40
0.2655945672
 40
1.0
 40
1.0
 40
1.0
 40
1.0
 10
55.5273853356
 20
262.9593090705
 30
0.0
 10
55.5569252681
 20
262.8942583463
 30
0.0
 10
55.6699303071
 20
262.6501749809
 30
0.0
 10
55.7908279909
 20
262.4095356493
 30
0.0
 10
55.887690395
 20
262.2373603329
 30
0.0
  0
SPLINE
  5
2F7
100
AcDbEntity
  8
0
100
AcDbSpline
 62
7
  6
CONTINUOUS
 70
0
 71
3
 72
9
 73
5
 74
0
 42
0.0000001
 43
0.0000001
 44
0.0000000001
 40
0.0
 40
0.0
 40
0.0
 40
0.0
 40
0.2772033609
 40
1.0
 40
1.0
 40
1.0
 40
1.0
 10
55.887690395
 20
262.2373603329
 30
0.0
 10
55.9197516434
 20
262.1803706718
 30
0.0
 10
56.0387948542
 20
261.9768828678
 30
0.0
 10
56.1726086741
 20
261.7807450849
 30
0.0
 10
56.2846505023
 20
261.6522275162
 30
0.0
  0
SPLINE
  5
2F8
100
AcDbEntity
  8
0
100
AcDbSpline
 62
7
  6
CONTINUOUS
 70
0
 71
3
 72
9
 73
5
 74
0
 42
0.0000001
 43
0.0000001
 44
0.0000000001
 40
0.0
 40
0.0
 40
0.0
 40
0.0
 40
0.30273014
 40
1.0
 40
1.0
 40
1.0
 40
1.0
 10
56.2846505023
 20
261.6522275162
 30
0.0
 10
56.3316710371
 20
261.5982926161
 30
0.0
 10
56.4929513695
 20
261.4293940411
 30
0.0
 10
56.7230561292
 20
261.2997946846
 30
0.0
 10
56.8878633159
 20
261.2997946846
 30
0.0
  0
SPLINE
  5
2F9
100
AcDbEntity
  8
0
100
AcDbSpline
 62
7
  6
CONTINUOUS
 70
0
 71
3
 72
8
 73
4
 74
0
 42
0.0000001
 43
0.0000001
 44
0.0000000001
 40
0.0
 40
0.0
 40
0.0
 40
0.0
 40
1.0
 40
1.0
 40
1.0
 40
1.0
 10
452.4878633159
 20
485.8997946846
 30
0.0
 10
452.4099216526
 20
486.1446556415
 30
0.0
 10
452.3320640569
 20
486.3895625316
 30
0.0
 10
452.2505984492
 20
486.6332737251
 30
0.0
  0
SPLINE
  5
2FA
100
AcDbEntity
  8
0
100
AcDbSpline
 62
7
  6
CONTINUOUS
 70
0
 71
3
 72
9
 73
5
 74
0
 42
0.0000001
 43
0.0000001
 44
0.0000000001
 40
0.0
 40
0.0
 40
0.0
 40
0.0
 40
0.2734095798
 40
1.0
 40
1.0
 40
1.0
 40
1.0
 10
452.2505984492
 20
486.6332737251
 30
0.0
 10
452.2203692866
 20
486.7237067987
 30
0.0
 10
452.1077171808
 20
487.0536742038
 30
0.0
 10
451.9858606489
 20
487.3811672366
 30
0.0
 10
451.8810670797
 20
487.6118817416
 30
0.0
  0
SPLINE
  5
2FB
100
AcDbEntity
  8
0
100
AcDbSpline
 62
7
  6
CONTINUOUS
 70
0
 71
3
 72
9
 73
5
 74
0
 42
0.0000001
 43
0.0000001
 44
0.0000000001
 40
0.0
 40
0.0
 40
0.0
 40
0.0
 40
0.6299447366
 40
1.0
 40
1.0
 40
1.0
 40
1.0
 10
451.8810670797
 20
487.6118817416
 30
0.0
 10
451.7998216802
 20
487.7907523752
 30
0.0
 10
451.6754017546
 20
488.0661912823
 30
0.0
 10
451.4032704281
 20
488.2997946846
 30
0.0
 10
451.2878633159
 20
488.2997946846
 30
0.0
  0
SPLINE
  5
2FC
100
AcDbEntity
  8
0
100
AcDbSpline
 62
7
  6
CONTINUOUS
 70
0
 71
3
 72
9
 73
5
 74
0
 42
0.0000001
 43
0.0000001
 44
0.0000000001
 40
0.0
 40
0.0
 40
0.0
 40
0.0
 40
0.3579456577
 40
1.0
 40
1.0
 40
1.0
 40
1.0
 10
56.0878633159
 20
488.2997946846
 30
0.0
 10
55.9490966125
 20
488.2997946846
 30
0.0
 10
55.6321860515
 20
487.9711692229
 30
0.0
 10
55.4973296773
 20
487.6296631785
 30
0.0
 10
55.403393096
 20
487.3991606266
 30
0.0
  0
SPLINE
  5
2FD
100
AcDbEntity
  8
0
100
AcDbSpline
 62
7
  6
CONTINUOUS
 70
0
 71
3
 72
9
 73
5
 74
0
 42
0.0000001
 43
0.0000001
 44
0.0000000001
 40
0.0
 40
0.0
 40
0.0
 40
0.0
 40
0.2327042381
 40
1.0
 40
1.0
 40
1.0
 40
1.0
 10
55.403393096
 20
487.3991606266
 30
0.0
 10
55.3795416036
 20
487.3406335888
 30
0.0
 10
55.2803313114
 20
487.087783413
 30
0.0
 10
55.1912536844
 20
486.8310887801
 30
0.0
 10
55.1251863987
 20
486.6334477279
 30
0.0
  0
SPLINE
  5
2FE
100
AcDbEntity
  8
0
100
AcDbSpline
 62
7
  6
CONTINUOUS
 70
0
 71
3
 72
8
 73
4
 74
0
 42
0.0000001
 43
0.0000001
 44
0.0000000001
 40
0.0
 40
0.0
 40
0.0
 40
0.0
 40
1.0
 40
1.0
 40
1.0
 40
1.0
 10
55.1251863987
 20
486.6334477279
 30
0.0
 10
55.0436996331
 20
486.3896791225
 30
0.0
 10
54.9658235293
 20
486.1447139184
 30
0.0
 10
54.8878633159
 20
485.8997946846
 30
0.0
  0
ENDSEC
  0
SECTION
  2
OBJECTS
  0
DICTIONARY
  5
C
100
AcDbDictionary
280
0
281
1
  3
ACAD_GROUP
350
D
  3
ACAD_MLINESTYLE
350
17
  3
ACAD_LAYOUT
350
1A
  3
ACAD_PLOTSETTINGS
350
19
  3
ACAD_PLOTSTYLENAME
350
E
  0
DICTIONARY
  5
D
102
{ACAD_REACTORS
330
C
102
}
100
AcDbDictionary
280
0
281
1
  0
ACDBDICTIONARYWDFLT
  5
E
102
{ACAD_REACTORS
330
C
102
}
100
AcDbDictionary
281
1
  3
Normal
350
F
100
AcDbDictionaryWithDefault
340
F
  0
DICTIONARY
  5
17
102
{ACAD_REACTORS
330
C
102
}
100
AcDbDictionary
280
0
281
1
  3
Standard
350
18
  0
DICTIONARY
  5
19
102
{ACAD_REACTORS
330
C
102
}
100
AcDbDictionary
281
1
  0
DICTIONARY
  5
1A
102
{ACAD_REACTORS
330
C
102
}
100
AcDbDictionary
281
1
  3
Model
350
2FF
  3
Layout1
350
300
  0
ACDBPLACEHOLDER
  5
F
102
{ACAD_REACTORS
330
E
102
}
  0
MLINESTYLE
  5
18
102
{ACAD_REACTORS
330
17
102
}
100
AcDbMlineStyle
  2
STANDARD
 70
0
  3

 62
256
 51
90.0
 52
90.0
 71
2
 49
0.5
 62
256
  6
BYLAYER
 49
-0.5
 62
256
  6
BYLAYER
  0
LAYOUT
  5
2FF
102
{ACAD_REACTORS
330
1A
102
}
100
AcDbPlotSettings
  1

  2
none_device
  4

  6

 40
0.0
 41
0.0
 42
0.0
 43
0.0
 44
210.0
 45
297.0
 46
0.0
 47
0.0
 48
0.0
 49
0.0
140
0.0
141
0.0
142
1.0
143
1.0
 70
1024
 72
1
 73
0
 74
0
  7

 75
0
147
1.0
148
0.0
149
0.0
100
AcDbLayout
  1
Model
 70
0
 71
0
 10
0.0
 20
0.0
 11
210.0
 21
297.0
 12
0.0
 22
0.0
 32
0.0
 14
0.0
 24
0.0
 34
0.0
 15
0.0
 25
0.0
 35
0.0
146
0.0
 13
0.0
 23
0.0
 33
0.0
 16
1.0
 26
0.0
 36
0.0
 17
0.0
 27
1.0
 37
0.0
 76
0
330
210
345
0
346
0
  0
LAYOUT
  5
300
102
{ACAD_REACTORS
330
1A
102
}
100
AcDbPlotSettings
  1

  2
none_device
  4

  6

 40
0.0
 41
0.0
 42
0.0
 43
0.0
 44
210.0
 45
297.0
 46
0.0
 47
0.0
 48
0.0
 49
0.0
140
0.0
141
0.0
142
1.0
143
1.0
 70
0
 72
1
 73
0
 74
0
  7

 75
0
147
1.0
148
0.0
149
0.0
100
AcDbLayout
  1
Layout1
 70
0
 71
1
 10
0.0
 20
0.0
 11
210.0
 21
297.0
 12
0.0
 22
0.0
 32
0.0
 14
0.0
 24
0.0
 34
0.0
 15
0.0
 25
0.0
 35
0.0
146
0.0
 13
0.0
 23
0.0
 33
0.0
 16
1.0
 26
0.0
 36
0.0
 17
0.0
 27
1.0
 37
0.0
 76
0
330
211
345
0
346
0
  0
ENDSEC
  0
EOF
