999
DXF file: C:\Users\sesa63760\Dev\_Creo\CAD\MCADPP0003083_3D-CAD\drw0001_5.dxf
999
Pro/ENGINEER 2019471 by Parametric Technology Corporation
  0
SECTION
  2
HEADER
  9
$ACADVER
  1
AC1024
  9
$DWGCODEPAGE
  3
ANSI_1252
  9
$EXTMAX
 10
127.8691930195
 20
180.8435729847
 30
0.0
  9
$EXTMIN
 10
0.0
 20
0.0
 30
0.0
  9
$LIMMIN
 10
0.0
 20
0.0
  9
$LIMMAX
 10
127.8691930195
 20
180.8435729847
  9
$VIEWCTR
 10
63.9345965098
 20
90.4217864924
  9
$VIEWSIZE
 40
180.8435729847
  9
$CLAYER
  8
0
  9
$LTSCALE
 40
11.7883217946
  9
$CELTYPE
  6
BYLAYER
  9
$DIMSCALE
 40
1.0
  9
$DIMASZ
 40
1.5222522979
  9
$DIMEXO
 40
1.0
  9
$DIMDLI
 40
8.1446586944
  9
$DIMEXE
 40
1.0
  9
$DIMCEN
 40
1.9289981118
  9
$DIMLFAC
 40
1.0
  9
$DIMBLK
  1
_FILLED
  9
$DIMALT
 70
0
  9
$DIMALTF
 40
0.0393700787
  9
$DIMTXT
 40
2.131153217
  9
$DIMTOL
 70
1
  9
$DIMLIM
 70
0
  9
$DIMTFAC
 40
1.0
  9
$DIMTP
 40
0.01
  9
$DIMTM
 40
0.01
  9
$DIMGAP
 40
0.625
  9
$DIMDSEP
 70
46
  9
$AUNITS
 70
0
  9
$PDMODE
 70
3
  9
$PDSIZE
 40
0.3125
  9
$HANDSEED
  5
26C
  9
$TILEMODE
 70
1
  9
$MEASUREMENT
 70
1
  9
$INSUNITS
 70
4
  0
ENDSEC
  0
SECTION
  2
CLASSES
  0
CLASS
  1
ACDBDICTIONARYWDFLT
  2
AcDbDictionaryWithDefault
  3
AutoCAD 2000
 90
0
 91
1
280
0
281
0
  0
CLASS
  1
ACDBPLACEHOLDER
  2
AcDbPlaceHolder
  3
AutoCAD 2000
 90
0
 91
1
280
0
281
0
  0
CLASS
  1
LAYOUT
  2
AcDbLayout
  3
AutoCAD 2000
 90
0
 91
0
280
0
281
0
  0
ENDSEC
  0
SECTION
  2
TABLES
  0
TABLE
  2
VPORT
  5
8
100
AcDbSymbolTable
 70
2
  0
VPORT
  5
1F4
100
AcDbSymbolTableRecord
100
AcDbViewportTableRecord
  2
*ACTIVE
 70
0
 10
0.0
 20
0.0
 11
1.0
 21
1.0
 12
63.9345965098
 22
90.4217864924
 13
0.0
 23
0.0
 14
1.0
 24
1.0
 15
0.0
 25
0.0
 16
0.0
 26
0.0
 36
1.0
 17
0.0
 27
0.0
 37
0.0
 40
180.8435729847
 41
0.7070707071
 42
50.0
 43
0.0
 44
0.0
 50
0.0
 51
0.0
 71
0
 72
100
 73
1
 74
1
 75
0
 76
0
 77
0
 78
0
  0
ENDTAB
  0
TABLE
  2
LTYPE
  5
5
100
AcDbSymbolTable
 70
6
  0
LTYPE
  5
14
100
AcDbSymbolTableRecord
100
AcDbLinetypeTableRecord
  2
BYBLOCK
 70
0
  3

 72
65
 73
0
 40
0.0
  0
LTYPE
  5
15
100
AcDbSymbolTableRecord
100
AcDbLinetypeTableRecord
  2
BYLAYER
 70
0
  3

 72
65
 73
0
 40
0.0
  0
LTYPE
  5
16
100
AcDbSymbolTableRecord
100
AcDbLinetypeTableRecord
  2
CONTINUOUS
 70
64
  3
Solid line
 72
65
 73
0
 40
0.0
  0
LTYPE
  5
1F5
100
AcDbSymbolTableRecord
100
AcDbLinetypeTableRecord
  2
CENTER
 70
64
  3
____ _ ____ _ ____ _ ____ _ ____ _ ____ _ ____
 72
65
 73
4
 40
0.6
 49
0.375
 74
0
 49
-0.075
 74
0
 49
0.075
 74
0
 49
-0.075
 74
0
  0
LTYPE
  5
1F6
100
AcDbSymbolTableRecord
100
AcDbLinetypeTableRecord
  2
HIDDEN
 70
64
  3
- - - - - - - - - - - - - - - - - - - -
 72
65
 73
2
 40
0.2
 49
0.1
 74
0
 49
-0.1
 74
0
  0
LTYPE
  5
1F7
100
AcDbSymbolTableRecord
100
AcDbLinetypeTableRecord
  2
PHANTOM
 70
64
  3
_____ _ _ _____ _ _ _____ _ _ _____
 72
65
 73
6
 40
0.8
 49
0.45
 74
0
 49
-0.05
 74
0
 49
0.1
 74
0
 49
-0.05
 74
0
 49
0.1
 74
0
 49
-0.05
 74
0
  0
LTYPE
  5
1F8
100
AcDbSymbolTableRecord
100
AcDbLinetypeTableRecord
  2
DOT
 70
64
  3
. . . . . . . . . . . . . . . . . . . .
 72
65
 73
2
 40
0.2
 49
0.1
 74
0
 49
-0.1
 74
0
  0
LTYPE
  5
1F9
100
AcDbSymbolTableRecord
100
AcDbLinetypeTableRecord
  2
DASHED
 70
64
  3
- - - - - - - - - - - - - - - - - - - -
 72
65
 73
2
 40
0.2
 49
0.1
 74
0
 49
-0.1
 74
0
  0
ENDTAB
  0
TABLE
  2
LAYER
  5
2
100
AcDbSymbolTable
 70
36
  0
LAYER
  5
10
100
AcDbSymbolTableRecord
100
AcDbLayerTableRecord
  2
0
 70
0
 62
7
  6
CONTINUOUS
370
-3
390
F
  0
LAYER
  5
1FA
100
AcDbSymbolTableRecord
100
AcDbLayerTableRecord
  2
DEFAULT_1
 70
0
 62
7
  6
CENTER
370
-3
390
F
  0
LAYER
  5
1FB
100
AcDbSymbolTableRecord
100
AcDbLayerTableRecord
  2
DEFAULT_2
 70
0
 62
8
  6
HIDDEN
370
-3
390
F
  0
LAYER
  5
1FC
100
AcDbSymbolTableRecord
100
AcDbLayerTableRecord
  2
DEFAULT_3
 70
0
 62
7
  6
PHANTOM
370
-3
390
F
  0
LAYER
  5
1FD
100
AcDbSymbolTableRecord
100
AcDbLayerTableRecord
  2
00_COMPONENTS
 70
0
 62
7
  6
CONTINUOUS
370
-3
390
F
  0
LAYER
  5
1FE
100
AcDbSymbolTableRecord
100
AcDbLayerTableRecord
  2
01_1_DEFAULT_DATUMS
 70
0
 62
7
  6
CONTINUOUS
370
-3
390
F
  0
LAYER
  5
1FF
100
AcDbSymbolTableRecord
100
AcDbLayerTableRecord
  2
01_PLANES
 70
0
 62
7
  6
CONTINUOUS
370
-3
390
F
  0
LAYER
  5
200
100
AcDbSymbolTableRecord
100
AcDbLayerTableRecord
  2
02_COORD_SYS
 70
0
 62
7
  6
CONTINUOUS
370
-3
390
F
  0
LAYER
  5
201
100
AcDbSymbolTableRecord
100
AcDbLayerTableRecord
  2
03_AXES
 70
0
 62
7
  6
CONTINUOUS
370
-3
390
F
  0
LAYER
  5
202
100
AcDbSymbolTableRecord
100
AcDbLayerTableRecord
  2
04_POINTS
 70
0
 62
7
  6
CONTINUOUS
370
-3
390
F
  0
LAYER
  5
203
100
AcDbSymbolTableRecord
100
AcDbLayerTableRecord
  2
05_CURVES
 70
0
 62
7
  6
CONTINUOUS
370
-3
390
F
  0
LAYER
  5
204
100
AcDbSymbolTableRecord
100
AcDbLayerTableRecord
  2
06_SURFS
 70
0
 62
7
  6
CONTINUOUS
370
-3
390
F
  0
LAYER
  5
205
100
AcDbSymbolTableRecord
100
AcDbLayerTableRecord
  2
07_COSMETICS
 70
0
 62
7
  6
CONTINUOUS
370
-3
390
F
  0
LAYER
  5
206
100
AcDbSymbolTableRecord
100
AcDbLayerTableRecord
  2
10_NOTES
 70
0
 62
7
  6
CONTINUOUS
370
-3
390
F
  0
LAYER
  5
207
100
AcDbSymbolTableRecord
100
AcDbLayerTableRecord
  2
11_NOTES_PUB
 70
0
 62
7
  6
CONTINUOUS
370
-3
390
F
  0
LAYER
  5
208
100
AcDbSymbolTableRecord
100
AcDbLayerTableRecord
  2
13_REF_GTOL
 70
0
 62
7
  6
CONTINUOUS
370
-3
390
F
  0
LAYER
  5
209
100
AcDbSymbolTableRecord
100
AcDbLayerTableRecord
  2
16_MISC
 70
0
 62
7
  6
CONTINUOUS
370
-3
390
F
  0
LAYER
  5
20A
100
AcDbSymbolTableRecord
100
AcDbLayerTableRecord
  2
17_NO_PRINT
 70
0
 62
7
  6
CONTINUOUS
370
-3
390
F
  0
LAYER
  5
20B
100
AcDbSymbolTableRecord
100
AcDbLayerTableRecord
  2
18_DATUM_CAMS_JOINTS
 70
0
 62
7
  6
CONTINUOUS
370
-3
390
F
  0
LAYER
  5
20C
100
AcDbSymbolTableRecord
100
AcDbLayerTableRecord
  2
19_DATUM_FUNCTIONAL
 70
0
 62
7
  6
CONTINUOUS
370
-3
390
F
  0
LAYER
  5
20D
100
AcDbSymbolTableRecord
100
AcDbLayerTableRecord
  2
20_DATUM_KINEMATIC_SCHEME
 70
0
 62
7
  6
CONTINUOUS
370
-3
390
F
  0
LAYER
  5
20E
100
AcDbSymbolTableRecord
100
AcDbLayerTableRecord
  2
SHELL1
 70
0
 62
7
  6
CONTINUOUS
370
-3
390
F
  0
ENDTAB
  0
TABLE
  2
STYLE
  5
3
100
AcDbSymbolTable
 70
1
  0
STYLE
  5
11
100
AcDbSymbolTableRecord
100
AcDbTextStyleTableRecord
  2
STANDARD
 70
0
 40
0.0
 41
0.8
 50
0.0
 71
0
 42
0.2
  3
txt
  4

  0
STYLE
  5
20F
100
AcDbSymbolTableRecord
100
AcDbTextStyleTableRecord
  2
TEXTSTYLE_1
 70
0
 40
0.0
 41
0.8
 50
0.0
 71
0
 42
0.2
  3
gdt
  4

  0
ENDTAB
  0
TABLE
  2
VIEW
  5
6
100
AcDbSymbolTable
 70
0
  0
ENDTAB
  0
TABLE
  2
UCS
  5
7
100
AcDbSymbolTable
 70
0
  0
ENDTAB
  0
TABLE
  2
APPID
  5
9
100
AcDbSymbolTable
 70
1
  0
APPID
  5
210
100
AcDbSymbolTableRecord
100
AcDbRegAppTableRecord
  2
ACAD
 70
0
  0
ENDTAB
  0
TABLE
  2
BLOCK_RECORD
  5
1
100
AcDbSymbolTable
 70
0
  0
BLOCK_RECORD
  5
211
100
AcDbSymbolTableRecord
100
AcDbBlockTableRecord
  2
*Model_Space
  0
BLOCK_RECORD
  5
212
100
AcDbSymbolTableRecord
100
AcDbBlockTableRecord
  2
*Paper_Space
  0
BLOCK_RECORD
  5
213
100
AcDbSymbolTableRecord
100
AcDbBlockTableRecord
  2
_FILLED
  0
ENDTAB
  0
TABLE
  2
DIMSTYLE
  5
A
100
AcDbSymbolTable
 70
1
100
AcDbDimStyleTable
 71
0
  0
DIMSTYLE
105
214
100
AcDbSymbolTableRecord
100
AcDbDimStyleTableRecord
  2
STANDARD
 70
0
  3

  4

 40
1.0
 41
1.5222522979
 42
1.0
 43
0.38
 44
1.0
 45
0.0
 46
0.0
 47
0.01
 48
0.01
140
2.131153217
141
0.09
142
0.0
143
25.4
144
1.0
145
0.0
146
1.0
147
0.625
 71
1
 72
0
 73
0
 74
0
 75
0
 76
0
 77
1
 78
8
 79
2
170
0
171
1
172
0
173
0
174
0
175
0
176
0
177
0
178
0
270
2
179
2
271
2
272
2
273
2
274
2
275
0
280
0
281
0
282
0
283
1
284
8
285
0
286
0
287
3
288
0
340
11
278
46
341
213
342
213
343
213
344
213
  0
ENDTAB
  0
ENDSEC
  0
SECTION
  2
BLOCKS
  0
BLOCK
  5
20
100
AcDbEntity
  8
0
100
AcDbBlockBegin
  2
*Model_Space
 70
0
 10
0.0
 20
0.0
 30
0.0
  3
*Model_Space
  1

  0
ENDBLK
  5
21
100
AcDbEntity
  8
0
100
AcDbBlockEnd
  0
BLOCK
  5
1C
100
AcDbEntity
  8
0
100
AcDbBlockBegin
  2
*Paper_Space
 70
0
 10
0.0
 20
0.0
 30
0.0
  3
*Paper_Space
  1

  0
ENDBLK
  5
1D
100
AcDbEntity
  8
0
100
AcDbBlockEnd
  0
BLOCK
  5
215
100
AcDbEntity
  8
0
100
AcDbBlockBegin
  2
_FILLED
 70
64
 10
0.0
 20
0.0
  3
_FILLED
  1

  0
SOLID
  5
216
100
AcDbEntity
  8
0
  6
BYBLOCK
 62
0
100
AcDbTrace
 10
0.0
 20
0.0
 11
-1.0
 21
0.25
 12
-1.0
 22
-0.25
 13
-1.0
 23
-0.25
  0
ENDBLK
  5
217
100
AcDbEntity
  8
0
  6
BYBLOCK
 62
0
100
AcDbBlockEnd
  0
ENDSEC
  0
SECTION
  2
ENTITIES
  0
LINE
  5
218
100
AcDbEntity
  8
SHELL1
100
AcDbLine
 62
7
  6
CONTINUOUS
 10
14.90540261
 20
113.6301372549
 11
14.90540261
 21
67.6561372832
  0
LINE
  5
219
100
AcDbEntity
  8
SHELL1
100
AcDbLine
 62
7
  6
CONTINUOUS
 10
14.90540261
 20
113.6301372549
 11
14.90540261
 21
123.7901372549
  0
LINE
  5
21A
100
AcDbEntity
  8
SHELL1
100
AcDbLine
 62
7
  6
CONTINUOUS
 10
17.62320261
 20
118.2021372549
 11
17.62320261
 21
113.6301372549
  0
LINE
  5
21B
100
AcDbEntity
  8
SHELL1
100
AcDbLine
 62
7
  6
CONTINUOUS
 10
20.20130261
 20
118.2021372549
 11
20.20130261
 21
123.7901372549
  0
LINE
  5
21C
100
AcDbEntity
  8
SHELL1
100
AcDbLine
 62
7
  6
CONTINUOUS
 10
25.35750261
 20
118.2021372549
 11
25.35750261
 21
123.7901372549
  0
LINE
  5
21D
100
AcDbEntity
  8
SHELL1
100
AcDbLine
 62
7
  6
CONTINUOUS
 10
26.6847756738
 20
113.6301372549
 11
26.6847756738
 21
57.4961372549
  0
LINE
  5
21E
100
AcDbEntity
  8
SHELL1
100
AcDbLine
 62
7
  6
CONTINUOUS
 10
27.60540261
 20
108.3913872549
 11
27.60540261
 21
72.8948872549
  0
LINE
  5
21F
100
AcDbEntity
  8
SHELL1
100
AcDbLine
 62
7
  6
CONTINUOUS
 10
27.93560261
 20
118.2021372549
 11
27.93560261
 21
113.6301372549
  0
LINE
  5
220
100
AcDbEntity
  8
SHELL1
100
AcDbLine
 62
7
  6
CONTINUOUS
 10
30.78040261
 20
100.9301372549
 11
30.78040261
 21
67.9101372549
  0
LINE
  5
221
100
AcDbEntity
  8
SHELL1
100
AcDbLine
 62
7
  6
CONTINUOUS
 10
32.68540261
 20
67.9101372549
 11
32.68540261
 21
66.6401372549
  0
LINE
  5
222
100
AcDbEntity
  8
SHELL1
100
AcDbLine
 62
7
  6
CONTINUOUS
 10
34.8760295461
 20
57.4961372549
 11
25.06540261
 21
57.4961372549
  0
LINE
  5
223
100
AcDbEntity
  8
SHELL1
100
AcDbLine
 62
7
  6
CONTINUOUS
 10
106.3454025817
 20
57.4961372549
 11
34.8760295461
 21
57.4961372549
  0
LINE
  5
224
100
AcDbEntity
  8
SHELL1
100
AcDbLine
 62
7
  6
CONTINUOUS
 10
34.66977761
 20
68.6245122549
 11
34.66977761
 21
66.6401372549
  0
LINE
  5
225
100
AcDbEntity
  8
SHELL1
100
AcDbLine
 62
7
  6
CONTINUOUS
 10
34.8760295461
 20
57.4961372549
 11
34.8760295461
 21
113.6301372549
  0
LINE
  5
226
100
AcDbEntity
  8
SHELL1
100
AcDbLine
 62
7
  6
CONTINUOUS
 10
36.65415261
 20
68.6245122549
 11
36.65415261
 21
66.6401372549
  0
LINE
  5
227
100
AcDbEntity
  8
SHELL1
100
AcDbLine
 62
7
  6
CONTINUOUS
 10
37.13040261
 20
113.6301372549
 11
37.13040261
 21
100.9301372549
  0
LINE
  5
228
100
AcDbEntity
  8
SHELL1
100
AcDbLine
 62
7
  6
CONTINUOUS
 10
38.63852761
 20
68.6245122549
 11
38.63852761
 21
66.6401372549
  0
LINE
  5
229
100
AcDbEntity
  8
SHELL1
100
AcDbLine
 62
7
  6
CONTINUOUS
 10
40.62290261
 20
67.9101372549
 11
40.62290261
 21
66.6401372549
  0
LINE
  5
22A
100
AcDbEntity
  8
SHELL1
100
AcDbLine
 62
7
  6
CONTINUOUS
 10
96.69340261
 20
65.7828872549
 11
34.71740261
 21
65.7828872549
  0
LINE
  5
22B
100
AcDbEntity
  8
SHELL1
100
AcDbLine
 62
7
  6
CONTINUOUS
 10
32.68540261
 20
66.6401372549
 11
40.62290261
 21
66.6401372549
  0
LINE
  5
22C
100
AcDbEntity
  8
SHELL1
100
AcDbLine
 62
7
  6
CONTINUOUS
 10
84.91415261
 20
66.6401372549
 11
92.85165261
 21
66.6401372549
  0
LINE
  5
22D
100
AcDbEntity
  8
SHELL1
100
AcDbLine
 62
7
  6
CONTINUOUS
 10
42.50250261
 20
72.0693872549
 11
42.50250261
 21
80.2608872549
  0
LINE
  5
22E
100
AcDbEntity
  8
SHELL1
100
AcDbLine
 62
7
  6
CONTINUOUS
 10
42.52790261
 20
84.4201372549
 11
42.52790261
 21
67.9101372549
  0
LINE
  5
22F
100
AcDbEntity
  8
SHELL1
100
AcDbLine
 62
7
  6
CONTINUOUS
 10
44.43290261
 20
84.4201372549
 11
44.43290261
 21
83.1501372549
  0
LINE
  5
230
100
AcDbEntity
  8
SHELL1
100
AcDbLine
 62
7
  6
CONTINUOUS
 10
30.78040261
 20
67.9101372549
 11
42.52790261
 21
67.9101372549
  0
LINE
  5
231
100
AcDbEntity
  8
SHELL1
100
AcDbLine
 62
7
  6
CONTINUOUS
 10
77.13540261
 20
67.9101372549
 11
100.63040261
 21
67.9101372549
  0
LINE
  5
232
100
AcDbEntity
  8
SHELL1
100
AcDbLine
 62
7
  6
CONTINUOUS
 10
90.86727761
 20
68.6245122549
 11
86.89852761
 21
68.6245122549
  0
LINE
  5
233
100
AcDbEntity
  8
SHELL1
100
AcDbLine
 62
7
  6
CONTINUOUS
 10
38.63852761
 20
68.6245122549
 11
34.66977761
 21
68.6245122549
  0
LINE
  5
234
100
AcDbEntity
  8
SHELL1
100
AcDbLine
 62
7
  6
CONTINUOUS
 10
46.41727761
 20
85.1345122549
 11
46.41727761
 21
83.1501372549
  0
LINE
  5
235
100
AcDbEntity
  8
SHELL1
100
AcDbLine
 62
7
  6
CONTINUOUS
 10
48.40165261
 20
85.1345122549
 11
48.40165261
 21
83.1501372549
  0
LINE
  5
236
100
AcDbEntity
  8
SHELL1
100
AcDbLine
 62
7
  6
CONTINUOUS
 10
30.78040261
 20
72.0693872549
 11
42.50250261
 21
72.0693872549
  0
LINE
  5
237
100
AcDbEntity
  8
SHELL1
100
AcDbLine
 62
7
  6
CONTINUOUS
 10
50.38602761
 20
85.1345122549
 11
50.38602761
 21
83.1501372549
  0
LINE
  5
238
100
AcDbEntity
  8
SHELL1
100
AcDbLine
 62
7
  6
CONTINUOUS
 10
52.37040261
 20
84.4201372549
 11
52.37040261
 21
83.1501372549
  0
LINE
  5
239
100
AcDbEntity
  8
SHELL1
100
AcDbLine
 62
7
  6
CONTINUOUS
 10
54.25000261
 20
88.5793872549
 11
54.25000261
 21
96.7708872549
  0
LINE
  5
23A
100
AcDbEntity
  8
SHELL1
100
AcDbLine
 62
7
  6
CONTINUOUS
 10
54.27540261
 20
84.4201372549
 11
54.27540261
 21
83.1501372549
  0
LINE
  5
23B
100
AcDbEntity
  8
SHELL1
100
AcDbLine
 62
7
  6
CONTINUOUS
 10
30.78040261
 20
80.2608872549
 11
42.50250261
 21
80.2608872549
  0
LINE
  5
23C
100
AcDbEntity
  8
SHELL1
100
AcDbLine
 62
7
  6
CONTINUOUS
 10
100.63040261
 20
80.4386872549
 11
77.16080261
 21
80.4386872549
  0
LINE
  5
23D
100
AcDbEntity
  8
SHELL1
100
AcDbLine
 62
7
  6
CONTINUOUS
 10
59.35540261
 20
80.6101372549
 11
72.05540261
 21
80.6101372549
  0
LINE
  5
23E
100
AcDbEntity
  8
SHELL1
100
AcDbLine
 62
7
  6
CONTINUOUS
 10
59.35540261
 20
83.1501372549
 11
59.35540261
 21
80.6101372549
  0
LINE
  5
23F
100
AcDbEntity
  8
SHELL1
100
AcDbLine
 62
7
  6
CONTINUOUS
 10
61.6097756738
 20
113.6301372549
 11
61.6097756738
 21
57.4961372549
  0
LINE
  5
240
100
AcDbEntity
  8
SHELL1
100
AcDbLine
 62
7
  6
CONTINUOUS
 10
77.13540261
 20
83.1501372549
 11
54.27540261
 21
83.1501372549
  0
LINE
  5
241
100
AcDbEntity
  8
SHELL1
100
AcDbLine
 62
7
  6
CONTINUOUS
 10
44.43290261
 20
83.1501372549
 11
52.37040261
 21
83.1501372549
  0
LINE
  5
242
100
AcDbEntity
  8
SHELL1
100
AcDbLine
 62
7
  6
CONTINUOUS
 10
54.27540261
 20
84.4201372549
 11
42.52790261
 21
84.4201372549
  0
LINE
  5
243
100
AcDbEntity
  8
SHELL1
100
AcDbLine
 62
7
  6
CONTINUOUS
 10
50.38602761
 20
85.1345122549
 11
46.41727761
 21
85.1345122549
  0
LINE
  5
244
100
AcDbEntity
  8
SHELL1
100
AcDbLine
 62
7
  6
CONTINUOUS
 10
65.70540261
 20
113.6301372549
 11
65.70540261
 21
83.1501372549
  0
LINE
  5
245
100
AcDbEntity
  8
SHELL1
100
AcDbLine
 62
7
  6
CONTINUOUS
 10
100.63040261
 20
88.4015872549
 11
77.16080261
 21
88.4015872549
  0
LINE
  5
246
100
AcDbEntity
  8
SHELL1
100
AcDbLine
 62
7
  6
CONTINUOUS
 10
30.78040261
 20
88.5793872549
 11
54.25000261
 21
88.5793872549
  0
LINE
  5
247
100
AcDbEntity
  8
SHELL1
100
AcDbLine
 62
7
  6
CONTINUOUS
 10
69.8010295461
 20
113.6301372549
 11
69.8010295461
 21
57.4961372549
  0
LINE
  5
248
100
AcDbEntity
  8
SHELL1
100
AcDbLine
 62
7
  6
CONTINUOUS
 10
72.05540261
 20
83.1501372549
 11
72.05540261
 21
80.6101372549
  0
LINE
  5
249
100
AcDbEntity
  8
SHELL1
100
AcDbLine
 62
7
  6
CONTINUOUS
 10
30.78040261
 20
96.7708872549
 11
54.25000261
 21
96.7708872549
  0
LINE
  5
24A
100
AcDbEntity
  8
SHELL1
100
AcDbLine
 62
7
  6
CONTINUOUS
 10
77.13540261
 20
83.1501372549
 11
77.13540261
 21
67.9101372549
  0
LINE
  5
24B
100
AcDbEntity
  8
SHELL1
100
AcDbLine
 62
7
  6
CONTINUOUS
 10
77.16080261
 20
80.4386872549
 11
77.16080261
 21
88.4015872549
  0
LINE
  5
24C
100
AcDbEntity
  8
SHELL1
100
AcDbLine
 62
7
  6
CONTINUOUS
 10
100.63040261
 20
100.9301372549
 11
94.28040261
 21
100.9301372549
  0
LINE
  5
24D
100
AcDbEntity
  8
SHELL1
100
AcDbLine
 62
7
  6
CONTINUOUS
 10
37.13040261
 20
100.9301372549
 11
30.78040261
 21
100.9301372549
  0
LINE
  5
24E
100
AcDbEntity
  8
SHELL1
100
AcDbLine
 62
7
  6
CONTINUOUS
 10
84.91415261
 20
67.9101372549
 11
84.91415261
 21
66.6401372549
  0
LINE
  5
24F
100
AcDbEntity
  8
SHELL1
100
AcDbLine
 62
7
  6
CONTINUOUS
 10
86.89852761
 20
68.6245122549
 11
86.89852761
 21
66.6401372549
  0
LINE
  5
250
100
AcDbEntity
  8
SHELL1
100
AcDbLine
 62
7
  6
CONTINUOUS
 10
88.88290261
 20
68.6245122549
 11
88.88290261
 21
66.6401372549
  0
LINE
  5
251
100
AcDbEntity
  8
SHELL1
100
AcDbLine
 62
7
  6
CONTINUOUS
 10
34.8760295461
 20
113.6301372549
 11
14.90540261
 21
113.6301372549
  0
LINE
  5
252
100
AcDbEntity
  8
SHELL1
100
AcDbLine
 62
7
  6
CONTINUOUS
 10
34.8760295461
 20
113.6301372549
 11
116.50540261
 21
113.6301372549
  0
LINE
  5
253
100
AcDbEntity
  8
SHELL1
100
AcDbLine
 62
7
  6
CONTINUOUS
 10
90.86727761
 20
68.6245122549
 11
90.86727761
 21
66.6401372549
  0
LINE
  5
254
100
AcDbEntity
  8
SHELL1
100
AcDbLine
 62
7
  6
CONTINUOUS
 10
92.85165261
 20
67.9101372549
 11
92.85165261
 21
66.6401372549
  0
LINE
  5
255
100
AcDbEntity
  8
SHELL1
100
AcDbLine
 62
7
  6
CONTINUOUS
 10
94.28040261
 20
113.6301372549
 11
94.28040261
 21
100.9301372549
  0
LINE
  5
256
100
AcDbEntity
  8
SHELL1
100
AcDbLine
 62
7
  6
CONTINUOUS
 10
96.69340261
 20
115.5033872549
 11
34.71740261
 21
115.5033872549
  0
LINE
  5
257
100
AcDbEntity
  8
SHELL1
100
AcDbLine
 62
7
  6
CONTINUOUS
 10
17.62320261
 20
118.2021372549
 11
27.93560261
 21
118.2021372549
  0
LINE
  5
258
100
AcDbEntity
  8
SHELL1
100
AcDbLine
 62
7
  6
CONTINUOUS
 10
103.47520261
 20
118.2021372549
 11
113.78760261
 21
118.2021372549
  0
LINE
  5
259
100
AcDbEntity
  8
SHELL1
100
AcDbLine
 62
7
  6
CONTINUOUS
 10
96.5347756738
 20
113.6301372549
 11
96.5347756738
 21
57.4961372549
  0
LINE
  5
25A
100
AcDbEntity
  8
SHELL1
100
AcDbLine
 62
7
  6
CONTINUOUS
 10
100.63040261
 20
100.9301372549
 11
100.63040261
 21
67.9101372549
  0
LINE
  5
25B
100
AcDbEntity
  8
SHELL1
100
AcDbLine
 62
7
  6
CONTINUOUS
 10
116.50540261
 20
123.7901372549
 11
14.90540261
 21
123.7901372549
  0
LINE
  5
25C
100
AcDbEntity
  8
SHELL1
100
AcDbLine
 62
7
  6
CONTINUOUS
 10
103.47520261
 20
118.2021372549
 11
103.47520261
 21
113.6301372549
  0
LINE
  5
25D
100
AcDbEntity
  8
SHELL1
100
AcDbLine
 62
7
  6
CONTINUOUS
 10
103.80540261
 20
108.3913872549
 11
103.80540261
 21
72.8948872549
  0
LINE
  5
25E
100
AcDbEntity
  8
SHELL1
100
AcDbLine
 62
7
  6
CONTINUOUS
 10
104.7260295461
 20
113.6301372549
 11
104.7260295461
 21
57.4961372549
  0
LINE
  5
25F
100
AcDbEntity
  8
SHELL1
100
AcDbLine
 62
7
  6
CONTINUOUS
 10
106.05330261
 20
118.2021372549
 11
106.05330261
 21
123.7901372549
  0
LINE
  5
260
100
AcDbEntity
  8
SHELL1
100
AcDbLine
 62
7
  6
CONTINUOUS
 10
111.20950261
 20
118.2021372549
 11
111.20950261
 21
123.7901372549
  0
LINE
  5
261
100
AcDbEntity
  8
SHELL1
100
AcDbLine
 62
7
  6
CONTINUOUS
 10
113.78760261
 20
118.2021372549
 11
113.78760261
 21
113.6301372549
  0
LINE
  5
262
100
AcDbEntity
  8
SHELL1
100
AcDbLine
 62
7
  6
CONTINUOUS
 10
116.50540261
 20
123.7901372549
 11
116.50540261
 21
67.6561372806
  0
ARC
  5
263
100
AcDbEntity
  8
SHELL1
100
AcDbCircle
 62
7
  6
CONTINUOUS
 10
25.0654026125
 20
67.6561372574
 40
10.16
100
AcDbArc
 50
180.0000000143
 51
269.9999999857
  0
ARC
  5
264
100
AcDbEntity
  8
SHELL1
100
AcDbCircle
 62
7
  6
CONTINUOUS
 10
106.3454026074
 20
67.6561372574
 40
10.16
100
AcDbArc
 50
269.9999998549
 51
0.0000001308
  0
ARC
  5
265
100
AcDbEntity
  8
SHELL1
100
AcDbCircle
 62
7
  6
CONTINUOUS
 10
34.7174026125
 20
72.8948872574
 40
7.112
100
AcDbArc
 50
179.9999997988
 51
270.0000001602
  0
ARC
  5
266
100
AcDbEntity
  8
SHELL1
100
AcDbCircle
 62
7
  6
CONTINUOUS
 10
34.7174026125
 20
108.3913872524
 40
7.112
100
AcDbArc
 50
89.9999997988
 51
180.0000001602
  0
ARC
  5
267
100
AcDbEntity
  8
SHELL1
100
AcDbCircle
 62
7
  6
CONTINUOUS
 10
96.6934026074
 20
108.3913872524
 40
7.112
100
AcDbArc
 50
359.9999997988
 51
90.0000001602
  0
ARC
  5
268
100
AcDbEntity
  8
SHELL1
100
AcDbCircle
 62
7
  6
CONTINUOUS
 10
96.6934026074
 20
72.8948872574
 40
7.112
100
AcDbArc
 50
269.9999997988
 51
0.0000001602
  0
SPLINE
  5
269
100
AcDbEntity
  8
SHELL1
100
AcDbSpline
 62
7
  6
CONTINUOUS
 70
0
 71
3
 72
15
 73
11
 74
0
 42
0.0000001
 43
0.0000001
 44
0.0000000001
 40
0.0
 40
0.0
 40
0.0
 40
0.0
 40
0.1252406664
 40
0.2502745762
 40
0.3751723962
 40
0.5000051689
 40
0.6248372943
 40
0.7497331728
 40
0.8747638508
 40
1.0
 40
1.0
 40
1.0
 40
1.0
 10
14.90540261
 20
67.6561372832
 30
0.0
 10
14.9068528302
 20
66.9909584841
 30
0.0
 10
15.0361206995
 20
65.657992508
 30
0.0
 10
15.6199184304
 20
63.7397438782
 30
0.0
 10
16.5646473588
 20
61.9731850253
 30
0.0
 10
17.8351035309
 20
60.4257252351
 30
0.0
 10
19.3825752353
 20
59.1553002164
 30
0.0
 10
21.1491192782
 20
58.2106102084
 30
0.0
 10
23.0673234097
 20
57.6268471427
 30
0.0
 10
24.4002478256
 20
57.4975860015
 30
0.0
 10
25.0654026357
 20
57.4961372549
 30
0.0
  0
ENDSEC
  0
SECTION
  2
OBJECTS
  0
DICTIONARY
  5
C
100
AcDbDictionary
280
0
281
1
  3
ACAD_GROUP
350
D
  3
ACAD_MLINESTYLE
350
17
  3
ACAD_LAYOUT
350
1A
  3
ACAD_PLOTSETTINGS
350
19
  3
ACAD_PLOTSTYLENAME
350
E
  0
DICTIONARY
  5
D
102
{ACAD_REACTORS
330
C
102
}
100
AcDbDictionary
280
0
281
1
  0
ACDBDICTIONARYWDFLT
  5
E
102
{ACAD_REACTORS
330
C
102
}
100
AcDbDictionary
281
1
  3
Normal
350
F
100
AcDbDictionaryWithDefault
340
F
  0
DICTIONARY
  5
17
102
{ACAD_REACTORS
330
C
102
}
100
AcDbDictionary
280
0
281
1
  3
Standard
350
18
  0
DICTIONARY
  5
19
102
{ACAD_REACTORS
330
C
102
}
100
AcDbDictionary
281
1
  0
DICTIONARY
  5
1A
102
{ACAD_REACTORS
330
C
102
}
100
AcDbDictionary
281
1
  3
Model
350
26A
  3
Layout1
350
26B
  0
ACDBPLACEHOLDER
  5
F
102
{ACAD_REACTORS
330
E
102
}
  0
MLINESTYLE
  5
18
102
{ACAD_REACTORS
330
17
102
}
100
AcDbMlineStyle
  2
STANDARD
 70
0
  3

 62
256
 51
90.0
 52
90.0
 71
2
 49
0.5
 62
256
  6
BYLAYER
 49
-0.5
 62
256
  6
BYLAYER
  0
LAYOUT
  5
26A
102
{ACAD_REACTORS
330
1A
102
}
100
AcDbPlotSettings
  1

  2
none_device
  4

  6

 40
0.0
 41
0.0
 42
0.0
 43
0.0
 44
210.0
 45
297.0
 46
0.0
 47
0.0
 48
0.0
 49
0.0
140
0.0
141
0.0
142
1.0
143
1.0
 70
1024
 72
1
 73
0
 74
0
  7

 75
0
147
1.0
148
0.0
149
0.0
100
AcDbLayout
  1
Model
 70
0
 71
0
 10
0.0
 20
0.0
 11
210.0
 21
297.0
 12
0.0
 22
0.0
 32
0.0
 14
0.0
 24
0.0
 34
0.0
 15
0.0
 25
0.0
 35
0.0
146
0.0
 13
0.0
 23
0.0
 33
0.0
 16
1.0
 26
0.0
 36
0.0
 17
0.0
 27
1.0
 37
0.0
 76
0
330
211
345
0
346
0
  0
LAYOUT
  5
26B
102
{ACAD_REACTORS
330
1A
102
}
100
AcDbPlotSettings
  1

  2
none_device
  4

  6

 40
0.0
 41
0.0
 42
0.0
 43
0.0
 44
210.0
 45
297.0
 46
0.0
 47
0.0
 48
0.0
 49
0.0
140
0.0
141
0.0
142
1.0
143
1.0
 70
0
 72
1
 73
0
 74
0
  7

 75
0
147
1.0
148
0.0
149
0.0
100
AcDbLayout
  1
Layout1
 70
0
 71
1
 10
0.0
 20
0.0
 11
210.0
 21
297.0
 12
0.0
 22
0.0
 32
0.0
 14
0.0
 24
0.0
 34
0.0
 15
0.0
 25
0.0
 35
0.0
146
0.0
 13
0.0
 23
0.0
 33
0.0
 16
1.0
 26
0.0
 36
0.0
 17
0.0
 27
1.0
 37
0.0
 76
0
330
212
345
0
346
0
  0
ENDSEC
  0
EOF
