999
DXF file: C:\Users\sesa63760\Dev\_Creo\CAD\MCADID0002132_3D-CAD\drw0001_7.dxf
999
Pro/ENGINEER 2019471 by Parametric Technology Corporation
  0
SECTION
  2
HEADER
  9
$ACADVER
  1
AC1024
  9
$DWGCODEPAGE
  3
ANSI_1252
  9
$EXTMAX
 10
56.0674425181
 20
79.2953829899
 30
0.0
  9
$EXTMIN
 10
0.0
 20
0.0
 30
0.0
  9
$LIMMIN
 10
0.0
 20
0.0
  9
$LIMMAX
 10
56.0674425181
 20
79.2953829899
  9
$VIEWCTR
 10
28.033721259
 20
39.6476914949
  9
$VIEWSIZE
 40
79.2953829899
  9
$CLAYER
  8
0
  9
$LTSCALE
 40
5.1688842245
  9
$CELTYPE
  6
BYLAYER
  9
$DIMSCALE
 40
1.0
  9
$DIMASZ
 40
0.6674695538
  9
$DIMEXO
 40
1.0
  9
$DIMDLI
 40
3.5712291006
  9
$DIMEXE
 40
1.0
  9
$DIMCEN
 40
0.8458174186
  9
$DIMLFAC
 40
1.0
  9
$DIMBLK
  1
_FILLED
  9
$DIMALT
 70
0
  9
$DIMALTF
 40
0.0393700787
  9
$DIMTXT
 40
0.9344573753
  9
$DIMTOL
 70
1
  9
$DIMLIM
 70
0
  9
$DIMTFAC
 40
1.0
  9
$DIMTP
 40
0.01
  9
$DIMTM
 40
0.01
  9
$DIMGAP
 40
0.625
  9
$DIMDSEP
 70
46
  9
$AUNITS
 70
0
  9
$PDMODE
 70
3
  9
$PDSIZE
 40
0.3125
  9
$HANDSEED
  5
2AF
  9
$TILEMODE
 70
1
  9
$MEASUREMENT
 70
1
  9
$INSUNITS
 70
4
  0
ENDSEC
  0
SECTION
  2
CLASSES
  0
CLASS
  1
ACDBDICTIONARYWDFLT
  2
AcDbDictionaryWithDefault
  3
AutoCAD 2000
 90
0
 91
1
280
0
281
0
  0
CLASS
  1
ACDBPLACEHOLDER
  2
AcDbPlaceHolder
  3
AutoCAD 2000
 90
0
 91
1
280
0
281
0
  0
CLASS
  1
LAYOUT
  2
AcDbLayout
  3
AutoCAD 2000
 90
0
 91
0
280
0
281
0
  0
ENDSEC
  0
SECTION
  2
TABLES
  0
TABLE
  2
VPORT
  5
8
100
AcDbSymbolTable
 70
2
  0
VPORT
  5
1F4
100
AcDbSymbolTableRecord
100
AcDbViewportTableRecord
  2
*ACTIVE
 70
0
 10
0.0
 20
0.0
 11
1.0
 21
1.0
 12
28.033721259
 22
39.6476914949
 13
0.0
 23
0.0
 14
1.0
 24
1.0
 15
0.0
 25
0.0
 16
0.0
 26
0.0
 36
1.0
 17
0.0
 27
0.0
 37
0.0
 40
79.2953829899
 41
0.7070707071
 42
50.0
 43
0.0
 44
0.0
 50
0.0
 51
0.0
 71
0
 72
100
 73
1
 74
1
 75
0
 76
0
 77
0
 78
0
  0
ENDTAB
  0
TABLE
  2
LTYPE
  5
5
100
AcDbSymbolTable
 70
6
  0
LTYPE
  5
14
100
AcDbSymbolTableRecord
100
AcDbLinetypeTableRecord
  2
BYBLOCK
 70
0
  3

 72
65
 73
0
 40
0.0
  0
LTYPE
  5
15
100
AcDbSymbolTableRecord
100
AcDbLinetypeTableRecord
  2
BYLAYER
 70
0
  3

 72
65
 73
0
 40
0.0
  0
LTYPE
  5
16
100
AcDbSymbolTableRecord
100
AcDbLinetypeTableRecord
  2
CONTINUOUS
 70
64
  3
Solid line
 72
65
 73
0
 40
0.0
  0
LTYPE
  5
1F5
100
AcDbSymbolTableRecord
100
AcDbLinetypeTableRecord
  2
CENTER
 70
64
  3
____ _ ____ _ ____ _ ____ _ ____ _ ____ _ ____
 72
65
 73
4
 40
0.6
 49
0.375
 74
0
 49
-0.075
 74
0
 49
0.075
 74
0
 49
-0.075
 74
0
  0
LTYPE
  5
1F6
100
AcDbSymbolTableRecord
100
AcDbLinetypeTableRecord
  2
HIDDEN
 70
64
  3
- - - - - - - - - - - - - - - - - - - -
 72
65
 73
2
 40
0.2
 49
0.1
 74
0
 49
-0.1
 74
0
  0
LTYPE
  5
1F7
100
AcDbSymbolTableRecord
100
AcDbLinetypeTableRecord
  2
PHANTOM
 70
64
  3
_____ _ _ _____ _ _ _____ _ _ _____
 72
65
 73
6
 40
0.8
 49
0.45
 74
0
 49
-0.05
 74
0
 49
0.1
 74
0
 49
-0.05
 74
0
 49
0.1
 74
0
 49
-0.05
 74
0
  0
LTYPE
  5
1F8
100
AcDbSymbolTableRecord
100
AcDbLinetypeTableRecord
  2
DOT
 70
64
  3
. . . . . . . . . . . . . . . . . . . .
 72
65
 73
2
 40
0.2
 49
0.1
 74
0
 49
-0.1
 74
0
  0
LTYPE
  5
1F9
100
AcDbSymbolTableRecord
100
AcDbLinetypeTableRecord
  2
DASHED
 70
64
  3
- - - - - - - - - - - - - - - - - - - -
 72
65
 73
2
 40
0.2
 49
0.1
 74
0
 49
-0.1
 74
0
  0
ENDTAB
  0
TABLE
  2
LAYER
  5
2
100
AcDbSymbolTable
 70
36
  0
LAYER
  5
10
100
AcDbSymbolTableRecord
100
AcDbLayerTableRecord
  2
0
 70
0
 62
7
  6
CONTINUOUS
370
-3
390
F
  0
LAYER
  5
1FA
100
AcDbSymbolTableRecord
100
AcDbLayerTableRecord
  2
DEFAULT_1
 70
0
 62
7
  6
CENTER
370
-3
390
F
  0
LAYER
  5
1FB
100
AcDbSymbolTableRecord
100
AcDbLayerTableRecord
  2
DEFAULT_2
 70
0
 62
8
  6
HIDDEN
370
-3
390
F
  0
LAYER
  5
1FC
100
AcDbSymbolTableRecord
100
AcDbLayerTableRecord
  2
DEFAULT_3
 70
0
 62
7
  6
PHANTOM
370
-3
390
F
  0
LAYER
  5
1FD
100
AcDbSymbolTableRecord
100
AcDbLayerTableRecord
  2
00_COMPONENTS
 70
0
 62
7
  6
CONTINUOUS
370
-3
390
F
  0
LAYER
  5
1FE
100
AcDbSymbolTableRecord
100
AcDbLayerTableRecord
  2
01_1_DEFAULT_DATUMS
 70
0
 62
7
  6
CONTINUOUS
370
-3
390
F
  0
LAYER
  5
1FF
100
AcDbSymbolTableRecord
100
AcDbLayerTableRecord
  2
01_PLANES
 70
0
 62
7
  6
CONTINUOUS
370
-3
390
F
  0
LAYER
  5
200
100
AcDbSymbolTableRecord
100
AcDbLayerTableRecord
  2
02_COORD_SYS
 70
0
 62
7
  6
CONTINUOUS
370
-3
390
F
  0
LAYER
  5
201
100
AcDbSymbolTableRecord
100
AcDbLayerTableRecord
  2
03_AXES
 70
0
 62
7
  6
CONTINUOUS
370
-3
390
F
  0
LAYER
  5
202
100
AcDbSymbolTableRecord
100
AcDbLayerTableRecord
  2
04_POINTS
 70
0
 62
7
  6
CONTINUOUS
370
-3
390
F
  0
LAYER
  5
203
100
AcDbSymbolTableRecord
100
AcDbLayerTableRecord
  2
05_CURVES
 70
0
 62
7
  6
CONTINUOUS
370
-3
390
F
  0
LAYER
  5
204
100
AcDbSymbolTableRecord
100
AcDbLayerTableRecord
  2
06_SURFS
 70
0
 62
7
  6
CONTINUOUS
370
-3
390
F
  0
LAYER
  5
205
100
AcDbSymbolTableRecord
100
AcDbLayerTableRecord
  2
07_COSMETICS
 70
0
 62
7
  6
CONTINUOUS
370
-3
390
F
  0
LAYER
  5
206
100
AcDbSymbolTableRecord
100
AcDbLayerTableRecord
  2
10_NOTES
 70
0
 62
7
  6
CONTINUOUS
370
-3
390
F
  0
LAYER
  5
207
100
AcDbSymbolTableRecord
100
AcDbLayerTableRecord
  2
11_NOTES_PUB
 70
0
 62
7
  6
CONTINUOUS
370
-3
390
F
  0
LAYER
  5
208
100
AcDbSymbolTableRecord
100
AcDbLayerTableRecord
  2
13_REF_GTOL
 70
0
 62
7
  6
CONTINUOUS
370
-3
390
F
  0
LAYER
  5
209
100
AcDbSymbolTableRecord
100
AcDbLayerTableRecord
  2
16_MISC
 70
0
 62
7
  6
CONTINUOUS
370
-3
390
F
  0
LAYER
  5
20A
100
AcDbSymbolTableRecord
100
AcDbLayerTableRecord
  2
17_NO_PRINT
 70
0
 62
7
  6
CONTINUOUS
370
-3
390
F
  0
LAYER
  5
20B
100
AcDbSymbolTableRecord
100
AcDbLayerTableRecord
  2
18_DATUM_CAMS_JOINTS
 70
0
 62
7
  6
CONTINUOUS
370
-3
390
F
  0
LAYER
  5
20C
100
AcDbSymbolTableRecord
100
AcDbLayerTableRecord
  2
19_DATUM_FUNCTIONAL
 70
0
 62
7
  6
CONTINUOUS
370
-3
390
F
  0
LAYER
  5
20D
100
AcDbSymbolTableRecord
100
AcDbLayerTableRecord
  2
20_DATUM_KINEMATIC_SCHEME
 70
0
 62
7
  6
CONTINUOUS
370
-3
390
F
  0
ENDTAB
  0
TABLE
  2
STYLE
  5
3
100
AcDbSymbolTable
 70
1
  0
STYLE
  5
11
100
AcDbSymbolTableRecord
100
AcDbTextStyleTableRecord
  2
STANDARD
 70
0
 40
0.0
 41
0.8
 50
0.0
 71
0
 42
0.2
  3
txt
  4

  0
STYLE
  5
20E
100
AcDbSymbolTableRecord
100
AcDbTextStyleTableRecord
  2
TEXTSTYLE_1
 70
0
 40
0.0
 41
0.8
 50
0.0
 71
0
 42
0.2
  3
gdt
  4

  0
ENDTAB
  0
TABLE
  2
VIEW
  5
6
100
AcDbSymbolTable
 70
0
  0
ENDTAB
  0
TABLE
  2
UCS
  5
7
100
AcDbSymbolTable
 70
0
  0
ENDTAB
  0
TABLE
  2
APPID
  5
9
100
AcDbSymbolTable
 70
1
  0
APPID
  5
20F
100
AcDbSymbolTableRecord
100
AcDbRegAppTableRecord
  2
ACAD
 70
0
  0
ENDTAB
  0
TABLE
  2
BLOCK_RECORD
  5
1
100
AcDbSymbolTable
 70
0
  0
BLOCK_RECORD
  5
210
100
AcDbSymbolTableRecord
100
AcDbBlockTableRecord
  2
*Model_Space
  0
BLOCK_RECORD
  5
211
100
AcDbSymbolTableRecord
100
AcDbBlockTableRecord
  2
*Paper_Space
  0
BLOCK_RECORD
  5
212
100
AcDbSymbolTableRecord
100
AcDbBlockTableRecord
  2
_FILLED
  0
ENDTAB
  0
TABLE
  2
DIMSTYLE
  5
A
100
AcDbSymbolTable
 70
1
100
AcDbDimStyleTable
 71
0
  0
DIMSTYLE
105
213
100
AcDbSymbolTableRecord
100
AcDbDimStyleTableRecord
  2
STANDARD
 70
0
  3

  4

 40
1.0
 41
0.6674695538
 42
1.0
 43
0.38
 44
1.0
 45
0.0
 46
0.0
 47
0.01
 48
0.01
140
0.9344573753
141
0.09
142
0.0
143
25.4
144
1.0
145
0.0
146
1.0
147
0.625
 71
1
 72
0
 73
0
 74
0
 75
0
 76
0
 77
1
 78
8
 79
2
170
0
171
1
172
0
173
0
174
0
175
0
176
0
177
0
178
0
270
2
179
2
271
2
272
2
273
2
274
2
275
0
280
0
281
0
282
0
283
1
284
8
285
0
286
0
287
3
288
0
340
11
278
46
341
212
342
212
343
212
344
212
  0
ENDTAB
  0
ENDSEC
  0
SECTION
  2
BLOCKS
  0
BLOCK
  5
20
100
AcDbEntity
  8
0
100
AcDbBlockBegin
  2
*Model_Space
 70
0
 10
0.0
 20
0.0
 30
0.0
  3
*Model_Space
  1

  0
ENDBLK
  5
21
100
AcDbEntity
  8
0
100
AcDbBlockEnd
  0
BLOCK
  5
1C
100
AcDbEntity
  8
0
100
AcDbBlockBegin
  2
*Paper_Space
 70
0
 10
0.0
 20
0.0
 30
0.0
  3
*Paper_Space
  1

  0
ENDBLK
  5
1D
100
AcDbEntity
  8
0
100
AcDbBlockEnd
  0
BLOCK
  5
214
100
AcDbEntity
  8
0
100
AcDbBlockBegin
  2
_FILLED
 70
64
 10
0.0
 20
0.0
  3
_FILLED
  1

  0
SOLID
  5
215
100
AcDbEntity
  8
0
  6
BYBLOCK
 62
0
100
AcDbTrace
 10
0.0
 20
0.0
 11
-1.0
 21
0.25
 12
-1.0
 22
-0.25
 13
-1.0
 23
-0.25
  0
ENDBLK
  5
216
100
AcDbEntity
  8
0
  6
BYBLOCK
 62
0
100
AcDbBlockEnd
  0
ENDSEC
  0
SECTION
  2
ENTITIES
  0
LINE
  5
217
100
AcDbEntity
  8
0
100
AcDbLine
 62
7
  6
CONTINUOUS
 10
25.1855115735
 20
5.8719347257
 11
31.0867666526
 21
5.8719347257
  0
LINE
  5
218
100
AcDbEntity
  8
0
100
AcDbLine
 62
7
  6
CONTINUOUS
 10
31.8867666526
 20
8.3719347257
 11
30.6867666525
 21
8.3719347257
  0
LINE
  5
219
100
AcDbEntity
  8
0
100
AcDbLine
 62
7
  6
CONTINUOUS
 10
25.5842564945
 20
8.3719347257
 11
24.3842564945
 21
8.3719347257
  0
LINE
  5
21A
100
AcDbEntity
  8
0
100
AcDbLine
 62
7
  6
CONTINUOUS
 10
26.7995975635
 20
7.8338771587
 11
25.5842564945
 21
8.3719347257
  0
LINE
  5
21B
100
AcDbEntity
  8
0
100
AcDbLine
 62
7
  6
CONTINUOUS
 10
19.4807780314
 20
12.3976252853
 11
21.3855115735
 21
11.5148330605
  0
LINE
  5
21C
100
AcDbEntity
  8
0
100
AcDbLine
 62
7
  6
CONTINUOUS
 10
23.8855115735
 20
10.3561510122
 11
26.7636830188
 21
9.022196778
  0
LINE
  5
21D
100
AcDbEntity
  8
0
100
AcDbLine
 62
7
  6
CONTINUOUS
 10
13.1807780314
 20
12.9706796467
 11
19.4807780314
 21
12.9706796467
  0
LINE
  5
21E
100
AcDbEntity
  8
0
100
AcDbLine
 62
7
  6
CONTINUOUS
 10
36.7807780314
 20
12.9706796467
 11
43.0807780314
 21
12.9706796467
  0
LINE
  5
21F
100
AcDbEntity
  8
0
100
AcDbLine
 62
7
  6
CONTINUOUS
 10
13.1807780314
 20
16.0706796467
 11
21.184721404
 21
16.0706796467
  0
LINE
  5
220
100
AcDbEntity
  8
0
100
AcDbLine
 62
7
  6
CONTINUOUS
 10
35.0875626924
 20
16.0706796467
 11
43.0807780314
 21
16.0706796467
  0
LINE
  5
221
100
AcDbEntity
  8
0
100
AcDbLine
 62
7
  6
CONTINUOUS
 10
17.2667666526
 20
16.1706796467
 11
20.8867666526
 21
16.1706796467
  0
LINE
  5
222
100
AcDbEntity
  8
0
100
AcDbLine
 62
7
  6
CONTINUOUS
 10
35.3855115735
 20
16.1706796467
 11
39.0055115735
 21
16.1706796467
  0
LINE
  5
223
100
AcDbEntity
  8
0
100
AcDbLine
 62
7
  6
CONTINUOUS
 10
39.3055115735
 20
18.6706796467
 11
37.6960071571
 21
18.6706796467
  0
LINE
  5
224
100
AcDbEntity
  8
0
100
AcDbLine
 62
7
  6
CONTINUOUS
 10
18.5655489056
 20
18.6706796467
 11
16.9655115735
 21
18.6706796467
  0
LINE
  5
225
100
AcDbEntity
  8
0
100
AcDbLine
 62
7
  6
CONTINUOUS
 10
40.2583420868
 20
21.1706796467
 11
39.8622694885
 21
21.1706796467
  0
LINE
  5
226
100
AcDbEntity
  8
0
100
AcDbLine
 62
7
  6
CONTINUOUS
 10
16.3992865743
 20
21.1706796467
 11
16.0057780314
 21
21.1706796467
  0
LINE
  5
227
100
AcDbEntity
  8
0
100
AcDbLine
 62
7
  6
CONTINUOUS
 10
13.1807780314
 20
12.9706796467
 11
13.1807780314
 21
45.7206796467
  0
LINE
  5
228
100
AcDbEntity
  8
0
100
AcDbLine
 62
7
  6
CONTINUOUS
 10
13.4667666526
 20
52.0706796467
 11
13.4667666526
 21
19.9706796467
  0
LINE
  5
229
100
AcDbEntity
  8
0
100
AcDbLine
 62
7
  6
CONTINUOUS
 10
15.7307780314
 20
52.0706796467
 11
15.7307780314
 21
52.6200779673
  0
LINE
  5
22A
100
AcDbEntity
  8
0
100
AcDbLine
 62
7
  6
CONTINUOUS
 10
15.9655115735
 20
19.6706796467
 11
15.9655115735
 21
21.8550077291
  0
LINE
  5
22B
100
AcDbEntity
  8
0
100
AcDbLine
 62
7
  6
CONTINUOUS
 10
15.9655115735
 20
36.4863515642
 11
15.9655115735
 21
52.0706796467
  0
LINE
  5
22C
100
AcDbEntity
  8
0
100
AcDbLine
 62
7
  6
CONTINUOUS
 10
16.0057780314
 20
21.1706796467
 11
16.0057780314
 21
21.7668364853
  0
LINE
  5
22D
100
AcDbEntity
  8
0
100
AcDbLine
 62
7
  6
CONTINUOUS
 10
16.0057780314
 20
36.574522808
 11
16.0057780314
 21
39.2421311149
  0
LINE
  5
22E
100
AcDbEntity
  8
0
100
AcDbLine
 62
7
  6
CONTINUOUS
 10
18.4307780314
 20
47.4851903698
 11
19.3025750002
 21
48.3302906834
  0
LINE
  5
22F
100
AcDbEntity
  8
0
100
AcDbLine
 62
7
  6
CONTINUOUS
 10
16.3307780314
 20
68.6724443414
 11
16.3307780314
 21
52.8435741874
  0
LINE
  5
230
100
AcDbEntity
  8
0
100
AcDbLine
 62
7
  6
CONTINUOUS
 10
16.6307780314
 20
45.7206796467
 11
16.6307780314
 21
47.4990776517
  0
LINE
  5
231
100
AcDbEntity
  8
0
100
AcDbLine
 62
7
  6
CONTINUOUS
 10
18.4307780314
 20
45.7206796467
 11
18.4307780314
 21
47.4990776517
  0
LINE
  5
232
100
AcDbEntity
  8
0
100
AcDbLine
 62
7
  6
CONTINUOUS
 10
19.3025750002
 20
48.3302906834
 11
19.3307780314
 21
48.3854046294
  0
LINE
  5
233
100
AcDbEntity
  8
0
100
AcDbLine
 62
7
  6
CONTINUOUS
 10
13.1807780314
 20
29.1706796467
 11
13.4667666526
 21
29.1706796467
  0
LINE
  5
234
100
AcDbEntity
  8
0
100
AcDbLine
 62
7
  6
CONTINUOUS
 10
42.8055115735
 20
29.1706796467
 11
43.0807780314
 21
29.1706796467
  0
LINE
  5
235
100
AcDbEntity
  8
0
100
AcDbLine
 62
7
  6
CONTINUOUS
 10
18.7307780314
 20
68.6724443414
 11
18.7307780314
 21
52.8437760913
  0
LINE
  5
236
100
AcDbEntity
  8
0
100
AcDbLine
 62
7
  6
CONTINUOUS
 10
19.3307780314
 20
48.3854046294
 11
19.3307780314
 21
52.6200779673
  0
LINE
  5
237
100
AcDbEntity
  8
0
100
AcDbLine
 62
7
  6
CONTINUOUS
 10
19.4807780314
 20
12.3976252853
 11
19.4807780314
 21
12.9706796467
  0
LINE
  5
238
100
AcDbEntity
  8
0
100
AcDbLine
 62
7
  6
CONTINUOUS
 10
19.5593196201
 20
42.6526520848
 11
19.5593196201
 21
45.7206796467
  0
LINE
  5
239
100
AcDbEntity
  8
0
100
AcDbLine
 62
7
  6
CONTINUOUS
 10
19.5593196201
 20
42.6526520848
 11
16.0057780314
 21
39.2421311149
  0
LINE
  5
23A
100
AcDbEntity
  8
0
100
AcDbLine
 62
7
  6
CONTINUOUS
 10
21.3855115735
 20
15.6719347257
 11
21.3855115735
 21
9.6719347257
  0
LINE
  5
23B
100
AcDbEntity
  8
0
100
AcDbLine
 62
7
  6
CONTINUOUS
 10
26.4307780314
 20
47.4851903698
 11
27.3025750002
 21
48.3302906834
  0
LINE
  5
23C
100
AcDbEntity
  8
0
100
AcDbLine
 62
7
  6
CONTINUOUS
 10
23.7307780314
 20
52.6200779673
 11
23.7307780314
 21
48.3854046294
  0
LINE
  5
23D
100
AcDbEntity
  8
0
100
AcDbLine
 62
7
  6
CONTINUOUS
 10
23.8855115735
 20
8.8706796467
 11
23.8855115735
 21
14.8706796467
  0
LINE
  5
23E
100
AcDbEntity
  8
0
100
AcDbLine
 62
7
  6
CONTINUOUS
 10
24.1307780314
 20
45.7206796467
 11
24.1307780314
 21
45.1269806608
  0
LINE
  5
23F
100
AcDbEntity
  8
0
100
AcDbLine
 62
7
  6
CONTINUOUS
 10
24.3307780314
 20
68.6724443414
 11
24.3307780314
 21
52.8435741874
  0
LINE
  5
240
100
AcDbEntity
  8
0
100
AcDbLine
 62
7
  6
CONTINUOUS
 10
24.6307780314
 20
47.4990776517
 11
24.6307780314
 21
45.7206796467
  0
LINE
  5
241
100
AcDbEntity
  8
0
100
AcDbLine
 62
7
  6
CONTINUOUS
 10
27.3025750002
 20
48.3302906834
 11
27.3307780314
 21
48.3854046294
  0
LINE
  5
242
100
AcDbEntity
  8
0
100
AcDbLine
 62
7
  6
CONTINUOUS
 10
31.6307780314
 20
47.4851903698
 11
32.5025750002
 21
48.3302906834
  0
LINE
  5
243
100
AcDbEntity
  8
0
100
AcDbLine
 62
7
  6
CONTINUOUS
 10
16.6307780314
 20
47.4851903698
 11
15.9655115735
 21
48.1300846654
  0
LINE
  5
244
100
AcDbEntity
  8
0
100
AcDbLine
 62
7
  6
CONTINUOUS
 10
26.1307780314
 20
14.7332170554
 11
26.1307780314
 21
11.0866053244
  0
LINE
  5
245
100
AcDbEntity
  8
0
100
AcDbLine
 62
7
  6
CONTINUOUS
 10
26.4307780314
 20
47.4990776517
 11
26.4307780314
 21
45.7206796467
  0
LINE
  5
246
100
AcDbEntity
  8
0
100
AcDbLine
 62
7
  6
CONTINUOUS
 10
26.7307780314
 20
68.6724443414
 11
26.7307780314
 21
52.8437760913
  0
LINE
  5
247
100
AcDbEntity
  8
0
100
AcDbLine
 62
7
  6
CONTINUOUS
 10
27.3307780314
 20
52.6200779673
 11
27.3307780314
 21
48.3854046294
  0
LINE
  5
248
100
AcDbEntity
  8
0
100
AcDbLine
 62
7
  6
CONTINUOUS
 10
32.5025750002
 20
48.3302906834
 11
32.5307780314
 21
48.3854046294
  0
LINE
  5
249
100
AcDbEntity
  8
0
100
AcDbLine
 62
7
  6
CONTINUOUS
 10
23.7307780314
 20
48.3854046294
 11
23.7589810626
 21
48.3302906834
  0
LINE
  5
24A
100
AcDbEntity
  8
0
100
AcDbLine
 62
7
  6
CONTINUOUS
 10
28.9307780314
 20
52.6200779673
 11
28.9307780314
 21
48.3854046294
  0
LINE
  5
24B
100
AcDbEntity
  8
0
100
AcDbLine
 62
7
  6
CONTINUOUS
 10
29.5307780314
 20
68.6724443414
 11
29.5307780314
 21
52.8435741874
  0
LINE
  5
24C
100
AcDbEntity
  8
0
100
AcDbLine
 62
7
  6
CONTINUOUS
 10
29.8307780314
 20
47.4990776517
 11
29.8307780314
 21
45.7206796467
  0
LINE
  5
24D
100
AcDbEntity
  8
0
100
AcDbLine
 62
7
  6
CONTINUOUS
 10
30.1307780314
 20
14.7332170554
 11
30.1307780314
 21
11.0866053244
  0
LINE
  5
24E
100
AcDbEntity
  8
0
100
AcDbLine
 62
7
  6
CONTINUOUS
 10
39.8221269005
 20
47.6706796467
 11
40.3055115735
 21
48.1392618434
  0
LINE
  5
24F
100
AcDbEntity
  8
0
100
AcDbLine
 62
7
  6
CONTINUOUS
 10
17.9195032939
 20
41.3706796467
 11
15.9655115735
 21
41.3706796467
  0
LINE
  5
250
100
AcDbEntity
  8
0
100
AcDbLine
 62
7
  6
CONTINUOUS
 10
31.6307780314
 20
47.4990776517
 11
31.6307780314
 21
45.7206796467
  0
LINE
  5
251
100
AcDbEntity
  8
0
100
AcDbLine
 62
7
  6
CONTINUOUS
 10
31.9307780314
 20
68.6724443414
 11
31.9307780314
 21
52.8437760913
  0
LINE
  5
252
100
AcDbEntity
  8
0
100
AcDbLine
 62
7
  6
CONTINUOUS
 10
32.1307780314
 20
45.1269806608
 11
32.1307780314
 21
45.7206796467
  0
LINE
  5
253
100
AcDbEntity
  8
0
100
AcDbLine
 62
7
  6
CONTINUOUS
 10
32.3855115735
 20
14.8706796467
 11
32.3855115735
 21
8.8706796467
  0
LINE
  5
254
100
AcDbEntity
  8
0
100
AcDbLine
 62
7
  6
CONTINUOUS
 10
32.5307780314
 20
52.6200779673
 11
32.5307780314
 21
48.3854046294
  0
LINE
  5
255
100
AcDbEntity
  8
0
100
AcDbLine
 62
7
  6
CONTINUOUS
 10
40.3055115735
 20
45.0706796467
 11
37.7037655519
 21
45.0706796467
  0
LINE
  5
256
100
AcDbEntity
  8
0
100
AcDbLine
 62
7
  6
CONTINUOUS
 10
24.6307780314
 20
47.4851903698
 11
23.7589810626
 21
48.3302906834
  0
LINE
  5
257
100
AcDbEntity
  8
0
100
AcDbLine
 62
7
  6
CONTINUOUS
 10
28.9307780314
 20
48.3854046294
 11
28.9589810626
 21
48.3302906834
  0
LINE
  5
258
100
AcDbEntity
  8
0
100
AcDbLine
 62
7
  6
CONTINUOUS
 10
34.8867666526
 20
9.6719347257
 11
34.8867666526
 21
15.6719347257
  0
LINE
  5
259
100
AcDbEntity
  8
0
100
AcDbLine
 62
7
  6
CONTINUOUS
 10
35.1307780314
 20
45.7206796467
 11
35.1307780314
 21
47.6706796467
  0
LINE
  5
25A
100
AcDbEntity
  8
0
100
AcDbLine
 62
7
  6
CONTINUOUS
 10
24.1307780314
 20
45.1269806608
 11
32.1307780314
 21
45.1269806608
  0
LINE
  5
25B
100
AcDbEntity
  8
0
100
AcDbLine
 62
7
  6
CONTINUOUS
 10
13.1807780314
 20
45.7206796467
 11
13.4667666526
 21
45.7206796467
  0
LINE
  5
25C
100
AcDbEntity
  8
0
100
AcDbLine
 62
7
  6
CONTINUOUS
 10
15.9655115735
 20
45.7206796467
 11
35.1307780314
 21
45.7206796467
  0
LINE
  5
25D
100
AcDbEntity
  8
0
100
AcDbLine
 62
7
  6
CONTINUOUS
 10
29.8307780314
 20
47.4851903698
 11
28.9589810626
 21
48.3302906834
  0
LINE
  5
25E
100
AcDbEntity
  8
0
100
AcDbLine
 62
7
  6
CONTINUOUS
 10
36.7807780314
 20
12.9706796467
 11
36.7807780314
 21
12.3976252853
  0
LINE
  5
25F
100
AcDbEntity
  8
0
100
AcDbLine
 62
7
  6
CONTINUOUS
 10
36.9307780314
 20
48.3854046294
 11
36.9307780314
 21
52.6200779673
  0
LINE
  5
260
100
AcDbEntity
  8
0
100
AcDbLine
 62
7
  6
CONTINUOUS
 10
37.5307780314
 20
68.6724443414
 11
37.5307780314
 21
52.8435741874
  0
LINE
  5
261
100
AcDbEntity
  8
0
100
AcDbLine
 62
7
  6
CONTINUOUS
 10
37.8307780314
 20
45.0706796467
 11
37.8307780314
 21
45.8271020664
  0
LINE
  5
262
100
AcDbEntity
  8
0
100
AcDbLine
 62
7
  6
CONTINUOUS
 10
35.1307780314
 20
47.6706796467
 11
40.3055115735
 21
47.6706796467
  0
LINE
  5
263
100
AcDbEntity
  8
0
100
AcDbLine
 62
7
  6
CONTINUOUS
 10
42.8055115735
 20
47.6706796467
 11
43.0807780314
 21
47.6706796467
  0
LINE
  5
264
100
AcDbEntity
  8
0
100
AcDbLine
 62
7
  6
CONTINUOUS
 10
40.2583420868
 20
40.5406796467
 11
35.1307780314
 21
45.7206796467
  0
LINE
  5
265
100
AcDbEntity
  8
0
100
AcDbLine
 62
7
  6
CONTINUOUS
 10
39.6307780314
 20
45.0706796467
 11
39.6307780314
 21
47.1203786251
  0
LINE
  5
266
100
AcDbEntity
  8
0
100
AcDbLine
 62
7
  6
CONTINUOUS
 10
39.9307780314
 20
68.6724443414
 11
39.9307780314
 21
52.8437760913
  0
LINE
  5
267
100
AcDbEntity
  8
0
100
AcDbLine
 62
7
  6
CONTINUOUS
 10
40.2583420868
 20
40.5406796467
 11
40.2583420868
 21
36.5689083098
  0
LINE
  5
268
100
AcDbEntity
  8
0
100
AcDbLine
 62
7
  6
CONTINUOUS
 10
40.2583420868
 20
21.7724509835
 11
40.2583420868
 21
21.1706796467
  0
LINE
  5
269
100
AcDbEntity
  8
0
100
AcDbLine
 62
7
  6
CONTINUOUS
 10
40.3055115735
 20
52.0706796467
 11
40.3055115735
 21
36.4656215411
  0
LINE
  5
26A
100
AcDbEntity
  8
0
100
AcDbLine
 62
7
  6
CONTINUOUS
 10
40.3055115735
 20
21.8757377522
 11
40.3055115735
 21
19.6706796467
  0
LINE
  5
26B
100
AcDbEntity
  8
0
100
AcDbLine
 62
7
  6
CONTINUOUS
 10
40.5307780314
 20
52.0706796467
 11
40.5307780314
 21
52.6200779673
  0
LINE
  5
26C
100
AcDbEntity
  8
0
100
AcDbLine
 62
7
  6
CONTINUOUS
 10
42.8055115735
 20
52.0706796467
 11
40.3055115735
 21
52.0706796467
  0
LINE
  5
26D
100
AcDbEntity
  8
0
100
AcDbLine
 62
7
  6
CONTINUOUS
 10
15.9655115735
 20
52.0706796467
 11
13.4667666526
 21
52.0706796467
  0
LINE
  5
26E
100
AcDbEntity
  8
0
100
AcDbLine
 62
7
  6
CONTINUOUS
 10
37.6394291622
 20
47.6706796467
 11
36.9589810626
 21
48.3302906834
  0
LINE
  5
26F
100
AcDbEntity
  8
0
100
AcDbLine
 62
7
  6
CONTINUOUS
 10
36.9307780314
 20
48.3854046294
 11
36.9589810626
 21
48.3302906834
  0
LINE
  5
270
100
AcDbEntity
  8
0
100
AcDbLine
 62
7
  6
CONTINUOUS
 10
42.8055115735
 20
19.9706796467
 11
42.8055115735
 21
52.0706796467
  0
LINE
  5
271
100
AcDbEntity
  8
0
100
AcDbLine
 62
7
  6
CONTINUOUS
 10
43.0807780314
 20
12.9706796467
 11
43.0807780314
 21
47.6706796467
  0
LINE
  5
272
100
AcDbEntity
  8
0
100
AcDbLine
 62
7
  6
CONTINUOUS
 10
29.497873369
 20
9.0221969288
 11
32.3855115735
 21
10.3605387485
  0
LINE
  5
273
100
AcDbEntity
  8
0
100
AcDbLine
 62
7
  6
CONTINUOUS
 10
34.8867666526
 20
11.5198024918
 11
36.7807780314
 21
12.3976252853
  0
LINE
  5
274
100
AcDbEntity
  8
0
100
AcDbLine
 62
7
  6
CONTINUOUS
 10
30.6867666525
 20
8.3719347257
 11
29.4714255835
 21
7.8338771587
  0
CIRCLE
  5
275
100
AcDbEntity
  8
0
100
AcDbCircle
 62
7
  6
CONTINUOUS
 10
28.1307780314
 20
29.1706796467
 40
14.25
  0
CIRCLE
  5
276
100
AcDbEntity
  8
0
100
AcDbCircle
 62
7
  6
CONTINUOUS
 10
28.1307780314
 20
29.1706796467
 40
12.61
  0
ARC
  5
277
100
AcDbEntity
  8
0
100
AcDbCircle
 62
7
  6
CONTINUOUS
 10
36.1855115735
 20
14.8706796467
 40
3.8
100
AcDbArc
 50
166.0476802762
 51
180.0
  0
ARC
  5
278
100
AcDbEntity
  8
0
100
AcDbCircle
 62
7
  6
CONTINUOUS
 10
39.0055115735
 20
19.9706796467
 40
3.8
100
AcDbArc
 50
270.0
 51
360.0
  0
ARC
  5
279
100
AcDbEntity
  8
0
100
AcDbCircle
 62
7
  6
CONTINUOUS
 10
31.0867666526
 20
9.6719347257
 40
3.8
100
AcDbArc
 50
270.0
 51
360.0
  0
ARC
  5
27A
100
AcDbEntity
  8
0
100
AcDbCircle
 62
7
  6
CONTINUOUS
 10
25.1855115735
 20
9.6719347257
 40
3.8
100
AcDbArc
 50
180.0
 51
270.0
  0
ARC
  5
27B
100
AcDbEntity
  8
0
100
AcDbCircle
 62
7
  6
CONTINUOUS
 10
17.2667666526
 20
19.9706796467
 40
3.8
100
AcDbArc
 50
180.0
 51
270.0
  0
ARC
  5
27C
100
AcDbEntity
  8
0
100
AcDbCircle
 62
7
  6
CONTINUOUS
 10
20.0855115735
 20
14.8706796467
 40
3.8
100
AcDbArc
 50
0.0
 51
13.9067382052
  0
ARC
  5
27D
100
AcDbEntity
  8
0
100
AcDbCircle
 62
7
  6
CONTINUOUS
 10
28.1355115735
 20
10.8513817167
 40
3.3
100
AcDbArc
 50
246.1199999994
 51
293.8799999999
  0
ARC
  5
27E
100
AcDbEntity
  8
0
100
AcDbCircle
 62
7
  6
CONTINUOUS
 10
28.1307780314
 20
11.9706796467
 40
3.25
100
AcDbArc
 50
245.1247083157
 51
294.8752980023
  0
ARC
  5
27F
100
AcDbEntity
  8
0
100
AcDbCircle
 62
7
  6
CONTINUOUS
 10
16.5807780314
 20
42.8206796467
 40
2.0
100
AcDbArc
 50
251.6777167844
 51
108.3162361688
  0
ARC
  5
280
100
AcDbEntity
  8
0
100
AcDbCircle
 62
7
  6
CONTINUOUS
 10
39.6807780314
 20
45.1706796467
 40
2.0
100
AcDbArc
 50
71.3731396977
 51
288.6221640136
  0
ARC
  5
281
100
AcDbEntity
  8
0
100
AcDbCircle
 62
7
  6
CONTINUOUS
 10
28.0725704364
 20
14.7330825542
 40
1.9417869502
100
AcDbArc
 50
170.1351512027
 51
179.9960314894
  0
ARC
  5
282
100
AcDbEntity
  8
0
100
AcDbCircle
 62
7
  6
CONTINUOUS
 10
28.1911224541
 20
14.7332416407
 40
1.9396501179
100
AcDbArc
 50
359.9992739481
 51
9.9142238039
  0
ARC
  5
283
100
AcDbEntity
  8
0
100
AcDbCircle
 62
7
  6
CONTINUOUS
 10
39.3055115735
 20
19.6706796467
 40
1.0
100
AcDbArc
 50
270.0
 51
360.0
  0
ARC
  5
284
100
AcDbEntity
  8
0
100
AcDbCircle
 62
7
  6
CONTINUOUS
 10
16.9655115735
 20
19.6706796467
 40
1.0
100
AcDbArc
 50
180.0
 51
270.0
  0
ARC
  5
285
100
AcDbEntity
  8
0
100
AcDbCircle
 62
7
  6
CONTINUOUS
 10
31.8867666526
 20
8.8706796467
 40
0.498744921
100
AcDbArc
 50
269.9999999996
 51
360.0
  0
ARC
  5
286
100
AcDbEntity
  8
0
100
AcDbCircle
 62
7
  6
CONTINUOUS
 10
35.3855115735
 20
15.6719347257
 40
0.498744921
100
AcDbArc
 50
89.9999999996
 51
180.0000000004
  0
ARC
  5
287
100
AcDbEntity
  8
0
100
AcDbCircle
 62
7
  6
CONTINUOUS
 10
20.8867666526
 20
15.6719347257
 40
0.498744921
100
AcDbArc
 50
0.0000000001
 51
90.0000000004
  0
ARC
  5
288
100
AcDbEntity
  8
0
100
AcDbCircle
 62
7
  6
CONTINUOUS
 10
24.3842564945
 20
8.8706796467
 40
0.498744921
100
AcDbArc
 50
180.0000000004
 51
270.0000000004
  0
SPLINE
  5
289
100
AcDbEntity
  8
0
100
AcDbSpline
 62
7
  6
CONTINUOUS
 70
0
 71
3
 72
27
 73
23
 74
0
 42
0.0000001
 43
0.0000001
 44
0.0000000001
 40
0.0
 40
0.0
 40
0.0
 40
0.0
 40
0.0620470604
 40
0.0931358847
 40
0.1242606575
 40
0.1865698974
 40
0.2490248491
 40
0.2803283764
 40
0.3116640151
 40
0.3743733486
 40
0.4371663107
 40
0.5000029037
 40
0.5628391868
 40
0.6256312849
 40
0.6883394033
 40
0.7196742845
 40
0.7509771354
 40
0.8134319382
 40
0.875741028
 40
0.9068651638
 40
0.9379551755
 40
1.0
 40
1.0
 40
1.0
 40
1.0
 10
30.9578671013
 20
9.6639595075
 30
0.0
 10
30.9064523388
 20
9.5213230144
 30
0.0
 10
30.812344766
 20
9.3127770112
 30
0.0
 10
30.6560607627
 20
9.0521871685
 30
0.0
 10
30.4797574698
 20
8.8038382553
 30
0.0
 10
30.2237552494
 20
8.5195908197
 30
0.0
 10
29.9268995186
 20
8.2776529665
 30
0.0
 10
29.6692170559
 20
8.112724613
 30
0.0
 10
29.3991649825
 20
7.9676314426
 30
0.0
 10
29.041596285
 20
7.8252873158
 30
0.0
 10
28.5914886572
 20
7.7213255545
 30
0.0
 10
28.1304986762
 20
7.6864102367
 30
0.0
 10
27.6695170237
 20
7.7214087418
 30
0.0
 10
27.2194342865
 20
7.825451344
 30
0.0
 10
26.8618968872
 20
7.9678560276
 30
0.0
 10
26.5918789083
 20
8.1129987346
 30
0.0
 10
26.3342262766
 20
8.2779663895
 30
0.0
 10
26.0374187333
 20
8.5199605864
 30
0.0
 10
25.7814697155
 20
8.8042512559
 30
0.0
 10
25.6052007179
 20
9.052626188
 30
0.0
 10
25.4489800784
 20
9.3132494841
 30
0.0
 10
25.354906446
 20
9.5218067129
 30
0.0
 10
25.3035159828
 20
9.664446155
 30
0.0
  0
SPLINE
  5
28A
100
AcDbEntity
  8
0
100
AcDbSpline
 62
7
  6
CONTINUOUS
 70
0
 71
3
 72
15
 73
11
 74
0
 42
0.0000001
 43
0.0000001
 44
0.0000000001
 40
0.0
 40
0.0
 40
0.0
 40
0.0
 40
0.1241674498
 40
0.2484504878
 40
0.3729509794
 40
0.4977404985
 40
0.6228627274
 40
0.748308174
 40
0.8740588576
 40
1.0
 40
1.0
 40
1.0
 40
1.0
 10
26.1307834909
 20
14.7332170493
 30
0.0
 10
26.1307771977
 20
14.6183043621
 30
0.0
 10
26.1513352206
 20
14.3878494977
 30
0.0
 10
26.242822494
 20
14.0532449821
 30
0.0
 10
26.3921694647
 20
13.739408572
 30
0.0
 10
26.5947567036
 20
13.4560886978
 30
0.0
 10
26.844363473
 20
13.2119428537
 30
0.0
 10
27.1333412672
 20
13.0143780815
 30
0.0
 10
27.4527242365
 20
12.8695138537
 30
0.0
 10
27.679590166
 20
12.8109424563
 30
0.0
 10
27.7945343318
 20
12.79163662
 30
0.0
  0
SPLINE
  5
28B
100
AcDbEntity
  8
0
100
AcDbSpline
 62
7
  6
CONTINUOUS
 70
0
 71
3
 72
21
 73
17
 74
0
 42
0.0000001
 43
0.0000001
 44
0.0000000001
 40
0.0
 40
0.0
 40
0.0
 40
0.0
 40
0.125720192
 40
0.2513912566
 40
0.314252649
 40
0.3770428023
 40
0.4397463304
 40
0.5023547336
 40
0.564862323
 40
0.6272659624
 40
0.6895689376
 40
0.7517797309
 40
0.8139100956
 40
0.8759772875
 40
0.9379997012
 40
1.0
 40
1.0
 40
1.0
 40
1.0
 10
27.7945343318
 20
12.79163662
 30
0.0
 10
27.9372237505
 20
12.7676707359
 30
0.0
 10
28.2285881271
 20
12.75031199
 30
0.0
 10
28.5887656781
 20
12.8066446467
 30
0.0
 10
28.8641503413
 20
12.8966328208
 30
0.0
 10
29.0621910173
 20
12.985845871
 30
0.0
 10
29.2492218498
 20
13.0956851561
 30
0.0
 10
29.4230399743
 20
13.2248904229
 30
0.0
 10
29.5816294178
 20
13.3718851585
 30
0.0
 10
29.7230574918
 20
13.5349964821
 30
0.0
 10
29.8457136122
 20
13.7122419935
 30
0.0
 10
29.9480847389
 20
13.9015737866
 30
0.0
 10
30.0290121697
 20
14.1007217312
 30
0.0
 10
30.0875013339
 20
14.3073591266
 30
0.0
 10
30.1228755111
 20
14.519003043
 30
0.0
 10
30.1307686641
 20
14.661862551
 30
0.0
 10
30.1307725718
 20
14.7332170614
 30
0.0
  0
SPLINE
  5
28C
100
AcDbEntity
  8
0
100
AcDbSpline
 62
7
  6
CONTINUOUS
 70
0
 71
3
 72
23
 73
19
 74
0
 42
0.0000001
 43
0.0000001
 44
0.0000000001
 40
0.0
 40
0.0
 40
0.0
 40
0.0
 40
0.0621245035
 40
0.1243688711
 40
0.186736064
 40
0.2492215296
 40
0.3118123309
 40
0.3744886794
 40
0.4372256512
 40
0.4999943072
 40
0.5627631942
 40
0.6255009809
 40
0.6881787302
 40
0.7507713307
 40
0.8132587787
 40
0.8756268908
 40
0.9378728507
 40
1.0
 40
1.0
 40
1.0
 40
1.0
 10
25.5485313561
 20
9.5827194598
 30
0.0
 10
25.614424733
 20
9.4729940257
 30
0.0
 10
25.7608567745
 20
9.2616881066
 30
0.0
 10
26.0198093606
 20
8.9757804204
 30
0.0
 10
26.314078108
 20
8.7251305768
 30
0.0
 10
26.6386983702
 20
8.5140000088
 30
0.0
 10
26.9882576602
 20
8.3459065374
 30
0.0
 10
27.3568977769
 20
8.2236408805
 30
0.0
 10
27.738461047
 20
8.1492329363
 30
0.0
 10
28.1265774723
 20
8.1239306858
 30
0.0
 10
28.51476335
 20
8.1481678842
 30
0.0
 10
28.8965353465
 20
8.2215228148
 30
0.0
 10
29.2655203522
 20
8.3427704464
 30
0.0
 10
29.6155518795
 20
8.5099033635
 30
0.0
 10
29.9407633382
 20
8.7201391224
 30
0.0
 10
30.2357416288
 20
8.9699671126
 30
0.0
 10
30.4955026587
 20
9.2551559772
 30
0.0
 10
30.642525782
 20
9.4660607854
 30
0.0
 10
30.7087354562
 20
9.5756020214
 30
0.0
  0
SPLINE
  5
28D
100
AcDbEntity
  8
0
100
AcDbSpline
 62
7
  6
CONTINUOUS
 70
0
 71
3
 72
22
 73
18
 74
0
 42
0.0000001
 43
0.0000001
 44
0.0000000001
 40
0.0
 40
0.0
 40
0.0
 40
0.0
 40
0.1876166518
 40
0.3682907797
 40
0.5352434201
 40
0.6116743948
 40
0.6824540168
 40
0.7469830772
 40
0.8047142285
 40
0.8552291598
 40
0.8982102032
 40
0.933548599
 40
0.961452107
 40
0.9728654472
 40
0.9828425722
 40
0.9917246236
 40
1.0
 40
1.0
 40
1.0
 40
1.0
 10
25.5307780314
 20
52.9326446871
 30
0.0
 10
25.6478388557
 20
52.9326446871
 30
0.0
 10
25.8776504398
 20
52.9287853384
 30
0.0
 10
26.2112285537
 20
52.9115600379
 30
0.0
 10
26.4748274846
 20
52.8876706246
 30
0.0
 10
26.6692842956
 20
52.86282399
 30
0.0
 10
26.7998340831
 20
52.842436538
 30
0.0
 10
26.9181939484
 20
52.8199903909
 30
0.0
 10
27.0232567757
 20
52.7956832027
 30
0.0
 10
27.1140408391
 20
52.7698027609
 30
0.0
 10
27.1897879145
 20
52.7425976313
 30
0.0
 10
27.2498412701
 20
52.7143501071
 30
0.0
 10
27.2890701665
 20
52.6885912681
 30
0.0
 10
27.3111096192
 20
52.6669908426
 30
0.0
 10
27.3223000461
 20
52.6516343357
 30
0.0
 10
27.329186923
 20
52.6359968522
 30
0.0
 10
27.3307724481
 20
52.6252412743
 30
0.0
 10
27.3307722271
 20
52.6200779673
 30
0.0
  0
SPLINE
  5
28E
100
AcDbEntity
  8
0
100
AcDbSpline
 62
7
  6
CONTINUOUS
 70
0
 71
3
 72
22
 73
18
 74
0
 42
0.0000001
 43
0.0000001
 44
0.0000000001
 40
0.0
 40
0.0
 40
0.0
 40
0.0
 40
0.1876166518
 40
0.3682907797
 40
0.5352434201
 40
0.6116743948
 40
0.6824540168
 40
0.7469830772
 40
0.8047142285
 40
0.8552291598
 40
0.8982102032
 40
0.933548599
 40
0.961452107
 40
0.9728654472
 40
0.9828425722
 40
0.9917246236
 40
1.0
 40
1.0
 40
1.0
 40
1.0
 10
17.5307780314
 20
52.9326446871
 30
0.0
 10
17.6478388557
 20
52.9326446871
 30
0.0
 10
17.8776504398
 20
52.9287853384
 30
0.0
 10
18.2112285537
 20
52.9115600379
 30
0.0
 10
18.4748274846
 20
52.8876706246
 30
0.0
 10
18.6692842956
 20
52.86282399
 30
0.0
 10
18.7998340831
 20
52.842436538
 30
0.0
 10
18.9181939484
 20
52.8199903909
 30
0.0
 10
19.0232567757
 20
52.7956832027
 30
0.0
 10
19.1140408391
 20
52.7698027609
 30
0.0
 10
19.1897879145
 20
52.7425976313
 30
0.0
 10
19.2498412701
 20
52.7143501071
 30
0.0
 10
19.2890701665
 20
52.6885912681
 30
0.0
 10
19.3111096192
 20
52.6669908426
 30
0.0
 10
19.3223000461
 20
52.6516343357
 30
0.0
 10
19.329186923
 20
52.6359968522
 30
0.0
 10
19.3307724481
 20
52.6252412743
 30
0.0
 10
19.3307722271
 20
52.6200779673
 30
0.0
  0
SPLINE
  5
28F
100
AcDbEntity
  8
0
100
AcDbSpline
 62
7
  6
CONTINUOUS
 70
0
 71
3
 72
22
 73
18
 74
0
 42
0.0000001
 43
0.0000001
 44
0.0000000001
 40
0.0
 40
0.0
 40
0.0
 40
0.0
 40
0.008275334
 40
0.017157188
 40
0.027133954
 40
0.038547018
 40
0.0664501278
 40
0.1017868278
 40
0.144767134
 40
0.1952800578
 40
0.2530102585
 40
0.3175386576
 40
0.3883181855
 40
0.4647501163
 40
0.6317043119
 40
0.8123826294
 40
1.0
 40
1.0
 40
1.0
 40
1.0
 10
15.7307838356
 20
52.6200779674
 30
0.0
 10
15.7307840565
 20
52.6252412474
 30
0.0
 10
15.7323698184
 20
52.6359965254
 30
0.0
 10
15.739255968
 20
52.6516338803
 30
0.0
 10
15.7504455504
 20
52.6669903886
 30
0.0
 10
15.7724845394
 20
52.6885904241
 30
0.0
 10
15.8117124932
 20
52.7143478821
 30
0.0
 10
15.8717633881
 20
52.7425964041
 30
0.0
 10
15.9475083043
 20
52.7697994896
 30
0.0
 10
16.03828957
 20
52.7956810872
 30
0.0
 10
16.1433503093
 20
52.8199874204
 30
0.0
 10
16.2617089408
 20
52.8424341509
 30
0.0
 10
16.3922587737
 20
52.8628221231
 30
0.0
 10
16.5867170511
 20
52.8876689834
 30
0.0
 10
16.8503200366
 20
52.9115596512
 30
0.0
 10
17.1839021565
 20
52.9287850994
 30
0.0
 10
17.4137167714
 20
52.9326446871
 30
0.0
 10
17.5307780314
 20
52.9326446871
 30
0.0
  0
SPLINE
  5
290
100
AcDbEntity
  8
0
100
AcDbSpline
 62
7
  6
CONTINUOUS
 70
0
 71
3
 72
29
 73
25
 74
0
 42
0.0000001
 43
0.0000001
 44
0.0000000001
 40
0.0
 40
0.0
 40
0.0
 40
0.0
 40
0.0615005874
 40
0.0923421117
 40
0.1232287922
 40
0.1851561751
 40
0.2474420224
 40
0.2787670703
 40
0.3101863907
 40
0.3416944197
 40
0.3732815213
 40
0.4365686901
 40
0.499999406
 40
0.5634301696
 40
0.6267174719
 40
0.6583046721
 40
0.6898128013
 40
0.7212322384
 40
0.7525573978
 40
0.8148434732
 40
0.8767710345
 40
0.9076577875
 40
0.9384993799
 40
1.0
 40
1.0
 40
1.0
 40
1.0
 10
24.3307780314
 20
68.6724443414
 30
0.0
 10
24.3307780314
 20
68.8506144856
 30
0.0
 10
24.3038401353
 20
69.1191261071
 30
0.0
 10
24.2155122991
 20
69.4654613261
 30
0.0
 10
24.0928057086
 20
69.8026047168
 30
0.0
 10
23.8765747825
 20
70.2000525839
 30
0.0
 10
23.5855860647
 20
70.5481694553
 30
0.0
 10
23.3147137692
 20
70.7893727866
 30
0.0
 10
23.093716162
 20
70.9505061524
 30
0.0
 10
22.8573874728
 20
71.0896741055
 30
0.0
 10
22.5249622537
 20
71.2442604034
 30
0.0
 10
22.082449958
 20
71.3761393831
 30
0.0
 10
21.5307831153
 20
71.4294629813
 30
0.0
 10
20.9791156939
 20
71.376141288
 30
0.0
 10
20.5366021702
 20
71.2442635246
 30
0.0
 10
20.2041756218
 20
71.0896777934
 30
0.0
 10
19.9678457647
 20
70.9505100113
 30
0.0
 10
19.7468470303
 20
70.7893765723
 30
0.0
 10
19.4759732052
 20
70.5481729612
 30
0.0
 10
19.1849830673
 20
70.2000552803
 30
0.0
 10
18.9687510151
 20
69.8026064163
 30
0.0
 10
18.8460440257
 20
69.4654621802
 30
0.0
 10
18.7577159811
 20
69.1191264962
 30
0.0
 10
18.7307780314
 20
68.8506145804
 30
0.0
 10
18.7307780314
 20
68.6724443414
 30
0.0
  0
SPLINE
  5
291
100
AcDbEntity
  8
0
100
AcDbSpline
 62
7
  6
CONTINUOUS
 70
0
 71
3
 72
22
 73
18
 74
0
 42
0.0000001
 43
0.0000001
 44
0.0000000001
 40
0.0
 40
0.0
 40
0.0
 40
0.0
 40
0.008275334
 40
0.017157188
 40
0.027133954
 40
0.038547018
 40
0.0664501278
 40
0.1017868278
 40
0.144767134
 40
0.1952800578
 40
0.2530102585
 40
0.3175386576
 40
0.3883181855
 40
0.4647501163
 40
0.6317043119
 40
0.8123826294
 40
1.0
 40
1.0
 40
1.0
 40
1.0
 10
23.7307838356
 20
52.6200779674
 30
0.0
 10
23.7307840565
 20
52.6252412474
 30
0.0
 10
23.7323698184
 20
52.6359965254
 30
0.0
 10
23.739255968
 20
52.6516338803
 30
0.0
 10
23.7504455504
 20
52.6669903886
 30
0.0
 10
23.7724845394
 20
52.6885904241
 30
0.0
 10
23.8117124932
 20
52.7143478821
 30
0.0
 10
23.8717633881
 20
52.7425964041
 30
0.0
 10
23.9475083043
 20
52.7697994896
 30
0.0
 10
24.03828957
 20
52.7956810872
 30
0.0
 10
24.1433503093
 20
52.8199874204
 30
0.0
 10
24.2617089408
 20
52.8424341509
 30
0.0
 10
24.3922587737
 20
52.8628221231
 30
0.0
 10
24.5867170511
 20
52.8876689834
 30
0.0
 10
24.8503200366
 20
52.9115596512
 30
0.0
 10
25.1839021565
 20
52.9287850994
 30
0.0
 10
25.4137167714
 20
52.9326446871
 30
0.0
 10
25.5307780314
 20
52.9326446871
 30
0.0
  0
SPLINE
  5
292
100
AcDbEntity
  8
0
100
AcDbSpline
 62
7
  6
CONTINUOUS
 70
0
 71
3
 72
33
 73
29
 74
0
 42
0.0000001
 43
0.0000001
 44
0.0000000001
 40
0.0
 40
0.0
 40
0.0
 40
0.0
 40
0.0311166694
 40
0.0622559186
 40
0.0933952339
 40
0.1245488542
 40
0.1557242351
 40
0.186921924
 40
0.2181446084
 40
0.2493945217
 40
0.2806718975
 40
0.3119764354
 40
0.3745850102
 40
0.4372716603
 40
0.5000005379
 40
0.5627293746
 40
0.6254159084
 40
0.6880243097
 40
0.7193287451
 40
0.7506060176
 40
0.7818558275
 40
0.813078411
 40
0.8442760046
 40
0.8754513032
 40
0.9066048606
 40
0.9377441182
 40
0.9688833355
 40
1.0
 40
1.0
 40
1.0
 40
1.0
 10
26.7307780314
 20
68.6724443414
 30
0.0
 10
26.7307780314
 20
68.8407571225
 30
0.0
 10
26.7139700224
 20
69.1777418445
 30
0.0
 10
26.6388135756
 20
69.6781034731
 30
0.0
 10
26.514260115
 20
70.1687694532
 30
0.0
 10
26.3416207908
 20
70.6448364388
 30
0.0
 10
26.1226477848
 20
71.1018027391
 30
0.0
 10
25.8593868452
 20
71.5352025525
 30
0.0
 10
25.5545020985
 20
71.9409051075
 30
0.0
 10
25.2109342358
 20
72.314982764
 30
0.0
 10
24.831983861
 20
72.6538954559
 30
0.0
 10
24.2848601291
 20
73.0544135865
 30
0.0
 10
23.5304393176
 20
73.4523267785
 30
0.0
 10
22.5500715937
 20
73.7456301536
 30
0.0
 10
21.5307694719
 20
73.8446950911
 30
0.0
 10
20.5114683136
 20
73.7456266792
 30
0.0
 10
19.5311033316
 20
73.4523207453
 30
0.0
 10
18.7766850978
 20
73.0544071958
 30
0.0
 10
18.2295642573
 20
72.6538886305
 30
0.0
 10
17.8506153278
 20
72.3149768331
 30
0.0
 10
17.5070496709
 20
71.9408994115
 30
0.0
 10
17.2021660313
 20
71.5351980842
 30
0.0
 10
16.9389064256
 20
71.1017992121
 30
0.0
 10
16.7199342446
 20
70.6448339762
 30
0.0
 10
16.5472955085
 20
70.1687679463
 30
0.0
 10
16.4227423591
 20
69.6781027445
 30
0.0
 10
16.3475860153
 20
69.1777416192
 30
0.0
 10
16.3307780314
 20
68.8407570958
 30
0.0
 10
16.3307780314
 20
68.6724443414
 30
0.0
  0
SPLINE
  5
293
100
AcDbEntity
  8
0
100
AcDbSpline
 62
7
  6
CONTINUOUS
 70
0
 71
3
 72
14
 73
10
 74
0
 42
0.0000001
 43
0.0000001
 44
0.0000000001
 40
0.0
 40
0.0
 40
0.0
 40
0.0
 40
0.3022539004
 40
0.4464351632
 40
0.58245185
 40
0.7078867546
 40
0.820487578
 40
0.9183598526
 40
1.0
 40
1.0
 40
1.0
 40
1.0
 10
17.5307780314
 20
48.6979713492
 30
0.0
 10
17.3676156469
 20
48.6979713492
 30
0.0
 10
17.1265572145
 20
48.6924063095
 30
0.0
 10
16.8127054499
 20
48.6730887215
 30
0.0
 10
16.5945803608
 20
48.6534987249
 30
0.0
 10
16.3941113448
 20
48.6290159428
 30
0.0
 10
16.2150368455
 20
48.6001143266
 30
0.0
 10
16.0607148618
 20
48.5674145547
 30
0.0
 10
15.9673045107
 20
48.5411092221
 30
0.0
 10
15.9256068569
 20
48.5268421341
 30
0.0
  0
SPLINE
  5
294
100
AcDbEntity
  8
0
100
AcDbSpline
 62
7
  6
CONTINUOUS
 70
0
 71
3
 72
21
 73
17
 74
0
 42
0.0000001
 43
0.0000001
 44
0.0000000001
 40
0.0
 40
0.0
 40
0.0
 40
0.0
 40
0.1875756529
 40
0.3683108928
 40
0.535244254
 40
0.682453913
 40
0.7469770113
 40
0.8047168655
 40
0.8552297596
 40
0.8982043845
 40
0.9335519491
 40
0.9614497956
 40
0.9728627977
 40
0.9828411695
 40
0.9917243556
 40
1.0
 40
1.0
 40
1.0
 40
1.0
 10
25.5307780314
 20
47.6553610116
 30
0.0
 10
25.58929481
 20
47.6553610116
 30
0.0
 10
25.7042038376
 20
47.6534257864
 30
0.0
 10
25.870996434
 20
47.6448263267
 30
0.0
 10
26.0247875194
 20
47.6308617198
 30
0.0
 10
26.1418777848
 20
47.6146977075
 30
0.0
 10
26.2244878746
 20
47.5990311416
 30
0.0
 10
26.2770193424
 20
47.5868805567
 30
0.0
 10
26.3224117455
 20
47.5739423052
 30
0.0
 10
26.3602813264
 20
47.5603314955
 30
0.0
 10
26.3903120573
 20
47.546218854
 30
0.0
 10
26.4099234811
 20
47.5333330777
 30
0.0
 10
26.4209409724
 20
47.5225333258
 30
0.0
 10
26.4265376681
 20
47.5148556853
 30
0.0
 10
26.4299838861
 20
47.5070374507
 30
0.0
 10
26.4307780314
 20
47.5016593516
 30
0.0
 10
26.4307780314
 20
47.4990776517
 30
0.0
  0
SPLINE
  5
295
100
AcDbEntity
  8
0
100
AcDbSpline
 62
7
  6
CONTINUOUS
 70
0
 71
3
 72
21
 73
17
 74
0
 42
0.0000001
 43
0.0000001
 44
0.0000000001
 40
0.0
 40
0.0
 40
0.0
 40
0.0
 40
0.1875756529
 40
0.3683108928
 40
0.535244254
 40
0.682453913
 40
0.7469770113
 40
0.8047168655
 40
0.8552297596
 40
0.8982043845
 40
0.9335519491
 40
0.9614497956
 40
0.9728627977
 40
0.9828411695
 40
0.9917243556
 40
1.0
 40
1.0
 40
1.0
 40
1.0
 10
17.5307780314
 20
47.6553610116
 30
0.0
 10
17.58929481
 20
47.6553610116
 30
0.0
 10
17.7042038376
 20
47.6534257864
 30
0.0
 10
17.870996434
 20
47.6448263267
 30
0.0
 10
18.0247875194
 20
47.6308617198
 30
0.0
 10
18.1418777848
 20
47.6146977075
 30
0.0
 10
18.2244878746
 20
47.5990311416
 30
0.0
 10
18.2770193424
 20
47.5868805567
 30
0.0
 10
18.3224117455
 20
47.5739423052
 30
0.0
 10
18.3602813264
 20
47.5603314955
 30
0.0
 10
18.3903120573
 20
47.546218854
 30
0.0
 10
18.4099234811
 20
47.5333330777
 30
0.0
 10
18.4209409724
 20
47.5225333258
 30
0.0
 10
18.4265376681
 20
47.5148556853
 30
0.0
 10
18.4299838861
 20
47.5070374507
 30
0.0
 10
18.4307780314
 20
47.5016593516
 30
0.0
 10
18.4307780314
 20
47.4990776517
 30
0.0
  0
SPLINE
  5
296
100
AcDbEntity
  8
0
100
AcDbSpline
 62
7
  6
CONTINUOUS
 70
0
 71
3
 72
22
 73
18
 74
0
 42
0.0000001
 43
0.0000001
 44
0.0000000001
 40
0.0
 40
0.0
 40
0.0
 40
0.0
 40
0.0082754009
 40
0.0171574189
 40
0.0271344482
 40
0.0385477369
 40
0.066451273
 40
0.1017891194
 40
0.1447697951
 40
0.1952838985
 40
0.253015521
 40
0.3175463931
 40
0.3883277359
 40
0.4647596069
 40
0.6317119036
 40
0.8123846745
 40
1.0
 40
1.0
 40
1.0
 40
1.0
 10
27.3307780314
 20
48.3854046294
 30
0.0
 10
27.3307780314
 20
48.3905679671
 30
0.0
 10
27.3291923341
 20
48.4013234974
 30
0.0
 10
27.3223056503
 20
48.4169610333
 30
0.0
 10
27.3111154367
 20
48.4323176399
 30
0.0
 10
27.2890759036
 20
48.4539180386
 30
0.0
 10
27.2498469193
 20
48.4796763112
 30
0.0
 10
27.1897941657
 20
48.507924224
 30
0.0
 10
27.1140476854
 20
48.5351285655
 30
0.0
 10
27.0232639951
 20
48.5610096145
 30
0.0
 10
26.918199852
 20
48.585316668
 30
0.0
 10
26.7998371602
 20
48.6077631792
 30
0.0
 10
26.6692842794
 20
48.6281513041
 30
0.0
 10
26.4748254516
 20
48.6529979825
 30
0.0
 10
26.2112261991
 20
48.6768869964
 30
0.0
 10
25.8776489729
 20
48.6941121029
 30
0.0
 10
25.6478383771
 20
48.6979713492
 30
0.0
 10
25.5307780314
 20
48.6979713492
 30
0.0
  0
SPLINE
  5
297
100
AcDbEntity
  8
0
100
AcDbSpline
 62
7
  6
CONTINUOUS
 70
0
 71
3
 72
22
 73
18
 74
0
 42
0.0000001
 43
0.0000001
 44
0.0000000001
 40
0.0
 40
0.0
 40
0.0
 40
0.0
 40
0.1876158903
 40
0.3682892041
 40
0.5352420112
 40
0.6116741
 40
0.6824556233
 40
0.7469867185
 40
0.8047186964
 40
0.8552329586
 40
0.8982129005
 40
0.9335501125
 40
0.9614574547
 40
0.9728750799
 40
0.982855325
 40
0.9917356644
 40
1.0
 40
1.0
 40
1.0
 40
1.0
 10
25.5307780314
 20
68.8808221546
 30
0.0
 10
25.6088182619
 20
68.8808221546
 30
0.0
 10
25.762025323
 20
68.8782492907
 30
0.0
 10
25.984410153
 20
68.8667660089
 30
0.0
 10
26.1601429645
 20
68.8508397699
 30
0.0
 10
26.2897821791
 20
68.8342754374
 30
0.0
 10
26.3768174819
 20
68.820683722
 30
0.0
 10
26.4557260265
 20
68.8057193593
 30
0.0
 10
26.5257686185
 20
68.7895134491
 30
0.0
 10
26.586290563
 20
68.7722587603
 30
0.0
 10
26.6367885013
 20
68.7541257308
 30
0.0
 10
26.6768264501
 20
68.7352973791
 30
0.0
 10
26.7029792815
 20
68.7181184157
 30
0.0
 10
26.7176694058
 20
68.7037084526
 30
0.0
 10
26.725128162
 20
68.6934670078
 30
0.0
 10
26.7297189433
 20
68.6830466743
 30
0.0
 10
26.7307780314
 20
68.6758819535
 30
0.0
 10
26.7307780314
 20
68.6724443414
 30
0.0
  0
SPLINE
  5
298
100
AcDbEntity
  8
0
100
AcDbSpline
 62
7
  6
CONTINUOUS
 70
0
 71
3
 72
22
 73
18
 74
0
 42
0.0000001
 43
0.0000001
 44
0.0000000001
 40
0.0
 40
0.0
 40
0.0
 40
0.0
 40
0.0082643356
 40
0.017144675
 40
0.0271249201
 40
0.0385425453
 40
0.0664498875
 40
0.1017870995
 40
0.1447670414
 40
0.1952813036
 40
0.2530132815
 40
0.3175443767
 40
0.3883259
 40
0.4647579888
 40
0.6317107959
 40
0.8123841097
 40
1.0
 40
1.0
 40
1.0
 40
1.0
 10
24.3307780314
 20
68.6724443414
 30
0.0
 10
24.3307780314
 20
68.6758819535
 30
0.0
 10
24.3318371194
 20
68.6830466743
 30
0.0
 10
24.3364279007
 20
68.6934670078
 30
0.0
 10
24.343886657
 20
68.7037084526
 30
0.0
 10
24.3585767812
 20
68.7181184157
 30
0.0
 10
24.3847296127
 20
68.7352973791
 30
0.0
 10
24.4247675614
 20
68.7541257308
 30
0.0
 10
24.4752654997
 20
68.7722587603
 30
0.0
 10
24.5357874443
 20
68.7895134491
 30
0.0
 10
24.6058300363
 20
68.8057193593
 30
0.0
 10
24.6847385809
 20
68.820683722
 30
0.0
 10
24.7717738836
 20
68.8342754374
 30
0.0
 10
24.9014130982
 20
68.8508397699
 30
0.0
 10
25.0771459098
 20
68.8667660089
 30
0.0
 10
25.2995307397
 20
68.8782492907
 30
0.0
 10
25.4527378009
 20
68.8808221546
 30
0.0
 10
25.5307780314
 20
68.8808221546
 30
0.0
  0
SPLINE
  5
299
100
AcDbEntity
  8
0
100
AcDbSpline
 62
7
  6
CONTINUOUS
 70
0
 71
3
 72
37
 73
33
 74
0
 42
0.0000001
 43
0.0000001
 44
0.0000000001
 40
0.0
 40
0.0
 40
0.0
 40
0.0
 40
0.0041311057
 40
0.0085709396
 40
0.0135612017
 40
0.019270099
 40
0.0332236306
 40
0.0508945072
 40
0.0723817226
 40
0.0976404192
 40
0.1265068097
 40
0.1587713173
 40
0.1941646617
 40
0.2323749668
 40
0.3158601294
 40
0.4061839617
 40
0.5
 40
0.5938160383
 40
0.6841398706
 40
0.7676250332
 40
0.8058353383
 40
0.8412286827
 40
0.8734931903
 40
0.9023595808
 40
0.9276182774
 40
0.9491054928
 40
0.9667763694
 40
0.980729901
 40
0.9864387983
 40
0.9914290604
 40
0.9958688943
 40
1.0
 40
1.0
 40
1.0
 40
1.0
 10
16.3307780314
 20
68.6724443414
 30
0.0
 10
16.3307780314
 20
68.6758810619
 30
0.0
 10
16.3318381123
 20
68.6830445669
 30
0.0
 10
16.3364306552
 20
68.6934628752
 30
0.0
 10
16.3438901627
 20
68.7037034467
 30
0.0
 10
16.3585785861
 20
68.7181149057
 30
0.0
 10
16.3847291646
 20
68.7353010128
 30
0.0
 10
16.424769345
 20
68.7541238054
 30
0.0
 10
16.4752656314
 20
68.7722629137
 30
0.0
 10
16.5357890166
 20
68.7895106189
 30
0.0
 10
16.6058315544
 20
68.8057183348
 30
0.0
 10
16.6847411132
 20
68.8206857673
 30
0.0
 10
16.7717735431
 20
68.834271525
 30
0.0
 10
16.9014158393
 20
68.8508462907
 30
0.0
 10
17.0771406614
 20
68.8667623452
 30
0.0
 10
17.2995302665
 20
68.8782503117
 30
0.0
 10
17.5307780314
 20
68.8821296074
 30
0.0
 10
17.7620257963
 20
68.8782503117
 30
0.0
 10
17.9844154013
 20
68.8667623452
 30
0.0
 10
18.1601402235
 20
68.8508462907
 30
0.0
 10
18.2897825196
 20
68.834271525
 30
0.0
 10
18.3768149496
 20
68.8206857673
 30
0.0
 10
18.4557245084
 20
68.8057183348
 30
0.0
 10
18.5257670461
 20
68.7895106189
 30
0.0
 10
18.5862904314
 20
68.7722629137
 30
0.0
 10
18.6367867177
 20
68.7541238054
 30
0.0
 10
18.6768268981
 20
68.7353010128
 30
0.0
 10
18.7029774766
 20
68.7181149057
 30
0.0
 10
18.7176659001
 20
68.7037034467
 30
0.0
 10
18.7251254075
 20
68.6934628752
 30
0.0
 10
18.7297179504
 20
68.6830445669
 30
0.0
 10
18.7307780314
 20
68.6758810619
 30
0.0
 10
18.7307780314
 20
68.6724443414
 30
0.0
  0
SPLINE
  5
29A
100
AcDbEntity
  8
0
100
AcDbSpline
 62
7
  6
CONTINUOUS
 70
0
 71
3
 72
21
 73
17
 74
0
 42
0.0000001
 43
0.0000001
 44
0.0000000001
 40
0.0
 40
0.0
 40
0.0
 40
0.0
 40
0.0082756444
 40
0.0171588305
 40
0.0271372023
 40
0.0385502044
 40
0.0664480509
 40
0.1017956155
 40
0.1447702404
 40
0.1952831345
 40
0.2530229887
 40
0.317546087
 40
0.464755746
 40
0.6316891072
 40
0.8124243471
 40
1.0
 40
1.0
 40
1.0
 40
1.0
 10
16.6307780314
 20
47.4990776517
 30
0.0
 10
16.6307780314
 20
47.5016593516
 30
0.0
 10
16.6315721766
 20
47.5070374507
 30
0.0
 10
16.6350183946
 20
47.5148556853
 30
0.0
 10
16.6406150903
 20
47.5225333258
 30
0.0
 10
16.6516325816
 20
47.5333330777
 30
0.0
 10
16.6712440055
 20
47.546218854
 30
0.0
 10
16.7012747363
 20
47.5603314955
 30
0.0
 10
16.7391443172
 20
47.5739423052
 30
0.0
 10
16.7845367204
 20
47.5868805567
 30
0.0
 10
16.8370681881
 20
47.5990311416
 30
0.0
 10
16.9196782779
 20
47.6146977075
 30
0.0
 10
17.0367685434
 20
47.6308617198
 30
0.0
 10
17.1905596288
 20
47.6448263267
 30
0.0
 10
17.3573522251
 20
47.6534257864
 30
0.0
 10
17.4722612528
 20
47.6553610116
 30
0.0
 10
17.5307780314
 20
47.6553610116
 30
0.0
  0
SPLINE
  5
29B
100
AcDbEntity
  8
0
100
AcDbSpline
 62
7
  6
CONTINUOUS
 70
0
 71
3
 72
21
 73
17
 74
0
 42
0.0000001
 43
0.0000001
 44
0.0000000001
 40
0.0
 40
0.0
 40
0.0
 40
0.0
 40
0.0082756444
 40
0.0171588305
 40
0.0271372023
 40
0.0385502044
 40
0.0664480509
 40
0.1017956155
 40
0.1447702404
 40
0.1952831345
 40
0.2530229887
 40
0.317546087
 40
0.464755746
 40
0.6316891072
 40
0.8124243471
 40
1.0
 40
1.0
 40
1.0
 40
1.0
 10
24.6307780314
 20
47.4990776517
 30
0.0
 10
24.6307780314
 20
47.5016593516
 30
0.0
 10
24.6315721766
 20
47.5070374507
 30
0.0
 10
24.6350183946
 20
47.5148556853
 30
0.0
 10
24.6406150903
 20
47.5225333258
 30
0.0
 10
24.6516325816
 20
47.5333330777
 30
0.0
 10
24.6712440055
 20
47.546218854
 30
0.0
 10
24.7012747363
 20
47.5603314955
 30
0.0
 10
24.7391443172
 20
47.5739423052
 30
0.0
 10
24.7845367204
 20
47.5868805567
 30
0.0
 10
24.8370681881
 20
47.5990311416
 30
0.0
 10
24.9196782779
 20
47.6146977075
 30
0.0
 10
25.0367685434
 20
47.6308617198
 30
0.0
 10
25.1905596288
 20
47.6448263267
 30
0.0
 10
25.3573522251
 20
47.6534257864
 30
0.0
 10
25.4722612528
 20
47.6553610116
 30
0.0
 10
25.5307780314
 20
47.6553610116
 30
0.0
  0
SPLINE
  5
29C
100
AcDbEntity
  8
0
100
AcDbSpline
 62
7
  6
CONTINUOUS
 70
0
 71
3
 72
22
 73
18
 74
0
 42
0.0000001
 43
0.0000001
 44
0.0000000001
 40
0.0
 40
0.0
 40
0.0
 40
0.0
 40
0.0082754009
 40
0.0171574189
 40
0.0271344482
 40
0.0385477369
 40
0.066451273
 40
0.1017891194
 40
0.1447697951
 40
0.1952838985
 40
0.253015521
 40
0.3175463931
 40
0.3883277359
 40
0.4647596069
 40
0.6317119036
 40
0.8123846745
 40
1.0
 40
1.0
 40
1.0
 40
1.0
 10
19.3307780314
 20
48.3854046294
 30
0.0
 10
19.3307780314
 20
48.3905679671
 30
0.0
 10
19.3291923341
 20
48.4013234974
 30
0.0
 10
19.3223056503
 20
48.4169610333
 30
0.0
 10
19.3111154367
 20
48.4323176399
 30
0.0
 10
19.2890759036
 20
48.4539180386
 30
0.0
 10
19.2498469193
 20
48.4796763112
 30
0.0
 10
19.1897941657
 20
48.507924224
 30
0.0
 10
19.1140476854
 20
48.5351285655
 30
0.0
 10
19.0232639951
 20
48.5610096145
 30
0.0
 10
18.918199852
 20
48.585316668
 30
0.0
 10
18.7998371602
 20
48.6077631792
 30
0.0
 10
18.6692842794
 20
48.6281513041
 30
0.0
 10
18.4748254516
 20
48.6529979825
 30
0.0
 10
18.2112261991
 20
48.6768869964
 30
0.0
 10
17.8776489729
 20
48.6941121029
 30
0.0
 10
17.6478383771
 20
48.6979713492
 30
0.0
 10
17.5307780314
 20
48.6979713492
 30
0.0
  0
SPLINE
  5
29D
100
AcDbEntity
  8
0
100
AcDbSpline
 62
7
  6
CONTINUOUS
 70
0
 71
3
 72
22
 73
18
 74
0
 42
0.0000001
 43
0.0000001
 44
0.0000000001
 40
0.0
 40
0.0
 40
0.0
 40
0.0
 40
0.1876153255
 40
0.3682880964
 40
0.5352403931
 40
0.6116722641
 40
0.6824536069
 40
0.746984479
 40
0.8047161015
 40
0.8552302049
 40
0.8982108806
 40
0.933548727
 40
0.9614522631
 40
0.9728655518
 40
0.9828425811
 40
0.9917245991
 40
1.0
 40
1.0
 40
1.0
 40
1.0
 10
25.5307780314
 20
48.6979713492
 30
0.0
 10
25.4137176857
 20
48.6979713492
 30
0.0
 10
25.1839070898
 20
48.6941121029
 30
0.0
 10
24.8503298637
 20
48.6768869964
 30
0.0
 10
24.5867306112
 20
48.6529979825
 30
0.0
 10
24.3922717834
 20
48.6281513041
 30
0.0
 10
24.2617189026
 20
48.6077631792
 30
0.0
 10
24.1433562107
 20
48.585316668
 30
0.0
 10
24.0382920677
 20
48.5610096145
 30
0.0
 10
23.9475083773
 20
48.5351285655
 30
0.0
 10
23.8717618971
 20
48.507924224
 30
0.0
 10
23.8117091434
 20
48.4796763112
 30
0.0
 10
23.7724801592
 20
48.4539180386
 30
0.0
 10
23.750440626
 20
48.4323176399
 30
0.0
 10
23.7392504125
 20
48.4169610333
 30
0.0
 10
23.7323637286
 20
48.4013234974
 30
0.0
 10
23.7307780314
 20
48.3905679671
 30
0.0
 10
23.7307780314
 20
48.3854046294
 30
0.0
  0
SPLINE
  5
29E
100
AcDbEntity
  8
0
100
AcDbSpline
 62
7
  6
CONTINUOUS
 70
0
 71
3
 72
22
 73
18
 74
0
 42
0.0000001
 43
0.0000001
 44
0.0000000001
 40
0.0
 40
0.0
 40
0.0
 40
0.0
 40
0.008275334
 40
0.017157188
 40
0.027133954
 40
0.038547018
 40
0.0664501278
 40
0.1017868278
 40
0.144767134
 40
0.1952800578
 40
0.2530102585
 40
0.3175386576
 40
0.3883181855
 40
0.4647501163
 40
0.6317043119
 40
0.8123826294
 40
1.0
 40
1.0
 40
1.0
 40
1.0
 10
36.9307838356
 20
52.6200779674
 30
0.0
 10
36.9307840565
 20
52.6252412474
 30
0.0
 10
36.9323698184
 20
52.6359965254
 30
0.0
 10
36.939255968
 20
52.6516338803
 30
0.0
 10
36.9504455504
 20
52.6669903886
 30
0.0
 10
36.9724845394
 20
52.6885904241
 30
0.0
 10
37.0117124932
 20
52.7143478821
 30
0.0
 10
37.0717633881
 20
52.7425964041
 30
0.0
 10
37.1475083043
 20
52.7697994896
 30
0.0
 10
37.23828957
 20
52.7956810872
 30
0.0
 10
37.3433503093
 20
52.8199874204
 30
0.0
 10
37.4617089408
 20
52.8424341509
 30
0.0
 10
37.5922587737
 20
52.8628221231
 30
0.0
 10
37.7867170511
 20
52.8876689834
 30
0.0
 10
38.0503200366
 20
52.9115596512
 30
0.0
 10
38.3839021565
 20
52.9287850994
 30
0.0
 10
38.6137167714
 20
52.9326446871
 30
0.0
 10
38.7307780314
 20
52.9326446871
 30
0.0
  0
SPLINE
  5
29F
100
AcDbEntity
  8
0
100
AcDbSpline
 62
7
  6
CONTINUOUS
 70
0
 71
3
 72
22
 73
18
 74
0
 42
0.0000001
 43
0.0000001
 44
0.0000000001
 40
0.0
 40
0.0
 40
0.0
 40
0.0
 40
0.1876166518
 40
0.3682907797
 40
0.5352434201
 40
0.6116743948
 40
0.6824540168
 40
0.7469830772
 40
0.8047142285
 40
0.8552291598
 40
0.8982102032
 40
0.933548599
 40
0.961452107
 40
0.9728654472
 40
0.9828425722
 40
0.9917246236
 40
1.0
 40
1.0
 40
1.0
 40
1.0
 10
30.7307780314
 20
52.9326446871
 30
0.0
 10
30.8478388557
 20
52.9326446871
 30
0.0
 10
31.0776504398
 20
52.9287853384
 30
0.0
 10
31.4112285537
 20
52.9115600379
 30
0.0
 10
31.6748274846
 20
52.8876706246
 30
0.0
 10
31.8692842956
 20
52.86282399
 30
0.0
 10
31.9998340831
 20
52.842436538
 30
0.0
 10
32.1181939484
 20
52.8199903909
 30
0.0
 10
32.2232567757
 20
52.7956832027
 30
0.0
 10
32.3140408391
 20
52.7698027609
 30
0.0
 10
32.3897879145
 20
52.7425976313
 30
0.0
 10
32.4498412701
 20
52.7143501071
 30
0.0
 10
32.4890701665
 20
52.6885912681
 30
0.0
 10
32.5111096192
 20
52.6669908426
 30
0.0
 10
32.5223000461
 20
52.6516343357
 30
0.0
 10
32.529186923
 20
52.6359968522
 30
0.0
 10
32.5307724481
 20
52.6252412743
 30
0.0
 10
32.5307722271
 20
52.6200779673
 30
0.0
  0
SPLINE
  5
2A0
100
AcDbEntity
  8
0
100
AcDbSpline
 62
7
  6
CONTINUOUS
 70
0
 71
3
 72
22
 73
18
 74
0
 42
0.0000001
 43
0.0000001
 44
0.0000000001
 40
0.0
 40
0.0
 40
0.0
 40
0.0
 40
0.1876166518
 40
0.3682907797
 40
0.5352434201
 40
0.6116743948
 40
0.6824540168
 40
0.7469830772
 40
0.8047142285
 40
0.8552291598
 40
0.8982102032
 40
0.933548599
 40
0.961452107
 40
0.9728654472
 40
0.9828425722
 40
0.9917246236
 40
1.0
 40
1.0
 40
1.0
 40
1.0
 10
38.7307780314
 20
52.9326446871
 30
0.0
 10
38.8478388557
 20
52.9326446871
 30
0.0
 10
39.0776504398
 20
52.9287853384
 30
0.0
 10
39.4112285537
 20
52.9115600379
 30
0.0
 10
39.6748274846
 20
52.8876706246
 30
0.0
 10
39.8692842956
 20
52.86282399
 30
0.0
 10
39.9998340831
 20
52.842436538
 30
0.0
 10
40.1181939484
 20
52.8199903909
 30
0.0
 10
40.2232567757
 20
52.7956832027
 30
0.0
 10
40.3140408391
 20
52.7698027609
 30
0.0
 10
40.3897879145
 20
52.7425976313
 30
0.0
 10
40.4498412701
 20
52.7143501071
 30
0.0
 10
40.4890701665
 20
52.6885912681
 30
0.0
 10
40.5111096192
 20
52.6669908426
 30
0.0
 10
40.5223000461
 20
52.6516343357
 30
0.0
 10
40.529186923
 20
52.6359968522
 30
0.0
 10
40.5307724481
 20
52.6252412743
 30
0.0
 10
40.5307722271
 20
52.6200779673
 30
0.0
  0
SPLINE
  5
2A1
100
AcDbEntity
  8
0
100
AcDbSpline
 62
7
  6
CONTINUOUS
 70
0
 71
3
 72
33
 73
29
 74
0
 42
0.0000001
 43
0.0000001
 44
0.0000000001
 40
0.0
 40
0.0
 40
0.0
 40
0.0
 40
0.0311166694
 40
0.0622559186
 40
0.0933952339
 40
0.1245488542
 40
0.1557242351
 40
0.186921924
 40
0.2181446084
 40
0.2493945217
 40
0.2806718975
 40
0.3119764354
 40
0.3745850102
 40
0.4372716603
 40
0.5000005379
 40
0.5627293746
 40
0.6254159084
 40
0.6880243097
 40
0.7193287451
 40
0.7506060176
 40
0.7818558275
 40
0.813078411
 40
0.8442760046
 40
0.8754513032
 40
0.9066048606
 40
0.9377441182
 40
0.9688833355
 40
1.0
 40
1.0
 40
1.0
 40
1.0
 10
29.5307780314
 20
68.6724443414
 30
0.0
 10
29.5307780314
 20
68.8407571225
 30
0.0
 10
29.5475860404
 20
69.1777418445
 30
0.0
 10
29.6227424871
 20
69.6781034731
 30
0.0
 10
29.7472959478
 20
70.1687694532
 30
0.0
 10
29.919935272
 20
70.6448364388
 30
0.0
 10
30.138908278
 20
71.1018027391
 30
0.0
 10
30.4021692175
 20
71.5352025525
 30
0.0
 10
30.7070539643
 20
71.9409051075
 30
0.0
 10
31.050621827
 20
72.314982764
 30
0.0
 10
31.4295722017
 20
72.6538954559
 30
0.0
 10
31.9766959337
 20
73.0544135865
 30
0.0
 10
32.7311167451
 20
73.4523267785
 30
0.0
 10
33.711484469
 20
73.7456301536
 30
0.0
 10
34.7307865908
 20
73.8446950911
 30
0.0
 10
35.7500877492
 20
73.7456266792
 30
0.0
 10
36.7304527311
 20
73.4523207453
 30
0.0
 10
37.484870965
 20
73.0544071958
 30
0.0
 10
38.0319918054
 20
72.6538886305
 30
0.0
 10
38.410940735
 20
72.3149768331
 30
0.0
 10
38.7545063919
 20
71.9408994115
 30
0.0
 10
39.0593900315
 20
71.5351980842
 30
0.0
 10
39.3226496371
 20
71.1017992121
 30
0.0
 10
39.5416218181
 20
70.6448339762
 30
0.0
 10
39.7142605542
 20
70.1687679463
 30
0.0
 10
39.8388137037
 20
69.6781027445
 30
0.0
 10
39.9139700474
 20
69.1777416192
 30
0.0
 10
39.9307780314
 20
68.8407570958
 30
0.0
 10
39.9307780314
 20
68.6724443414
 30
0.0
  0
SPLINE
  5
2A2
100
AcDbEntity
  8
0
100
AcDbSpline
 62
7
  6
CONTINUOUS
 70
0
 71
3
 72
22
 73
18
 74
0
 42
0.0000001
 43
0.0000001
 44
0.0000000001
 40
0.0
 40
0.0
 40
0.0
 40
0.0
 40
0.008275334
 40
0.017157188
 40
0.027133954
 40
0.038547018
 40
0.0664501278
 40
0.1017868278
 40
0.144767134
 40
0.1952800578
 40
0.2530102585
 40
0.3175386576
 40
0.3883181855
 40
0.4647501163
 40
0.6317043119
 40
0.8123826294
 40
1.0
 40
1.0
 40
1.0
 40
1.0
 10
28.9307838356
 20
52.6200779674
 30
0.0
 10
28.9307840565
 20
52.6252412474
 30
0.0
 10
28.9323698184
 20
52.6359965254
 30
0.0
 10
28.939255968
 20
52.6516338803
 30
0.0
 10
28.9504455504
 20
52.6669903886
 30
0.0
 10
28.9724845394
 20
52.6885904241
 30
0.0
 10
29.0117124932
 20
52.7143478821
 30
0.0
 10
29.0717633881
 20
52.7425964041
 30
0.0
 10
29.1475083043
 20
52.7697994896
 30
0.0
 10
29.23828957
 20
52.7956810872
 30
0.0
 10
29.3433503093
 20
52.8199874204
 30
0.0
 10
29.4617089408
 20
52.8424341509
 30
0.0
 10
29.5922587737
 20
52.8628221231
 30
0.0
 10
29.7867170511
 20
52.8876689834
 30
0.0
 10
30.0503200366
 20
52.9115596512
 30
0.0
 10
30.3839021565
 20
52.9287850994
 30
0.0
 10
30.6137167714
 20
52.9326446871
 30
0.0
 10
30.7307780314
 20
52.9326446871
 30
0.0
  0
SPLINE
  5
2A3
100
AcDbEntity
  8
0
100
AcDbSpline
 62
7
  6
CONTINUOUS
 70
0
 71
3
 72
29
 73
25
 74
0
 42
0.0000001
 43
0.0000001
 44
0.0000000001
 40
0.0
 40
0.0
 40
0.0
 40
0.0
 40
0.0615005874
 40
0.0923421117
 40
0.1232287922
 40
0.1851561751
 40
0.2474420224
 40
0.2787670703
 40
0.3101863907
 40
0.3416944197
 40
0.3732815213
 40
0.4365686901
 40
0.499999406
 40
0.5634301696
 40
0.6267174719
 40
0.6583046721
 40
0.6898128013
 40
0.7212322384
 40
0.7525573978
 40
0.8148434732
 40
0.8767710345
 40
0.9076577875
 40
0.9384993799
 40
1.0
 40
1.0
 40
1.0
 40
1.0
 10
31.9307780314
 20
68.6724443414
 30
0.0
 10
31.9307780314
 20
68.8506144856
 30
0.0
 10
31.9577159275
 20
69.1191261071
 30
0.0
 10
32.0460437636
 20
69.4654613261
 30
0.0
 10
32.1687503541
 20
69.8026047168
 30
0.0
 10
32.3849812802
 20
70.2000525839
 30
0.0
 10
32.675969998
 20
70.5481694553
 30
0.0
 10
32.9468422935
 20
70.7893727866
 30
0.0
 10
33.1678399007
 20
70.9505061524
 30
0.0
 10
33.40416859
 20
71.0896741055
 30
0.0
 10
33.736593809
 20
71.2442604034
 30
0.0
 10
34.1791061047
 20
71.3761393831
 30
0.0
 10
34.7307729474
 20
71.4294629813
 30
0.0
 10
35.2824403689
 20
71.376141288
 30
0.0
 10
35.7249538925
 20
71.2442635246
 30
0.0
 10
36.057380441
 20
71.0896777934
 30
0.0
 10
36.293710298
 20
70.9505100113
 30
0.0
 10
36.5147090325
 20
70.7893765723
 30
0.0
 10
36.7855828575
 20
70.5481729612
 30
0.0
 10
37.0765729954
 20
70.2000552803
 30
0.0
 10
37.2928050477
 20
69.8026064163
 30
0.0
 10
37.415512037
 20
69.4654621802
 30
0.0
 10
37.5038400816
 20
69.1191264962
 30
0.0
 10
37.5307780314
 20
68.8506145804
 30
0.0
 10
37.5307780314
 20
68.6724443414
 30
0.0
  0
SPLINE
  5
2A4
100
AcDbEntity
  8
0
100
AcDbSpline
 62
7
  6
CONTINUOUS
 70
0
 71
3
 72
14
 73
10
 74
0
 42
0.0000001
 43
0.0000001
 44
0.0000000001
 40
0.0
 40
0.0
 40
0.0
 40
0.0
 40
0.0805908545
 40
0.1777714449
 40
0.2900362982
 40
0.4154581447
 40
0.5517404554
 40
0.6964031879
 40
1.0
 40
1.0
 40
1.0
 40
1.0
 10
40.3459516558
 20
48.5233662357
 30
0.0
 10
40.3046599855
 20
48.5379418284
 30
0.0
 10
40.2117100974
 20
48.5647702648
 30
0.0
 10
40.0576162076
 20
48.5980776099
 30
0.0
 10
39.8780024069
 20
48.6275459998
 30
0.0
 10
39.6763105991
 20
48.6525345694
 30
0.0
 10
39.4563848417
 20
48.6725419717
 30
0.0
 10
39.1393626977
 20
48.692288252
 30
0.0
 10
38.8957360621
 20
48.6979713492
 30
0.0
 10
38.7307780314
 20
48.6979713492
 30
0.0
  0
SPLINE
  5
2A5
100
AcDbEntity
  8
0
100
AcDbSpline
 62
7
  6
CONTINUOUS
 70
0
 71
3
 72
22
 73
18
 74
0
 42
0.0000001
 43
0.0000001
 44
0.0000000001
 40
0.0
 40
0.0
 40
0.0
 40
0.0
 40
0.1876153255
 40
0.3682880964
 40
0.5352403931
 40
0.6116722641
 40
0.6824536069
 40
0.746984479
 40
0.8047161015
 40
0.8552302049
 40
0.8982108806
 40
0.933548727
 40
0.9614522631
 40
0.9728655518
 40
0.9828425811
 40
0.9917245991
 40
1.0
 40
1.0
 40
1.0
 40
1.0
 10
38.7307780314
 20
48.6979713492
 30
0.0
 10
38.6137176857
 20
48.6979713492
 30
0.0
 10
38.3839070898
 20
48.6941121029
 30
0.0
 10
38.0503298637
 20
48.6768869964
 30
0.0
 10
37.7867306112
 20
48.6529979825
 30
0.0
 10
37.5922717834
 20
48.6281513041
 30
0.0
 10
37.4617189026
 20
48.6077631792
 30
0.0
 10
37.3433562107
 20
48.585316668
 30
0.0
 10
37.2382920677
 20
48.5610096145
 30
0.0
 10
37.1475083773
 20
48.5351285655
 30
0.0
 10
37.0717618971
 20
48.507924224
 30
0.0
 10
37.0117091434
 20
48.4796763112
 30
0.0
 10
36.9724801592
 20
48.4539180386
 30
0.0
 10
36.950440626
 20
48.4323176399
 30
0.0
 10
36.9392504125
 20
48.4169610333
 30
0.0
 10
36.9323637286
 20
48.4013234974
 30
0.0
 10
36.9307780314
 20
48.3905679671
 30
0.0
 10
36.9307780314
 20
48.3854046294
 30
0.0
  0
SPLINE
  5
2A6
100
AcDbEntity
  8
0
100
AcDbSpline
 62
7
  6
CONTINUOUS
 70
0
 71
3
 72
21
 73
17
 74
0
 42
0.0000001
 43
0.0000001
 44
0.0000000001
 40
0.0
 40
0.0
 40
0.0
 40
0.0
 40
0.1875756529
 40
0.3683108928
 40
0.535244254
 40
0.682453913
 40
0.7469770113
 40
0.8047168655
 40
0.8552297596
 40
0.8982043845
 40
0.9335519491
 40
0.9614497956
 40
0.9728627977
 40
0.9828411695
 40
0.9917243556
 40
1.0
 40
1.0
 40
1.0
 40
1.0
 10
30.7307780314
 20
47.6553610116
 30
0.0
 10
30.78929481
 20
47.6553610116
 30
0.0
 10
30.9042038376
 20
47.6534257864
 30
0.0
 10
31.070996434
 20
47.6448263267
 30
0.0
 10
31.2247875194
 20
47.6308617198
 30
0.0
 10
31.3418777848
 20
47.6146977075
 30
0.0
 10
31.4244878746
 20
47.5990311416
 30
0.0
 10
31.4770193424
 20
47.5868805567
 30
0.0
 10
31.5224117455
 20
47.5739423052
 30
0.0
 10
31.5602813264
 20
47.5603314955
 30
0.0
 10
31.5903120573
 20
47.546218854
 30
0.0
 10
31.6099234811
 20
47.5333330777
 30
0.0
 10
31.6209409724
 20
47.5225333258
 30
0.0
 10
31.6265376681
 20
47.5148556853
 30
0.0
 10
31.6299838861
 20
47.5070374507
 30
0.0
 10
31.6307780314
 20
47.5016593516
 30
0.0
 10
31.6307780314
 20
47.4990776517
 30
0.0
  0
SPLINE
  5
2A7
100
AcDbEntity
  8
0
100
AcDbSpline
 62
7
  6
CONTINUOUS
 70
0
 71
3
 72
22
 73
18
 74
0
 42
0.0000001
 43
0.0000001
 44
0.0000000001
 40
0.0
 40
0.0
 40
0.0
 40
0.0
 40
0.0082754009
 40
0.0171574189
 40
0.0271344482
 40
0.0385477369
 40
0.066451273
 40
0.1017891194
 40
0.1447697951
 40
0.1952838985
 40
0.253015521
 40
0.3175463931
 40
0.3883277359
 40
0.4647596069
 40
0.6317119036
 40
0.8123846745
 40
1.0
 40
1.0
 40
1.0
 40
1.0
 10
32.5307780314
 20
48.3854046294
 30
0.0
 10
32.5307780314
 20
48.3905679671
 30
0.0
 10
32.5291923341
 20
48.4013234974
 30
0.0
 10
32.5223056503
 20
48.4169610333
 30
0.0
 10
32.5111154367
 20
48.4323176399
 30
0.0
 10
32.4890759036
 20
48.4539180386
 30
0.0
 10
32.4498469193
 20
48.4796763112
 30
0.0
 10
32.3897941657
 20
48.507924224
 30
0.0
 10
32.3140476854
 20
48.5351285655
 30
0.0
 10
32.2232639951
 20
48.5610096145
 30
0.0
 10
32.118199852
 20
48.585316668
 30
0.0
 10
31.9998371602
 20
48.6077631792
 30
0.0
 10
31.8692842794
 20
48.6281513041
 30
0.0
 10
31.6748254516
 20
48.6529979825
 30
0.0
 10
31.4112261991
 20
48.6768869964
 30
0.0
 10
31.0776489729
 20
48.6941121029
 30
0.0
 10
30.8478383771
 20
48.6979713492
 30
0.0
 10
30.7307780314
 20
48.6979713492
 30
0.0
  0
SPLINE
  5
2A8
100
AcDbEntity
  8
0
100
AcDbSpline
 62
7
  6
CONTINUOUS
 70
0
 71
3
 72
22
 73
18
 74
0
 42
0.0000001
 43
0.0000001
 44
0.0000000001
 40
0.0
 40
0.0
 40
0.0
 40
0.0
 40
0.1876158903
 40
0.3682892041
 40
0.5352420112
 40
0.6116741
 40
0.6824556233
 40
0.7469867185
 40
0.8047186964
 40
0.8552329586
 40
0.8982129005
 40
0.9335501125
 40
0.9614574547
 40
0.9728750799
 40
0.982855325
 40
0.9917356644
 40
1.0
 40
1.0
 40
1.0
 40
1.0
 10
30.7307780314
 20
68.8808221546
 30
0.0
 10
30.8088182619
 20
68.8808221546
 30
0.0
 10
30.962025323
 20
68.8782492907
 30
0.0
 10
31.184410153
 20
68.8667660089
 30
0.0
 10
31.3601429645
 20
68.8508397699
 30
0.0
 10
31.4897821791
 20
68.8342754374
 30
0.0
 10
31.5768174819
 20
68.820683722
 30
0.0
 10
31.6557260265
 20
68.8057193593
 30
0.0
 10
31.7257686185
 20
68.7895134491
 30
0.0
 10
31.786290563
 20
68.7722587603
 30
0.0
 10
31.8367885013
 20
68.7541257308
 30
0.0
 10
31.8768264501
 20
68.7352973791
 30
0.0
 10
31.9029792815
 20
68.7181184157
 30
0.0
 10
31.9176694058
 20
68.7037084526
 30
0.0
 10
31.925128162
 20
68.6934670078
 30
0.0
 10
31.9297189433
 20
68.6830466743
 30
0.0
 10
31.9307780314
 20
68.6758819535
 30
0.0
 10
31.9307780314
 20
68.6724443414
 30
0.0
  0
SPLINE
  5
2A9
100
AcDbEntity
  8
0
100
AcDbSpline
 62
7
  6
CONTINUOUS
 70
0
 71
3
 72
22
 73
18
 74
0
 42
0.0000001
 43
0.0000001
 44
0.0000000001
 40
0.0
 40
0.0
 40
0.0
 40
0.0
 40
0.0082643356
 40
0.017144675
 40
0.0271249201
 40
0.0385425453
 40
0.0664498875
 40
0.1017870995
 40
0.1447670414
 40
0.1952813036
 40
0.2530132815
 40
0.3175443767
 40
0.3883259
 40
0.4647579888
 40
0.6317107959
 40
0.8123841097
 40
1.0
 40
1.0
 40
1.0
 40
1.0
 10
29.5307780314
 20
68.6724443414
 30
0.0
 10
29.5307780314
 20
68.6758819535
 30
0.0
 10
29.5318371194
 20
68.6830466743
 30
0.0
 10
29.5364279007
 20
68.6934670078
 30
0.0
 10
29.543886657
 20
68.7037084526
 30
0.0
 10
29.5585767812
 20
68.7181184157
 30
0.0
 10
29.5847296127
 20
68.7352973791
 30
0.0
 10
29.6247675614
 20
68.7541257308
 30
0.0
 10
29.6752654997
 20
68.7722587603
 30
0.0
 10
29.7357874443
 20
68.7895134491
 30
0.0
 10
29.8058300363
 20
68.8057193593
 30
0.0
 10
29.8847385809
 20
68.820683722
 30
0.0
 10
29.9717738836
 20
68.8342754374
 30
0.0
 10
30.1014130982
 20
68.8508397699
 30
0.0
 10
30.2771459098
 20
68.8667660089
 30
0.0
 10
30.4995307397
 20
68.8782492907
 30
0.0
 10
30.6527378009
 20
68.8808221546
 30
0.0
 10
30.7307780314
 20
68.8808221546
 30
0.0
  0
SPLINE
  5
2AA
100
AcDbEntity
  8
0
100
AcDbSpline
 62
7
  6
CONTINUOUS
 70
0
 71
3
 72
37
 73
33
 74
0
 42
0.0000001
 43
0.0000001
 44
0.0000000001
 40
0.0
 40
0.0
 40
0.0
 40
0.0
 40
0.0041311057
 40
0.0085709396
 40
0.0135612017
 40
0.019270099
 40
0.0332236306
 40
0.0508945072
 40
0.0723817226
 40
0.0976404192
 40
0.1265068097
 40
0.1587713173
 40
0.1941646617
 40
0.2323749668
 40
0.3158601294
 40
0.4061839617
 40
0.5
 40
0.5938160383
 40
0.6841398706
 40
0.7676250332
 40
0.8058353383
 40
0.8412286827
 40
0.8734931903
 40
0.9023595808
 40
0.9276182774
 40
0.9491054928
 40
0.9667763694
 40
0.980729901
 40
0.9864387983
 40
0.9914290604
 40
0.9958688943
 40
1.0
 40
1.0
 40
1.0
 40
1.0
 10
37.5307780314
 20
68.6724443414
 30
0.0
 10
37.5307780314
 20
68.6758810619
 30
0.0
 10
37.5318381123
 20
68.6830445669
 30
0.0
 10
37.5364306552
 20
68.6934628752
 30
0.0
 10
37.5438901627
 20
68.7037034467
 30
0.0
 10
37.5585785861
 20
68.7181149057
 30
0.0
 10
37.5847291646
 20
68.7353010128
 30
0.0
 10
37.624769345
 20
68.7541238054
 30
0.0
 10
37.6752656314
 20
68.7722629137
 30
0.0
 10
37.7357890166
 20
68.7895106189
 30
0.0
 10
37.8058315544
 20
68.8057183348
 30
0.0
 10
37.8847411132
 20
68.8206857673
 30
0.0
 10
37.9717735431
 20
68.834271525
 30
0.0
 10
38.1014158393
 20
68.8508462907
 30
0.0
 10
38.2771406614
 20
68.8667623452
 30
0.0
 10
38.4995302665
 20
68.8782503117
 30
0.0
 10
38.7307780314
 20
68.8821296074
 30
0.0
 10
38.9620257963
 20
68.8782503117
 30
0.0
 10
39.1844154013
 20
68.8667623452
 30
0.0
 10
39.3601402235
 20
68.8508462907
 30
0.0
 10
39.4897825196
 20
68.834271525
 30
0.0
 10
39.5768149496
 20
68.8206857673
 30
0.0
 10
39.6557245084
 20
68.8057183348
 30
0.0
 10
39.7257670461
 20
68.7895106189
 30
0.0
 10
39.7862904314
 20
68.7722629137
 30
0.0
 10
39.8367867177
 20
68.7541238054
 30
0.0
 10
39.8768268981
 20
68.7353010128
 30
0.0
 10
39.9029774766
 20
68.7181149057
 30
0.0
 10
39.9176659001
 20
68.7037034467
 30
0.0
 10
39.9251254075
 20
68.6934628752
 30
0.0
 10
39.9297179504
 20
68.6830445669
 30
0.0
 10
39.9307780314
 20
68.6758810619
 30
0.0
 10
39.9307780314
 20
68.6724443414
 30
0.0
  0
SPLINE
  5
2AB
100
AcDbEntity
  8
0
100
AcDbSpline
 62
7
  6
CONTINUOUS
 70
0
 71
3
 72
21
 73
17
 74
0
 42
0.0000001
 43
0.0000001
 44
0.0000000001
 40
0.0
 40
0.0
 40
0.0
 40
0.0
 40
0.0082756444
 40
0.0171588305
 40
0.0271372023
 40
0.0385502044
 40
0.0664480509
 40
0.1017956155
 40
0.1447702404
 40
0.1952831345
 40
0.2530229887
 40
0.317546087
 40
0.464755746
 40
0.6316891072
 40
0.8124243471
 40
1.0
 40
1.0
 40
1.0
 40
1.0
 10
29.8307780314
 20
47.4990776517
 30
0.0
 10
29.8307780314
 20
47.5016593516
 30
0.0
 10
29.8315721766
 20
47.5070374507
 30
0.0
 10
29.8350183946
 20
47.5148556853
 30
0.0
 10
29.8406150903
 20
47.5225333258
 30
0.0
 10
29.8516325816
 20
47.5333330777
 30
0.0
 10
29.8712440055
 20
47.546218854
 30
0.0
 10
29.9012747363
 20
47.5603314955
 30
0.0
 10
29.9391443172
 20
47.5739423052
 30
0.0
 10
29.9845367204
 20
47.5868805567
 30
0.0
 10
30.0370681881
 20
47.5990311416
 30
0.0
 10
30.1196782779
 20
47.6146977075
 30
0.0
 10
30.2367685434
 20
47.6308617198
 30
0.0
 10
30.3905596288
 20
47.6448263267
 30
0.0
 10
30.5573522251
 20
47.6534257864
 30
0.0
 10
30.6722612528
 20
47.6553610116
 30
0.0
 10
30.7307780314
 20
47.6553610116
 30
0.0
  0
SPLINE
  5
2AC
100
AcDbEntity
  8
0
100
AcDbSpline
 62
7
  6
CONTINUOUS
 70
0
 71
3
 72
22
 73
18
 74
0
 42
0.0000001
 43
0.0000001
 44
0.0000000001
 40
0.0
 40
0.0
 40
0.0
 40
0.0
 40
0.1876153255
 40
0.3682880964
 40
0.5352403931
 40
0.6116722641
 40
0.6824536069
 40
0.746984479
 40
0.8047161015
 40
0.8552302049
 40
0.8982108806
 40
0.933548727
 40
0.9614522631
 40
0.9728655518
 40
0.9828425811
 40
0.9917245991
 40
1.0
 40
1.0
 40
1.0
 40
1.0
 10
30.7307780314
 20
48.6979713492
 30
0.0
 10
30.6137176857
 20
48.6979713492
 30
0.0
 10
30.3839070898
 20
48.6941121029
 30
0.0
 10
30.0503298637
 20
48.6768869964
 30
0.0
 10
29.7867306112
 20
48.6529979825
 30
0.0
 10
29.5922717834
 20
48.6281513041
 30
0.0
 10
29.4617189026
 20
48.6077631792
 30
0.0
 10
29.3433562107
 20
48.585316668
 30
0.0
 10
29.2382920677
 20
48.5610096145
 30
0.0
 10
29.1475083773
 20
48.5351285655
 30
0.0
 10
29.0717618971
 20
48.507924224
 30
0.0
 10
29.0117091434
 20
48.4796763112
 30
0.0
 10
28.9724801592
 20
48.4539180386
 30
0.0
 10
28.950440626
 20
48.4323176399
 30
0.0
 10
28.9392504125
 20
48.4169610333
 30
0.0
 10
28.9323637286
 20
48.4013234974
 30
0.0
 10
28.9307780314
 20
48.3905679671
 30
0.0
 10
28.9307780314
 20
48.3854046294
 30
0.0
  0
ENDSEC
  0
SECTION
  2
OBJECTS
  0
DICTIONARY
  5
C
100
AcDbDictionary
280
0
281
1
  3
ACAD_GROUP
350
D
  3
ACAD_MLINESTYLE
350
17
  3
ACAD_LAYOUT
350
1A
  3
ACAD_PLOTSETTINGS
350
19
  3
ACAD_PLOTSTYLENAME
350
E
  0
DICTIONARY
  5
D
102
{ACAD_REACTORS
330
C
102
}
100
AcDbDictionary
280
0
281
1
  0
ACDBDICTIONARYWDFLT
  5
E
102
{ACAD_REACTORS
330
C
102
}
100
AcDbDictionary
281
1
  3
Normal
350
F
100
AcDbDictionaryWithDefault
340
F
  0
DICTIONARY
  5
17
102
{ACAD_REACTORS
330
C
102
}
100
AcDbDictionary
280
0
281
1
  3
Standard
350
18
  0
DICTIONARY
  5
19
102
{ACAD_REACTORS
330
C
102
}
100
AcDbDictionary
281
1
  0
DICTIONARY
  5
1A
102
{ACAD_REACTORS
330
C
102
}
100
AcDbDictionary
281
1
  3
Model
350
2AD
  3
Layout1
350
2AE
  0
ACDBPLACEHOLDER
  5
F
102
{ACAD_REACTORS
330
E
102
}
  0
MLINESTYLE
  5
18
102
{ACAD_REACTORS
330
17
102
}
100
AcDbMlineStyle
  2
STANDARD
 70
0
  3

 62
256
 51
90.0
 52
90.0
 71
2
 49
0.5
 62
256
  6
BYLAYER
 49
-0.5
 62
256
  6
BYLAYER
  0
LAYOUT
  5
2AD
102
{ACAD_REACTORS
330
1A
102
}
100
AcDbPlotSettings
  1

  2
none_device
  4

  6

 40
0.0
 41
0.0
 42
0.0
 43
0.0
 44
210.0
 45
297.0
 46
0.0
 47
0.0
 48
0.0
 49
0.0
140
0.0
141
0.0
142
1.0
143
1.0
 70
1024
 72
1
 73
0
 74
0
  7

 75
0
147
1.0
148
0.0
149
0.0
100
AcDbLayout
  1
Model
 70
0
 71
0
 10
0.0
 20
0.0
 11
210.0
 21
297.0
 12
0.0
 22
0.0
 32
0.0
 14
0.0
 24
0.0
 34
0.0
 15
0.0
 25
0.0
 35
0.0
146
0.0
 13
0.0
 23
0.0
 33
0.0
 16
1.0
 26
0.0
 36
0.0
 17
0.0
 27
1.0
 37
0.0
 76
0
330
210
345
0
346
0
  0
LAYOUT
  5
2AE
102
{ACAD_REACTORS
330
1A
102
}
100
AcDbPlotSettings
  1

  2
none_device
  4

  6

 40
0.0
 41
0.0
 42
0.0
 43
0.0
 44
210.0
 45
297.0
 46
0.0
 47
0.0
 48
0.0
 49
0.0
140
0.0
141
0.0
142
1.0
143
1.0
 70
0
 72
1
 73
0
 74
0
  7

 75
0
147
1.0
148
0.0
149
0.0
100
AcDbLayout
  1
Layout1
 70
0
 71
1
 10
0.0
 20
0.0
 11
210.0
 21
297.0
 12
0.0
 22
0.0
 32
0.0
 14
0.0
 24
0.0
 34
0.0
 15
0.0
 25
0.0
 35
0.0
146
0.0
 13
0.0
 23
0.0
 33
0.0
 16
1.0
 26
0.0
 36
0.0
 17
0.0
 27
1.0
 37
0.0
 76
0
330
211
345
0
346
0
  0
ENDSEC
  0
EOF
