  0
SECTION
  2
HEADER
  9
$ACADVER
  1
AC1009
  9
$DWGCODEPAGE
  3
ansi_1250
  9
$INSBASE
 10
0.0
 20
0.0
 30
0.0
  9
$EXTMIN
 10
-1.208661
 20
0.0
 30
0.0
  9
$EXTMAX
 10
1.208661
 20
6.676772
 30
0.0
  9
$LIMMIN
 10
0.0
 20
0.0
  9
$LIMMAX
 10
0.0
 20
0.0
  9
$ORTHOMODE
 70
     0
  9
$REGENMODE
 70
     1
  9
$FILLMODE
 70
     1
  9
$QTEXTMODE
 70
     0
  9
$MIRRTEXT
 70
     1
  9
$DRAGMODE
 70
     2
  9
$LTSCALE
 40
1.0
  9
$OSMODE
 70
     0
  9
$ATTMODE
 70
     1
  9
$TEXTSIZE
 40
0.2
  9
$TRACEWID
 40
0.05
  9
$TEXTSTYLE
  7
STANDARD
  9
$CLAYER
  8
0
  9
$CELTYPE
  6
CONTINUOUS
  9
$CECOLOR
 62
   256
  9
$DIMSCALE
 40
1.0
  9
$DIMASZ
 40
0.18
  9
$DIMEXO
 40
0.0625
  9
$DIMDLI
 40
0.38
  9
$DIMRND
 40
0.0
  9
$DIMDLE
 40
0.0
  9
$DIMEXE
 40
0.18
  9
$DIMTP
 40
0.0
  9
$DIMTM
 40
0.0
  9
$DIMTXT
 40
0.18
  9
$DIMCEN
 40
0.09
  9
$DIMTSZ
 40
0.0
  9
$DIMTOL
 70
     0
  9
$DIMLIM
 70
     0
  9
$DIMTIH
 70
     1
  9
$DIMTOH
 70
     1
  9
$DIMSE1
 70
     0
  9
$DIMSE2
 70
     0
  9
$DIMTAD
 70
     0
  9
$DIMZIN
 70
     0
  9
$DIMBLK
  1

  9
$DIMASO
 70
     1
  9
$DIMSHO
 70
     1
  9
$DIMPOST
  1

  9
$DIMAPOST
  1

  9
$DIMALT
 70
     0
  9
$DIMALTD
 70
     2
  9
$DIMALTF
 40
25.4
  9
$DIMLFAC
 40
1.0
  9
$DIMTOFL
 70
     0
  9
$DIMTVP
 40
0.0
  9
$DIMTIX
 70
     0
  9
$DIMSOXD
 70
     0
  9
$DIMSAH
 70
     0
  9
$DIMBLK1
  1

  9
$DIMBLK2
  1

  9
$DIMSTYLE
  2
STANDARD
  9
$DIMCLRD
 70
     0
  9
$DIMCLRE
 70
     0
  9
$DIMCLRT
 70
     0
  9
$DIMTFAC
 40
1.0
  9
$DIMGAP
 40
0.09
  9
$LUNITS
 70
     2
  9
$LUPREC
 70
     4
  9
$AXISMODE
 70
     0
  9
$AXISUNIT
 10
0.0
 20
0.0
  9
$SKETCHINC
 40
0.1
  9
$FILLETRAD
 40
0.0
  9
$AUNITS
 70
     0
  9
$AUPREC
 70
     0
  9
$MENU
  1
acad
  9
$ELEVATION
 40
0.0
  9
$PELEVATION
 40
0.0
  9
$THICKNESS
 40
0.0
  9
$LIMCHECK
 70
     0
  9
$BLIPMODE
 70
     1
  9
$CHAMFERA
 40
0.0
  9
$CHAMFERB
 40
0.0
  9
$SKPOLY
 70
     0
  9
$TDCREATE
 40
0.000000000
  9
$TDUPDATE
 40
0.000000000
  9
$TDINDWG
 40
0.0000000000
  9
$TDUSRTIMER
 40
0.0000000000
  9
$USRTIMER
 70
     1
  9
$ANGBASE
 50
0.0
  9
$ANGDIR
 70
     0
  9
$PDMODE
 70
     0
  9
$PDSIZE
 40
0.0
  9
$PLINEWID
 40
0.0
  9
$COORDS
 70
     0
  9
$SPLFRAME
 70
     0
  9
$SPLINETYPE
 70
     6
  9
$SPLINESEGS
 70
     8
  9
$ATTDIA
 70
     0
  9
$ATTREQ
 70
     1
  9
$HANDLING
 70
     1
  9
$HANDSEED
  5
267
  9
$SURFTAB1
 70
     6
  9
$SURFTAB2
 70
     6
  9
$SURFTYPE
 70
     6
  9
$SURFU
 70
     6
  9
$SURFV
 70
     6
  9
$UCSNAME
  2

  9
$UCSORG
 10
0.0
 20
0.0
 30
0.0
  9
$UCSXDIR
 10
1.0
 20
0.0
 30
0.0
  9
$UCSYDIR
 10
0.0
 20
1.0
 30
0.0
  9
$PUCSNAME
  2

  9
$PUCSORG
 10
0.0
 20
0.0
 30
0.0
  9
$PUCSXDIR
 10
1.0
 20
0.0
 30
0.0
  9
$PUCSYDIR
 10
0.0
 20
1.0
 30
0.0
  9
$USERI1
 70
     0
  9
$USERI2
 70
     0
  9
$USERI3
 70
     0
  9
$USERI4
 70
     0
  9
$USERI5
 70
     0
  9
$USERR1
 40
0.0
  9
$USERR2
 40
0.0
  9
$USERR3
 40
0.0
  9
$USERR4
 40
0.0
  9
$USERR5
 40
0.0
  9
$WORLDVIEW
 70
     1
  9
$SHADEDGE
 70
     3
  9
$SHADEDIF
 70
    70
  9
$TILEMODE
 70
     1
  9
$MAXACTVP
 70
    16
  9
$PINSBASE
 10
0.0
 20
0.0
 30
0.0
  9
$PLIMCHECK
 70
     0
  9
$PEXTMIN
 10
1.000000E+20
 20
1.000000E+20
 30
1.000000E+20
  9
$PEXTMAX
 10
-1.000000E+20
 20
-1.000000E+20
 30
-1.000000E+20
  9
$PLIMMIN
 10
0.0
 20
0.0
  9
$PLIMMAX
 10
12.0
 20
9.0
  9
$UNITMODE
 70
     0
  9
$VISRETAIN
 70
     0
  9
$PLINEGEN
 70
     1
  9
$PSLTSCALE
 70
     0
  9
$TREEDEPTH
 70
  3020
  0
ENDSEC
  0
SECTION
  2
TABLES
  0
TABLE
  2
VPORT
 70
     1
  0
VPORT
  2
*ACTIVE
 70
     0
 10
0.0
 20
0.0
 11
1.0
 21
1.0
 12
6.591288
 22
4.579184
 13
0.0
 23
0.0
 14
1.0
 24
1.0
 15
0.0
 25
0.0
 16
0.0
 26
0.0
 36
1.0
 17
0.0
 27
0.0
 37
0.0
 40
9.158369
 41
0.688564
 42
50.0
 43
0.0
 44
0.0
 50
0.0
 51
0.0
 71
     0
 72
   100
 73
     1
 74
     1
 75
     0
 76
     0
 77
     0
 78
     0
  0
ENDTAB
  0
TABLE
  2
LTYPE
 70
     5
  0
LTYPE
  2
CONTINUOUS
 70
    64
  3
Solid line
 72
    65
 73
     0
 40
0.0
  0
LTYPE
  2
CENTER
 70
    64
  3
Center ____ _ ____ _ ____ _ ____ _ ____ _ ____
 72
    65
 73
     4
 40
50.8
 49
31.75
 49
-6.35
 49
6.35
 49
-6.35
  0
LTYPE
  2
HIDDEN
 70
    64
  3
Hidden __ __ __ __ __ __ __ __ __ __ __ __ __ __
 72
    65
 73
     2
 40
9.525
 49
6.35
 49
-3.175
  0
LTYPE
  2
CENTER2
 70
    64
  3
Center (.5x) ___ _ ___ _ ___ _ ___ _ ___ _ ___
 72
    65
 73
     4
 40
28.575
 49
19.05
 49
-3.175
 49
3.175
 49
-3.175
  0
LTYPE
  2
HIDDEN2
 70
    64
  3
Hidden (.5x) _ _ _ _ _ _ _ _ _ _ _ _ _ _ _ _ _
 72
    65
 73
     2
 40
4.7625
 49
3.175
 49
-1.5875
  0
ENDTAB
  0
TABLE
  2
LAYER
 70
     1
  0
LAYER
  2
0
 70
     0
 62
     7
  6
CONTINUOUS
  0
ENDTAB
  0
TABLE
  2
STYLE
 70
     1
  0
STYLE
  2
STANDARD
 70
     0
 40
0.0
 41
1.0
 50
0.0
 71
     0
 42
0.0
  3
txt
  4

  0
ENDTAB
  0
TABLE
  2
VIEW
 70
     0
  0
ENDTAB
  0
TABLE
  2
UCS
 70
     0
  0
ENDTAB
  0
TABLE
  2
APPID
 70
     1
  0
APPID
  2
ACAD
 70
     0
  0
ENDTAB
  0
TABLE
  2
DIMSTYLE
 70
     1
  0
DIMSTYLE
  2
STANDARD
 70
     0
  3

  4

  5

  6

  7

 40
1.0
 41
0.18
 42
0.0625
 43
0.38
 44
0.18
 45
0.0
 46
0.0
 47
0.0
 48
0.0
 71
     0
 72
     0
 73
     1
 74
     1
 75
     0
 76
     0
 77
     0
 78
     0
140
0.18
141
0.09
142
0.0
143
25.4
144
1.0
145
0.0
146
1.0
147
0.09
170
     0
171
     2
172
     0
173
     0
174
     0
175
     0
176
     0
177
     0
178
     0
  0
ENDTAB
  0
ENDSEC
  0
SECTION
  2
BLOCKS
  0
ENDSEC
  0
SECTION
  2
ENTITIES
  0
LINE
  8
0
  6
CONTINUOUS
 62
     7
  5
157
 10
1.149606
 20
2.417323
 30
0.0
 11
1.149606
 21
3.598425
 31
0.0
  0
LINE
  8
0
  6
CONTINUOUS
 62
     7
  5
158
 10
0.181299
 20
3.598425
 30
0.0
 11
0.178472
 21
3.566535
 31
0.0
  0
LINE
  8
0
  6
CONTINUOUS
 62
     7
  5
159
 10
0.178472
 20
3.566535
 30
0.0
 11
0.169758
 21
3.534774
 31
0.0
  0
LINE
  8
0
  6
CONTINUOUS
 62
     7
  5
15A
 10
0.169758
 20
3.534774
 30
0.0
 11
0.155389
 21
3.505024
 31
0.0
  0
LINE
  8
0
  6
CONTINUOUS
 62
     7
  5
15B
 10
0.155389
 20
3.505024
 30
0.0
 11
0.136277
 21
3.478851
 31
0.0
  0
LINE
  8
0
  6
CONTINUOUS
 62
     7
  5
15C
 10
0.136277
 20
3.478851
 30
0.0
 11
0.113445
 21
3.457005
 31
0.0
  0
LINE
  8
0
  6
CONTINUOUS
 62
     7
  5
15D
 10
0.113445
 20
3.457005
 30
0.0
 11
0.086243
 21
3.438952
 31
0.0
  0
LINE
  8
0
  6
CONTINUOUS
 62
     7
  5
15E
 10
0.086243
 20
3.438952
 30
0.0
 11
0.055834
 21
3.425938
 31
0.0
  0
LINE
  8
0
  6
CONTINUOUS
 62
     7
  5
15F
 10
0.055834
 20
3.425938
 30
0.0
 11
0.02385
 21
3.418702
 31
0.0
  0
LINE
  8
0
  6
CONTINUOUS
 62
     7
  5
160
 10
0.02385
 20
3.418702
 30
0.0
 11
-0.007873
 21
3.417297
 31
0.0
  0
LINE
  8
0
  6
CONTINUOUS
 62
     7
  5
161
 10
-0.007873
 20
3.417297
 30
0.0
 11
-0.039923
 21
3.421576
 31
0.0
  0
LINE
  8
0
  6
CONTINUOUS
 62
     7
  5
162
 10
-0.039923
 20
3.421576
 30
0.0
 11
-0.071343
 21
3.431753
 31
0.0
  0
LINE
  8
0
  6
CONTINUOUS
 62
     7
  5
163
 10
-0.071343
 20
3.431753
 30
0.0
 11
-0.100339
 21
3.447423
 31
0.0
  0
LINE
  8
0
  6
CONTINUOUS
 62
     7
  5
164
 10
-0.100339
 20
3.447423
 30
0.0
 11
-0.125403
 21
3.467492
 31
0.0
  0
LINE
  8
0
  6
CONTINUOUS
 62
     7
  5
165
 10
-0.125403
 20
3.467492
 30
0.0
 11
-0.146339
 21
3.491401
 31
0.0
  0
LINE
  8
0
  6
CONTINUOUS
 62
     7
  5
166
 10
-0.146339
 20
3.491401
 30
0.0
 11
-0.16324
 21
3.519546
 31
0.0
  0
LINE
  8
0
  6
CONTINUOUS
 62
     7
  5
167
 10
-0.16324
 20
3.519546
 30
0.0
 11
-0.174853
 21
3.550512
 31
0.0
  0
LINE
  8
0
  6
CONTINUOUS
 62
     7
  5
168
 10
-0.174853
 20
3.550512
 30
0.0
 11
-0.180607
 21
3.582592
 31
0.0
  0
LINE
  8
0
  6
CONTINUOUS
 62
     7
  5
169
 10
-0.180607
 20
3.582592
 30
0.0
 11
-0.180607
 21
3.614258
 31
0.0
  0
LINE
  8
0
  6
CONTINUOUS
 62
     7
  5
16A
 10
-0.180607
 20
3.614258
 30
0.0
 11
-0.174853
 21
3.646339
 31
0.0
  0
LINE
  8
0
  6
CONTINUOUS
 62
     7
  5
16B
 10
-0.174853
 20
3.646339
 30
0.0
 11
-0.16324
 21
3.677305
 31
0.0
  0
LINE
  8
0
  6
CONTINUOUS
 62
     7
  5
16C
 10
-0.16324
 20
3.677305
 30
0.0
 11
-0.146339
 21
3.705449
 31
0.0
  0
LINE
  8
0
  6
CONTINUOUS
 62
     7
  5
16D
 10
-0.146339
 20
3.705449
 30
0.0
 11
-0.125403
 21
3.729358
 31
0.0
  0
LINE
  8
0
  6
CONTINUOUS
 62
     7
  5
16E
 10
-0.125403
 20
3.729358
 30
0.0
 11
-0.100339
 21
3.749427
 31
0.0
  0
LINE
  8
0
  6
CONTINUOUS
 62
     7
  5
16F
 10
-0.100339
 20
3.749427
 30
0.0
 11
-0.071343
 21
3.765097
 31
0.0
  0
LINE
  8
0
  6
CONTINUOUS
 62
     7
  5
170
 10
-0.071343
 20
3.765097
 30
0.0
 11
-0.039923
 21
3.775274
 31
0.0
  0
LINE
  8
0
  6
CONTINUOUS
 62
     7
  5
171
 10
-0.039923
 20
3.775274
 30
0.0
 11
-0.007873
 21
3.779553
 31
0.0
  0
LINE
  8
0
  6
CONTINUOUS
 62
     7
  5
172
 10
-0.007873
 20
3.779553
 30
0.0
 11
0.02385
 21
3.778149
 31
0.0
  0
LINE
  8
0
  6
CONTINUOUS
 62
     7
  5
173
 10
0.02385
 20
3.778149
 30
0.0
 11
0.055834
 21
3.770913
 31
0.0
  0
LINE
  8
0
  6
CONTINUOUS
 62
     7
  5
174
 10
0.055834
 20
3.770913
 30
0.0
 11
0.086243
 21
3.757898
 31
0.0
  0
LINE
  8
0
  6
CONTINUOUS
 62
     7
  5
175
 10
0.086243
 20
3.757898
 30
0.0
 11
0.113445
 21
3.739845
 31
0.0
  0
LINE
  8
0
  6
CONTINUOUS
 62
     7
  5
176
 10
0.113445
 20
3.739845
 30
0.0
 11
0.136277
 21
3.717999
 31
0.0
  0
LINE
  8
0
  6
CONTINUOUS
 62
     7
  5
177
 10
0.136277
 20
3.717999
 30
0.0
 11
0.155389
 21
3.691826
 31
0.0
  0
LINE
  8
0
  6
CONTINUOUS
 62
     7
  5
178
 10
0.155389
 20
3.691826
 30
0.0
 11
0.169758
 21
3.662076
 31
0.0
  0
LINE
  8
0
  6
CONTINUOUS
 62
     7
  5
179
 10
0.169758
 20
3.662076
 30
0.0
 11
0.178472
 21
3.630315
 31
0.0
  0
LINE
  8
0
  6
CONTINUOUS
 62
     7
  5
17A
 10
0.178472
 20
3.630315
 30
0.0
 11
0.181299
 21
3.598425
 31
0.0
  0
LINE
  8
0
  6
CONTINUOUS
 62
     7
  5
17B
 10
-1.149606
 20
1.496063
 30
0.0
 11
1.149606
 21
1.496063
 31
0.0
  0
LINE
  8
0
  6
CONTINUOUS
 62
     7
  5
17C
 10
1.149606
 20
3.598425
 30
0.0
 11
1.144978
 21
3.701475
 31
0.0
  0
LINE
  8
0
  6
CONTINUOUS
 62
     7
  5
17D
 10
1.144978
 20
3.701475
 30
0.0
 11
1.131132
 21
3.803695
 31
0.0
  0
LINE
  8
0
  6
CONTINUOUS
 62
     7
  5
17E
 10
1.131132
 20
3.803695
 30
0.0
 11
1.108178
 21
3.904263
 31
0.0
  0
LINE
  8
0
  6
CONTINUOUS
 62
     7
  5
17F
 10
1.108178
 20
3.904263
 30
0.0
 11
1.076302
 21
4.002368
 31
0.0
  0
LINE
  8
0
  6
CONTINUOUS
 62
     7
  5
180
 10
1.076302
 20
4.002368
 30
0.0
 11
1.035759
 21
4.097221
 31
0.0
  0
LINE
  8
0
  6
CONTINUOUS
 62
     7
  5
181
 10
1.035759
 20
4.097221
 30
0.0
 11
0.986878
 21
4.188057
 31
0.0
  0
LINE
  8
0
  6
CONTINUOUS
 62
     7
  5
182
 10
0.986878
 20
4.188057
 30
0.0
 11
0.930051
 21
4.274147
 31
0.0
  0
LINE
  8
0
  6
CONTINUOUS
 62
     7
  5
183
 10
0.930051
 20
4.274147
 30
0.0
 11
0.865736
 21
4.354796
 31
0.0
  0
LINE
  8
0
  6
CONTINUOUS
 62
     7
  5
184
 10
0.865736
 20
4.354796
 30
0.0
 11
0.79445
 21
4.429355
 31
0.0
  0
LINE
  8
0
  6
CONTINUOUS
 62
     7
  5
185
 10
0.79445
 20
4.429355
 30
0.0
 11
0.716768
 21
4.497224
 31
0.0
  0
LINE
  8
0
  6
CONTINUOUS
 62
     7
  5
186
 10
0.716768
 20
4.497224
 30
0.0
 11
0.633315
 21
4.557856
 31
0.0
  0
LINE
  8
0
  6
CONTINUOUS
 62
     7
  5
187
 10
0.633315
 20
4.557856
 30
0.0
 11
0.544762
 21
4.610763
 31
0.0
  0
LINE
  8
0
  6
CONTINUOUS
 62
     7
  5
188
 10
0.544762
 20
4.610763
 30
0.0
 11
0.451824
 21
4.65552
 31
0.0
  0
LINE
  8
0
  6
CONTINUOUS
 62
     7
  5
189
 10
0.451824
 20
4.65552
 30
0.0
 11
0.355248
 21
4.691766
 31
0.0
  0
LINE
  8
0
  6
CONTINUOUS
 62
     7
  5
18A
 10
0.355248
 20
4.691766
 30
0.0
 11
0.255811
 21
4.719208
 31
0.0
  0
LINE
  8
0
  6
CONTINUOUS
 62
     7
  5
18B
 10
0.255811
 20
4.719208
 30
0.0
 11
0.154315
 21
4.737627
 31
0.0
  0
LINE
  8
0
  6
CONTINUOUS
 62
     7
  5
18C
 10
0.154315
 20
4.737627
 30
0.0
 11
0.051577
 21
4.746874
 31
0.0
  0
LINE
  8
0
  6
CONTINUOUS
 62
     7
  5
18D
 10
0.051577
 20
4.746874
 30
0.0
 11
-0.051577
 21
4.746874
 31
0.0
  0
LINE
  8
0
  6
CONTINUOUS
 62
     7
  5
18E
 10
-0.051577
 20
4.746874
 30
0.0
 11
-0.154315
 21
4.737627
 31
0.0
  0
LINE
  8
0
  6
CONTINUOUS
 62
     7
  5
18F
 10
-0.154315
 20
4.737627
 30
0.0
 11
-0.255811
 21
4.719208
 31
0.0
  0
LINE
  8
0
  6
CONTINUOUS
 62
     7
  5
190
 10
-0.255811
 20
4.719208
 30
0.0
 11
-0.355248
 21
4.691766
 31
0.0
  0
LINE
  8
0
  6
CONTINUOUS
 62
     7
  5
191
 10
-0.355248
 20
4.691766
 30
0.0
 11
-0.451824
 21
4.65552
 31
0.0
  0
LINE
  8
0
  6
CONTINUOUS
 62
     7
  5
192
 10
-0.451824
 20
4.65552
 30
0.0
 11
-0.544762
 21
4.610763
 31
0.0
  0
LINE
  8
0
  6
CONTINUOUS
 62
     7
  5
193
 10
-0.544762
 20
4.610763
 30
0.0
 11
-0.633315
 21
4.557856
 31
0.0
  0
LINE
  8
0
  6
CONTINUOUS
 62
     7
  5
194
 10
-0.633315
 20
4.557856
 30
0.0
 11
-0.716768
 21
4.497224
 31
0.0
  0
LINE
  8
0
  6
CONTINUOUS
 62
     7
  5
195
 10
-0.716768
 20
4.497224
 30
0.0
 11
-0.79445
 21
4.429355
 31
0.0
  0
LINE
  8
0
  6
CONTINUOUS
 62
     7
  5
196
 10
-0.79445
 20
4.429355
 30
0.0
 11
-0.865736
 21
4.354796
 31
0.0
  0
LINE
  8
0
  6
CONTINUOUS
 62
     7
  5
197
 10
-0.865736
 20
4.354796
 30
0.0
 11
-0.930051
 21
4.274147
 31
0.0
  0
LINE
  8
0
  6
CONTINUOUS
 62
     7
  5
198
 10
-0.930051
 20
4.274147
 30
0.0
 11
-0.986878
 21
4.188057
 31
0.0
  0
LINE
  8
0
  6
CONTINUOUS
 62
     7
  5
199
 10
-0.986878
 20
4.188057
 30
0.0
 11
-1.035759
 21
4.097221
 31
0.0
  0
LINE
  8
0
  6
CONTINUOUS
 62
     7
  5
19A
 10
-1.035759
 20
4.097221
 30
0.0
 11
-1.076302
 21
4.002368
 31
0.0
  0
LINE
  8
0
  6
CONTINUOUS
 62
     7
  5
19B
 10
-1.076302
 20
4.002368
 30
0.0
 11
-1.108178
 21
3.904263
 31
0.0
  0
LINE
  8
0
  6
CONTINUOUS
 62
     7
  5
19C
 10
-1.108178
 20
3.904263
 30
0.0
 11
-1.131132
 21
3.803695
 31
0.0
  0
LINE
  8
0
  6
CONTINUOUS
 62
     7
  5
19D
 10
-1.131132
 20
3.803695
 30
0.0
 11
-1.144978
 21
3.701475
 31
0.0
  0
LINE
  8
0
  6
CONTINUOUS
 62
     7
  5
19E
 10
-1.144978
 20
3.701475
 30
0.0
 11
-1.149606
 21
3.598425
 31
0.0
  0
LINE
  8
0
  6
CONTINUOUS
 62
     7
  5
19F
 10
-0.604331
 20
0.0
 30
0.0
 11
-0.604331
 21
0.207874
 31
0.0
  0
LINE
  8
0
  6
CONTINUOUS
 62
     7
  5
1A0
 10
0.604331
 20
0.0
 30
0.0
 11
-0.604331
 21
0.0
 31
0.0
  0
LINE
  8
0
  6
CONTINUOUS
 62
     7
  5
1A1
 10
0.604331
 20
0.207874
 30
0.0
 11
0.604331
 21
0.0
 31
0.0
  0
LINE
  8
0
  6
CONTINUOUS
 62
     7
  5
1A2
 10
0.465748
 20
0.346457
 30
0.0
 11
0.471606
 21
0.346333
 31
0.0
  0
LINE
  8
0
  6
CONTINUOUS
 62
     7
  5
1A3
 10
0.471606
 20
0.346333
 30
0.0
 11
0.477521
 21
0.345956
 31
0.0
  0
LINE
  8
0
  6
CONTINUOUS
 62
     7
  5
1A4
 10
0.477521
 20
0.345956
 30
0.0
 11
0.483471
 21
0.345319
 31
0.0
  0
LINE
  8
0
  6
CONTINUOUS
 62
     7
  5
1A5
 10
0.483471
 20
0.345319
 30
0.0
 11
0.489436
 21
0.344417
 31
0.0
  0
LINE
  8
0
  6
CONTINUOUS
 62
     7
  5
1A6
 10
0.489436
 20
0.344417
 30
0.0
 11
0.495395
 21
0.343248
 31
0.0
  0
LINE
  8
0
  6
CONTINUOUS
 62
     7
  5
1A7
 10
0.495395
 20
0.343248
 30
0.0
 11
0.501328
 21
0.341812
 31
0.0
  0
LINE
  8
0
  6
CONTINUOUS
 62
     7
  5
1A8
 10
0.501328
 20
0.341812
 30
0.0
 11
0.507213
 21
0.340108
 31
0.0
  0
LINE
  8
0
  6
CONTINUOUS
 62
     7
  5
1A9
 10
0.507213
 20
0.340108
 30
0.0
 11
0.513033
 21
0.33814
 31
0.0
  0
LINE
  8
0
  6
CONTINUOUS
 62
     7
  5
1AA
 10
0.513033
 20
0.33814
 30
0.0
 11
0.518769
 21
0.335913
 31
0.0
  0
LINE
  8
0
  6
CONTINUOUS
 62
     7
  5
1AB
 10
0.518769
 20
0.335913
 30
0.0
 11
0.524406
 21
0.33343
 31
0.0
  0
LINE
  8
0
  6
CONTINUOUS
 62
     7
  5
1AC
 10
0.524406
 20
0.33343
 30
0.0
 11
0.529927
 21
0.3307
 31
0.0
  0
LINE
  8
0
  6
CONTINUOUS
 62
     7
  5
1AD
 10
0.529927
 20
0.3307
 30
0.0
 11
0.535316
 21
0.32773
 31
0.0
  0
LINE
  8
0
  6
CONTINUOUS
 62
     7
  5
1AE
 10
0.535316
 20
0.32773
 30
0.0
 11
0.540559
 21
0.324529
 31
0.0
  0
LINE
  8
0
  6
CONTINUOUS
 62
     7
  5
1AF
 10
0.540559
 20
0.324529
 30
0.0
 11
0.545639
 21
0.321111
 31
0.0
  0
LINE
  8
0
  6
CONTINUOUS
 62
     7
  5
1B0
 10
0.545639
 20
0.321111
 30
0.0
 11
0.550544
 21
0.317486
 31
0.0
  0
LINE
  8
0
  6
CONTINUOUS
 62
     7
  5
1B1
 10
0.550544
 20
0.317486
 30
0.0
 11
0.555258
 21
0.313672
 31
0.0
  0
LINE
  8
0
  6
CONTINUOUS
 62
     7
  5
1B2
 10
0.555258
 20
0.313672
 30
0.0
 11
0.55977
 21
0.309683
 31
0.0
  0
LINE
  8
0
  6
CONTINUOUS
 62
     7
  5
1B3
 10
0.55977
 20
0.309683
 30
0.0
 11
0.564069
 21
0.305538
 31
0.0
  0
LINE
  8
0
  6
CONTINUOUS
 62
     7
  5
1B4
 10
0.564069
 20
0.305538
 30
0.0
 11
0.56817
 21
0.301228
 31
0.0
  0
LINE
  8
0
  6
CONTINUOUS
 62
     7
  5
1B5
 10
0.56817
 20
0.301228
 30
0.0
 11
0.572149
 21
0.296666
 31
0.0
  0
LINE
  8
0
  6
CONTINUOUS
 62
     7
  5
1B6
 10
0.572149
 20
0.296666
 30
0.0
 11
0.575989
 21
0.291851
 31
0.0
  0
LINE
  8
0
  6
CONTINUOUS
 62
     7
  5
1B7
 10
0.575989
 20
0.291851
 30
0.0
 11
0.579663
 21
0.286795
 31
0.0
  0
LINE
  8
0
  6
CONTINUOUS
 62
     7
  5
1B8
 10
0.579663
 20
0.286795
 30
0.0
 11
0.583147
 21
0.281513
 31
0.0
  0
LINE
  8
0
  6
CONTINUOUS
 62
     7
  5
1B9
 10
0.583147
 20
0.281513
 30
0.0
 11
0.586417
 21
0.276022
 31
0.0
  0
LINE
  8
0
  6
CONTINUOUS
 62
     7
  5
1BA
 10
0.586417
 20
0.276022
 30
0.0
 11
0.589453
 21
0.270342
 31
0.0
  0
LINE
  8
0
  6
CONTINUOUS
 62
     7
  5
1BB
 10
0.589453
 20
0.270342
 30
0.0
 11
0.592238
 21
0.264491
 31
0.0
  0
LINE
  8
0
  6
CONTINUOUS
 62
     7
  5
1BC
 10
0.592238
 20
0.264491
 30
0.0
 11
0.594757
 21
0.25849
 31
0.0
  0
LINE
  8
0
  6
CONTINUOUS
 62
     7
  5
1BD
 10
0.594757
 20
0.25849
 30
0.0
 11
0.596997
 21
0.252358
 31
0.0
  0
LINE
  8
0
  6
CONTINUOUS
 62
     7
  5
1BE
 10
0.596997
 20
0.252358
 30
0.0
 11
0.598949
 21
0.246117
 31
0.0
  0
LINE
  8
0
  6
CONTINUOUS
 62
     7
  5
1BF
 10
0.598949
 20
0.246117
 30
0.0
 11
0.600605
 21
0.239792
 31
0.0
  0
LINE
  8
0
  6
CONTINUOUS
 62
     7
  5
1C0
 10
0.600605
 20
0.239792
 30
0.0
 11
0.601958
 21
0.233409
 31
0.0
  0
LINE
  8
0
  6
CONTINUOUS
 62
     7
  5
1C1
 10
0.601958
 20
0.233409
 30
0.0
 11
0.603005
 21
0.226996
 31
0.0
  0
LINE
  8
0
  6
CONTINUOUS
 62
     7
  5
1C2
 10
0.603005
 20
0.226996
 30
0.0
 11
0.603747
 21
0.220584
 31
0.0
  0
LINE
  8
0
  6
CONTINUOUS
 62
     7
  5
1C3
 10
0.603747
 20
0.220584
 30
0.0
 11
0.604186
 21
0.214201
 31
0.0
  0
LINE
  8
0
  6
CONTINUOUS
 62
     7
  5
1C4
 10
0.604186
 20
0.214201
 30
0.0
 11
0.604331
 21
0.207874
 31
0.0
  0
LINE
  8
0
  6
CONTINUOUS
 62
     7
  5
1C5
 10
-0.465748
 20
0.346457
 30
0.0
 11
0.465748
 21
0.346457
 31
0.0
  0
LINE
  8
0
  6
CONTINUOUS
 62
     7
  5
1C6
 10
-0.604331
 20
0.207874
 30
0.0
 11
-0.604186
 21
0.214201
 31
0.0
  0
LINE
  8
0
  6
CONTINUOUS
 62
     7
  5
1C7
 10
-0.604186
 20
0.214201
 30
0.0
 11
-0.603747
 21
0.220584
 31
0.0
  0
LINE
  8
0
  6
CONTINUOUS
 62
     7
  5
1C8
 10
-0.603747
 20
0.220584
 30
0.0
 11
-0.603005
 21
0.226996
 31
0.0
  0
LINE
  8
0
  6
CONTINUOUS
 62
     7
  5
1C9
 10
-0.603005
 20
0.226996
 30
0.0
 11
-0.601958
 21
0.233409
 31
0.0
  0
LINE
  8
0
  6
CONTINUOUS
 62
     7
  5
1CA
 10
-0.601958
 20
0.233409
 30
0.0
 11
-0.600605
 21
0.239792
 31
0.0
  0
LINE
  8
0
  6
CONTINUOUS
 62
     7
  5
1CB
 10
-0.600605
 20
0.239792
 30
0.0
 11
-0.598949
 21
0.246117
 31
0.0
  0
LINE
  8
0
  6
CONTINUOUS
 62
     7
  5
1CC
 10
-0.598949
 20
0.246117
 30
0.0
 11
-0.596997
 21
0.252358
 31
0.0
  0
LINE
  8
0
  6
CONTINUOUS
 62
     7
  5
1CD
 10
-0.596997
 20
0.252358
 30
0.0
 11
-0.594757
 21
0.25849
 31
0.0
  0
LINE
  8
0
  6
CONTINUOUS
 62
     7
  5
1CE
 10
-0.594757
 20
0.25849
 30
0.0
 11
-0.592238
 21
0.264491
 31
0.0
  0
LINE
  8
0
  6
CONTINUOUS
 62
     7
  5
1CF
 10
-0.592238
 20
0.264491
 30
0.0
 11
-0.589453
 21
0.270342
 31
0.0
  0
LINE
  8
0
  6
CONTINUOUS
 62
     7
  5
1D0
 10
-0.589453
 20
0.270342
 30
0.0
 11
-0.586417
 21
0.276022
 31
0.0
  0
LINE
  8
0
  6
CONTINUOUS
 62
     7
  5
1D1
 10
-0.586417
 20
0.276022
 30
0.0
 11
-0.583147
 21
0.281513
 31
0.0
  0
LINE
  8
0
  6
CONTINUOUS
 62
     7
  5
1D2
 10
-0.583147
 20
0.281513
 30
0.0
 11
-0.579663
 21
0.286795
 31
0.0
  0
LINE
  8
0
  6
CONTINUOUS
 62
     7
  5
1D3
 10
-0.579663
 20
0.286795
 30
0.0
 11
-0.575989
 21
0.291851
 31
0.0
  0
LINE
  8
0
  6
CONTINUOUS
 62
     7
  5
1D4
 10
-0.575989
 20
0.291851
 30
0.0
 11
-0.572149
 21
0.296666
 31
0.0
  0
LINE
  8
0
  6
CONTINUOUS
 62
     7
  5
1D5
 10
-0.572149
 20
0.296666
 30
0.0
 11
-0.56817
 21
0.301228
 31
0.0
  0
LINE
  8
0
  6
CONTINUOUS
 62
     7
  5
1D6
 10
-0.56817
 20
0.301228
 30
0.0
 11
-0.564069
 21
0.305538
 31
0.0
  0
LINE
  8
0
  6
CONTINUOUS
 62
     7
  5
1D7
 10
-0.564069
 20
0.305538
 30
0.0
 11
-0.55977
 21
0.309683
 31
0.0
  0
LINE
  8
0
  6
CONTINUOUS
 62
     7
  5
1D8
 10
-0.55977
 20
0.309683
 30
0.0
 11
-0.555258
 21
0.313672
 31
0.0
  0
LINE
  8
0
  6
CONTINUOUS
 62
     7
  5
1D9
 10
-0.555258
 20
0.313672
 30
0.0
 11
-0.550544
 21
0.317486
 31
0.0
  0
LINE
  8
0
  6
CONTINUOUS
 62
     7
  5
1DA
 10
-0.550544
 20
0.317486
 30
0.0
 11
-0.545639
 21
0.321111
 31
0.0
  0
LINE
  8
0
  6
CONTINUOUS
 62
     7
  5
1DB
 10
-0.545639
 20
0.321111
 30
0.0
 11
-0.540559
 21
0.324529
 31
0.0
  0
LINE
  8
0
  6
CONTINUOUS
 62
     7
  5
1DC
 10
-0.540559
 20
0.324529
 30
0.0
 11
-0.535316
 21
0.32773
 31
0.0
  0
LINE
  8
0
  6
CONTINUOUS
 62
     7
  5
1DD
 10
-0.535316
 20
0.32773
 30
0.0
 11
-0.529927
 21
0.3307
 31
0.0
  0
LINE
  8
0
  6
CONTINUOUS
 62
     7
  5
1DE
 10
-0.529927
 20
0.3307
 30
0.0
 11
-0.524406
 21
0.33343
 31
0.0
  0
LINE
  8
0
  6
CONTINUOUS
 62
     7
  5
1DF
 10
-0.524406
 20
0.33343
 30
0.0
 11
-0.518769
 21
0.335913
 31
0.0
  0
LINE
  8
0
  6
CONTINUOUS
 62
     7
  5
1E0
 10
-0.518769
 20
0.335913
 30
0.0
 11
-0.513033
 21
0.33814
 31
0.0
  0
LINE
  8
0
  6
CONTINUOUS
 62
     7
  5
1E1
 10
-0.513033
 20
0.33814
 30
0.0
 11
-0.507213
 21
0.340108
 31
0.0
  0
LINE
  8
0
  6
CONTINUOUS
 62
     7
  5
1E2
 10
-0.507213
 20
0.340108
 30
0.0
 11
-0.501328
 21
0.341812
 31
0.0
  0
LINE
  8
0
  6
CONTINUOUS
 62
     7
  5
1E3
 10
-0.501328
 20
0.341812
 30
0.0
 11
-0.495395
 21
0.343248
 31
0.0
  0
LINE
  8
0
  6
CONTINUOUS
 62
     7
  5
1E4
 10
-0.495395
 20
0.343248
 30
0.0
 11
-0.489436
 21
0.344417
 31
0.0
  0
LINE
  8
0
  6
CONTINUOUS
 62
     7
  5
1E5
 10
-0.489436
 20
0.344417
 30
0.0
 11
-0.483471
 21
0.345319
 31
0.0
  0
LINE
  8
0
  6
CONTINUOUS
 62
     7
  5
1E6
 10
-0.483471
 20
0.345319
 30
0.0
 11
-0.477521
 21
0.345956
 31
0.0
  0
LINE
  8
0
  6
CONTINUOUS
 62
     7
  5
1E7
 10
-0.477521
 20
0.345956
 30
0.0
 11
-0.471606
 21
0.346333
 31
0.0
  0
LINE
  8
0
  6
CONTINUOUS
 62
     7
  5
1E8
 10
-0.471606
 20
0.346333
 30
0.0
 11
-0.465748
 21
0.346457
 31
0.0
  0
LINE
  8
0
  6
CONTINUOUS
 62
     7
  5
1E9
 10
1.208661
 20
0.0
 30
0.0
 11
0.604331
 21
0.0
 31
0.0
  0
LINE
  8
0
  6
CONTINUOUS
 62
     7
  5
1EA
 10
-0.604331
 20
0.0
 30
0.0
 11
-1.208661
 21
0.0
 31
0.0
  0
LINE
  8
0
  6
CONTINUOUS
 62
     7
  5
1EB
 10
1.208661
 20
1.437008
 30
0.0
 11
-1.208661
 21
1.437008
 31
0.0
  0
LINE
  8
0
  6
CONTINUOUS
 62
     7
  5
1EC
 10
1.149606
 20
4.807087
 30
0.0
 11
1.149606
 21
3.598425
 31
0.0
  0
LINE
  8
0
  6
CONTINUOUS
 62
     7
  5
1ED
 10
-1.149606
 20
4.807087
 30
0.0
 11
-1.149606
 21
3.598425
 31
0.0
  0
LINE
  8
0
  6
CONTINUOUS
 62
     7
  5
1EE
 10
1.115118
 20
6.220472
 30
0.0
 11
-1.115118
 21
6.220472
 31
0.0
  0
LINE
  8
0
  6
CONTINUOUS
 62
     7
  5
1EF
 10
-1.149606
 20
4.807087
 30
0.0
 11
1.149606
 21
4.807087
 31
0.0
  0
LINE
  8
0
  6
CONTINUOUS
 62
     7
  5
1F0
 10
0.604331
 20
5.748031
 30
0.0
 11
0.604331
 21
5.406299
 31
0.0
  0
LINE
  8
0
  6
CONTINUOUS
 62
     7
  5
1F1
 10
-0.604331
 20
5.748031
 30
0.0
 11
0.604331
 21
5.748031
 31
0.0
  0
LINE
  8
0
  6
CONTINUOUS
 62
     7
  5
1F2
 10
-0.604331
 20
5.406299
 30
0.0
 11
-0.604331
 21
5.748031
 31
0.0
  0
LINE
  8
0
  6
CONTINUOUS
 62
     7
  5
1F3
 10
-0.465748
 20
5.267717
 30
0.0
 11
-0.471606
 21
5.26784
 31
0.0
  0
LINE
  8
0
  6
CONTINUOUS
 62
     7
  5
1F4
 10
-0.471606
 20
5.26784
 30
0.0
 11
-0.477521
 21
5.268217
 31
0.0
  0
LINE
  8
0
  6
CONTINUOUS
 62
     7
  5
1F5
 10
-0.477521
 20
5.268217
 30
0.0
 11
-0.483471
 21
5.268854
 31
0.0
  0
LINE
  8
0
  6
CONTINUOUS
 62
     7
  5
1F6
 10
-0.483471
 20
5.268854
 30
0.0
 11
-0.489436
 21
5.269756
 31
0.0
  0
LINE
  8
0
  6
CONTINUOUS
 62
     7
  5
1F7
 10
-0.489436
 20
5.269756
 30
0.0
 11
-0.495395
 21
5.270925
 31
0.0
  0
LINE
  8
0
  6
CONTINUOUS
 62
     7
  5
1F8
 10
-0.495395
 20
5.270925
 30
0.0
 11
-0.501328
 21
5.272362
 31
0.0
  0
LINE
  8
0
  6
CONTINUOUS
 62
     7
  5
1F9
 10
-0.501328
 20
5.272362
 30
0.0
 11
-0.507213
 21
5.274065
 31
0.0
  0
LINE
  8
0
  6
CONTINUOUS
 62
     7
  5
1FA
 10
-0.507213
 20
5.274065
 30
0.0
 11
-0.513033
 21
5.276033
 31
0.0
  0
LINE
  8
0
  6
CONTINUOUS
 62
     7
  5
1FB
 10
-0.513033
 20
5.276033
 30
0.0
 11
-0.518769
 21
5.278261
 31
0.0
  0
LINE
  8
0
  6
CONTINUOUS
 62
     7
  5
1FC
 10
-0.518769
 20
5.278261
 30
0.0
 11
-0.524406
 21
5.280743
 31
0.0
  0
LINE
  8
0
  6
CONTINUOUS
 62
     7
  5
1FD
 10
-0.524406
 20
5.280743
 30
0.0
 11
-0.529927
 21
5.283473
 31
0.0
  0
LINE
  8
0
  6
CONTINUOUS
 62
     7
  5
1FE
 10
-0.529927
 20
5.283473
 30
0.0
 11
-0.535316
 21
5.286443
 31
0.0
  0
LINE
  8
0
  6
CONTINUOUS
 62
     7
  5
1FF
 10
-0.535316
 20
5.286443
 30
0.0
 11
-0.540559
 21
5.289644
 31
0.0
  0
LINE
  8
0
  6
CONTINUOUS
 62
     7
  5
200
 10
-0.540559
 20
5.289644
 30
0.0
 11
-0.545639
 21
5.293063
 31
0.0
  0
LINE
  8
0
  6
CONTINUOUS
 62
     7
  5
201
 10
-0.545639
 20
5.293063
 30
0.0
 11
-0.550544
 21
5.296687
 31
0.0
  0
LINE
  8
0
  6
CONTINUOUS
 62
     7
  5
202
 10
-0.550544
 20
5.296687
 30
0.0
 11
-0.555258
 21
5.300501
 31
0.0
  0
LINE
  8
0
  6
CONTINUOUS
 62
     7
  5
203
 10
-0.555258
 20
5.300501
 30
0.0
 11
-0.55977
 21
5.30449
 31
0.0
  0
LINE
  8
0
  6
CONTINUOUS
 62
     7
  5
204
 10
-0.55977
 20
5.30449
 30
0.0
 11
-0.564069
 21
5.308636
 31
0.0
  0
LINE
  8
0
  6
CONTINUOUS
 62
     7
  5
205
 10
-0.564069
 20
5.308636
 30
0.0
 11
-0.56817
 21
5.312945
 31
0.0
  0
LINE
  8
0
  6
CONTINUOUS
 62
     7
  5
206
 10
-0.56817
 20
5.312945
 30
0.0
 11
-0.572149
 21
5.317507
 31
0.0
  0
LINE
  8
0
  6
CONTINUOUS
 62
     7
  5
207
 10
-0.572149
 20
5.317507
 30
0.0
 11
-0.575989
 21
5.322322
 31
0.0
  0
LINE
  8
0
  6
CONTINUOUS
 62
     7
  5
208
 10
-0.575989
 20
5.322322
 30
0.0
 11
-0.579663
 21
5.327378
 31
0.0
  0
LINE
  8
0
  6
CONTINUOUS
 62
     7
  5
209
 10
-0.579663
 20
5.327378
 30
0.0
 11
-0.583147
 21
5.33266
 31
0.0
  0
LINE
  8
0
  6
CONTINUOUS
 62
     7
  5
20A
 10
-0.583147
 20
5.33266
 30
0.0
 11
-0.586417
 21
5.338151
 31
0.0
  0
LINE
  8
0
  6
CONTINUOUS
 62
     7
  5
20B
 10
-0.586417
 20
5.338151
 30
0.0
 11
-0.589453
 21
5.343831
 31
0.0
  0
LINE
  8
0
  6
CONTINUOUS
 62
     7
  5
20C
 10
-0.589453
 20
5.343831
 30
0.0
 11
-0.592238
 21
5.349682
 31
0.0
  0
LINE
  8
0
  6
CONTINUOUS
 62
     7
  5
20D
 10
-0.592238
 20
5.349682
 30
0.0
 11
-0.594757
 21
5.355683
 31
0.0
  0
LINE
  8
0
  6
CONTINUOUS
 62
     7
  5
20E
 10
-0.594757
 20
5.355683
 30
0.0
 11
-0.596997
 21
5.361815
 31
0.0
  0
LINE
  8
0
  6
CONTINUOUS
 62
     7
  5
20F
 10
-0.596997
 20
5.361815
 30
0.0
 11
-0.598949
 21
5.368056
 31
0.0
  0
LINE
  8
0
  6
CONTINUOUS
 62
     7
  5
210
 10
-0.598949
 20
5.368056
 30
0.0
 11
-0.600605
 21
5.374381
 31
0.0
  0
LINE
  8
0
  6
CONTINUOUS
 62
     7
  5
211
 10
-0.600605
 20
5.374381
 30
0.0
 11
-0.601958
 21
5.380764
 31
0.0
  0
LINE
  8
0
  6
CONTINUOUS
 62
     7
  5
212
 10
-0.601958
 20
5.380764
 30
0.0
 11
-0.603005
 21
5.387177
 31
0.0
  0
LINE
  8
0
  6
CONTINUOUS
 62
     7
  5
213
 10
-0.603005
 20
5.387177
 30
0.0
 11
-0.603747
 21
5.393589
 31
0.0
  0
LINE
  8
0
  6
CONTINUOUS
 62
     7
  5
214
 10
-0.603747
 20
5.393589
 30
0.0
 11
-0.604186
 21
5.399973
 31
0.0
  0
LINE
  8
0
  6
CONTINUOUS
 62
     7
  5
215
 10
-0.604186
 20
5.399973
 30
0.0
 11
-0.604331
 21
5.406299
 31
0.0
  0
LINE
  8
0
  6
CONTINUOUS
 62
     7
  5
216
 10
0.465748
 20
5.267717
 30
0.0
 11
-0.465748
 21
5.267717
 31
0.0
  0
LINE
  8
0
  6
CONTINUOUS
 62
     7
  5
217
 10
0.604331
 20
5.406299
 30
0.0
 11
0.604186
 21
5.399973
 31
0.0
  0
LINE
  8
0
  6
CONTINUOUS
 62
     7
  5
218
 10
0.604186
 20
5.399973
 30
0.0
 11
0.603747
 21
5.393589
 31
0.0
  0
LINE
  8
0
  6
CONTINUOUS
 62
     7
  5
219
 10
0.603747
 20
5.393589
 30
0.0
 11
0.603005
 21
5.387177
 31
0.0
  0
LINE
  8
0
  6
CONTINUOUS
 62
     7
  5
21A
 10
0.603005
 20
5.387177
 30
0.0
 11
0.601958
 21
5.380764
 31
0.0
  0
LINE
  8
0
  6
CONTINUOUS
 62
     7
  5
21B
 10
0.601958
 20
5.380764
 30
0.0
 11
0.600605
 21
5.374381
 31
0.0
  0
LINE
  8
0
  6
CONTINUOUS
 62
     7
  5
21C
 10
0.600605
 20
5.374381
 30
0.0
 11
0.598949
 21
5.368056
 31
0.0
  0
LINE
  8
0
  6
CONTINUOUS
 62
     7
  5
21D
 10
0.598949
 20
5.368056
 30
0.0
 11
0.596997
 21
5.361815
 31
0.0
  0
LINE
  8
0
  6
CONTINUOUS
 62
     7
  5
21E
 10
0.596997
 20
5.361815
 30
0.0
 11
0.594757
 21
5.355683
 31
0.0
  0
LINE
  8
0
  6
CONTINUOUS
 62
     7
  5
21F
 10
0.594757
 20
5.355683
 30
0.0
 11
0.592238
 21
5.349682
 31
0.0
  0
LINE
  8
0
  6
CONTINUOUS
 62
     7
  5
220
 10
0.592238
 20
5.349682
 30
0.0
 11
0.589453
 21
5.343831
 31
0.0
  0
LINE
  8
0
  6
CONTINUOUS
 62
     7
  5
221
 10
0.589453
 20
5.343831
 30
0.0
 11
0.586417
 21
5.338151
 31
0.0
  0
LINE
  8
0
  6
CONTINUOUS
 62
     7
  5
222
 10
0.586417
 20
5.338151
 30
0.0
 11
0.583147
 21
5.33266
 31
0.0
  0
LINE
  8
0
  6
CONTINUOUS
 62
     7
  5
223
 10
0.583147
 20
5.33266
 30
0.0
 11
0.579663
 21
5.327378
 31
0.0
  0
LINE
  8
0
  6
CONTINUOUS
 62
     7
  5
224
 10
0.579663
 20
5.327378
 30
0.0
 11
0.575989
 21
5.322322
 31
0.0
  0
LINE
  8
0
  6
CONTINUOUS
 62
     7
  5
225
 10
0.575989
 20
5.322322
 30
0.0
 11
0.572149
 21
5.317507
 31
0.0
  0
LINE
  8
0
  6
CONTINUOUS
 62
     7
  5
226
 10
0.572149
 20
5.317507
 30
0.0
 11
0.56817
 21
5.312945
 31
0.0
  0
LINE
  8
0
  6
CONTINUOUS
 62
     7
  5
227
 10
0.56817
 20
5.312945
 30
0.0
 11
0.564069
 21
5.308636
 31
0.0
  0
LINE
  8
0
  6
CONTINUOUS
 62
     7
  5
228
 10
0.564069
 20
5.308636
 30
0.0
 11
0.55977
 21
5.30449
 31
0.0
  0
LINE
  8
0
  6
CONTINUOUS
 62
     7
  5
229
 10
0.55977
 20
5.30449
 30
0.0
 11
0.555258
 21
5.300501
 31
0.0
  0
LINE
  8
0
  6
CONTINUOUS
 62
     7
  5
22A
 10
0.555258
 20
5.300501
 30
0.0
 11
0.550544
 21
5.296687
 31
0.0
  0
LINE
  8
0
  6
CONTINUOUS
 62
     7
  5
22B
 10
0.550544
 20
5.296687
 30
0.0
 11
0.545639
 21
5.293063
 31
0.0
  0
LINE
  8
0
  6
CONTINUOUS
 62
     7
  5
22C
 10
0.545639
 20
5.293063
 30
0.0
 11
0.540559
 21
5.289644
 31
0.0
  0
LINE
  8
0
  6
CONTINUOUS
 62
     7
  5
22D
 10
0.540559
 20
5.289644
 30
0.0
 11
0.535316
 21
5.286443
 31
0.0
  0
LINE
  8
0
  6
CONTINUOUS
 62
     7
  5
22E
 10
0.535316
 20
5.286443
 30
0.0
 11
0.529927
 21
5.283473
 31
0.0
  0
LINE
  8
0
  6
CONTINUOUS
 62
     7
  5
22F
 10
0.529927
 20
5.283473
 30
0.0
 11
0.524406
 21
5.280743
 31
0.0
  0
LINE
  8
0
  6
CONTINUOUS
 62
     7
  5
230
 10
0.524406
 20
5.280743
 30
0.0
 11
0.518769
 21
5.278261
 31
0.0
  0
LINE
  8
0
  6
CONTINUOUS
 62
     7
  5
231
 10
0.518769
 20
5.278261
 30
0.0
 11
0.513033
 21
5.276033
 31
0.0
  0
LINE
  8
0
  6
CONTINUOUS
 62
     7
  5
232
 10
0.513033
 20
5.276033
 30
0.0
 11
0.507213
 21
5.274065
 31
0.0
  0
LINE
  8
0
  6
CONTINUOUS
 62
     7
  5
233
 10
0.507213
 20
5.274065
 30
0.0
 11
0.501328
 21
5.272362
 31
0.0
  0
LINE
  8
0
  6
CONTINUOUS
 62
     7
  5
234
 10
0.501328
 20
5.272362
 30
0.0
 11
0.495395
 21
5.270925
 31
0.0
  0
LINE
  8
0
  6
CONTINUOUS
 62
     7
  5
235
 10
0.495395
 20
5.270925
 30
0.0
 11
0.489436
 21
5.269756
 31
0.0
  0
LINE
  8
0
  6
CONTINUOUS
 62
     7
  5
236
 10
0.489436
 20
5.269756
 30
0.0
 11
0.483471
 21
5.268854
 31
0.0
  0
LINE
  8
0
  6
CONTINUOUS
 62
     7
  5
237
 10
0.483471
 20
5.268854
 30
0.0
 11
0.477521
 21
5.268217
 31
0.0
  0
LINE
  8
0
  6
CONTINUOUS
 62
     7
  5
238
 10
0.477521
 20
5.268217
 30
0.0
 11
0.471606
 21
5.26784
 31
0.0
  0
LINE
  8
0
  6
CONTINUOUS
 62
     7
  5
239
 10
0.471606
 20
5.26784
 30
0.0
 11
0.465748
 21
5.267717
 31
0.0
  0
LINE
  8
0
  6
CONTINUOUS
 62
     7
  5
23A
 10
-1.208661
 20
5.748031
 30
0.0
 11
-0.604331
 21
5.748031
 31
0.0
  0
LINE
  8
0
  6
CONTINUOUS
 62
     7
  5
23B
 10
0.604331
 20
5.748031
 30
0.0
 11
1.208661
 21
5.748031
 31
0.0
  0
LINE
  8
0
  6
CONTINUOUS
 62
     7
  5
23C
 10
-1.208661
 20
5.267717
 30
0.0
 11
-0.465748
 21
5.267717
 31
0.0
  0
LINE
  8
0
  6
CONTINUOUS
 62
     7
  5
23D
 10
0.465748
 20
5.267717
 30
0.0
 11
1.208661
 21
5.267717
 31
0.0
  0
LINE
  8
0
  6
CONTINUOUS
 62
     7
  5
23E
 10
-1.177165
 20
5.23622
 30
0.0
 11
1.177165
 21
5.23622
 31
0.0
  0
LINE
  8
0
  6
CONTINUOUS
 62
     7
  5
23F
 10
1.059362
 20
6.676772
 30
0.0
 11
-1.059362
 21
6.676772
 31
0.0
  0
LINE
  8
0
  6
CONTINUOUS
 62
     7
  5
240
 10
1.105413
 20
6.574803
 30
0.0
 11
1.113969
 21
6.574803
 31
0.0
  0
LINE
  8
0
  6
CONTINUOUS
 62
     7
  5
241
 10
1.105413
 20
6.456693
 30
0.0
 11
1.105413
 21
6.574803
 31
0.0
  0
LINE
  8
0
  6
CONTINUOUS
 62
     7
  5
242
 10
1.113969
 20
6.456693
 30
0.0
 11
1.105413
 21
6.456693
 31
0.0
  0
LINE
  8
0
  6
CONTINUOUS
 62
     7
  5
243
 10
-0.433372
 20
6.574803
 30
0.0
 11
-0.433372
 21
6.456693
 31
0.0
  0
LINE
  8
0
  6
CONTINUOUS
 62
     7
  5
244
 10
-0.672041
 20
6.574803
 30
0.0
 11
-0.433372
 21
6.574803
 31
0.0
  0
LINE
  8
0
  6
CONTINUOUS
 62
     7
  5
245
 10
-0.672041
 20
6.456693
 30
0.0
 11
-0.672041
 21
6.574803
 31
0.0
  0
LINE
  8
0
  6
CONTINUOUS
 62
     7
  5
246
 10
-0.433372
 20
6.456693
 30
0.0
 11
-0.672041
 21
6.456693
 31
0.0
  0
LINE
  8
0
  6
CONTINUOUS
 62
     7
  5
247
 10
-0.422365
 20
6.456693
 30
0.0
 11
-0.433372
 21
6.456693
 31
0.0
  0
LINE
  8
0
  6
CONTINUOUS
 62
     7
  5
248
 10
-0.422365
 20
6.574803
 30
0.0
 11
-0.422365
 21
6.456693
 31
0.0
  0
LINE
  8
0
  6
CONTINUOUS
 62
     7
  5
249
 10
-0.422365
 20
6.574803
 30
0.0
 11
-0.433372
 21
6.574803
 31
0.0
  0
LINE
  8
0
  6
CONTINUOUS
 62
     7
  5
24A
 10
1.083398
 20
6.456693
 30
0.0
 11
1.105413
 21
6.456693
 31
0.0
  0
LINE
  8
0
  6
CONTINUOUS
 62
     7
  5
24B
 10
1.083398
 20
6.574803
 30
0.0
 11
1.105413
 21
6.574803
 31
0.0
  0
LINE
  8
0
  6
CONTINUOUS
 62
     7
  5
24C
 10
1.083398
 20
6.456693
 30
0.0
 11
1.083398
 21
6.574803
 31
0.0
  0
LINE
  8
0
  6
CONTINUOUS
 62
     7
  5
24D
 10
-0.672041
 20
6.574803
 30
0.0
 11
-1.092126
 21
6.574803
 31
0.0
  0
LINE
  8
0
  6
CONTINUOUS
 62
     7
  5
24E
 10
1.083398
 20
6.574803
 30
0.0
 11
-0.422365
 21
6.574803
 31
0.0
  0
LINE
  8
0
  6
CONTINUOUS
 62
     7
  5
24F
 10
1.149606
 20
1.496063
 30
0.0
 11
1.149606
 21
2.417323
 31
0.0
  0
LINE
  8
0
  6
CONTINUOUS
 62
     7
  5
250
 10
-1.149606
 20
3.598425
 30
0.0
 11
-1.149606
 21
2.417323
 31
0.0
  0
LINE
  8
0
  6
CONTINUOUS
 62
     7
  5
251
 10
-1.149606
 20
2.417323
 30
0.0
 11
-1.149606
 21
1.496063
 31
0.0
  0
LINE
  8
0
  6
CONTINUOUS
 62
     7
  5
252
 10
1.208661
 20
1.437008
 30
0.0
 11
1.149606
 21
1.496063
 31
0.0
  0
LINE
  8
0
  6
CONTINUOUS
 62
     7
  5
253
 10
-1.149606
 20
1.496063
 30
0.0
 11
-1.208661
 21
1.437008
 31
0.0
  0
LINE
  8
0
  6
CONTINUOUS
 62
     7
  5
254
 10
1.208661
 20
0.0
 30
0.0
 11
1.208661
 21
1.437008
 31
0.0
  0
LINE
  8
0
  6
CONTINUOUS
 62
     7
  5
255
 10
-1.208661
 20
1.437008
 30
0.0
 11
-1.208661
 21
0.0
 31
0.0
  0
LINE
  8
0
  6
CONTINUOUS
 62
     7
  5
256
 10
1.115118
 20
5.748031
 30
0.0
 11
1.115118
 21
6.220472
 31
0.0
  0
LINE
  8
0
  6
CONTINUOUS
 62
     7
  5
257
 10
-1.115118
 20
6.220472
 30
0.0
 11
-1.115118
 21
5.748031
 31
0.0
  0
LINE
  8
0
  6
CONTINUOUS
 62
     7
  5
258
 10
-1.208661
 20
5.748031
 30
0.0
 11
-1.208661
 21
5.267717
 31
0.0
  0
LINE
  8
0
  6
CONTINUOUS
 62
     7
  5
259
 10
1.208661
 20
5.267717
 30
0.0
 11
1.208661
 21
5.748031
 31
0.0
  0
LINE
  8
0
  6
CONTINUOUS
 62
     7
  5
25A
 10
-1.208661
 20
5.267717
 30
0.0
 11
-1.177165
 21
5.23622
 31
0.0
  0
LINE
  8
0
  6
CONTINUOUS
 62
     7
  5
25B
 10
1.177165
 20
5.23622
 30
0.0
 11
1.208661
 21
5.267717
 31
0.0
  0
LINE
  8
0
  6
CONTINUOUS
 62
     7
  5
25C
 10
1.149606
 20
4.807087
 30
0.0
 11
1.149606
 21
5.23622
 31
0.0
  0
LINE
  8
0
  6
CONTINUOUS
 62
     7
  5
25D
 10
-1.149606
 20
5.23622
 30
0.0
 11
-1.149606
 21
4.807087
 31
0.0
  0
LINE
  8
0
  6
CONTINUOUS
 62
     7
  5
25E
 10
1.059362
 20
6.574803
 30
0.0
 11
1.059362
 21
6.676772
 31
0.0
  0
LINE
  8
0
  6
CONTINUOUS
 62
     7
  5
25F
 10
-1.059362
 20
6.676772
 30
0.0
 11
-1.059362
 21
6.574803
 31
0.0
  0
LINE
  8
0
  6
CONTINUOUS
 62
     7
  5
260
 10
1.113969
 20
6.456693
 30
0.0
 11
1.113969
 21
6.574803
 31
0.0
  0
LINE
  8
0
  6
CONTINUOUS
 62
     7
  5
261
 10
1.092126
 20
6.220472
 30
0.0
 11
1.092126
 21
6.456693
 31
0.0
  0
LINE
  8
0
  6
CONTINUOUS
 62
     7
  5
262
 10
-1.092126
 20
6.574803
 30
0.0
 11
-1.092126
 21
6.220472
 31
0.0
  0
LINE
  8
0
  6
CONTINUOUS
 62
     3
  5
263
 10
0.0
 20
0.0
 30
0.0
 11
0.0
 21
6.676772
 31
0.0
  0
LINE
  8
0
  6
CONTINUOUS
 62
     3
  5
264
 10
-0.181299
 20
3.598425
 30
0.0
 11
0.181299
 21
3.598425
 31
0.0
  0
ENDSEC
  0
EOF
