999
DXF file: C:\Users\sesa63760\Dev\_Creo\CAD\MCADPD0004503_3D-CAD\drw0001_3.dxf
999
Pro/ENGINEER 2019471 by Parametric Technology Corporation
  0
SECTION
  2
HEADER
  9
$ACADVER
  1
AC1024
  9
$DWGCODEPAGE
  3
ANSI_1252
  9
$EXTMAX
 10
206.6742921556
 20
292.2964989058
 30
0.0
  9
$EXTMIN
 10
0.0
 20
0.0
 30
0.0
  9
$LIMMIN
 10
0.0
 20
0.0
  9
$LIMMAX
 10
206.6742921556
 20
292.2964989058
  9
$VIEWCTR
 10
103.3371460778
 20
146.1482494529
  9
$VIEWSIZE
 40
292.2964989058
  9
$CLAYER
  8
0
  9
$LTSCALE
 40
19.0534014102
  9
$CELTYPE
  6
BYLAYER
  9
$DIMSCALE
 40
1.0
  9
$DIMASZ
 40
2.4604082399
  9
$DIMEXO
 40
1.0
  9
$DIMDLI
 40
13.164168247
  9
$DIMEXE
 40
1.0
  9
$DIMCEN
 40
3.1178293217
  9
$DIMLFAC
 40
1.0
  9
$DIMBLK
  1
_FILLED
  9
$DIMALT
 70
0
  9
$DIMALTF
 40
0.0393700787
  9
$DIMTXT
 40
3.4445715359
  9
$DIMTOL
 70
1
  9
$DIMLIM
 70
0
  9
$DIMTFAC
 40
1.0
  9
$DIMTP
 40
0.01
  9
$DIMTM
 40
0.01
  9
$DIMGAP
 40
0.625
  9
$DIMDSEP
 70
46
  9
$AUNITS
 70
0
  9
$PDMODE
 70
3
  9
$PDSIZE
 40
0.3125
  9
$HANDSEED
  5
318
  9
$TILEMODE
 70
1
  9
$MEASUREMENT
 70
1
  9
$INSUNITS
 70
4
  0
ENDSEC
  0
SECTION
  2
CLASSES
  0
CLASS
  1
ACDBDICTIONARYWDFLT
  2
AcDbDictionaryWithDefault
  3
AutoCAD 2000
 90
0
 91
1
280
0
281
0
  0
CLASS
  1
ACDBPLACEHOLDER
  2
AcDbPlaceHolder
  3
AutoCAD 2000
 90
0
 91
1
280
0
281
0
  0
CLASS
  1
LAYOUT
  2
AcDbLayout
  3
AutoCAD 2000
 90
0
 91
0
280
0
281
0
  0
ENDSEC
  0
SECTION
  2
TABLES
  0
TABLE
  2
VPORT
  5
8
100
AcDbSymbolTable
 70
2
  0
VPORT
  5
1F4
100
AcDbSymbolTableRecord
100
AcDbViewportTableRecord
  2
*ACTIVE
 70
0
 10
0.0
 20
0.0
 11
1.0
 21
1.0
 12
103.3371460778
 22
146.1482494529
 13
0.0
 23
0.0
 14
1.0
 24
1.0
 15
0.0
 25
0.0
 16
0.0
 26
0.0
 36
1.0
 17
0.0
 27
0.0
 37
0.0
 40
292.2964989058
 41
0.7070707071
 42
50.0
 43
0.0
 44
0.0
 50
0.0
 51
0.0
 71
0
 72
100
 73
1
 74
1
 75
0
 76
0
 77
0
 78
0
  0
ENDTAB
  0
TABLE
  2
LTYPE
  5
5
100
AcDbSymbolTable
 70
6
  0
LTYPE
  5
14
100
AcDbSymbolTableRecord
100
AcDbLinetypeTableRecord
  2
BYBLOCK
 70
0
  3

 72
65
 73
0
 40
0.0
  0
LTYPE
  5
15
100
AcDbSymbolTableRecord
100
AcDbLinetypeTableRecord
  2
BYLAYER
 70
0
  3

 72
65
 73
0
 40
0.0
  0
LTYPE
  5
16
100
AcDbSymbolTableRecord
100
AcDbLinetypeTableRecord
  2
CONTINUOUS
 70
64
  3
Solid line
 72
65
 73
0
 40
0.0
  0
LTYPE
  5
1F5
100
AcDbSymbolTableRecord
100
AcDbLinetypeTableRecord
  2
CENTER
 70
64
  3
____ _ ____ _ ____ _ ____ _ ____ _ ____ _ ____
 72
65
 73
4
 40
0.6
 49
0.375
 74
0
 49
-0.075
 74
0
 49
0.075
 74
0
 49
-0.075
 74
0
  0
LTYPE
  5
1F6
100
AcDbSymbolTableRecord
100
AcDbLinetypeTableRecord
  2
HIDDEN
 70
64
  3
- - - - - - - - - - - - - - - - - - - -
 72
65
 73
2
 40
0.2
 49
0.1
 74
0
 49
-0.1
 74
0
  0
LTYPE
  5
1F7
100
AcDbSymbolTableRecord
100
AcDbLinetypeTableRecord
  2
PHANTOM
 70
64
  3
_____ _ _ _____ _ _ _____ _ _ _____
 72
65
 73
6
 40
0.8
 49
0.45
 74
0
 49
-0.05
 74
0
 49
0.1
 74
0
 49
-0.05
 74
0
 49
0.1
 74
0
 49
-0.05
 74
0
  0
LTYPE
  5
1F8
100
AcDbSymbolTableRecord
100
AcDbLinetypeTableRecord
  2
DOT
 70
64
  3
. . . . . . . . . . . . . . . . . . . .
 72
65
 73
2
 40
0.2
 49
0.1
 74
0
 49
-0.1
 74
0
  0
LTYPE
  5
1F9
100
AcDbSymbolTableRecord
100
AcDbLinetypeTableRecord
  2
DASHED
 70
64
  3
- - - - - - - - - - - - - - - - - - - -
 72
65
 73
2
 40
0.2
 49
0.1
 74
0
 49
-0.1
 74
0
  0
ENDTAB
  0
TABLE
  2
LAYER
  5
2
100
AcDbSymbolTable
 70
36
  0
LAYER
  5
10
100
AcDbSymbolTableRecord
100
AcDbLayerTableRecord
  2
0
 70
0
 62
7
  6
CONTINUOUS
370
-3
390
F
  0
LAYER
  5
1FA
100
AcDbSymbolTableRecord
100
AcDbLayerTableRecord
  2
DEFAULT_1
 70
0
 62
7
  6
CENTER
370
-3
390
F
  0
LAYER
  5
1FB
100
AcDbSymbolTableRecord
100
AcDbLayerTableRecord
  2
DEFAULT_2
 70
0
 62
7
  6
HIDDEN
370
-3
390
F
  0
LAYER
  5
1FC
100
AcDbSymbolTableRecord
100
AcDbLayerTableRecord
  2
DEFAULT_3
 70
0
 62
7
  6
PHANTOM
370
-3
390
F
  0
LAYER
  5
1FD
100
AcDbSymbolTableRecord
100
AcDbLayerTableRecord
  2
00_COMPONENTS
 70
0
 62
7
  6
CONTINUOUS
370
-3
390
F
  0
LAYER
  5
1FE
100
AcDbSymbolTableRecord
100
AcDbLayerTableRecord
  2
01_1_DEFAULT_DATUMS
 70
0
 62
7
  6
CONTINUOUS
370
-3
390
F
  0
LAYER
  5
1FF
100
AcDbSymbolTableRecord
100
AcDbLayerTableRecord
  2
01_PLANES
 70
0
 62
7
  6
CONTINUOUS
370
-3
390
F
  0
LAYER
  5
200
100
AcDbSymbolTableRecord
100
AcDbLayerTableRecord
  2
02_COORD_SYS
 70
0
 62
7
  6
CONTINUOUS
370
-3
390
F
  0
LAYER
  5
201
100
AcDbSymbolTableRecord
100
AcDbLayerTableRecord
  2
03_AXES
 70
0
 62
7
  6
CONTINUOUS
370
-3
390
F
  0
LAYER
  5
202
100
AcDbSymbolTableRecord
100
AcDbLayerTableRecord
  2
04_POINTS
 70
0
 62
7
  6
CONTINUOUS
370
-3
390
F
  0
LAYER
  5
203
100
AcDbSymbolTableRecord
100
AcDbLayerTableRecord
  2
05_CURVES
 70
0
 62
7
  6
CONTINUOUS
370
-3
390
F
  0
LAYER
  5
204
100
AcDbSymbolTableRecord
100
AcDbLayerTableRecord
  2
06_SURFS
 70
0
 62
7
  6
CONTINUOUS
370
-3
390
F
  0
LAYER
  5
205
100
AcDbSymbolTableRecord
100
AcDbLayerTableRecord
  2
07_COSMETICS
 70
0
 62
7
  6
CONTINUOUS
370
-3
390
F
  0
LAYER
  5
206
100
AcDbSymbolTableRecord
100
AcDbLayerTableRecord
  2
10_NOTES
 70
0
 62
7
  6
CONTINUOUS
370
-3
390
F
  0
LAYER
  5
207
100
AcDbSymbolTableRecord
100
AcDbLayerTableRecord
  2
11_NOTES_PUB
 70
0
 62
7
  6
CONTINUOUS
370
-3
390
F
  0
LAYER
  5
208
100
AcDbSymbolTableRecord
100
AcDbLayerTableRecord
  2
13_REF_GTOL
 70
0
 62
7
  6
CONTINUOUS
370
-3
390
F
  0
LAYER
  5
209
100
AcDbSymbolTableRecord
100
AcDbLayerTableRecord
  2
16_MISC
 70
0
 62
7
  6
CONTINUOUS
370
-3
390
F
  0
LAYER
  5
20A
100
AcDbSymbolTableRecord
100
AcDbLayerTableRecord
  2
17_NO_PRINT
 70
0
 62
7
  6
CONTINUOUS
370
-3
390
F
  0
LAYER
  5
20B
100
AcDbSymbolTableRecord
100
AcDbLayerTableRecord
  2
18_DATUM_CAMS_JOINTS
 70
0
 62
7
  6
CONTINUOUS
370
-3
390
F
  0
LAYER
  5
20C
100
AcDbSymbolTableRecord
100
AcDbLayerTableRecord
  2
19_DATUM_FUNCTIONAL
 70
0
 62
7
  6
CONTINUOUS
370
-3
390
F
  0
LAYER
  5
20D
100
AcDbSymbolTableRecord
100
AcDbLayerTableRecord
  2
20_DATUM_KINEMATIC_SCHEME
 70
0
 62
7
  6
CONTINUOUS
370
-3
390
F
  0
ENDTAB
  0
TABLE
  2
STYLE
  5
3
100
AcDbSymbolTable
 70
1
  0
STYLE
  5
11
100
AcDbSymbolTableRecord
100
AcDbTextStyleTableRecord
  2
STANDARD
 70
0
 40
0.0
 41
1.0
 50
0.0
 71
0
 42
0.2
  3
ARIAL.TTF
  4

  0
STYLE
  5
20E
100
AcDbSymbolTableRecord
100
AcDbTextStyleTableRecord
  2
TEXTSTYLE_1
 70
0
 40
0.0
 41
0.8
 50
0.0
 71
0
 42
0.2
  3
gdt
  4

  0
ENDTAB
  0
TABLE
  2
VIEW
  5
6
100
AcDbSymbolTable
 70
0
  0
ENDTAB
  0
TABLE
  2
UCS
  5
7
100
AcDbSymbolTable
 70
0
  0
ENDTAB
  0
TABLE
  2
APPID
  5
9
100
AcDbSymbolTable
 70
1
  0
APPID
  5
20F
100
AcDbSymbolTableRecord
100
AcDbRegAppTableRecord
  2
ACAD
 70
0
  0
ENDTAB
  0
TABLE
  2
BLOCK_RECORD
  5
1
100
AcDbSymbolTable
 70
0
  0
BLOCK_RECORD
  5
210
100
AcDbSymbolTableRecord
100
AcDbBlockTableRecord
  2
*Model_Space
  0
BLOCK_RECORD
  5
211
100
AcDbSymbolTableRecord
100
AcDbBlockTableRecord
  2
*Paper_Space
  0
BLOCK_RECORD
  5
212
100
AcDbSymbolTableRecord
100
AcDbBlockTableRecord
  2
_FILLED
  0
ENDTAB
  0
TABLE
  2
DIMSTYLE
  5
A
100
AcDbSymbolTable
 70
1
100
AcDbDimStyleTable
 71
0
  0
DIMSTYLE
105
213
100
AcDbSymbolTableRecord
100
AcDbDimStyleTableRecord
  2
STANDARD
 70
0
  3

  4

 40
1.0
 41
2.4604082399
 42
1.0
 43
0.38
 44
1.0
 45
0.0
 46
0.0
 47
0.01
 48
0.01
140
3.4445715359
141
0.09
142
0.0
143
25.4
144
1.0
145
0.0
146
1.0
147
0.625
 71
1
 72
0
 73
0
 74
0
 75
0
 76
0
 77
1
 78
8
 79
2
170
0
171
1
172
0
173
0
174
0
175
0
176
0
177
0
178
0
270
2
179
2
271
2
272
2
273
2
274
2
275
0
280
0
281
0
282
0
283
1
284
8
285
0
286
0
287
3
288
0
340
11
278
46
341
212
342
212
343
212
344
212
  0
ENDTAB
  0
ENDSEC
  0
SECTION
  2
BLOCKS
  0
BLOCK
  5
20
100
AcDbEntity
  8
0
100
AcDbBlockBegin
  2
*Model_Space
 70
0
 10
0.0
 20
0.0
 30
0.0
  3
*Model_Space
  1

  0
ENDBLK
  5
21
100
AcDbEntity
  8
0
100
AcDbBlockEnd
  0
BLOCK
  5
1C
100
AcDbEntity
  8
0
100
AcDbBlockBegin
  2
*Paper_Space
 70
0
 10
0.0
 20
0.0
 30
0.0
  3
*Paper_Space
  1

  0
ENDBLK
  5
1D
100
AcDbEntity
  8
0
100
AcDbBlockEnd
  0
BLOCK
  5
214
100
AcDbEntity
  8
0
100
AcDbBlockBegin
  2
_FILLED
 70
64
 10
0.0
 20
0.0
  3
_FILLED
  1

  0
SOLID
  5
215
100
AcDbEntity
  8
0
  6
BYBLOCK
 62
0
100
AcDbTrace
 10
0.0
 20
0.0
 11
-1.0
 21
0.25
 12
-1.0
 22
-0.25
 13
-1.0
 23
-0.25
  0
ENDBLK
  5
216
100
AcDbEntity
  8
0
  6
BYBLOCK
 62
0
100
AcDbBlockEnd
  0
ENDSEC
  0
SECTION
  2
ENTITIES
  0
LINE
  5
217
100
AcDbEntity
  8
0
100
AcDbLine
 62
7
  6
BYLAYER
 10
24.4492904979
 20
92.8637855579
 11
24.4492904979
 21
200.8637855579
  0
LINE
  5
218
100
AcDbEntity
  8
0
100
AcDbLine
 62
7
  6
BYLAYER
 10
26.4492904979
 20
90.8637855579
 11
26.4492904979
 21
133.4637855579
  0
LINE
  5
219
100
AcDbEntity
  8
0
100
AcDbLine
 62
7
  6
BYLAYER
 10
26.4492904979
 20
160.2637855579
 11
26.4492904979
 21
202.8637855579
  0
LINE
  5
21A
100
AcDbEntity
  8
0
100
AcDbLine
 62
7
  6
BYLAYER
 10
26.6992904979
 20
150.1137855579
 11
26.6992904979
 21
143.6137855579
  0
LINE
  5
21B
100
AcDbEntity
  8
0
100
AcDbLine
 62
7
  6
BYLAYER
 10
60.9492904979
 20
65.8637855579
 11
41.9492904979
 21
65.8637855579
  0
LINE
  5
21C
100
AcDbEntity
  8
0
100
AcDbLine
 62
7
  6
BYLAYER
 10
80.9492904979
 20
65.8637855579
 11
100.9492904979
 21
65.8637855579
  0
LINE
  5
21D
100
AcDbEntity
  8
0
100
AcDbLine
 62
7
  6
BYLAYER
 10
120.9492904979
 20
65.8637855579
 11
139.9492904979
 21
65.8637855579
  0
LINE
  5
21E
100
AcDbEntity
  8
0
100
AcDbLine
 62
7
  6
BYLAYER
 10
34.6992904979
 20
143.6137855579
 11
34.6992904979
 21
150.1137855579
  0
LINE
  5
21F
100
AcDbEntity
  8
0
100
AcDbLine
 62
7
  6
BYLAYER
 10
37.9492904979
 20
78.3637855579
 11
37.9492904979
 21
215.3637855579
  0
LINE
  5
220
100
AcDbEntity
  8
0
100
AcDbLine
 62
7
  6
BYLAYER
 10
37.9492904979
 20
78.3637855579
 11
41.9492904979
 21
78.3637855579
  0
LINE
  5
221
100
AcDbEntity
  8
0
100
AcDbLine
 62
7
  6
BYLAYER
 10
60.9492904979
 20
78.3637855579
 11
80.9492904979
 21
78.3637855579
  0
LINE
  5
222
100
AcDbEntity
  8
0
100
AcDbLine
 62
7
  6
BYLAYER
 10
100.9492904979
 20
78.3637855579
 11
120.9492904979
 21
78.3637855579
  0
LINE
  5
223
100
AcDbEntity
  8
0
100
AcDbLine
 62
7
  6
BYLAYER
 10
139.9492904979
 20
78.3637855579
 11
143.9492904979
 21
78.3637855579
  0
LINE
  5
224
100
AcDbEntity
  8
0
100
AcDbLine
 62
7
  6
BYLAYER
 10
39.6992904979
 20
88.1137855579
 11
39.6992904979
 21
205.6137855579
  0
LINE
  5
225
100
AcDbEntity
  8
0
100
AcDbLine
 62
7
  6
BYLAYER
 10
40.5492904979
 20
87.5137855579
 11
40.5492904979
 21
206.2137855579
  0
LINE
  5
226
100
AcDbEntity
  8
0
100
AcDbLine
 62
7
  6
BYLAYER
 10
41.9492904979
 20
227.8637855579
 11
41.9492904979
 21
212.8637855579
  0
LINE
  5
227
100
AcDbEntity
  8
0
100
AcDbLine
 62
7
  6
BYLAYER
 10
41.9492904979
 20
65.8637855579
 11
41.9492904979
 21
80.8637855579
  0
LINE
  5
228
100
AcDbEntity
  8
0
100
AcDbLine
 62
7
  6
BYLAYER
 10
42.4091298553
 20
88.0137855579
 11
42.4091298553
 21
205.7137855579
  0
LINE
  5
229
100
AcDbEntity
  8
0
100
AcDbLine
 62
7
  6
BYLAYER
 10
45.6992904979
 20
208.6137855579
 11
45.6992904979
 21
207.7137855579
  0
LINE
  5
22A
100
AcDbEntity
  8
0
100
AcDbLine
 62
7
  6
BYLAYER
 10
45.6992904979
 20
85.1137855579
 11
45.6992904979
 21
86.0137855579
  0
LINE
  5
22B
100
AcDbEntity
  8
0
100
AcDbLine
 62
7
  6
BYLAYER
 10
143.9492904979
 20
78.8637855579
 11
139.9492904979
 21
78.8637855579
  0
LINE
  5
22C
100
AcDbEntity
  8
0
100
AcDbLine
 62
7
  6
BYLAYER
 10
120.9492904979
 20
78.8637855579
 11
100.9492904979
 21
78.8637855579
  0
LINE
  5
22D
100
AcDbEntity
  8
0
100
AcDbLine
 62
7
  6
BYLAYER
 10
80.9492904979
 20
78.8637855579
 11
60.9492904979
 21
78.8637855579
  0
LINE
  5
22E
100
AcDbEntity
  8
0
100
AcDbLine
 62
7
  6
BYLAYER
 10
41.9492904979
 20
78.8637855579
 11
37.9492904979
 21
78.8637855579
  0
LINE
  5
22F
100
AcDbEntity
  8
0
100
AcDbLine
 62
7
  6
BYLAYER
 10
139.1992904979
 20
85.1137855579
 11
136.1992904979
 21
85.1137855579
  0
LINE
  5
230
100
AcDbEntity
  8
0
100
AcDbLine
 62
7
  6
BYLAYER
 10
110.6992904979
 20
85.1137855579
 11
103.6992904979
 21
85.1137855579
  0
LINE
  5
231
100
AcDbEntity
  8
0
100
AcDbLine
 62
7
  6
BYLAYER
 10
78.1992904979
 20
85.1137855579
 11
71.1992904979
 21
85.1137855579
  0
LINE
  5
232
100
AcDbEntity
  8
0
100
AcDbLine
 62
7
  6
BYLAYER
 10
45.6992904979
 20
85.1137855579
 11
42.6992904979
 21
85.1137855579
  0
LINE
  5
233
100
AcDbEntity
  8
0
100
AcDbLine
 62
7
  6
BYLAYER
 10
187.9492904979
 20
85.8637855579
 11
141.9492904979
 21
85.8637855579
  0
LINE
  5
234
100
AcDbEntity
  8
0
100
AcDbLine
 62
7
  6
BYLAYER
 10
42.0492904979
 20
86.0137855579
 11
139.8492904979
 21
86.0137855579
  0
LINE
  5
235
100
AcDbEntity
  8
0
100
AcDbLine
 62
7
  6
BYLAYER
 10
141.3492904979
 20
88.0137855579
 11
40.5492904979
 21
88.0137855579
  0
LINE
  5
236
100
AcDbEntity
  8
0
100
AcDbLine
 62
7
  6
BYLAYER
 10
26.4492904979
 20
90.8637855579
 11
39.6992904979
 21
90.8637855579
  0
LINE
  5
237
100
AcDbEntity
  8
0
100
AcDbLine
 62
7
  6
BYLAYER
 10
37.9492904979
 20
92.8637855579
 11
24.4492904979
 21
92.8637855579
  0
LINE
  5
238
100
AcDbEntity
  8
0
100
AcDbLine
 62
7
  6
BYLAYER
 10
60.9492904979
 20
83.0211448708
 11
60.9492904979
 21
65.8637855579
  0
LINE
  5
239
100
AcDbEntity
  8
0
100
AcDbLine
 62
7
  6
BYLAYER
 10
60.9492904979
 20
210.706426245
 11
60.9492904979
 21
227.8637855579
  0
LINE
  5
23A
100
AcDbEntity
  8
0
100
AcDbLine
 62
7
  6
BYLAYER
 10
187.9492904979
 20
94.2183372907
 11
143.9492904979
 21
94.2183372907
  0
LINE
  5
23B
100
AcDbEntity
  8
0
100
AcDbLine
 62
7
  6
BYLAYER
 10
37.9492904979
 20
94.643509073
 11
39.6992904979
 21
94.643509073
  0
LINE
  5
23C
100
AcDbEntity
  8
0
100
AcDbLine
 62
7
  6
BYLAYER
 10
39.6992904979
 20
94.7899556824
 11
37.9492904979
 21
94.7899556824
  0
LINE
  5
23D
100
AcDbEntity
  8
0
100
AcDbLine
 62
7
  6
BYLAYER
 10
143.9492904979
 20
95.8637855579
 11
187.9492904979
 21
95.8637855579
  0
LINE
  5
23E
100
AcDbEntity
  8
0
100
AcDbLine
 62
7
  6
BYLAYER
 10
37.9492904979
 20
96.2069313084
 11
39.6992904979
 21
96.2069313084
  0
LINE
  5
23F
100
AcDbEntity
  8
0
100
AcDbLine
 62
7
  6
BYLAYER
 10
112.7699309807
 20
96.8637855591
 11
111.6992440477
 21
96.8637855624
  0
LINE
  5
240
100
AcDbEntity
  8
0
100
AcDbLine
 62
7
  6
BYLAYER
 10
101.7478871509
 20
96.863785571
 11
102.6993368002
 21
96.8637855359
  0
LINE
  5
241
100
AcDbEntity
  8
0
100
AcDbLine
 62
7
  6
BYLAYER
 10
39.6992904979
 20
96.9140380896
 11
37.9492904979
 21
96.9140380896
  0
LINE
  5
242
100
AcDbEntity
  8
0
100
AcDbLine
 62
7
  6
BYLAYER
 10
37.9492904979
 20
99.6137855579
 11
39.6992904979
 21
99.6137855579
  0
LINE
  5
243
100
AcDbEntity
  8
0
100
AcDbLine
 62
7
  6
BYLAYER
 10
37.9492904979
 20
100.6137855579
 11
39.6992904979
 21
100.6137855579
  0
LINE
  5
244
100
AcDbEntity
  8
0
100
AcDbLine
 62
7
  6
BYLAYER
 10
39.6992904979
 20
101.6137855579
 11
37.9492904979
 21
101.6137855579
  0
LINE
  5
245
100
AcDbEntity
  8
0
100
AcDbLine
 62
7
  6
BYLAYER
 10
176.9492904979
 20
103.3637855579
 11
175.0492904979
 21
103.3637855579
  0
LINE
  5
246
100
AcDbEntity
  8
0
100
AcDbLine
 62
7
  6
BYLAYER
 10
156.8492904979
 20
103.3637855579
 11
154.9492904979
 21
103.3637855579
  0
LINE
  5
247
100
AcDbEntity
  8
0
100
AcDbLine
 62
7
  6
BYLAYER
 10
158.8492904979
 20
105.3637855579
 11
173.0492904979
 21
105.3637855579
  0
LINE
  5
248
100
AcDbEntity
  8
0
100
AcDbLine
 62
7
  6
BYLAYER
 10
37.9492904979
 20
106.2387855579
 11
39.6992904979
 21
106.2387855579
  0
LINE
  5
249
100
AcDbEntity
  8
0
100
AcDbLine
 62
7
  6
BYLAYER
 10
39.6992904979
 20
106.7387855579
 11
37.9492904979
 21
106.7387855579
  0
LINE
  5
24A
100
AcDbEntity
  8
0
100
AcDbLine
 62
7
  6
BYLAYER
 10
39.6992904979
 20
107.3637855579
 11
37.9492904979
 21
107.3637855579
  0
LINE
  5
24B
100
AcDbEntity
  8
0
100
AcDbLine
 62
7
  6
BYLAYER
 10
143.9492904979
 20
107.3637855579
 11
187.9492904979
 21
107.3637855579
  0
LINE
  5
24C
100
AcDbEntity
  8
0
100
AcDbLine
 62
7
  6
BYLAYER
 10
143.9492904979
 20
108.3637855579
 11
187.9492904979
 21
108.3637855579
  0
LINE
  5
24D
100
AcDbEntity
  8
0
100
AcDbLine
 62
7
  6
BYLAYER
 10
71.1992904979
 20
208.6137855579
 11
71.1992904979
 21
207.7137855579
  0
LINE
  5
24E
100
AcDbEntity
  8
0
100
AcDbLine
 62
7
  6
BYLAYER
 10
71.1992904979
 20
85.1137855579
 11
71.1992904979
 21
86.0137855579
  0
LINE
  5
24F
100
AcDbEntity
  8
0
100
AcDbLine
 62
7
  6
BYLAYER
 10
98.5532868808
 20
207.7137855579
 11
100.5473667092
 21
211.1676331352
  0
LINE
  5
250
100
AcDbEntity
  8
0
100
AcDbLine
 62
7
  6
BYLAYER
 10
120.0706108414
 20
208.5851059014
 11
119.1992904979
 21
207.7137855579
  0
LINE
  5
251
100
AcDbEntity
  8
0
100
AcDbLine
 62
7
  6
BYLAYER
 10
37.9492904979
 20
111.3637855579
 11
39.6992904979
 21
111.3637855579
  0
LINE
  5
252
100
AcDbEntity
  8
0
100
AcDbLine
 62
7
  6
BYLAYER
 10
37.9492904979
 20
111.9887855579
 11
39.6992904979
 21
111.9887855579
  0
LINE
  5
253
100
AcDbEntity
  8
0
100
AcDbLine
 62
7
  6
BYLAYER
 10
39.6992904979
 20
112.4887855579
 11
37.9492904979
 21
112.4887855579
  0
LINE
  5
254
100
AcDbEntity
  8
0
100
AcDbLine
 62
7
  6
BYLAYER
 10
143.9492904979
 20
115.3637855579
 11
187.9492904979
 21
115.3637855579
  0
LINE
  5
255
100
AcDbEntity
  8
0
100
AcDbLine
 62
7
  6
BYLAYER
 10
143.9492904979
 20
116.3637855579
 11
187.9492904979
 21
116.3637855579
  0
LINE
  5
256
100
AcDbEntity
  8
0
100
AcDbLine
 62
7
  6
BYLAYER
 10
119.1992904979
 20
86.0137855579
 11
120.0706108414
 21
85.1424652144
  0
LINE
  5
257
100
AcDbEntity
  8
0
100
AcDbLine
 62
7
  6
BYLAYER
 10
100.5473667093
 20
82.5599379806
 11
98.5532868808
 21
86.0137855579
  0
LINE
  5
258
100
AcDbEntity
  8
0
100
AcDbLine
 62
7
  6
BYLAYER
 10
78.1992904979
 20
208.6137855579
 11
78.1992904979
 21
207.7137855579
  0
LINE
  5
259
100
AcDbEntity
  8
0
100
AcDbLine
 62
7
  6
BYLAYER
 10
78.1992904979
 20
85.1137855579
 11
78.1992904979
 21
86.0137855579
  0
LINE
  5
25A
100
AcDbEntity
  8
0
100
AcDbLine
 62
7
  6
BYLAYER
 10
80.9492904979
 20
227.8637855579
 11
80.9492904979
 21
212.6676331352
  0
LINE
  5
25B
100
AcDbEntity
  8
0
100
AcDbLine
 62
7
  6
BYLAYER
 10
80.9492904979
 20
81.0599379806
 11
80.9492904979
 21
65.8637855579
  0
LINE
  5
25C
100
AcDbEntity
  8
0
100
AcDbLine
 62
7
  6
BYLAYER
 10
133.7992904979
 20
207.7137855579
 11
137.0784618045
 21
210.9929568645
  0
LINE
  5
25D
100
AcDbEntity
  8
0
100
AcDbLine
 62
7
  6
BYLAYER
 10
37.9492904979
 20
118.1213532996
 11
39.6992904979
 21
118.1213532996
  0
LINE
  5
25E
100
AcDbEntity
  8
0
100
AcDbLine
 62
7
  6
BYLAYER
 10
137.0784618045
 20
82.7346142513
 11
133.7992904979
 21
86.0137855579
  0
LINE
  5
25F
100
AcDbEntity
  8
0
100
AcDbLine
 62
7
  6
BYLAYER
 10
37.9492904979
 20
126.0347956296
 11
39.6992904979
 21
126.0347956296
  0
LINE
  5
260
100
AcDbEntity
  8
0
100
AcDbLine
 62
7
  6
BYLAYER
 10
39.6992904979
 20
126.3637855579
 11
37.9492904979
 21
126.3637855579
  0
LINE
  5
261
100
AcDbEntity
  8
0
100
AcDbLine
 62
7
  6
BYLAYER
 10
143.9492904979
 20
127.8637855579
 11
187.9492904979
 21
127.8637855579
  0
LINE
  5
262
100
AcDbEntity
  8
0
100
AcDbLine
 62
7
  6
BYLAYER
 10
187.9492904979
 20
129.5092338251
 11
143.9492904979
 21
129.5092338251
  0
LINE
  5
263
100
AcDbEntity
  8
0
100
AcDbLine
 62
7
  6
BYLAYER
 10
37.9492904979
 20
133.4637855579
 11
25.4492904979
 21
133.4637855579
  0
LINE
  5
264
100
AcDbEntity
  8
0
100
AcDbLine
 62
7
  6
BYLAYER
 10
143.9492904979
 20
139.2000723587
 11
175.5971780313
 21
139.2000723587
  0
LINE
  5
265
100
AcDbEntity
  8
0
100
AcDbLine
 62
7
  6
BYLAYER
 10
100.9492904979
 20
65.8637855579
 11
100.9492904979
 21
81.0599379806
  0
LINE
  5
266
100
AcDbEntity
  8
0
100
AcDbLine
 62
7
  6
BYLAYER
 10
100.9492904979
 20
212.6676331352
 11
100.9492904979
 21
227.8637855579
  0
LINE
  5
267
100
AcDbEntity
  8
0
100
AcDbLine
 62
7
  6
BYLAYER
 10
103.6992904979
 20
208.6137855579
 11
103.6992904979
 21
207.7137855579
  0
LINE
  5
268
100
AcDbEntity
  8
0
100
AcDbLine
 62
7
  6
BYLAYER
 10
103.6992904979
 20
85.1137855579
 11
103.6992904979
 21
86.0137855579
  0
LINE
  5
269
100
AcDbEntity
  8
0
100
AcDbLine
 62
7
  6
BYLAYER
 10
26.6992904979
 20
143.6137855579
 11
34.6992904979
 21
143.6137855579
  0
LINE
  5
26A
100
AcDbEntity
  8
0
100
AcDbLine
 62
7
  6
BYLAYER
 10
110.6992904979
 20
208.6137855579
 11
110.6992904979
 21
207.7137855579
  0
LINE
  5
26B
100
AcDbEntity
  8
0
100
AcDbLine
 62
7
  6
BYLAYER
 10
110.6992904979
 20
85.1137855579
 11
110.6992904979
 21
86.0137855579
  0
LINE
  5
26C
100
AcDbEntity
  8
0
100
AcDbLine
 62
7
  6
BYLAYER
 10
114.3492879703
 20
88.0137855579
 11
114.3492886747
 21
205.7137855579
  0
LINE
  5
26D
100
AcDbEntity
  8
0
100
AcDbLine
 62
7
  6
BYLAYER
 10
48.0992904979
 20
86.0137855579
 11
44.8201191913
 21
82.7346142513
  0
LINE
  5
26E
100
AcDbEntity
  8
0
100
AcDbLine
 62
7
  6
BYLAYER
 10
34.6992904979
 20
150.1137855579
 11
26.6992904979
 21
150.1137855579
  0
LINE
  5
26F
100
AcDbEntity
  8
0
100
AcDbLine
 62
7
  6
BYLAYER
 10
37.9492904979
 20
151.9706921582
 11
39.6992904979
 21
151.9706921582
  0
LINE
  5
270
100
AcDbEntity
  8
0
100
AcDbLine
 62
7
  6
BYLAYER
 10
175.5971780313
 20
154.5274987571
 11
143.9492904979
 21
154.5274987571
  0
LINE
  5
271
100
AcDbEntity
  8
0
100
AcDbLine
 62
7
  6
BYLAYER
 10
44.8201191913
 20
210.9929568645
 11
48.0992904979
 21
207.7137855579
  0
LINE
  5
272
100
AcDbEntity
  8
0
100
AcDbLine
 62
7
  6
BYLAYER
 10
116.0492904979
 20
180.2637855579
 11
116.0492904979
 21
172.4637855579
  0
LINE
  5
273
100
AcDbEntity
  8
0
100
AcDbLine
 62
7
  6
BYLAYER
 10
120.9492904979
 20
83.0211448708
 11
120.9492904979
 21
65.8637855579
  0
LINE
  5
274
100
AcDbEntity
  8
0
100
AcDbLine
 62
7
  6
BYLAYER
 10
120.9492904979
 20
210.706426245
 11
120.9492904979
 21
227.8637855579
  0
LINE
  5
275
100
AcDbEntity
  8
0
100
AcDbLine
 62
7
  6
BYLAYER
 10
83.345294115
 20
86.0137855579
 11
81.3512142865
 21
82.5599379806
  0
LINE
  5
276
100
AcDbEntity
  8
0
100
AcDbLine
 62
7
  6
BYLAYER
 10
61.8279701544
 20
85.1424652144
 11
62.6992904979
 21
86.0137855579
  0
LINE
  5
277
100
AcDbEntity
  8
0
100
AcDbLine
 62
7
  6
BYLAYER
 10
37.9492904979
 20
160.2637855579
 11
25.4492904979
 21
160.2637855579
  0
LINE
  5
278
100
AcDbEntity
  8
0
100
AcDbLine
 62
7
  6
BYLAYER
 10
62.6992904979
 20
207.7137855579
 11
61.8279701544
 21
208.5851059014
  0
LINE
  5
279
100
AcDbEntity
  8
0
100
AcDbLine
 62
7
  6
BYLAYER
 10
81.3512142865
 20
211.1676331352
 11
83.345294115
 21
207.7137855579
  0
LINE
  5
27A
100
AcDbEntity
  8
0
100
AcDbLine
 62
7
  6
BYLAYER
 10
187.9492904979
 20
164.2183372907
 11
143.9492904979
 21
164.2183372907
  0
LINE
  5
27B
100
AcDbEntity
  8
0
100
AcDbLine
 62
7
  6
BYLAYER
 10
143.9492904979
 20
165.8637855579
 11
187.9492904979
 21
165.8637855579
  0
LINE
  5
27C
100
AcDbEntity
  8
0
100
AcDbLine
 62
7
  6
BYLAYER
 10
37.9492904979
 20
167.1137855579
 11
39.6992904979
 21
167.1137855579
  0
LINE
  5
27D
100
AcDbEntity
  8
0
100
AcDbLine
 62
7
  6
BYLAYER
 10
37.9492904979
 20
167.3637855579
 11
39.6992904979
 21
167.3637855579
  0
LINE
  5
27E
100
AcDbEntity
  8
0
100
AcDbLine
 62
7
  6
BYLAYER
 10
39.6992904979
 20
167.6927754863
 11
37.9492904979
 21
167.6927754863
  0
LINE
  5
27F
100
AcDbEntity
  8
0
100
AcDbLine
 62
7
  6
BYLAYER
 10
136.1992904979
 20
208.6137855579
 11
136.1992904979
 21
207.7137855579
  0
LINE
  5
280
100
AcDbEntity
  8
0
100
AcDbLine
 62
7
  6
BYLAYER
 10
136.1992904979
 20
85.1137855579
 11
136.1992904979
 21
86.0137855579
  0
LINE
  5
281
100
AcDbEntity
  8
0
100
AcDbLine
 62
7
  6
BYLAYER
 10
137.8492904979
 20
172.4637855579
 11
137.8492904979
 21
180.2637855579
  0
LINE
  5
282
100
AcDbEntity
  8
0
100
AcDbLine
 62
7
  6
BYLAYER
 10
116.0492904979
 20
172.4637855579
 11
137.8492904979
 21
172.4637855579
  0
LINE
  5
283
100
AcDbEntity
  8
0
100
AcDbLine
 62
7
  6
BYLAYER
 10
176.9492904979
 20
173.3637855579
 11
175.0492904979
 21
173.3637855579
  0
LINE
  5
284
100
AcDbEntity
  8
0
100
AcDbLine
 62
7
  6
BYLAYER
 10
156.8492904979
 20
173.3637855579
 11
154.9492904979
 21
173.3637855579
  0
LINE
  5
285
100
AcDbEntity
  8
0
100
AcDbLine
 62
7
  6
BYLAYER
 10
158.8492904979
 20
175.3637855579
 11
173.0492904979
 21
175.3637855579
  0
LINE
  5
286
100
AcDbEntity
  8
0
100
AcDbLine
 62
7
  6
BYLAYER
 10
37.9492904979
 20
175.6062178163
 11
39.6992904979
 21
175.6062178163
  0
LINE
  5
287
100
AcDbEntity
  8
0
100
AcDbLine
 62
7
  6
BYLAYER
 10
143.9492904979
 20
177.3637855579
 11
187.9492904979
 21
177.3637855579
  0
LINE
  5
288
100
AcDbEntity
  8
0
100
AcDbLine
 62
7
  6
BYLAYER
 10
143.9492904979
 20
178.3637855579
 11
187.9492904979
 21
178.3637855579
  0
LINE
  5
289
100
AcDbEntity
  8
0
100
AcDbLine
 62
7
  6
BYLAYER
 10
139.3492904979
 20
207.7137855579
 11
139.3492904979
 21
86.0137855579
  0
LINE
  5
28A
100
AcDbEntity
  8
0
100
AcDbLine
 62
7
  6
BYLAYER
 10
139.9492904979
 20
227.8637855579
 11
139.9492904979
 21
212.8637855579
  0
LINE
  5
28B
100
AcDbEntity
  8
0
100
AcDbLine
 62
7
  6
BYLAYER
 10
139.9492904979
 20
65.8637855579
 11
139.9492904979
 21
80.8637855579
  0
LINE
  5
28C
100
AcDbEntity
  8
0
100
AcDbLine
 62
7
  6
BYLAYER
 10
141.3492904979
 20
87.5137855579
 11
141.3492904979
 21
206.2137855579
  0
LINE
  5
28D
100
AcDbEntity
  8
0
100
AcDbLine
 62
7
  6
BYLAYER
 10
141.9492904979
 20
207.8637855579
 11
141.9492904979
 21
206.382479131
  0
LINE
  5
28E
100
AcDbEntity
  8
0
100
AcDbLine
 62
7
  6
BYLAYER
 10
141.9492904979
 20
87.3450157999
 11
141.9492904979
 21
85.8637855579
  0
LINE
  5
28F
100
AcDbEntity
  8
0
100
AcDbLine
 62
7
  6
BYLAYER
 10
142.1992904979
 20
205.6137855579
 11
142.1992904979
 21
88.1137855579
  0
LINE
  5
290
100
AcDbEntity
  8
0
100
AcDbLine
 62
7
  6
BYLAYER
 10
143.9492904979
 20
78.3637855579
 11
143.9492904979
 21
215.3637855579
  0
LINE
  5
291
100
AcDbEntity
  8
0
100
AcDbLine
 62
7
  6
BYLAYER
 10
137.8492904979
 20
180.2637855579
 11
116.0492904979
 21
180.2637855579
  0
LINE
  5
292
100
AcDbEntity
  8
0
100
AcDbLine
 62
7
  6
BYLAYER
 10
37.9492904979
 20
181.2387855579
 11
39.6992904979
 21
181.2387855579
  0
LINE
  5
293
100
AcDbEntity
  8
0
100
AcDbLine
 62
7
  6
BYLAYER
 10
39.6992904979
 20
181.7387855579
 11
37.9492904979
 21
181.7387855579
  0
LINE
  5
294
100
AcDbEntity
  8
0
100
AcDbLine
 62
7
  6
BYLAYER
 10
39.6992904979
 20
182.3637855579
 11
37.9492904979
 21
182.3637855579
  0
LINE
  5
295
100
AcDbEntity
  8
0
100
AcDbLine
 62
7
  6
BYLAYER
 10
143.9492904979
 20
185.3637855579
 11
187.9492904979
 21
185.3637855579
  0
LINE
  5
296
100
AcDbEntity
  8
0
100
AcDbLine
 62
7
  6
BYLAYER
 10
37.9492904979
 20
186.3637855579
 11
39.6992904979
 21
186.3637855579
  0
LINE
  5
297
100
AcDbEntity
  8
0
100
AcDbLine
 62
7
  6
BYLAYER
 10
143.9492904979
 20
186.3637855579
 11
187.9492904979
 21
186.3637855579
  0
LINE
  5
298
100
AcDbEntity
  8
0
100
AcDbLine
 62
7
  6
BYLAYER
 10
37.9492904979
 20
186.9887855579
 11
39.6992904979
 21
186.9887855579
  0
LINE
  5
299
100
AcDbEntity
  8
0
100
AcDbLine
 62
7
  6
BYLAYER
 10
39.6992904979
 20
187.4887855579
 11
37.9492904979
 21
187.4887855579
  0
LINE
  5
29A
100
AcDbEntity
  8
0
100
AcDbLine
 62
7
  6
BYLAYER
 10
174.9492904979
 20
191.3637855579
 11
170.6492904979
 21
191.3637855579
  0
LINE
  5
29B
100
AcDbEntity
  8
0
100
AcDbLine
 62
7
  6
BYLAYER
 10
161.2492904979
 20
191.3637855579
 11
156.9492904979
 21
191.3637855579
  0
LINE
  5
29C
100
AcDbEntity
  8
0
100
AcDbLine
 62
7
  6
BYLAYER
 10
37.9492904979
 20
192.1137855579
 11
39.6992904979
 21
192.1137855579
  0
LINE
  5
29D
100
AcDbEntity
  8
0
100
AcDbLine
 62
7
  6
BYLAYER
 10
39.6992904979
 20
193.1137855579
 11
37.9492904979
 21
193.1137855579
  0
LINE
  5
29E
100
AcDbEntity
  8
0
100
AcDbLine
 62
7
  6
BYLAYER
 10
154.9492904979
 20
173.3637855579
 11
154.9492904979
 21
165.8637855579
  0
LINE
  5
29F
100
AcDbEntity
  8
0
100
AcDbLine
 62
7
  6
BYLAYER
 10
154.9492904979
 20
103.3637855579
 11
154.9492904979
 21
95.8637855579
  0
LINE
  5
2A0
100
AcDbEntity
  8
0
100
AcDbLine
 62
7
  6
BYLAYER
 10
156.8492904979
 20
177.3637855579
 11
156.8492904979
 21
173.3637855579
  0
LINE
  5
2A1
100
AcDbEntity
  8
0
100
AcDbLine
 62
7
  6
BYLAYER
 10
156.8492904979
 20
107.3637855579
 11
156.8492904979
 21
103.3637855579
  0
LINE
  5
2A2
100
AcDbEntity
  8
0
100
AcDbLine
 62
7
  6
BYLAYER
 10
156.9492904979
 20
191.3637855579
 11
156.9492904979
 21
186.3637855579
  0
LINE
  5
2A3
100
AcDbEntity
  8
0
100
AcDbLine
 62
7
  6
BYLAYER
 10
156.9492904979
 20
127.8637855579
 11
156.9492904979
 21
116.3637855579
  0
LINE
  5
2A4
100
AcDbEntity
  8
0
100
AcDbLine
 62
7
  6
BYLAYER
 10
158.4492904979
 20
185.3637855579
 11
158.4492904979
 21
178.3637855579
  0
LINE
  5
2A5
100
AcDbEntity
  8
0
100
AcDbLine
 62
7
  6
BYLAYER
 10
158.4492904979
 20
115.3637855579
 11
158.4492904979
 21
108.3637855579
  0
LINE
  5
2A6
100
AcDbEntity
  8
0
100
AcDbLine
 62
7
  6
BYLAYER
 10
158.8492904979
 20
95.8637855579
 11
158.8492904979
 21
105.3637855579
  0
LINE
  5
2A7
100
AcDbEntity
  8
0
100
AcDbLine
 62
7
  6
BYLAYER
 10
158.8492904979
 20
165.8637855579
 11
158.8492904979
 21
175.3637855579
  0
LINE
  5
2A8
100
AcDbEntity
  8
0
100
AcDbLine
 62
7
  6
BYLAYER
 10
39.6992904979
 20
194.1137855579
 11
37.9492904979
 21
194.1137855579
  0
LINE
  5
2A9
100
AcDbEntity
  8
0
100
AcDbLine
 62
7
  6
BYLAYER
 10
37.9492904979
 20
196.8135330262
 11
39.6992904979
 21
196.8135330262
  0
LINE
  5
2AA
100
AcDbEntity
  8
0
100
AcDbLine
 62
7
  6
BYLAYER
 10
80.204801457
 20
196.8637855513
 11
79.1992438014
 21
196.863785572
  0
LINE
  5
2AB
100
AcDbEntity
  8
0
100
AcDbLine
 62
7
  6
BYLAYER
 10
69.1827576169
 20
196.8637855624
 11
70.199336748
 21
196.8637855459
  0
LINE
  5
2AC
100
AcDbEntity
  8
0
100
AcDbLine
 62
7
  6
BYLAYER
 10
39.6992904979
 20
197.5206398074
 11
37.9492904979
 21
197.5206398074
  0
LINE
  5
2AD
100
AcDbEntity
  8
0
100
AcDbLine
 62
7
  6
BYLAYER
 10
143.9492904979
 20
197.8637855579
 11
187.9492904979
 21
197.8637855579
  0
LINE
  5
2AE
100
AcDbEntity
  8
0
100
AcDbLine
 62
7
  6
BYLAYER
 10
37.9492904979
 20
198.9376154334
 11
39.6992904979
 21
198.9376154334
  0
LINE
  5
2AF
100
AcDbEntity
  8
0
100
AcDbLine
 62
7
  6
BYLAYER
 10
39.6992904979
 20
199.0840620428
 11
37.9492904979
 21
199.0840620428
  0
LINE
  5
2B0
100
AcDbEntity
  8
0
100
AcDbLine
 62
7
  6
BYLAYER
 10
187.9492904979
 20
199.5092338251
 11
143.9492904979
 21
199.5092338251
  0
LINE
  5
2B1
100
AcDbEntity
  8
0
100
AcDbLine
 62
7
  6
BYLAYER
 10
24.4492904979
 20
200.8637855579
 11
37.9492904979
 21
200.8637855579
  0
LINE
  5
2B2
100
AcDbEntity
  8
0
100
AcDbLine
 62
7
  6
BYLAYER
 10
160.9492904979
 20
177.3637855579
 11
160.9492904979
 21
175.3637855579
  0
LINE
  5
2B3
100
AcDbEntity
  8
0
100
AcDbLine
 62
7
  6
BYLAYER
 10
160.9492904979
 20
107.3637855579
 11
160.9492904979
 21
105.3637855579
  0
LINE
  5
2B4
100
AcDbEntity
  8
0
100
AcDbLine
 62
7
  6
BYLAYER
 10
161.2492904979
 20
116.3637855579
 11
161.2492904979
 21
127.8637855579
  0
LINE
  5
2B5
100
AcDbEntity
  8
0
100
AcDbLine
 62
7
  6
BYLAYER
 10
161.2492904979
 20
186.3637855579
 11
161.2492904979
 21
191.3637855579
  0
LINE
  5
2B6
100
AcDbEntity
  8
0
100
AcDbLine
 62
7
  6
BYLAYER
 10
39.6992904979
 20
202.8637855579
 11
26.4492904979
 21
202.8637855579
  0
LINE
  5
2B7
100
AcDbEntity
  8
0
100
AcDbLine
 62
7
  6
BYLAYER
 10
40.5492904979
 20
205.7137855579
 11
141.3492904979
 21
205.7137855579
  0
LINE
  5
2B8
100
AcDbEntity
  8
0
100
AcDbLine
 62
7
  6
BYLAYER
 10
42.0492904979
 20
207.7137855579
 11
139.8492904979
 21
207.7137855579
  0
LINE
  5
2B9
100
AcDbEntity
  8
0
100
AcDbLine
 62
7
  6
BYLAYER
 10
187.9492904979
 20
207.8637855579
 11
141.9492904979
 21
207.8637855579
  0
LINE
  5
2BA
100
AcDbEntity
  8
0
100
AcDbLine
 62
7
  6
BYLAYER
 10
42.6992904979
 20
208.6137855579
 11
45.6992904979
 21
208.6137855579
  0
LINE
  5
2BB
100
AcDbEntity
  8
0
100
AcDbLine
 62
7
  6
BYLAYER
 10
71.1992904979
 20
208.6137855579
 11
78.1992904979
 21
208.6137855579
  0
LINE
  5
2BC
100
AcDbEntity
  8
0
100
AcDbLine
 62
7
  6
BYLAYER
 10
103.6992904979
 20
208.6137855579
 11
110.6992904979
 21
208.6137855579
  0
LINE
  5
2BD
100
AcDbEntity
  8
0
100
AcDbLine
 62
7
  6
BYLAYER
 10
136.1992904979
 20
208.6137855579
 11
139.1992904979
 21
208.6137855579
  0
LINE
  5
2BE
100
AcDbEntity
  8
0
100
AcDbLine
 62
7
  6
BYLAYER
 10
170.6492904979
 20
191.3637855579
 11
170.6492904979
 21
186.3637855579
  0
LINE
  5
2BF
100
AcDbEntity
  8
0
100
AcDbLine
 62
7
  6
BYLAYER
 10
170.6492904979
 20
127.8637855579
 11
170.6492904979
 21
116.3637855579
  0
LINE
  5
2C0
100
AcDbEntity
  8
0
100
AcDbLine
 62
7
  6
BYLAYER
 10
170.9492904979
 20
105.3637855579
 11
170.9492904979
 21
107.3637855579
  0
LINE
  5
2C1
100
AcDbEntity
  8
0
100
AcDbLine
 62
7
  6
BYLAYER
 10
170.9492904979
 20
175.3637855579
 11
170.9492904979
 21
177.3637855579
  0
LINE
  5
2C2
100
AcDbEntity
  8
0
100
AcDbLine
 62
7
  6
BYLAYER
 10
173.0492904979
 20
175.3637855579
 11
173.0492904979
 21
165.8637855579
  0
LINE
  5
2C3
100
AcDbEntity
  8
0
100
AcDbLine
 62
7
  6
BYLAYER
 10
173.0492904979
 20
105.3637855579
 11
173.0492904979
 21
95.8637855579
  0
LINE
  5
2C4
100
AcDbEntity
  8
0
100
AcDbLine
 62
7
  6
BYLAYER
 10
173.4492904979
 20
185.3637855579
 11
173.4492904979
 21
178.3637855579
  0
LINE
  5
2C5
100
AcDbEntity
  8
0
100
AcDbLine
 62
7
  6
BYLAYER
 10
173.4492904979
 20
115.3637855579
 11
173.4492904979
 21
108.3637855579
  0
LINE
  5
2C6
100
AcDbEntity
  8
0
100
AcDbLine
 62
7
  6
BYLAYER
 10
174.9492904979
 20
116.3637855579
 11
174.9492904979
 21
127.8637855579
  0
LINE
  5
2C7
100
AcDbEntity
  8
0
100
AcDbLine
 62
7
  6
BYLAYER
 10
174.9492904979
 20
186.3637855579
 11
174.9492904979
 21
191.3637855579
  0
LINE
  5
2C8
100
AcDbEntity
  8
0
100
AcDbLine
 62
7
  6
BYLAYER
 10
175.0492904979
 20
103.3637855579
 11
175.0492904979
 21
107.3637855579
  0
LINE
  5
2C9
100
AcDbEntity
  8
0
100
AcDbLine
 62
7
  6
BYLAYER
 10
175.0492904979
 20
173.3637855579
 11
175.0492904979
 21
177.3637855579
  0
LINE
  5
2CA
100
AcDbEntity
  8
0
100
AcDbLine
 62
7
  6
BYLAYER
 10
175.5971780313
 20
139.2000723587
 11
175.5971780313
 21
154.5274987571
  0
LINE
  5
2CB
100
AcDbEntity
  8
0
100
AcDbLine
 62
7
  6
BYLAYER
 10
37.9492904979
 20
214.8637855579
 11
41.9492904979
 21
214.8637855579
  0
LINE
  5
2CC
100
AcDbEntity
  8
0
100
AcDbLine
 62
7
  6
BYLAYER
 10
60.9492904979
 20
214.8637855579
 11
80.9492904979
 21
214.8637855579
  0
LINE
  5
2CD
100
AcDbEntity
  8
0
100
AcDbLine
 62
7
  6
BYLAYER
 10
100.9492904979
 20
214.8637855579
 11
120.9492904979
 21
214.8637855579
  0
LINE
  5
2CE
100
AcDbEntity
  8
0
100
AcDbLine
 62
7
  6
BYLAYER
 10
139.9492904979
 20
214.8637855579
 11
143.9492904979
 21
214.8637855579
  0
LINE
  5
2CF
100
AcDbEntity
  8
0
100
AcDbLine
 62
7
  6
BYLAYER
 10
143.9492904979
 20
215.3637855579
 11
139.9492904979
 21
215.3637855579
  0
LINE
  5
2D0
100
AcDbEntity
  8
0
100
AcDbLine
 62
7
  6
BYLAYER
 10
120.9492904979
 20
215.3637855579
 11
100.9492904979
 21
215.3637855579
  0
LINE
  5
2D1
100
AcDbEntity
  8
0
100
AcDbLine
 62
7
  6
BYLAYER
 10
80.9492904979
 20
215.3637855579
 11
60.9492904979
 21
215.3637855579
  0
LINE
  5
2D2
100
AcDbEntity
  8
0
100
AcDbLine
 62
7
  6
BYLAYER
 10
41.9492904979
 20
215.3637855579
 11
37.9492904979
 21
215.3637855579
  0
LINE
  5
2D3
100
AcDbEntity
  8
0
100
AcDbLine
 62
7
  6
BYLAYER
 10
176.9492904979
 20
95.8637855579
 11
176.9492904979
 21
103.3637855579
  0
LINE
  5
2D4
100
AcDbEntity
  8
0
100
AcDbLine
 62
7
  6
BYLAYER
 10
176.9492904979
 20
165.8637855579
 11
176.9492904979
 21
173.3637855579
  0
LINE
  5
2D5
100
AcDbEntity
  8
0
100
AcDbLine
 62
7
  6
BYLAYER
 10
187.9492904979
 20
207.8637855579
 11
187.9492904979
 21
85.8637855579
  0
LINE
  5
2D6
100
AcDbEntity
  8
0
100
AcDbLine
 62
7
  6
BYLAYER
 10
100.9492904979
 20
227.8637855579
 11
80.9492904979
 21
227.8637855579
  0
LINE
  5
2D7
100
AcDbEntity
  8
0
100
AcDbLine
 62
7
  6
BYLAYER
 10
60.9492904979
 20
227.8637855579
 11
41.9492904979
 21
227.8637855579
  0
LINE
  5
2D8
100
AcDbEntity
  8
0
100
AcDbLine
 62
7
  6
BYLAYER
 10
120.9492904979
 20
227.8637855579
 11
139.9492904979
 21
227.8637855579
  0
CIRCLE
  5
2D9
100
AcDbEntity
  8
0
100
AcDbCircle
 62
7
  6
BYLAYER
 10
53.9492904979
 20
73.3637855579
 40
3.3
  0
ARC
  5
2DA
100
AcDbEntity
  8
0
100
AcDbCircle
 62
7
  6
BYLAYER
 10
50.9492904979
 20
86.8637855579
 40
3.25
100
AcDbArc
 50
196.1011081172
 51
197.7790636631
  0
ARC
  5
2DB
100
AcDbEntity
  8
0
100
AcDbCircle
 62
7
  6
BYLAYER
 10
42.6992904979
 20
88.1137855579
 40
3.0
100
AcDbArc
 50
180.0
 51
270.0
  0
ARC
  5
2DC
100
AcDbEntity
  8
0
100
AcDbCircle
 62
7
  6
BYLAYER
 10
42.6987988477
 20
84.8559345949
 40
3.0
100
AcDbArc
 50
273.5903778914
 51
315.0000000001
  0
ARC
  5
2DD
100
AcDbEntity
  8
0
100
AcDbCircle
 62
7
  6
BYLAYER
 10
63.9492904979
 20
83.0211448708
 40
3.0
100
AcDbArc
 50
134.9999999985
 51
180.0
  0
ARC
  5
2DE
100
AcDbEntity
  8
0
100
AcDbCircle
 62
7
  6
BYLAYER
 10
26.4492904979
 20
92.8637855579
 40
2.0
100
AcDbArc
 50
180.0
 51
270.0
  0
ARC
  5
2DF
100
AcDbEntity
  8
0
100
AcDbCircle
 62
7
  6
BYLAYER
 10
42.0492904979
 20
87.5137855579
 40
1.5
100
AcDbArc
 50
180.0
 51
270.0
  0
ARC
  5
2E0
100
AcDbEntity
  8
0
100
AcDbCircle
 62
7
  6
BYLAYER
 10
42.9492904979
 20
80.8637855579
 40
1.0
100
AcDbArc
 50
93.5903778886
 51
180.0
  0
CIRCLE
  5
2E1
100
AcDbEntity
  8
0
100
AcDbCircle
 62
7
  6
BYLAYER
 10
74.6992904979
 20
196.8637855579
 40
4.5
  0
CIRCLE
  5
2E2
100
AcDbEntity
  8
0
100
AcDbCircle
 62
7
  6
BYLAYER
 10
53.9492904979
 20
220.3637855579
 40
3.3
  0
ARC
  5
2E3
100
AcDbEntity
  8
0
100
AcDbCircle
 62
7
  6
BYLAYER
 10
50.9492904979
 20
206.8637855579
 40
3.25
100
AcDbArc
 50
162.1575493554
 51
163.8683202241
  0
ARC
  5
2E4
100
AcDbEntity
  8
0
100
AcDbCircle
 62
7
  6
BYLAYER
 10
42.6992904979
 20
205.6137855579
 40
3.0
100
AcDbArc
 50
90.0
 51
180.0
  0
ARC
  5
2E5
100
AcDbEntity
  8
0
100
AcDbCircle
 62
7
  6
BYLAYER
 10
63.9492904979
 20
210.706426245
 40
3.0
100
AcDbArc
 50
180.0
 51
225.0000000015
  0
ARC
  5
2E6
100
AcDbEntity
  8
0
100
AcDbCircle
 62
7
  6
BYLAYER
 10
42.6987988477
 20
208.871636521
 40
3.0
100
AcDbArc
 50
44.9999999999
 51
86.4096221086
  0
ARC
  5
2E7
100
AcDbEntity
  8
0
100
AcDbCircle
 62
7
  6
BYLAYER
 10
26.4492904979
 20
200.8637855579
 40
2.0
100
AcDbArc
 50
90.0
 51
180.0
  0
ARC
  5
2E8
100
AcDbEntity
  8
0
100
AcDbCircle
 62
7
  6
BYLAYER
 10
42.0492904979
 20
206.2137855579
 40
1.5
100
AcDbArc
 50
90.0
 51
180.0
  0
ARC
  5
2E9
100
AcDbEntity
  8
0
100
AcDbCircle
 62
7
  6
BYLAYER
 10
42.9492904979
 20
212.8637855579
 40
1.0
100
AcDbArc
 50
180.0
 51
266.4096221114
  0
CIRCLE
  5
2EA
100
AcDbEntity
  8
0
100
AcDbCircle
 62
7
  6
BYLAYER
 10
107.1992904979
 20
96.8637855579
 40
4.5
  0
CIRCLE
  5
2EB
100
AcDbEntity
  8
0
100
AcDbCircle
 62
7
  6
BYLAYER
 10
90.9492904979
 20
73.3637855579
 40
3.3
  0
CIRCLE
  5
2EC
100
AcDbEntity
  8
0
100
AcDbCircle
 62
7
  6
BYLAYER
 10
127.9492904979
 20
73.3637855579
 40
3.3
  0
ARC
  5
2ED
100
AcDbEntity
  8
0
100
AcDbCircle
 62
7
  6
BYLAYER
 10
130.9492904979
 20
86.8637855579
 40
3.25
100
AcDbArc
 50
342.1575493554
 51
343.8683202241
  0
ARC
  5
2EE
100
AcDbEntity
  8
0
100
AcDbCircle
 62
7
  6
BYLAYER
 10
139.1992904979
 20
88.1137855579
 40
3.0
100
AcDbArc
 50
270.0
 51
360.0
  0
ARC
  5
2EF
100
AcDbEntity
  8
0
100
AcDbCircle
 62
7
  6
BYLAYER
 10
83.9492904979
 20
81.0599379806
 40
3.0
100
AcDbArc
 50
150.0
 51
180.0
  0
ARC
  5
2F0
100
AcDbEntity
  8
0
100
AcDbCircle
 62
7
  6
BYLAYER
 10
97.9492904979
 20
81.0599379806
 40
3.0
100
AcDbArc
 50
0.0
 51
29.9999999998
  0
ARC
  5
2F1
100
AcDbEntity
  8
0
100
AcDbCircle
 62
7
  6
BYLAYER
 10
117.9492904979
 20
83.0211448708
 40
3.0
100
AcDbArc
 50
0.0
 51
45.0000000015
  0
ARC
  5
2F2
100
AcDbEntity
  8
0
100
AcDbCircle
 62
7
  6
BYLAYER
 10
139.1997821481
 20
84.8559345949
 40
3.0
100
AcDbArc
 50
224.9999999999
 51
266.4096221086
  0
ARC
  5
2F3
100
AcDbEntity
  8
0
100
AcDbCircle
 62
7
  6
BYLAYER
 10
139.8492904979
 20
87.5137855579
 40
1.5
100
AcDbArc
 50
270.0
 51
360.0
  0
ARC
  5
2F4
100
AcDbEntity
  8
0
100
AcDbCircle
 62
7
  6
BYLAYER
 10
138.9492904979
 20
80.8637855579
 40
1.0
100
AcDbArc
 50
0.0
 51
86.4096221114
  0
CIRCLE
  5
2F5
100
AcDbEntity
  8
0
100
AcDbCircle
 62
7
  6
BYLAYER
 10
90.9492904979
 20
220.3637855579
 40
3.3
  0
CIRCLE
  5
2F6
100
AcDbEntity
  8
0
100
AcDbCircle
 62
7
  6
BYLAYER
 10
127.9492904979
 20
220.3637855579
 40
3.3
  0
ARC
  5
2F7
100
AcDbEntity
  8
0
100
AcDbCircle
 62
7
  6
BYLAYER
 10
130.9492904979
 20
206.8637855579
 40
3.25
100
AcDbArc
 50
16.1011081171
 51
17.7790636631
  0
ARC
  5
2F8
100
AcDbEntity
  8
0
100
AcDbCircle
 62
7
  6
BYLAYER
 10
139.1992904979
 20
205.6137855579
 40
3.0
100
AcDbArc
 50
0.0
 51
90.0
  0
ARC
  5
2F9
100
AcDbEntity
  8
0
100
AcDbCircle
 62
7
  6
BYLAYER
 10
97.9492904979
 20
212.6676331352
 40
3.0
100
AcDbArc
 50
330.0
 51
360.0
  0
ARC
  5
2FA
100
AcDbEntity
  8
0
100
AcDbCircle
 62
7
  6
BYLAYER
 10
83.9492904979
 20
212.6676331352
 40
3.0
100
AcDbArc
 50
180.0
 51
209.9999999998
  0
ARC
  5
2FB
100
AcDbEntity
  8
0
100
AcDbCircle
 62
7
  6
BYLAYER
 10
139.1997821481
 20
208.871636521
 40
3.0
100
AcDbArc
 50
93.5903778914
 51
135.0000000001
  0
ARC
  5
2FC
100
AcDbEntity
  8
0
100
AcDbCircle
 62
7
  6
BYLAYER
 10
117.9492904979
 20
210.706426245
 40
3.0
100
AcDbArc
 50
314.9999999985
 51
360.0
  0
ARC
  5
2FD
100
AcDbEntity
  8
0
100
AcDbCircle
 62
7
  6
BYLAYER
 10
139.8492904979
 20
206.2137855579
 40
1.5
100
AcDbArc
 50
0.0
 51
90.0
  0
ARC
  5
2FE
100
AcDbEntity
  8
0
100
AcDbCircle
 62
7
  6
BYLAYER
 10
138.9492904979
 20
212.8637855579
 40
1.0
100
AcDbArc
 50
273.5903778886
 51
360.0
  0
SPLINE
  5
2FF
100
AcDbEntity
  8
0
100
AcDbSpline
 62
7
  6
BYLAYER
 70
0
 71
3
 72
15
 73
11
 74
0
 42
0.0000001
 43
0.0000001
 44
0.0000000001
 40
0.0
 40
0.0
 40
0.0
 40
0.0
 40
0.1250135592
 40
0.2500022442
 40
0.3750046898
 40
0.5000063769
 40
0.6250056205
 40
0.7500026343
 40
0.8749871692
 40
1.0
 40
1.0
 40
1.0
 40
1.0
 10
80.2048015188
 20
196.8637855538
 30
0.0
 10
80.2046423718
 20
196.1476736058
 30
0.0
 10
79.9171962651
 20
194.6998173189
 30
0.0
 10
78.6895339699
 20
192.8718350928
 30
0.0
 10
76.8553741185
 20
191.6493137613
 30
0.0
 10
74.6936776991
 20
191.2213020233
 30
0.0
 10
72.5320423134
 20
191.6494016379
 30
0.0
 10
70.6979496553
 20
192.871898838
 30
0.0
 10
69.4703794402
 20
194.6998536918
 30
0.0
 10
69.1828795415
 20
196.1476777791
 30
0.0
 10
69.1827574329
 20
196.8637855623
 30
0.0
  0
SPLINE
  5
300
100
AcDbEntity
  8
0
100
AcDbSpline
 62
7
  6
BYLAYER
 70
0
 71
3
 72
15
 73
11
 74
0
 42
0.0000001
 43
0.0000001
 44
0.0000000001
 40
0.0
 40
0.0
 40
0.0
 40
0.0
 40
0.1250128975
 40
0.2499977279
 40
0.3749946325
 40
0.4999936245
 40
0.6249955594
 40
0.7499981108
 40
0.8749865161
 40
1.0
 40
1.0
 40
1.0
 40
1.0
 10
69.1827574329
 20
196.8637855623
 30
0.0
 10
69.182913539
 20
197.5798937248
 30
0.0
 10
69.4703584404
 20
199.0277237563
 30
0.0
 10
70.6979691312
 20
200.8556636028
 30
0.0
 10
72.5320367527
 20
202.0781863446
 30
0.0
 10
74.6936834242
 20
202.5062698365
 30
0.0
 10
76.8553683103
 20
202.0782393791
 30
0.0
 10
78.689552959
 20
200.8557445426
 30
0.0
 10
79.9171774654
 20
199.0277477776
 30
0.0
 10
80.2046742939
 20
197.5798970814
 30
0.0
 10
80.2048015188
 20
196.8637855538
 30
0.0
  0
SPLINE
  5
301
100
AcDbEntity
  8
0
100
AcDbSpline
 62
7
  6
BYLAYER
 70
0
 71
3
 72
15
 73
11
 74
0
 42
0.0000001
 43
0.0000001
 44
0.0000000001
 40
0.0
 40
0.0
 40
0.0
 40
0.0
 40
0.1251083609
 40
0.2501151262
 40
0.3750435523
 40
0.4999307828
 40
0.6248474331
 40
0.7498363516
 40
0.8748842166
 40
1.0
 40
1.0
 40
1.0
 40
1.0
 10
112.7699317793
 20
96.8637855519
 30
0.0
 10
112.7697778926
 20
96.1471305349
 30
0.0
 10
112.4819605631
 20
94.6985928685
 30
0.0
 10
111.2535530437
 20
92.8708222144
 30
0.0
 10
109.4199891363
 20
91.6493376069
 30
0.0
 10
107.2599850726
 20
91.2215309175
 30
0.0
 10
105.0994487978
 20
91.6485781791
 30
0.0
 10
103.2648643423
 20
92.8700326498
 30
0.0
 10
102.0359512519
 20
94.6982732228
 30
0.0
 10
101.7480129295
 20
96.1470880193
 30
0.0
 10
101.7478876934
 20
96.8637855604
 30
0.0
  0
SPLINE
  5
302
100
AcDbEntity
  8
0
100
AcDbSpline
 62
7
  6
BYLAYER
 70
0
 71
3
 72
15
 73
11
 74
0
 42
0.0000001
 43
0.0000001
 44
0.0000000001
 40
0.0
 40
0.0
 40
0.0
 40
0.0
 40
0.1251158452
 40
0.2501640083
 40
0.3751528033
 40
0.5000691736
 40
0.6249566789
 40
0.7498852224
 40
0.8748917009
 40
1.0
 40
1.0
 40
1.0
 40
1.0
 10
101.7478876934
 20
96.8637855604
 30
0.0
 10
101.7480479401
 20
97.5804834342
 30
0.0
 10
102.0359297615
 20
99.0293042317
 30
0.0
 10
103.264883996
 20
100.8575291728
 30
0.0
 10
105.0994417968
 20
102.0790112161
 30
0.0
 10
107.2599899727
 20
102.5060401544
 30
0.0
 10
109.4199820162
 20
102.0782148909
 30
0.0
 10
111.2535719795
 20
100.8567577272
 30
0.0
 10
112.4819400711
 20
99.0289720137
 30
0.0
 10
112.7698113413
 20
97.5804402072
 30
0.0
 10
112.7699317793
 20
96.8637855519
 30
0.0
  0
SPLINE
  5
303
100
AcDbEntity
  8
0
100
AcDbSpline
 62
7
  6
BYLAYER
 70
0
 71
3
 72
18
 73
14
 74
0
 42
0.0000001
 43
0.0000001
 44
0.0000000001
 40
0.0
 40
0.0
 40
0.0
 40
0.0
 40
0.0060210079
 40
0.0208191202
 40
0.044826077
 40
0.0779684379
 40
0.1199349857
 40
0.1703173318
 40
0.2944864594
 40
0.4456518271
 40
0.6181203748
 40
0.8055042278
 40
1.0
 40
1.0
 40
1.0
 40
1.0
 10
114.2753149452
 20
86.0137855579
 30
0.0
 10
114.2793391862
 20
86.0137855579
 30
0.0
 10
114.2853874343
 20
86.0313164326
 30
0.0
 10
114.2910861478
 20
86.0567641646
 30
0.0
 10
114.2979787886
 20
86.1065339099
 30
0.0
 10
114.3044000829
 20
86.1715478504
 30
0.0
 10
114.3108326371
 20
86.255530708
 30
0.0
 10
114.3195613553
 20
86.3998235628
 30
0.0
 10
114.3289002957
 20
86.6174362926
 30
0.0
 10
114.3377313759
 20
86.9165659469
 30
0.0
 10
114.3443182351
 20
87.2580686686
 30
0.0
 10
114.3483753721
 20
87.628553421
 30
0.0
 10
114.3492901754
 20
87.8837910663
 30
0.0
 10
114.3492901754
 20
88.0137855579
 30
0.0
  0
SPLINE
  5
304
100
AcDbEntity
  8
0
100
AcDbSpline
 62
7
  6
BYLAYER
 70
0
 71
3
 72
16
 73
12
 74
0
 42
0.0000001
 43
0.0000001
 44
0.0000000001
 40
0.0
 40
0.0
 40
0.0
 40
0.0
 40
0.0083157999
 40
0.0241102925
 40
0.0820170044
 40
0.1744436355
 40
0.2982675944
 40
0.4487716005
 40
0.6203387875
 40
0.806654874
 40
1.0
 40
1.0
 40
1.0
 40
1.0
 10
42.5493012183
 20
86.0137855639
 30
0.0
 10
42.5437116302
 20
86.0137824885
 30
0.0
 10
42.5306154836
 20
86.0276360806
 30
0.0
 10
42.5122590484
 20
86.0777843947
 30
0.0
 10
42.4897183532
 20
86.1893622265
 30
0.0
 10
42.4679974872
 20
86.371347632
 30
0.0
 10
42.447708171
 20
86.6175119003
 30
0.0
 10
42.4310748376
 20
86.9166309497
 30
0.0
 10
42.4185585298
 20
87.258189986
 30
0.0
 10
42.4108725346
 20
87.6286236055
 30
0.0
 10
42.4091298553
 20
87.8838257482
 30
0.0
 10
42.4091298553
 20
88.0137855579
 30
0.0
  0
SPLINE
  5
305
100
AcDbEntity
  8
0
100
AcDbSpline
 62
7
  6
BYLAYER
 70
0
 71
3
 72
12
 73
8
 74
0
 42
0.0000001
 43
0.0000001
 44
0.0000000001
 40
0.0
 40
0.0
 40
0.0
 40
0.0
 40
0.0390135687
 40
0.1006025338
 40
0.30628262
 40
0.6154229852
 40
1.0
 40
1.0
 40
1.0
 40
1.0
 10
42.5493012183
 20
86.0137855639
 30
0.0
 10
42.5414104437
 20
86.0137804193
 30
0.0
 10
42.521672232
 20
86.0214212644
 30
0.0
 10
42.4700180074
 20
86.0549476044
 30
0.0
 10
42.3787438783
 20
86.1282512872
 30
0.0
 10
42.238143411
 20
86.2436844268
 30
0.0
 10
42.1428124897
 20
86.3471852279
 30
0.0
 10
42.0862958686
 20
86.4006281089
 30
0.0
  0
SPLINE
  5
306
100
AcDbEntity
  8
0
100
AcDbSpline
 62
7
  6
BYLAYER
 70
0
 71
3
 72
13
 73
9
 74
0
 42
0.0000001
 43
0.0000001
 44
0.0000000001
 40
0.0
 40
0.0
 40
0.0
 40
0.0
 40
0.1193995283
 40
0.2486245622
 40
0.5181145287
 40
0.6514319431
 40
0.7777785121
 40
1.0
 40
1.0
 40
1.0
 40
1.0
 10
42.0862958686
 20
86.4006281089
 30
0.0
 10
42.033405767
 20
86.450641704
 30
0.0
 10
41.9181616296
 20
86.5491940421
 30
0.0
 10
41.6817668969
 20
86.7588263539
 30
0.0
 10
41.4571242563
 20
86.9932211271
 30
0.0
 10
41.2316077801
 20
87.2238215875
 30
0.0
 10
41.0223105965
 20
87.4301200081
 30
0.0
 10
40.8829866587
 20
87.59085641
 30
0.0
 10
40.7942390178
 20
87.6932193238
 30
0.0
  0
SPLINE
  5
307
100
AcDbEntity
  8
0
100
AcDbSpline
 62
7
  6
BYLAYER
 70
0
 71
3
 72
11
 73
7
 74
0
 42
0.0000001
 43
0.0000001
 44
0.0000000001
 40
0.0
 40
0.0
 40
0.0
 40
0.0
 40
0.3910373055
 40
0.6884782536
 40
0.8910015704
 40
1.0
 40
1.0
 40
1.0
 40
1.0
 10
40.7942390178
 20
87.6932193238
 30
0.0
 10
40.7595943144
 20
87.7331790651
 30
0.0
 10
40.6983714752
 20
87.8029496432
 30
0.0
 10
40.618771848
 20
87.8946928997
 30
0.0
 10
40.5716990721
 20
87.960194496
 30
0.0
 10
40.5492904979
 20
87.9990437378
 30
0.0
 10
40.5492904979
 20
88.0137855579
 30
0.0
  0
SPLINE
  5
308
100
AcDbEntity
  8
0
100
AcDbSpline
 62
7
  6
BYLAYER
 70
0
 71
3
 72
16
 73
12
 74
0
 42
0.0000001
 43
0.0000001
 44
0.0000000001
 40
0.0
 40
0.0
 40
0.0
 40
0.0
 40
0.1933364089
 40
0.3796448147
 40
0.5512063256
 40
0.7017076318
 40
0.8255319382
 40
0.9179627065
 40
0.9758803355
 40
0.9916810868
 40
1.0
 40
1.0
 40
1.0
 40
1.0
 10
42.4091298553
 20
205.7137855579
 30
0.0
 10
42.4091298553
 20
205.8437391235
 30
0.0
 10
42.4108731946
 20
206.0989294927
 30
0.0
 10
42.4185596239
 20
206.4693471361
 30
0.0
 10
42.4310743296
 20
206.8108944762
 30
0.0
 10
42.4477045357
 20
207.1100071767
 30
0.0
 10
42.4679886863
 20
207.3561729026
 30
0.0
 10
42.489705951
 20
207.5381671257
 30
0.0
 10
42.5122447532
 20
207.6497624697
 30
0.0
 10
42.5306056949
 20
207.6999204532
 30
0.0
 10
42.5436988329
 20
207.7137855579
 30
0.0
 10
42.5492904979
 20
207.7137855579
 30
0.0
  0
SPLINE
  5
309
100
AcDbEntity
  8
0
100
AcDbSpline
 62
7
  6
BYLAYER
 70
0
 71
3
 72
18
 73
14
 74
0
 42
0.0000001
 43
0.0000001
 44
0.0000000001
 40
0.0
 40
0.0
 40
0.0
 40
0.0
 40
0.0060206733
 40
0.0208185186
 40
0.0448253527
 40
0.0779677219
 40
0.1199343375
 40
0.1703167595
 40
0.2944859953
 40
0.4456514549
 40
0.6181201161
 40
0.8055041012
 40
1.0
 40
1.0
 40
1.0
 40
1.0
 10
114.2753171931
 20
207.7137855579
 30
0.0
 10
114.2793412075
 20
207.7137855579
 30
0.0
 10
114.2853879456
 20
207.6962540992
 30
0.0
 10
114.2910842548
 20
207.6708068961
 30
0.0
 10
114.2979749401
 20
207.6210369081
 30
0.0
 10
114.3043962368
 20
207.5560232025
 30
0.0
 10
114.3108300773
 20
207.4720403506
 30
0.0
 10
114.3195611304
 20
207.3277475938
 30
0.0
 10
114.328900473
 20
207.1101348148
 30
0.0
 10
114.3377294971
 20
206.81100511
 30
0.0
 10
114.3443138654
 20
206.4695023658
 30
0.0
 10
114.3483734751
 20
206.0990176732
 30
0.0
 10
114.3492908655
 20
205.8437800406
 30
0.0
 10
114.3492908655
 20
205.7137855579
 30
0.0
  0
SPLINE
  5
30A
100
AcDbEntity
  8
0
100
AcDbSpline
 62
7
  6
BYLAYER
 70
0
 71
3
 72
11
 73
7
 74
0
 42
0.0000001
 43
0.0000001
 44
0.0000000001
 40
0.0
 40
0.0
 40
0.0
 40
0.0
 40
0.1075682012
 40
0.3161919679
 40
0.6103224951
 40
1.0
 40
1.0
 40
1.0
 40
1.0
 10
40.5492904979
 20
205.7137855579
 30
0.0
 10
40.5492904979
 20
205.7268492362
 30
0.0
 10
40.5700964485
 20
205.7619958002
 30
0.0
 10
40.609587216
 20
205.8228848329
 30
0.0
 10
40.6833734346
 20
205.9037502804
 30
0.0
 10
40.7380586497
 20
205.9658271467
 30
0.0
 10
40.7686440422
 20
206.0019401786
 30
0.0
  0
SPLINE
  5
30B
100
AcDbEntity
  8
0
100
AcDbSpline
 62
7
  6
BYLAYER
 70
0
 71
3
 72
14
 73
10
 74
0
 42
0.0000001
 43
0.0000001
 44
0.0000000001
 40
0.0
 40
0.0
 40
0.0
 40
0.0
 40
0.1065084573
 40
0.2284530122
 40
0.36033285
 40
0.4995283285
 40
0.7714608179
 40
0.8939463941
 40
1.0
 40
1.0
 40
1.0
 40
1.0
 10
40.7686440422
 20
206.0019401786
 30
0.0
 10
40.8170045776
 20
206.059040821
 30
0.0
 10
40.9182379769
 20
206.1836514976
 30
0.0
 10
41.0907621369
 20
206.3691689097
 30
0.0
 10
41.2876345121
 20
206.5627808319
 30
0.0
 10
41.5572793607
 20
206.8326300747
 30
0.0
 10
41.81908894
 20
207.1011192825
 30
0.0
 10
42.0782032443
 20
207.3389905949
 30
0.0
 10
42.2011109918
 20
207.4423311396
 30
0.0
 10
42.2574034016
 20
207.4911437175
 30
0.0
  0
SPLINE
  5
30C
100
AcDbEntity
  8
0
100
AcDbSpline
 62
7
  6
BYLAYER
 70
0
 71
3
 72
11
 73
7
 74
0
 42
0.0000001
 43
0.0000001
 44
0.0000000001
 40
0.0
 40
0.0
 40
0.0
 40
0.0
 40
0.3893478363
 40
0.684113975
 40
0.8879816905
 40
1.0
 40
1.0
 40
1.0
 40
1.0
 10
42.2574034016
 20
207.4911437175
 30
0.0
 10
42.2936345536
 20
207.5225606695
 30
0.0
 10
42.3564432356
 20
207.5783564627
 30
0.0
 10
42.4390189852
 20
207.6513185764
 30
0.0
 10
42.4993318345
 20
207.6939218522
 30
0.0
 10
42.535493365
 20
207.7137856278
 30
0.0
 10
42.5492904979
 20
207.7137855579
 30
0.0
  0
SPLINE
  5
30D
100
AcDbEntity
  8
0
100
AcDbSpline
 62
7
  6
BYLAYER
 70
0
 71
3
 72
14
 73
10
 74
0
 42
0.0000001
 43
0.0000001
 44
0.0000000001
 40
0.0
 40
0.0
 40
0.0
 40
0.0
 40
0.0142841482
 40
0.072711969
 40
0.1797783333
 40
0.3127951428
 40
0.4539770108
 40
0.6122754436
 40
1.0
 40
1.0
 40
1.0
 40
1.0
 10
139.3492904979
 20
207.7137855579
 30
0.0
 10
139.3449287407
 20
207.7137855579
 30
0.0
 10
139.3746522664
 20
207.682544531
 30
0.0
 10
139.4033653956
 20
207.6684678756
 30
0.0
 10
139.4917862277
 20
207.6116828962
 30
0.0
 10
139.5832492388
 20
207.5478487782
 30
0.0
 10
139.6743893637
 20
207.4491188456
 30
0.0
 10
139.805880804
 20
207.2866993114
 30
0.0
 10
139.9191527131
 20
207.163521146
 30
0.0
 10
140.0017900306
 20
207.07873753
 30
0.0
  0
SPLINE
  5
30E
100
AcDbEntity
  8
0
100
AcDbSpline
 62
7
  6
BYLAYER
 70
0
 71
3
 72
10
 73
6
 74
0
 42
0.0000001
 43
0.0000001
 44
0.0000000001
 40
0.0
 40
0.0
 40
0.0
 40
0.0
 40
0.2596392628
 40
0.5256879428
 40
1.0
 40
1.0
 40
1.0
 40
1.0
 10
140.0017900306
 20
207.07873753
 30
0.0
 10
140.090138609
 20
206.9880943174
 30
0.0
 10
140.2750892162
 20
206.8106156925
 30
0.0
 10
140.6233277401
 20
206.4694067457
 30
0.0
 10
140.8705163102
 20
206.2062767364
 30
0.0
 10
141.0320694586
 20
206.0408417496
 30
0.0
  0
SPLINE
  5
30F
100
AcDbEntity
  8
0
100
AcDbSpline
 62
7
  6
BYLAYER
 70
0
 71
3
 72
13
 73
9
 74
0
 42
0.0000001
 43
0.0000001
 44
0.0000000001
 40
0.0
 40
0.0
 40
0.0
 40
0.0
 40
0.4166860696
 40
0.7260584351
 40
0.8376531371
 40
0.9201936778
 40
0.9739595237
 40
1.0
 40
1.0
 40
1.0
 40
1.0
 10
141.0320694586
 20
206.0408417496
 30
0.0
 10
141.0763530304
 20
205.9954941214
 30
0.0
 10
141.1542529856
 20
205.9172906209
 30
0.0
 10
141.2456451833
 20
205.8282202205
 30
0.0
 10
141.2994535846
 20
205.7740909529
 30
0.0
 10
141.3260541516
 20
205.7467041425
 30
0.0
 10
141.3411292289
 20
205.7282490661
 30
0.0
 10
141.3492904979
 20
205.7177466483
 30
0.0
 10
141.3492904979
 20
205.7137855579
 30
0.0
  0
SPLINE
  5
310
100
AcDbEntity
  8
0
100
AcDbSpline
 62
7
  6
BYLAYER
 70
0
 71
3
 72
14
 73
10
 74
0
 42
0.0000001
 43
0.0000001
 44
0.0000000001
 40
0.0
 40
0.0
 40
0.0
 40
0.0
 40
0.0142841504
 40
0.0727119703
 40
0.1797783383
 40
0.3127951666
 40
0.4539770305
 40
0.6122754403
 40
1.0
 40
1.0
 40
1.0
 40
1.0
 10
141.3492904979
 20
88.0137855579
 30
0.0
 10
141.3492904979
 20
88.0181473168
 30
0.0
 10
141.3180494649
 20
87.9884237793
 30
0.0
 10
141.3039727985
 20
87.959710649
 30
0.0
 10
141.2471878052
 20
87.8712897855
 30
0.0
 10
141.1833536845
 20
87.7798267365
 30
0.0
 10
141.0846237187
 20
87.6886866001
 30
0.0
 10
140.9222041131
 20
87.5571951787
 30
0.0
 10
140.7990259533
 20
87.4439232097
 30
0.0
 10
140.7142423188
 20
87.3612858684
 30
0.0
  0
SPLINE
  5
311
100
AcDbEntity
  8
0
100
AcDbSpline
 62
7
  6
BYLAYER
 70
0
 71
3
 72
10
 73
6
 74
0
 42
0.0000001
 43
0.0000001
 44
0.0000000001
 40
0.0
 40
0.0
 40
0.0
 40
0.0
 40
0.2596392592
 40
0.5256879119
 40
1.0
 40
1.0
 40
1.0
 40
1.0
 10
140.7142423188
 20
87.3612858684
 30
0.0
 10
140.623599118
 20
87.2729372954
 30
0.0
 10
140.4461204814
 20
87.0879867508
 30
0.0
 10
140.1049116559
 20
86.7397481622
 30
0.0
 10
139.8417815469
 20
86.4925597341
 30
0.0
 10
139.6763465429
 20
86.3310066089
 30
0.0
  0
SPLINE
  5
312
100
AcDbEntity
  8
0
100
AcDbSpline
 62
7
  6
BYLAYER
 70
0
 71
3
 72
13
 73
9
 74
0
 42
0.0000001
 43
0.0000001
 44
0.0000000001
 40
0.0
 40
0.0
 40
0.0
 40
0.0
 40
0.4166860979
 40
0.7260584298
 40
0.8376531256
 40
0.9201936678
 40
0.9739595188
 40
1.0
 40
1.0
 40
1.0
 40
1.0
 10
139.6763465429
 20
86.3310066089
 30
0.0
 10
139.6309989156
 20
86.286723049
 30
0.0
 10
139.5527954433
 20
86.2088230985
 30
0.0
 10
139.4637251132
 20
86.1174308718
 30
0.0
 10
139.4095958796
 20
86.063622467
 30
0.0
 10
139.3822090794
 20
86.0370219009
 30
0.0
 10
139.3637540058
 20
86.0219468248
 30
0.0
 10
139.3532515882
 20
86.0137855579
 30
0.0
 10
139.3492904979
 20
86.0137855579
 30
0.0
  0
ELLIPSE
  5
313
100
AcDbEntity
  8
0
100
AcDbEllipse
 62
7
  6
BYLAYER
 10
25.4492904979
 20
159.1090850195
 30
0.0
 11
0.0
 21
-1.1547005384
 31
0.0
 40
0.8660254038
 41
3.1415926536
 42
4.7123889804
  0
ELLIPSE
  5
314
100
AcDbEntity
  8
0
100
AcDbEllipse
 62
7
  6
BYLAYER
 10
25.4492904979
 20
134.6184860963
 30
0.0
 11
0.0
 21
-1.1547005384
 31
0.0
 40
0.8660254038
 41
-1.5707963268
 42
0.0
  0
ELLIPSE
  5
315
100
AcDbEntity
  8
0
100
AcDbEllipse
 62
7
  6
BYLAYER
 10
176.0526916585
 20
146.8637855579
 30
0.0
 11
-0.0
 21
7.85
 31
0.0
 40
0.2679491924
 41
0.2182899891
 42
2.9233026645
  0
ENDSEC
  0
SECTION
  2
OBJECTS
  0
DICTIONARY
  5
C
100
AcDbDictionary
280
0
281
1
  3
ACAD_GROUP
350
D
  3
ACAD_MLINESTYLE
350
17
  3
ACAD_LAYOUT
350
1A
  3
ACAD_PLOTSETTINGS
350
19
  3
ACAD_PLOTSTYLENAME
350
E
  0
DICTIONARY
  5
D
102
{ACAD_REACTORS
330
C
102
}
100
AcDbDictionary
280
0
281
1
  0
ACDBDICTIONARYWDFLT
  5
E
102
{ACAD_REACTORS
330
C
102
}
100
AcDbDictionary
281
1
  3
Normal
350
F
100
AcDbDictionaryWithDefault
340
F
  0
DICTIONARY
  5
17
102
{ACAD_REACTORS
330
C
102
}
100
AcDbDictionary
280
0
281
1
  3
Standard
350
18
  0
DICTIONARY
  5
19
102
{ACAD_REACTORS
330
C
102
}
100
AcDbDictionary
281
1
  0
DICTIONARY
  5
1A
102
{ACAD_REACTORS
330
C
102
}
100
AcDbDictionary
281
1
  3
Model
350
316
  3
Layout1
350
317
  0
ACDBPLACEHOLDER
  5
F
102
{ACAD_REACTORS
330
E
102
}
  0
MLINESTYLE
  5
18
102
{ACAD_REACTORS
330
17
102
}
100
AcDbMlineStyle
  2
STANDARD
 70
0
  3

 62
256
 51
90.0
 52
90.0
 71
2
 49
0.5
 62
256
  6
BYLAYER
 49
-0.5
 62
256
  6
BYLAYER
  0
LAYOUT
  5
316
102
{ACAD_REACTORS
330
1A
102
}
100
AcDbPlotSettings
  1

  2
none_device
  4

  6

 40
0.0
 41
0.0
 42
0.0
 43
0.0
 44
210.0
 45
297.0
 46
0.0
 47
0.0
 48
0.0
 49
0.0
140
0.0
141
0.0
142
1.0
143
1.0
 70
1024
 72
1
 73
0
 74
0
  7

 75
0
147
1.0
148
0.0
149
0.0
100
AcDbLayout
  1
Model
 70
0
 71
0
 10
0.0
 20
0.0
 11
210.0
 21
297.0
 12
0.0
 22
0.0
 32
0.0
 14
0.0
 24
0.0
 34
0.0
 15
0.0
 25
0.0
 35
0.0
146
0.0
 13
0.0
 23
0.0
 33
0.0
 16
1.0
 26
0.0
 36
0.0
 17
0.0
 27
1.0
 37
0.0
 76
0
330
210
345
0
346
0
  0
LAYOUT
  5
317
102
{ACAD_REACTORS
330
1A
102
}
100
AcDbPlotSettings
  1

  2
none_device
  4

  6

 40
0.0
 41
0.0
 42
0.0
 43
0.0
 44
210.0
 45
297.0
 46
0.0
 47
0.0
 48
0.0
 49
0.0
140
0.0
141
0.0
142
1.0
143
1.0
 70
0
 72
1
 73
0
 74
0
  7

 75
0
147
1.0
148
0.0
149
0.0
100
AcDbLayout
  1
Layout1
 70
0
 71
1
 10
0.0
 20
0.0
 11
210.0
 21
297.0
 12
0.0
 22
0.0
 32
0.0
 14
0.0
 24
0.0
 34
0.0
 15
0.0
 25
0.0
 35
0.0
146
0.0
 13
0.0
 23
0.0
 33
0.0
 16
1.0
 26
0.0
 36
0.0
 17
0.0
 27
1.0
 37
0.0
 76
0
330
211
345
0
346
0
  0
ENDSEC
  0
EOF
