  0
SECTION
  2
HEADER
  9
$ACADVER
  1
AC1015
  9
$ACADMAINTVER
 70
    20
  9
$DWGCODEPAGE
  3
ANSI_1252
  9
$INSBASE
 10
0.0
 20
0.0
 30
0.0
  9
$EXTMIN
 10
0.0
 20
0.0
 30
0.0
  9
$EXTMAX
 10
8.5
 20
11.0
 30
0.0
  9
$LIMMIN
 10
0.0
 20
0.0
  9
$LIMMAX
 10
300.0
 20
225.0
  9
$ORTHOMODE
 70
     1
  9
$REGENMODE
 70
     0
  9
$FILLMODE
 70
     1
  9
$QTEXTMODE
 70
     0
  9
$MIRRTEXT
 70
     1
  9
$LTSCALE
 40
1.0
  9
$ATTMODE
 70
     1
  9
$TEXTSIZE
 40
0.14
  9
$TRACEWID
 40
0.05
  9
$TEXTSTYLE
  7
H
  9
$CLAYER
  8
SHADE
  9
$CELTYPE
  6
ByLayer
  9
$CECOLOR
 62
   256
  9
$CELTSCALE
 40
1.0
  9
$DISPSILH
 70
     0
  9
$DIMSCALE
 40
1.0
  9
$DIMASZ
 40
0.18
  9
$DIMEXO
 40
0.0625
  9
$DIMDLI
 40
0.38
  9
$DIMRND
 40
0.0
  9
$DIMDLE
 40
0.0
  9
$DIMEXE
 40
0.18
  9
$DIMTP
 40
0.0
  9
$DIMTM
 40
0.0
  9
$DIMTXT
 40
0.18
  9
$DIMCEN
 40
0.09
  9
$DIMTSZ
 40
0.0
  9
$DIMTOL
 70
     0
  9
$DIMLIM
 70
     0
  9
$DIMTIH
 70
     1
  9
$DIMTOH
 70
     1
  9
$DIMSE1
 70
     0
  9
$DIMSE2
 70
     0
  9
$DIMTAD
 70
     0
  9
$DIMZIN
 70
     0
  9
$DIMBLK
  1

  9
$DIMASO
 70
     1
  9
$DIMSHO
 70
     0
  9
$DIMPOST
  1

  9
$DIMAPOST
  1

  9
$DIMALT
 70
     0
  9
$DIMALTD
 70
     2
  9
$DIMALTF
 40
25.4
  9
$DIMLFAC
 40
1.0
  9
$DIMTOFL
 70
     0
  9
$DIMTVP
 40
0.0
  9
$DIMTIX
 70
     0
  9
$DIMSOXD
 70
     0
  9
$DIMSAH
 70
     0
  9
$DIMBLK1
  1

  9
$DIMBLK2
  1

  9
$DIMSTYLE
  2
Standard
  9
$DIMCLRD
 70
     0
  9
$DIMCLRE
 70
     0
  9
$DIMCLRT
 70
     0
  9
$DIMTFAC
 40
1.0
  9
$DIMGAP
 40
0.09
  9
$DIMJUST
 70
     0
  9
$DIMSD1
 70
     0
  9
$DIMSD2
 70
     0
  9
$DIMTOLJ
 70
     1
  9
$DIMTZIN
 70
     0
  9
$DIMALTZ
 70
     0
  9
$DIMALTTZ
 70
     0
  9
$DIMUPT
 70
     0
  9
$DIMDEC
 70
     4
  9
$DIMTDEC
 70
     4
  9
$DIMALTU
 70
     2
  9
$DIMALTTD
 70
     2
  9
$DIMTXSTY
  7
STANDARD
  9
$DIMAUNIT
 70
     0
  9
$DIMADEC
 70
     0
  9
$DIMALTRND
 40
0.0
  9
$DIMAZIN
 70
     0
  9
$DIMDSEP
 70
    46
  9
$DIMATFIT
 70
     3
  9
$DIMFRAC
 70
     0
  9
$DIMLDRBLK
  1

  9
$DIMLUNIT
 70
     2
  9
$DIMLWD
 70
    -2
  9
$DIMLWE
 70
    -2
  9
$DIMTMOVE
 70
     0
  9
$LUNITS
 70
     2
  9
$LUPREC
 70
     4
  9
$SKETCHINC
 40
0.1
  9
$FILLETRAD
 40
0.0
  9
$AUNITS
 70
     0
  9
$AUPREC
 70
     0
  9
$MENU
  1
NEWLABEL
  9
$ELEVATION
 40
0.0
  9
$PELEVATION
 40
0.0
  9
$THICKNESS
 40
0.0
  9
$LIMCHECK
 70
     0
  9
$CHAMFERA
 40
0.0
  9
$CHAMFERB
 40
0.0
  9
$CHAMFERC
 40
0.0
  9
$CHAMFERD
 40
0.0
  9
$SKPOLY
 70
     0
  9
$TDCREATE
 40
2451218.549012037
  9
$TDUCREATE
 40
2451218.757345371
  9
$TDUPDATE
 40
2455751.660341991
  9
$TDUUPDATE
 40
2455751.868675324
  9
$TDINDWG
 40
1.0638195139
  9
$TDUSRTIMER
 40
1.0638193287
  9
$USRTIMER
 70
     1
  9
$ANGBASE
 50
0.0
  9
$ANGDIR
 70
     0
  9
$PDMODE
 70
     0
  9
$PDSIZE
 40
0.0
  9
$PLINEWID
 40
0.0
  9
$SPLFRAME
 70
     0
  9
$SPLINETYPE
 70
     6
  9
$SPLINESEGS
 70
     8
  9
$HANDSEED
  5
433
  9
$SURFTAB1
 70
     6
  9
$SURFTAB2
 70
     6
  9
$SURFTYPE
 70
     6
  9
$SURFU
 70
     6
  9
$SURFV
 70
     6
  9
$UCSBASE
  2

  9
$UCSNAME
  2

  9
$UCSORG
 10
0.0
 20
0.0
 30
0.0
  9
$UCSXDIR
 10
1.0
 20
0.0
 30
0.0
  9
$UCSYDIR
 10
0.0
 20
1.0
 30
0.0
  9
$UCSORTHOREF
  2

  9
$UCSORTHOVIEW
 70
     0
  9
$UCSORGTOP
 10
0.0
 20
0.0
 30
0.0
  9
$UCSORGBOTTOM
 10
0.0
 20
0.0
 30
0.0
  9
$UCSORGLEFT
 10
0.0
 20
0.0
 30
0.0
  9
$UCSORGRIGHT
 10
0.0
 20
0.0
 30
0.0
  9
$UCSORGFRONT
 10
0.0
 20
0.0
 30
0.0
  9
$UCSORGBACK
 10
0.0
 20
0.0
 30
0.0
  9
$PUCSBASE
  2

  9
$PUCSNAME
  2

  9
$PUCSORG
 10
0.0
 20
0.0
 30
0.0
  9
$PUCSXDIR
 10
1.0
 20
0.0
 30
0.0
  9
$PUCSYDIR
 10
0.0
 20
1.0
 30
0.0
  9
$PUCSORTHOREF
  2

  9
$PUCSORTHOVIEW
 70
     0
  9
$PUCSORGTOP
 10
0.0
 20
0.0
 30
0.0
  9
$PUCSORGBOTTOM
 10
0.0
 20
0.0
 30
0.0
  9
$PUCSORGLEFT
 10
0.0
 20
0.0
 30
0.0
  9
$PUCSORGRIGHT
 10
0.0
 20
0.0
 30
0.0
  9
$PUCSORGFRONT
 10
0.0
 20
0.0
 30
0.0
  9
$PUCSORGBACK
 10
0.0
 20
0.0
 30
0.0
  9
$USERI1
 70
     0
  9
$USERI2
 70
     0
  9
$USERI3
 70
     0
  9
$USERI4
 70
     0
  9
$USERI5
 70
     0
  9
$USERR1
 40
0.0
  9
$USERR2
 40
0.0
  9
$USERR3
 40
0.0
  9
$USERR4
 40
0.0
  9
$USERR5
 40
0.0
  9
$WORLDVIEW
 70
     1
  9
$SHADEDGE
 70
     3
  9
$SHADEDIF
 70
    70
  9
$TILEMODE
 70
     0
  9
$MAXACTVP
 70
    16
  9
$PINSBASE
 10
0.0
 20
0.0
 30
0.0
  9
$PLIMCHECK
 70
     0
  9
$PEXTMIN
 10
1.074462919815516
 20
0.8243866185941577
 30
-0.0015258207003583
  9
$PEXTMAX
 10
9.675842310390251
 20
7.425109882402594
 30
0.0000000349246037
  9
$PLIMMIN
 10
-0.1249995194082185
 20
-0.1249999981226884
  9
$PLIMMAX
 10
10.87500024029589
 20
8.37499976158142
  9
$UNITMODE
 70
     0
  9
$VISRETAIN
 70
     0
  9
$PLINEGEN
 70
     0
  9
$PSLTSCALE
 70
     1
  9
$TREEDEPTH
 70
  3020
  9
$CMLSTYLE
  2
Standard
  9
$CMLJUST
 70
     0
  9
$CMLSCALE
 40
1.0
  9
$PROXYGRAPHICS
 70
     1
  9
$MEASUREMENT
 70
     0
  9
$CELWEIGHT
370
    -1
  9
$ENDCAPS
280
     0
  9
$JOINSTYLE
280
     0
  9
$LWDISPLAY
290
     0
  9
$INSUNITS
 70
     0
  9
$HYPERLINKBASE
  1

  9
$STYLESHEET
  1

  9
$XEDIT
290
     1
  9
$CEPSNTYPE
380
     0
  9
$PSTYLEMODE
290
     1
  9
$FINGERPRINTGUID
  2
{9AB50D1F-3119-4226-9A6C-738480CE5060}
  9
$VERSIONGUID
  2
{A8D83994-586F-48A4-9BF0-B681B546A0EB}
  9
$EXTNAMES
290
     1
  9
$PSVPSCALE
 40
0.0
  9
$OLESTARTUP
290
     0
  0
ENDSEC
  0
SECTION
  2
CLASSES
  0
CLASS
  1
ACDBDICTIONARYWDFLT
  2
AcDbDictionaryWithDefault
  3
ObjectDBX Classes
 90
        0
280
     0
281
     0
  0
CLASS
  1
MATERIAL
  2
AcDbMaterial
  3
ObjectDBX Classes
 90
     1153
280
     0
281
     0
  0
CLASS
  1
VISUALSTYLE
  2
AcDbVisualStyle
  3
ObjectDBX Classes
 90
     4095
280
     0
281
     0
  0
CLASS
  1
SCALE
  2
AcDbScale
  3
ObjectDBX Classes
 90
     1153
280
     0
281
     0
  0
CLASS
  1
TABLESTYLE
  2
AcDbTableStyle
  3
ObjectDBX Classes
 90
     4095
280
     0
281
     0
  0
CLASS
  1
MLEADERSTYLE
  2
AcDbMLeaderStyle
  3
ACDB_MLEADERSTYLE_CLASS
 90
     4095
280
     0
281
     0
  0
CLASS
  1
CELLSTYLEMAP
  2
AcDbCellStyleMap
  3
ObjectDBX Classes
 90
     1152
280
     0
281
     0
  0
CLASS
  1
DICTIONARYVAR
  2
AcDbDictionaryVar
  3
ObjectDBX Classes
 90
        0
280
     0
281
     0
  0
CLASS
  1
ACDBPLACEHOLDER
  2
AcDbPlaceHolder
  3
ObjectDBX Classes
 90
        0
280
     0
281
     0
  0
CLASS
  1
LAYOUT
  2
AcDbLayout
  3
ObjectDBX Classes
 90
        0
280
     0
281
     0
  0
ENDSEC
  0
SECTION
  2
TABLES
  0
TABLE
  2
VPORT
  5
8
330
0
100
AcDbSymbolTable
 70
     1
  0
VPORT
  5
7A
330
8
100
AcDbSymbolTableRecord
100
AcDbViewportTableRecord
  2
*ACTIVE
 70
     0
 10
0.0
 20
0.0
 11
1.0
 21
1.0
 12
12.13610038610039
 22
5.5
 13
0.0
 23
0.0
 14
1.0
 24
1.0
 15
0.0
 25
0.0
 16
0.0
 26
0.0
 36
1.0
 17
0.0
 27
0.0
 37
0.0
 40
11.0
 41
2.206563706563706
 42
50.0
 43
0.0
 44
0.0
 50
0.0
 51
0.0
 71
     0
 72
   100
 73
     1
 74
     1
 75
     0
 76
     0
 77
     0
 78
     0
281
     0
 65
     1
110
0.0
120
0.0
130
0.0
111
1.0
121
0.0
131
0.0
112
0.0
122
1.0
132
0.0
 79
     0
146
0.0
  0
ENDTAB
  0
TABLE
  2
LTYPE
  5
5
330
0
100
AcDbSymbolTable
 70
     1
  0
LTYPE
  5
62
330
5
100
AcDbSymbolTableRecord
100
AcDbLinetypeTableRecord
  2
ByBlock
 70
     0
  3

 72
    65
 73
     0
 40
0.0
  0
LTYPE
  5
63
330
5
100
AcDbSymbolTableRecord
100
AcDbLinetypeTableRecord
  2
ByLayer
 70
     0
  3

 72
    65
 73
     0
 40
0.0
  0
LTYPE
  5
64
330
5
100
AcDbSymbolTableRecord
100
AcDbLinetypeTableRecord
  2
CONTINUOUS
 70
     0
  3
Solid line
 72
    65
 73
     0
 40
0.0
  0
ENDTAB
  0
TABLE
  2
LAYER
  5
2
330
0
100
AcDbSymbolTable
 70
     5
  0
LAYER
  5
5C
102
{ACAD_XDICTIONARY
360
3ED
102
}
330
2
100
AcDbSymbolTableRecord
100
AcDbLayerTableRecord
  2
0
 70
     0
 62
     7
  6
CONTINUOUS
370
    -3
390
F
  0
LAYER
  5
78
102
{ACAD_XDICTIONARY
360
3EF
102
}
330
2
100
AcDbSymbolTableRecord
100
AcDbLayerTableRecord
  2
SHADE
 70
     0
 62
     2
  6
CONTINUOUS
370
    -3
390
F
  0
LAYER
  5
7B
102
{ACAD_XDICTIONARY
360
3F1
102
}
330
2
100
AcDbSymbolTableRecord
100
AcDbLayerTableRecord
  2
ASWINDOW
 70
     0
 62
    -7
  6
CONTINUOUS
370
    -3
390
F
  0
LAYER
  5
7C
102
{ACAD_XDICTIONARY
360
3F3
102
}
330
2
100
AcDbSymbolTableRecord
100
AcDbLayerTableRecord
  2
L1
 70
     0
 62
     1
  6
CONTINUOUS
370
    -3
390
F
  0
LAYER
  5
7D
102
{ACAD_XDICTIONARY
360
3F5
102
}
330
2
100
AcDbSymbolTableRecord
100
AcDbLayerTableRecord
  2
ASCRIPT
 70
     1
 62
     7
  6
CONTINUOUS
370
    -3
390
F
  0
ENDTAB
  0
TABLE
  2
STYLE
  5
3
330
0
100
AcDbSymbolTable
 70
     6
  0
STYLE
  5
5D
330
3
100
AcDbSymbolTableRecord
100
AcDbTextStyleTableRecord
  2
STANDARD
 70
     0
 40
0.0
 41
1.0
 50
0.0
 71
     0
 42
0.1
  3
TXT
  4

  0
STYLE
  5
79
330
3
100
AcDbSymbolTableRecord
100
AcDbTextStyleTableRecord
  2
H
 70
     0
 40
0.0
 41
1.0
 50
0.0
 71
     0
 42
0.14
  3
H.SHX
  4

  0
STYLE
  5
7E
330
3
100
AcDbSymbolTableRecord
100
AcDbTextStyleTableRecord
  2
ASCFG
 70
     0
 40
0.0
 41
1.0
 50
0.0
 71
     0
 42
0.0055
  3
ASCFG
  4

  0
ENDTAB
  0
TABLE
  2
VIEW
  5
6
330
0
100
AcDbSymbolTable
 70
     0
  0
ENDTAB
  0
TABLE
  2
UCS
  5
7
330
0
100
AcDbSymbolTable
 70
     0
  0
ENDTAB
  0
TABLE
  2
APPID
  5
9
330
0
100
AcDbSymbolTable
 70
     4
  0
APPID
  5
5E
330
9
100
AcDbSymbolTableRecord
100
AcDbRegAppTableRecord
  2
ACAD
 70
     0
  0
APPID
  5
65
330
9
100
AcDbSymbolTableRecord
100
AcDbRegAppTableRecord
  2
AcadAnnotative
 70
     0
  0
APPID
  5
6F
330
9
100
AcDbSymbolTableRecord
100
AcDbRegAppTableRecord
  2
ACAD_MLEADERVER
 70
     0
  0
APPID
  5
3E8
330
9
100
AcDbSymbolTableRecord
100
AcDbRegAppTableRecord
  2
ACAD_PSEXT
 70
     0
  0
ENDTAB
  0
TABLE
  2
DIMSTYLE
  5
A
330
0
100
AcDbSymbolTable
 70
     4
100
AcDbDimStyleTable
 71
     1
340
5F
  0
DIMSTYLE
105
5F
330
A
100
AcDbSymbolTableRecord
100
AcDbDimStyleTableRecord
  2
Standard
 70
     0
340
5D
  0
ENDTAB
  0
TABLE
  2
BLOCK_RECORD
  5
1
330
0
100
AcDbSymbolTable
 70
     5
  0
BLOCK_RECORD
  5
74
330
1
100
AcDbSymbolTableRecord
100
AcDbBlockTableRecord
  2
*Model_Space
340
77
  0
BLOCK_RECORD
  5
70
330
1
100
AcDbSymbolTableRecord
100
AcDbBlockTableRecord
  2
*Paper_Space
340
73
  0
BLOCK_RECORD
  5
81
330
1
100
AcDbSymbolTableRecord
100
AcDbBlockTableRecord
  2
BORDER
340
0
102
{BLKREFS
331
A2
102
}
  0
BLOCK_RECORD
  5
88
330
1
100
AcDbSymbolTableRecord
100
AcDbBlockTableRecord
  2
ASWINDOW
340
0
102
{BLKREFS
331
A3
102
}
  0
BLOCK_RECORD
  5
92
330
1
100
AcDbSymbolTableRecord
100
AcDbBlockTableRecord
  2
AS-CFG
340
0
102
{BLKREFS
331
D5
102
}
  0
ENDTAB
  0
ENDSEC
  0
SECTION
  2
BLOCKS
  0
BLOCK
  5
75
330
74
100
AcDbEntity
  8
0
100
AcDbBlockBegin
  2
*Model_Space
 70
     0
 10
0.0
 20
0.0
 30
0.0
  3
*Model_Space
  1

  0
ENDBLK
  5
76
330
74
100
AcDbEntity
  8
0
100
AcDbBlockEnd
  0
BLOCK
  5
71
330
70
100
AcDbEntity
 67
     1
  8
0
100
AcDbBlockBegin
  2
*Paper_Space
 70
     0
 10
0.0
 20
0.0
 30
0.0
  3
*Paper_Space
  1

  0
ENDBLK
  5
72
330
70
100
AcDbEntity
 67
     1
  8
0
100
AcDbBlockEnd
  0
BLOCK
  5
82
330
81
100
AcDbEntity
  8
0
100
AcDbBlockBegin
  2
BORDER
 70
     0
 10
0.0
 20
0.0
 30
0.0
  3
BORDER
  1

  0
LINE
  5
83
330
81
100
AcDbEntity
  8
0
100
AcDbLine
 10
0.0
 20
0.0
 30
0.0
 11
1.0
 21
0.0
 31
0.0
  0
LINE
  5
84
330
81
100
AcDbEntity
  8
0
100
AcDbLine
 10
1.0
 20
0.0
 30
0.0
 11
1.0
 21
1.0
 31
0.0
  0
LINE
  5
85
330
81
100
AcDbEntity
  8
0
100
AcDbLine
 10
1.0
 20
1.0
 30
0.0
 11
0.0
 21
1.0
 31
0.0
  0
LINE
  5
86
330
81
100
AcDbEntity
  8
0
100
AcDbLine
 10
0.0
 20
1.0
 30
0.0
 11
0.0
 21
0.0
 31
0.0
  0
ENDBLK
  5
87
330
81
100
AcDbEntity
  8
0
100
AcDbBlockEnd
  0
BLOCK
  5
89
330
88
100
AcDbEntity
  8
0
100
AcDbBlockBegin
  2
ASWINDOW
 70
     2
 10
0.0
 20
0.0
 30
0.0
  3
ASWINDOW
  1

  0
LINE
  5
8A
330
88
100
AcDbEntity
  8
0
 62
     0
100
AcDbLine
 10
0.0
 20
0.0
 30
0.0
 11
0.0
 21
1.0
 31
0.0
  0
LINE
  5
8B
330
88
100
AcDbEntity
  8
0
 62
     0
100
AcDbLine
 10
0.0
 20
1.0
 30
0.0
 11
1.0
 21
1.0
 31
0.0
  0
LINE
  5
8C
330
88
100
AcDbEntity
  8
0
 62
     0
100
AcDbLine
 10
1.0
 20
1.0
 30
0.0
 11
1.0
 21
0.0
 31
0.0
  0
LINE
  5
8D
330
88
100
AcDbEntity
  8
0
 62
     0
100
AcDbLine
 10
1.0
 20
0.0
 30
0.0
 11
0.0
 21
0.0
 31
0.0
  0
ATTDEF
  5
8E
330
88
100
AcDbEntity
  8
0
 62
     0
100
AcDbText
 10
0.015625
 20
0.03125
 30
0.0
 40
0.125
  1
1
100
AcDbAttributeDefinition
  3
Window number
  2
ASWINDOW
 70
     0
  0
ATTDEF
  5
8F
330
88
100
AcDbEntity
  8
0
 62
     0
100
AcDbText
 10
0.015625
 20
0.84375
 30
0.0
 40
0.125
  1
ON
100
AcDbAttributeDefinition
  3
ON or OFF
  2
PRSTATUS
 70
     0
  0
ATTDEF
  5
90
330
88
100
AcDbEntity
  8
0
 62
     0
100
AcDbText
 10
0.015625
 20
0.5
 30
0.0
 40
0.125
  1
0
100
AcDbAttributeDefinition
  3
Scale (0=Fit, -Rotate)
  2
SCALE
 70
     1
  0
ENDBLK
  5
91
330
88
100
AcDbEntity
  8
0
100
AcDbBlockEnd
  0
BLOCK
  5
93
330
92
100
AcDbEntity
  8
0
100
AcDbBlockBegin
  2
AS-CFG
 70
     0
 10
0.0
 20
0.0
 30
0.0
  3
AS-CFG
  1

  0
TEXT
  5
94
330
92
100
AcDbEntity
  8
0
100
AcDbText
 10
0.0
 20
0.0
 30
0.0
 40
0.0055
  1
ASCRIPT
  7
ASCFG
100
AcDbText
  0
TEXT
  5
95
330
92
100
AcDbEntity
  8
0
100
AcDbText
 10
0.0
 20
-0.007333
 30
0.0
 40
0.0055
  1
!ASCFG C:\FIGS\SCHEM.cfg 0 0 1 2 2 0 3 0 4 2 5 0 6 1450 7 0 8 0.005 9 8 10 8.5 11 11 12 0.3 13 0.3 14 0.3 15 0.3 16 50 17 50 18
  7
ASCFG
100
AcDbText
  0
TEXT
  5
96
330
92
100
AcDbEntity
  8
0
100
AcDbText
 10
0.0
 20
-0.014667
 30
0.0
 40
0.0055
  1
0 19 0 20 0 21 0 22 0 23 0 24 0 25 0 26 1 27 0.005 28 100 29 0 30 0 31 0 32 0 33 11.7 34 30 35 0 59 0.998752 60 0 50 Black 52 2
  7
ASCFG
100
AcDbText
  0
TEXT
  5
97
330
92
100
AcDbEntity
  8
0
100
AcDbText
 10
0.0
 20
-0.022
 30
0.0
 40
0.0055
  1
99 2 50 GREY 52 2 53 0.9 99 3 98 0 0 X 98 1 1 1 2 X 98 2 0.005 X 98 3 2 2 3 X 98 4 1 1 0 X 98 5 1 2 0 X 98 6 1 X 98 7 0 X 98 8
  7
ASCFG
100
AcDbText
  0
TEXT
  5
98
330
92
100
AcDbEntity
  8
0
100
AcDbText
 10
0.0
 20
-0.029333
 30
0.0
 40
0.0055
  1
0 X 98 9 0 X 98 10 0 X 98 11 0 X 100 0 0 0 0 0 0 0 0 0 0 0 0 0 0 0 0 999
  7
ASCFG
100
AcDbText
  0
ENDBLK
  5
99
330
92
100
AcDbEntity
  8
0
100
AcDbBlockEnd
  0
ENDSEC
  0
SECTION
  2
ENTITIES
  0
LINE
  5
9A
330
74
100
AcDbEntity
  8
0
  6
Continuous
 62
     7
100
AcDbLine
 10
0.0
 20
11.0
 30
0.0
 11
8.5
 21
11.0
 31
0.0
  0
LINE
  5
9B
330
74
100
AcDbEntity
  8
0
  6
Continuous
 62
     7
100
AcDbLine
 10
8.125999999999999
 20
10.713
 30
0.0
 11
0.404
 21
10.713
 31
0.0
  0
LINE
  5
9C
330
74
100
AcDbEntity
  8
0
  6
Continuous
 62
     7
100
AcDbLine
 10
0.0
 20
11.0
 30
0.0
 11
0.0
 21
0.0
 31
0.0
  0
LINE
  5
9D
330
74
100
AcDbEntity
  8
0
  6
Continuous
 62
     7
100
AcDbLine
 10
0.0
 20
0.0
 30
0.0
 11
8.5
 21
0.0
 31
0.0
  0
LINE
  5
9E
330
74
100
AcDbEntity
  8
0
  6
Continuous
 62
     7
100
AcDbLine
 10
0.404
 20
0.3
 30
0.0
 11
8.125999999999999
 21
0.3
 31
0.0
  0
LINE
  5
9F
330
74
100
AcDbEntity
  8
0
  6
Continuous
 62
     7
100
AcDbLine
 10
8.5
 20
11.0
 30
0.0
 11
8.5
 21
0.0
 31
0.0
  0
LINE
  5
A0
330
74
100
AcDbEntity
  8
0
  6
Continuous
 62
     7
100
AcDbLine
 10
8.125999999999999
 20
0.3
 30
0.0
 11
8.125999999999999
 21
10.713
 31
0.0
  0
LINE
  5
A1
330
74
100
AcDbEntity
  8
0
  6
Continuous
 62
     7
100
AcDbLine
 10
0.404
 20
0.3
 30
0.0
 11
0.404
 21
10.713
 31
0.0
  0
INSERT
  5
A2
330
74
100
AcDbEntity
  8
0
 62
     7
100
AcDbBlockReference
  2
BORDER
 10
0.0
 20
0.0
 30
0.0
 41
8.5
 42
11.0
 43
8.5
  0
INSERT
  5
A3
330
74
100
AcDbEntity
  8
ASWINDOW
 62
     2
100
AcDbBlockReference
 66
     1
  2
ASWINDOW
 10
0.404
 20
0.3
 30
0.0
 41
7.722
 42
10.413
 43
7.722
  0
ATTRIB
  5
A4
330
A3
100
AcDbEntity
  8
0
 62
     0
100
AcDbText
 10
0.5246560000000001
 20
0.625406
 30
0.0
 40
1.301625
  1
1
 41
0.7415729999999999
100
AcDbAttribute
  2
ASWINDOW
 70
     0
  0
ATTRIB
  5
A5
330
A3
100
AcDbEntity
  8
0
 62
     0
100
AcDbText
 10
0.5246560000000001
 20
9.085969
 30
0.0
 40
1.301625
  1
ON
 41
0.7415729999999999
100
AcDbAttribute
  2
PRSTATUS
 70
     0
  0
ATTRIB
  5
A6
330
A3
100
AcDbEntity
  8
0
 62
     0
100
AcDbText
 10
0.5246560000000001
 20
5.506499999999999
 30
0.0
 40
1.301625
  1
0
 41
0.7415729999999999
100
AcDbAttribute
  2
SCALE
 70
     1
  0
SEQEND
  5
A7
330
A3
100
AcDbEntity
  8
ASWINDOW
 62
     2
  0
LWPOLYLINE
  5
A8
330
74
100
AcDbEntity
  8
L1
 62
     1
100
AcDbPolyline
 90
        4
 70
     1
 43
0.002075
 10
2.496394
 20
8.434361
 10
5.459756999999999
 20
8.434361
 10
5.459756999999999
 20
8.183438
 10
2.496394
 20
8.183438
  0
TEXT
  5
AE
330
74
100
AcDbEntity
  8
L1
 62
     1
100
AcDbText
 10
2.042109999999999
 20
8.25876
 30
0.0
 40
0.075582
  1
row 3
  7
H
100
AcDbText
  0
LWPOLYLINE
  5
AF
330
74
100
AcDbEntity
  8
L1
 62
     1
100
AcDbPolyline
 90
        4
 70
     1
 43
0.002075
 10
2.496394
 20
8.896428
 10
5.459756999999999
 20
8.896428
 10
5.459756999999999
 20
8.645504999999999
 10
2.496394
 20
8.645504999999999
  0
TEXT
  5
B5
330
74
100
AcDbEntity
  8
L1
 62
     1
100
AcDbText
 10
2.042109999999999
 20
8.721452000000001
 30
0.0
 40
0.075582
  1
row 2
  7
H
100
AcDbText
  0
LWPOLYLINE
  5
B6
330
74
100
AcDbEntity
  8
L1
 62
     1
100
AcDbPolyline
 90
        4
 70
     1
 43
0.002075
 10
2.496394
 20
9.339530999999999
 10
5.459756999999999
 20
9.339530999999999
 10
5.459756999999999
 20
9.088608
 10
2.496394
 20
9.088608
  0
TEXT
  5
BC
330
74
100
AcDbEntity
  8
L1
 62
     1
100
AcDbText
 10
2.042109999999999
 20
9.172822999999999
 30
0.0
 40
0.075582
  1
row 1
  7
H
100
AcDbText
  0
LWPOLYLINE
  5
BD
330
74
100
AcDbEntity
  8
L1
100
AcDbPolyline
 90
        4
 70
     1
 43
0.001482
 10
1.930201999999999
 20
9.925153999999999
 10
6.562367
 20
9.925153999999999
 10
6.562367
 20
7.240675999999999
 10
1.930201999999999
 20
7.240675999999999
  0
CIRCLE
  5
C3
330
74
100
AcDbEntity
  8
L1
 62
     1
100
AcDbCircle
 10
2.598974999999999
 20
9.202174000000001
 30
0.0
 40
0.018525
  0
TEXT
  5
C4
330
74
100
AcDbEntity
  8
L1
 62
     1
100
AcDbText
 10
6.302861
 20
9.427621999999999
 30
0.0
 40
0.058687
  1
120 VAC
 50
90.0
  7
H
100
AcDbText
  0
TEXT
  5
C5
330
74
100
AcDbEntity
  8
L1
 62
     1
100
AcDbText
 10
6.436993
 20
9.427621999999999
 30
0.0
 40
0.058687
  1
Return
 50
90.0
  7
H
100
AcDbText
  0
TEXT
  5
C6
330
74
100
AcDbEntity
  8
L1
100
AcDbText
 10
5.886294
 20
9.996978
 30
0.0
 40
0.067784
  1
170 ADI 540 50
  7
H
100
AcDbText
  0
TEXT
  5
C7
330
74
100
AcDbEntity
  8
L1
100
AcDbText
 10
1.924724
 20
7.099297999999999
 30
0.0
 40
0.067784
  1
Wiring for 2-wire field devices
  7
H
100
AcDbText
  0
CIRCLE
  5
C8
330
74
100
AcDbEntity
  8
L1
 62
     1
100
AcDbCircle
 10
2.598974999999999
 20
8.757782999999999
 30
0.0
 40
0.018525
  0
TEXT
  5
C9
330
74
100
AcDbEntity
  8
L1
100
AcDbText
 10
7.445077999999999
 20
0.4228130000000001
 30
0.0
 40
0.105743
  1
FIG7-8
  7
H
100
AcDbText
  0
LWPOLYLINE
  5
CA
330
74
100
AcDbEntity
  8
L1
 62
     1
100
AcDbPolyline
 90
        4
 70
     1
 43
0.002223
 10
5.579584999999999
 20
9.084392999999998
 10
5.79389
 20
9.084392999999998
 10
5.79389
 20
9.007007000000001
 10
5.579584999999999
 20
9.007007000000001
  0
TEXT
  5
D0
330
74
100
AcDbEntity
  8
L1
 62
     1
100
AcDbText
 10
5.129838999999999
 20
9.243405
 30
0.0
 40
0.055
  1
N
  7
H
100
AcDbText
  0
TEXT
  5
D1
330
74
100
AcDbEntity
  8
L1
 62
     1
100
AcDbText
 10
5.284562999999999
 20
9.243405
 30
0.0
 40
0.055
  1
L1
  7
H
100
AcDbText
  0
TEXT
  5
D2
330
74
100
AcDbEntity
  8
L1
 62
     1
100
AcDbText
 10
2.579763999999999
 20
9.24426
 30
0.0
 40
0.055
  1
1
  7
H
100
AcDbText
  0
TEXT
  5
D3
330
74
100
AcDbEntity
  8
L1
 62
     1
100
AcDbText
 10
5.498901999999999
 20
9.137506
 30
0.0
 40
0.058687
  1
fast-blow fuse
  7
H
100
AcDbText
  0
TEXT
  5
D4
330
74
100
AcDbEntity
  8
L1
 62
     1
100
AcDbText
 10
5.53155
 20
9.240003999999998
 30
0.0
 40
0.064556
  1
200mA
  7
H
100
AcDbText
  0
INSERT
  5
D5
330
74
100
AcDbEntity
  8
ASCRIPT
100
AcDbBlockReference
  2
AS-CFG
 10
3.997399999999999
 20
5.5
 30
0.0
  0
CIRCLE
  5
D6
330
74
100
AcDbEntity
  8
L1
 62
     1
100
AcDbCircle
 10
4.838974999999999
 20
9.202174000000001
 30
0.0
 40
0.018525
  0
CIRCLE
  5
D7
330
74
100
AcDbEntity
  8
L1
 62
     1
100
AcDbCircle
 10
4.838974999999999
 20
8.757782999999999
 30
0.0
 40
0.018525
  0
CIRCLE
  5
D8
330
74
100
AcDbEntity
  8
L1
 62
     1
100
AcDbCircle
 10
5.158974999999999
 20
8.288111
 30
0.0
 40
0.018525
  0
CIRCLE
  5
D9
330
74
100
AcDbEntity
  8
L1
 62
     1
100
AcDbCircle
 10
5.158974999999999
 20
9.202174000000001
 30
0.0
 40
0.018525
  0
CIRCLE
  5
DA
330
74
100
AcDbEntity
  8
L1
 62
     1
100
AcDbCircle
 10
5.158974999999999
 20
8.757782999999999
 30
0.0
 40
0.018525
  0
CIRCLE
  5
DB
330
74
100
AcDbEntity
  8
L1
 62
     1
100
AcDbCircle
 10
5.318975
 20
8.288111
 30
0.0
 40
0.018525
  0
CIRCLE
  5
DC
330
74
100
AcDbEntity
  8
L1
 62
     1
100
AcDbCircle
 10
5.318975
 20
9.202174000000001
 30
0.0
 40
0.018525
  0
CIRCLE
  5
DD
330
74
100
AcDbEntity
  8
L1
 62
     1
100
AcDbCircle
 10
5.318975
 20
8.757782999999999
 30
0.0
 40
0.018525
  0
TEXT
  5
DE
330
74
100
AcDbEntity
  8
L1
 62
     1
100
AcDbText
 10
2.739764
 20
9.24426
 30
0.0
 40
0.055
  1
2
  7
H
100
AcDbText
  0
TEXT
  5
DF
330
74
100
AcDbEntity
  8
L1
 62
     1
100
AcDbText
 10
2.899763999999999
 20
9.24426
 30
0.0
 40
0.055
  1
3
  7
H
100
AcDbText
  0
TEXT
  5
E0
330
74
100
AcDbEntity
  8
L1
 62
     1
100
AcDbText
 10
3.059763999999999
 20
9.24426
 30
0.0
 40
0.055
  1
4
  7
H
100
AcDbText
  0
TEXT
  5
E1
330
74
100
AcDbEntity
  8
L1
 62
     1
100
AcDbText
 10
3.219764
 20
9.24426
 30
0.0
 40
0.055
  1
5
  7
H
100
AcDbText
  0
TEXT
  5
E2
330
74
100
AcDbEntity
  8
L1
 62
     1
100
AcDbText
 10
3.379763999999999
 20
9.24426
 30
0.0
 40
0.055
  1
6
  7
H
100
AcDbText
  0
TEXT
  5
E3
330
74
100
AcDbEntity
  8
L1
 62
     1
100
AcDbText
 10
3.539763999999999
 20
9.24426
 30
0.0
 40
0.055
  1
7
  7
H
100
AcDbText
  0
TEXT
  5
E4
330
74
100
AcDbEntity
  8
L1
 62
     1
100
AcDbText
 10
3.698662
 20
9.24426
 30
0.0
 40
0.055
  1
8
  7
H
100
AcDbText
  0
TEXT
  5
E5
330
74
100
AcDbEntity
  8
L1
 62
     1
100
AcDbText
 10
3.859763999999999
 20
9.24426
 30
0.0
 40
0.055
  1
9
  7
H
100
AcDbText
  0
TEXT
  5
E6
330
74
100
AcDbEntity
  8
L1
 62
     1
100
AcDbText
 10
3.995511
 20
9.24426
 30
0.0
 40
0.055
  1
10
  7
H
100
AcDbText
  0
TEXT
  5
E7
330
74
100
AcDbEntity
  8
L1
 62
     1
100
AcDbText
 10
4.157715
 20
9.24426
 30
0.0
 40
0.055
  1
11
  7
H
100
AcDbText
  0
TEXT
  5
E8
330
74
100
AcDbEntity
  8
L1
 62
     1
100
AcDbText
 10
4.315509999999999
 20
9.24426
 30
0.0
 40
0.055
  1
12
  7
H
100
AcDbText
  0
TEXT
  5
E9
330
74
100
AcDbEntity
  8
L1
 62
     1
100
AcDbText
 10
4.474408
 20
9.24426
 30
0.0
 40
0.055
  1
13
  7
H
100
AcDbText
  0
TEXT
  5
EA
330
74
100
AcDbEntity
  8
L1
 62
     1
100
AcDbText
 10
4.63551
 20
9.24426
 30
0.0
 40
0.055
  1
14
  7
H
100
AcDbText
  0
TEXT
  5
EB
330
74
100
AcDbEntity
  8
L1
 62
     1
100
AcDbText
 10
4.794407999999999
 20
9.24426
 30
0.0
 40
0.055
  1
15
  7
H
100
AcDbText
  0
TEXT
  5
EC
330
74
100
AcDbEntity
  8
L1
 62
     1
100
AcDbText
 10
4.954407999999999
 20
9.24426
 30
0.0
 40
0.055
  1
16
  7
H
100
AcDbText
  0
TEXT
  5
ED
330
74
100
AcDbEntity
  8
L1
 62
     1
100
AcDbText
 10
5.262
 20
8.802777
 30
0.0
 40
0.055
  1
2L1
  7
H
100
AcDbText
  0
TEXT
  5
EE
330
74
100
AcDbEntity
  8
L1
 62
     1
100
AcDbText
 10
5.08657
 20
8.803630999999999
 30
0.0
 40
0.055
  1
1L1
  7
H
100
AcDbText
  0
TEXT
  5
EF
330
74
100
AcDbEntity
  8
L1
 62
     1
100
AcDbText
 10
5.106854
 20
8.333299
 30
0.0
 40
0.055
  1
1N
  7
H
100
AcDbText
  0
TEXT
  5
F0
330
74
100
AcDbEntity
  8
L1
 62
     1
100
AcDbText
 10
5.284562999999999
 20
8.333299
 30
0.0
 40
0.055
  1
2N
  7
H
100
AcDbText
  0
LWPOLYLINE
  5
F1
330
74
100
AcDbEntity
  8
L1
 62
     1
100
AcDbPolyline
 90
        3
 70
     0
 43
0.002594
 10
5.158974999999999
 20
9.202174000000001
 10
5.158974999999999
 20
8.965266999999998
 10
6.16145
 20
8.965266999999998
  0
LWPOLYLINE
  5
F6
330
74
100
AcDbEntity
  8
L1
 62
     1
100
AcDbPolyline
 90
        3
 70
     0
 43
0.002594
 10
5.316966
 20
9.202174000000001
 10
5.316966
 20
9.045234999999999
 10
6.045341999999999
 20
9.045234999999999
  0
LWPOLYLINE
  5
FB
330
74
100
AcDbEntity
  8
L1
100
AcDbPolyline
 90
        4
 70
     0
 43
0.004
 10
4.719839
 20
7.6824
 10
4.604230999999999
 20
7.6824
 10
4.604230999999999
 20
8.869330999999998
 10
4.838974999999999
 20
9.202174000000001
  0
LWPOLYLINE
  5
101
330
74
100
AcDbEntity
  8
L1
100
AcDbPolyline
 90
        5
 70
     0
 43
0.004
 10
4.838974999999999
 20
8.757782999999999
 10
4.921559999999999
 20
8.447288
 10
4.921559999999999
 20
7.6824
 10
4.846254
 20
7.6824
 10
4.700916
 20
7.625485
  0
LWPOLYLINE
  5
108
330
74
100
AcDbEntity
  8
L1
100
AcDbPolyline
 90
        5
 70
     0
 43
0.004
 10
2.598974999999999
 20
8.757782999999999
 10
2.681559999999999
 20
8.447288
 10
2.681559999999999
 20
7.6824
 10
2.606254
 20
7.6824
 10
2.460916
 20
7.625485
  0
LWPOLYLINE
  5
10F
330
74
100
AcDbEntity
  8
L1
100
AcDbPolyline
 90
        4
 70
     0
 43
0.004
 10
2.479839
 20
7.6824
 10
2.364231
 20
7.6824
 10
2.364231
 20
8.869330999999998
 10
2.598974999999999
 20
9.202174000000001
  0
LWPOLYLINE
  5
115
330
74
100
AcDbEntity
  8
L1
 62
     1
100
AcDbPolyline
 90
        3
 70
     0
 43
0.002594
 10
5.158974999999999
 20
8.757782999999999
 10
5.158974999999999
 20
8.520875999999999
 10
6.287923
 20
8.520875999999999
  0
LWPOLYLINE
  5
11A
330
74
100
AcDbEntity
  8
L1
 62
     1
100
AcDbPolyline
 90
        3
 70
     0
 43
0.002594
 10
5.316966
 20
8.757782999999999
 10
5.316966
 20
8.600842999999999
 10
6.287955999999999
 20
8.600842999999999
  0
LWPOLYLINE
  5
11F
330
74
100
AcDbEntity
  8
L1
 62
     1
100
AcDbPolyline
 90
        3
 70
     0
 43
0.002594
 10
5.316966
 20
8.288111
 10
5.316966
 20
8.131171999999999
 10
6.403430999999999
 20
8.131171999999999
  0
LWPOLYLINE
  5
124
330
74
100
AcDbEntity
  8
L1
 62
     1
100
AcDbPolyline
 90
        3
 70
     0
 43
0.002594
 10
5.158974999999999
 20
8.288111
 10
5.158974999999999
 20
8.051203999999998
 10
6.403398
 20
8.051203999999998
  0
TEXT
  5
129
330
74
100
AcDbEntity
  8
L1
 62
     1
100
AcDbText
 10
6.190059999999999
 20
9.427621999999999
 30
0.0
 40
0.058687
  1
Return 
 50
90.0
  7
H
100
AcDbText
  0
TEXT
  5
12A
330
74
100
AcDbEntity
  8
L1
 62
     1
100
AcDbText
 10
6.055927999999999
 20
9.427621999999999
 30
0.0
 40
0.058687
  1
120 VAC 
 50
90.0
  7
H
100
AcDbText
  0
LWPOLYLINE
  5
12B
330
74
100
AcDbEntity
  8
L1
 62
     1
100
AcDbPolyline
 90
        2
 70
     0
 43
0.004
 10
6.040014
 20
9.406710999999999
 10
6.040014
 20
7.865785999999999
  0
LWPOLYLINE
  5
12F
330
74
100
AcDbEntity
  8
L1
 62
     1
100
AcDbPolyline
 90
        2
 70
     0
 43
0.004
 10
6.160651
 20
9.406710999999999
 10
6.160651
 20
7.865785999999999
  0
LWPOLYLINE
  5
133
330
74
100
AcDbEntity
  8
L1
 62
     1
100
AcDbPolyline
 90
        2
 70
     0
 43
0.004
 10
6.286947
 20
9.406710999999999
 10
6.286947
 20
7.865785999999999
  0
LWPOLYLINE
  5
137
330
74
100
AcDbEntity
  8
L1
 62
     1
100
AcDbPolyline
 90
        2
 70
     0
 43
0.004
 10
6.407582999999999
 20
9.406710999999999
 10
6.407582999999999
 20
7.865785999999999
  0
TEXT
  5
13B
330
74
100
AcDbEntity
  8
L1
 62
     1
100
AcDbText
 10
4.543492999999999
 20
7.518169999999999
 30
0.0
 40
0.05965
  1
Input Device
  7
H
100
AcDbText
  0
TEXT
  5
13C
330
74
100
AcDbEntity
  8
L1
 62
     1
100
AcDbText
 10
4.567664999999999
 20
7.407294
 30
0.0
 40
0.05965
  1
number 15
  7
H
100
AcDbText
  0
TEXT
  5
13D
330
74
100
AcDbEntity
  8
L1
 62
     1
100
AcDbText
 10
2.345051999999999
 20
7.409378999999999
 30
0.0
 40
0.05965
  1
number 1
  7
H
100
AcDbText
  0
TEXT
  5
13E
330
74
100
AcDbEntity
  8
L1
 62
     1
100
AcDbText
 10
2.307158
 20
7.518169999999999
 30
0.0
 40
0.05965
  1
Input Device
  7
H
100
AcDbText
  0
LWPOLYLINE
  5
13F
330
74
100
AcDbEntity
  8
L1
100
AcDbPolyline
 90
        4
 70
     1
 43
0.001482
 10
1.930201999999999
 20
4.917167
 10
6.562367
 20
4.917167
 10
6.562367
 20
2.05697
 10
1.930201999999999
 20
2.05697
  0
LWPOLYLINE
  5
145
330
74
100
AcDbEntity
  8
L1
 62
     1
100
AcDbPolyline
 90
        4
 70
     1
 43
0.002075
 10
2.175556
 20
3.426373
 10
5.138918
 20
3.426373
 10
5.138918
 20
3.17545
 10
2.175556
 20
3.17545
  0
LWPOLYLINE
  5
14B
330
74
100
AcDbEntity
  8
L1
 62
     1
100
AcDbPolyline
 90
        4
 70
     1
 43
0.002075
 10
2.175556
 20
3.888441
 10
5.138918
 20
3.888441
 10
5.138918
 20
3.637518
 10
2.175556
 20
3.637518
  0
LWPOLYLINE
  5
151
330
74
100
AcDbEntity
  8
L1
 62
     1
100
AcDbPolyline
 90
        4
 70
     1
 43
0.002075
 10
2.175556
 20
4.331544
 10
5.138918
 20
4.331544
 10
5.138918
 20
4.080619999999999
 10
2.175556
 20
4.080619999999999
  0
TEXT
  5
157
330
74
100
AcDbEntity
  8
L1
 62
     1
100
AcDbText
 10
2.042109999999999
 20
3.250773
 30
0.0
 40
0.075582
  1
3
  7
H
100
AcDbText
  0
TEXT
  5
158
330
74
100
AcDbEntity
  8
L1
 62
     1
100
AcDbText
 10
2.042109999999999
 20
3.713465
 30
0.0
 40
0.075582
  1
2
  7
H
100
AcDbText
  0
TEXT
  5
159
330
74
100
AcDbEntity
  8
L1
 62
     1
100
AcDbText
 10
2.042109999999999
 20
4.164836
 30
0.0
 40
0.075582
  1
1
  7
H
100
AcDbText
  0
TEXT
  5
15A
330
74
100
AcDbEntity
  8
L1
 62
     1
100
AcDbText
 10
3.050724999999999
 20
4.236272
 30
0.0
 40
0.055
  1
I6
  7
H
100
AcDbText
  0
TEXT
  5
15B
330
74
100
AcDbEntity
  8
L1
 62
     1
100
AcDbText
 10
2.258925999999999
 20
4.236272
 30
0.0
 40
0.055
  1
1
  7
H
100
AcDbText
  0
TEXT
  5
15C
330
74
100
AcDbEntity
  8
L1
100
AcDbText
 10
5.669087999999999
 20
4.98899
 30
0.0
 40
0.067784
  1
170 ADM 350 00 / 11
  7
H
100
AcDbText
  0
TEXT
  5
15D
330
74
100
AcDbEntity
  8
L1
 62
     1
100
AcDbText
 10
5.395901999999999
 20
2.207529999999999
 30
0.0
 40
0.05965
  1
group of inputs/outputs
  7
H
100
AcDbText
  0
LWPOLYLINE
  5
15E
330
74
100
AcDbEntity
  8
L1
 62
     1
100
AcDbPolyline
 90
        3
 70
     0
 43
0.002594
 10
4.838137
 20
4.194187
 10
4.838137
 20
3.95728
 10
5.809989999999999
 20
3.95728
  0
LWPOLYLINE
  5
163
330
74
100
AcDbEntity
  8
L1
 62
     1
100
AcDbPolyline
 90
        2
 70
     0
 43
0.004
 10
5.683694
 20
4.398723999999999
 10
5.683694
 20
2.74621
  0
LWPOLYLINE
  5
167
330
74
100
AcDbEntity
  8
L1
 62
     1
100
AcDbPolyline
 90
        2
 70
     0
 43
0.004
 10
5.809989999999999
 20
4.398723999999999
 10
5.809989999999999
 20
2.74621
  0
LWPOLYLINE
  5
16B
330
74
100
AcDbEntity
  8
L1
 62
     1
100
AcDbPolyline
 90
        2
 70
     0
 43
0.004
 10
5.563056999999999
 20
4.398723999999999
 10
5.563056999999999
 20
2.74621
  0
TEXT
  5
16F
330
74
100
AcDbEntity
  8
L1
 62
     1
100
AcDbText
 10
4.796948999999999
 20
3.325312
 30
0.0
 40
0.055
  1
M-
  7
H
100
AcDbText
  0
TEXT
  5
170
330
74
100
AcDbEntity
  8
L1
 62
     1
100
AcDbText
 10
4.963724
 20
3.325312
 30
0.0
 40
0.055
  1
M-
  7
H
100
AcDbText
  0
CIRCLE
  5
171
330
74
100
AcDbEntity
  8
L1
 62
     1
100
AcDbCircle
 10
4.998136999999999
 20
3.280123999999999
 30
0.0
 40
0.018525
  0
CIRCLE
  5
172
330
74
100
AcDbEntity
  8
L1
 62
     1
100
AcDbCircle
 10
4.838137
 20
3.280123999999999
 30
0.0
 40
0.018525
  0
CIRCLE
  5
173
330
74
100
AcDbEntity
  8
L1
 62
     1
100
AcDbCircle
 10
4.838137
 20
3.749795999999999
 30
0.0
 40
0.018525
  0
CIRCLE
  5
174
330
74
100
AcDbEntity
  8
L1
 62
     1
100
AcDbCircle
 10
4.998136999999999
 20
3.749795999999999
 30
0.0
 40
0.018525
  0
TEXT
  5
175
330
74
100
AcDbEntity
  8
L1
 62
     1
100
AcDbText
 10
4.941162
 20
3.79479
 30
0.0
 40
0.055
  1
2L+
  7
H
100
AcDbText
  0
TEXT
  5
176
330
74
100
AcDbEntity
  8
L1
 62
     1
100
AcDbText
 10
4.771198
 20
3.795644
 30
0.0
 40
0.055
  1
1L+
  7
H
100
AcDbText
  0
LWPOLYLINE
  5
177
330
74
100
AcDbEntity
  8
L1
 62
     1
100
AcDbPolyline
 90
        4
 70
     1
 43
0.002223
 10
5.202633999999999
 20
4.076405999999999
 10
5.416939
 20
4.076405999999999
 10
5.416939
 20
3.999019
 10
5.202633999999999
 20
3.999019
  0
TEXT
  5
17D
330
74
100
AcDbEntity
  8
L1
 62
     1
100
AcDbText
 10
5.888608
 20
4.036107
 30
0.0
 40
0.064556
  1
315 mA
  7
H
100
AcDbText
  0
LWPOLYLINE
  5
17E
330
74
100
AcDbEntity
  8
L1
 62
     1
100
AcDbPolyline
 90
        3
 70
     0
 43
0.002594
 10
4.996126999999999
 20
4.194187
 10
4.996126999999999
 20
4.037247999999999
 10
5.568385
 20
4.037247999999999
  0
TEXT
  5
183
330
74
100
AcDbEntity
  8
L1
 62
     1
100
AcDbText
 10
4.963724
 20
4.235418
 30
0.0
 40
0.055
  1
L+
  7
H
100
AcDbText
  0
TEXT
  5
184
330
74
100
AcDbEntity
  8
L1
 62
     1
100
AcDbText
 10
4.798066
 20
4.235418
 30
0.0
 40
0.055
  1
M-
  7
H
100
AcDbText
  0
TEXT
  5
185
330
74
100
AcDbEntity
  8
L1
 62
     1
100
AcDbText
 10
4.633569999999999
 20
4.236272
 30
0.0
 40
0.055
  1
16
  7
H
100
AcDbText
  0
CIRCLE
  5
186
330
74
100
AcDbEntity
  8
L1
 62
     1
100
AcDbCircle
 10
4.998136999999999
 20
4.194187
 30
0.0
 40
0.018525
  0
CIRCLE
  5
187
330
74
100
AcDbEntity
  8
L1
 62
     1
100
AcDbCircle
 10
4.838137
 20
4.194187
 30
0.0
 40
0.018525
  0
TEXT
  5
188
330
74
100
AcDbEntity
  8
L1
 62
     1
100
AcDbText
 10
5.826353
 20
4.419634999999999
 30
0.0
 40
0.058687
  1
Return
 50
90.0
  7
H
100
AcDbText
  0
TEXT
  5
189
330
74
100
AcDbEntity
  8
L1
 62
     1
100
AcDbText
 10
5.713103
 20
4.419634999999999
 30
0.0
 40
0.058687
  1
24 VDC
 50
90.0
  7
H
100
AcDbText
  0
TEXT
  5
18A
330
74
100
AcDbEntity
  8
L1
 62
     1
100
AcDbText
 10
5.578971
 20
4.419634999999999
 30
0.0
 40
0.058687
  1
24 VDC
 50
90.0
  7
H
100
AcDbText
  0
LWPOLYLINE
  5
18B
330
74
100
AcDbEntity
  8
L1
 62
     1
100
AcDbPolyline
 90
        3
 70
     0
 43
0.002594
 10
4.838137
 20
3.749795999999999
 10
4.838137
 20
3.479484999999999
 10
5.683694
 20
3.479484999999999
  0
LWPOLYLINE
  5
190
330
74
100
AcDbEntity
  8
L1
 62
     1
100
AcDbPolyline
 90
        3
 70
     0
 43
0.002594
 10
4.996126999999999
 20
3.749795999999999
 10
4.996126999999999
 20
3.592855999999999
 10
5.683694
 20
3.592855999999999
  0
LWPOLYLINE
  5
195
330
74
100
AcDbEntity
  8
L1
 62
     1
100
AcDbPolyline
 90
        4
 70
     1
 43
0.002075
 10
2.175556
 20
3.085658
 10
5.138918
 20
3.085658
 10
5.138918
 20
2.834734999999999
 10
2.175556
 20
2.834734999999999
  0
TEXT
  5
19B
330
74
100
AcDbEntity
  8
L1
 62
     1
100
AcDbText
 10
2.042109999999999
 20
2.910058
 30
0.0
 40
0.075582
  1
4
  7
H
100
AcDbText
  0
CIRCLE
  5
19C
330
74
100
AcDbEntity
  8
L1
 62
     1
100
AcDbCircle
 10
4.998136999999999
 20
2.939408999999999
 30
0.0
 40
0.018525
  0
TEXT
  5
19D
330
74
100
AcDbEntity
  8
L1
 62
     1
100
AcDbText
 10
4.958257999999999
 20
2.984596999999999
 30
0.0
 40
0.055
  1
3L+
  7
H
100
AcDbText
  0
TEXT
  5
19E
330
74
100
AcDbEntity
  8
L1
 62
     1
100
AcDbText
 10
5.888608
 20
3.581820999999999
 30
0.0
 40
0.064556
  1
max. 4 A
  7
H
100
AcDbText
  0
TEXT
  5
19F
330
74
100
AcDbEntity
  8
L1
 62
     1
100
AcDbText
 10
5.888608
 20
2.960516999999999
 30
0.0
 40
0.064556
  1
max. 4 A
  7
H
100
AcDbText
  0
LWPOLYLINE
  5
1A0
330
74
100
AcDbEntity
  8
L1
 62
     1
100
AcDbPolyline
 90
        4
 70
     1
 43
0.002223
 10
5.202633999999999
 20
3.6288
 10
5.416939
 20
3.6288
 10
5.416939
 20
3.551413999999999
 10
5.202633999999999
 20
3.551413999999999
  0
LWPOLYLINE
  5
1A6
330
74
100
AcDbEntity
  8
L1
 62
     1
100
AcDbPolyline
 90
        4
 70
     1
 43
0.002223
 10
5.202633999999999
 20
3.515228
 10
5.416939
 20
3.515228
 10
5.416939
 20
3.437841999999999
 10
5.202633999999999
 20
3.437841999999999
  0
LWPOLYLINE
  5
1AC
330
74
100
AcDbEntity
  8
L1
 62
     1
100
AcDbPolyline
 90
        4
 70
     1
 43
0.002223
 10
5.202633999999999
 20
2.913966999999999
 10
5.416939
 20
2.913966999999999
 10
5.416939
 20
2.83658
 10
5.202633999999999
 20
2.83658
  0
LWPOLYLINE
  5
1B2
330
74
100
AcDbEntity
  8
L1
 62
     1
100
AcDbPolyline
 90
        3
 70
     0
 43
0.002594
 10
4.838137
 20
3.261599
 10
4.838137
 20
3.127485
 10
5.809989999999999
 20
3.127485
  0
LWPOLYLINE
  5
1B7
330
74
100
AcDbEntity
  8
L1
 62
     1
100
AcDbPolyline
 90
        3
 70
     0
 43
0.002594
 10
4.996126999999999
 20
2.920993999999999
 10
4.996126999999999
 20
2.875999
 10
5.563056999999999
 20
2.875999
  0
LWPOLYLINE
  5
1BC
330
74
100
AcDbEntity
  8
L1
 62
     1
100
AcDbPolyline
 90
        4
 70
     1
 43
0.004
 10
5.028326999999999
 20
2.26594
 10
5.356262999999999
 20
2.26594
 10
5.356262999999999
 20
2.188553999999999
 10
5.028326999999999
 20
2.188553999999999
  0
TEXT
  5
1C2
330
74
100
AcDbEntity
  8
L1
 62
     1
100
AcDbText
 10
4.633569999999999
 20
3.802027999999999
 30
0.0
 40
0.055
  1
16
  7
H
100
AcDbText
  0
TEXT
  5
1C3
330
74
100
AcDbEntity
  8
L1
 62
     1
100
AcDbText
 10
2.258925999999999
 20
3.795347
 30
0.0
 40
0.055
  1
1
  7
H
100
AcDbText
  0
TEXT
  5
1C4
330
74
100
AcDbEntity
  8
L1
 62
     1
100
AcDbText
 10
3.031591
 20
3.795347
 30
0.0
 40
0.055
  1
O6
  7
H
100
AcDbText
  0
TEXT
  5
1C5
330
74
100
AcDbEntity
  8
L1
 62
     1
100
AcDbText
 10
3.039791999999999
 20
3.325676
 30
0.0
 40
0.055
  1
M-
  7
H
100
AcDbText
  0
TEXT
  5
1C6
330
74
100
AcDbEntity
  8
L1
 62
     1
100
AcDbText
 10
3.023391
 20
2.984961
 30
0.0
 40
0.055
  1
3L+
  7
H
100
AcDbText
  0
LWPOLYLINE
  5
1C7
330
74
100
AcDbEntity
  8
L1
 62
     1
100
AcDbPolyline
 90
        2
 70
     1
 43
0.0025
 10
2.259611999999999
 20
4.194187
 42
1.0
 10
2.296661999999999
 20
4.194187
 42
1.0
  0
LWPOLYLINE
  5
1CB
330
74
100
AcDbEntity
  8
L1
 62
     1
100
AcDbPolyline
 90
        2
 70
     1
 43
0.0025
 10
2.259611999999999
 20
3.749795999999999
 42
1.0
 10
2.296661999999999
 20
3.749795999999999
 42
1.0
  0
LWPOLYLINE
  5
1CF
330
74
100
AcDbEntity
  8
L1
 62
     1
100
AcDbPolyline
 90
        2
 70
     1
 43
0.0025
 10
2.259611999999999
 20
3.280123999999999
 42
1.0
 10
2.296661999999999
 20
3.280123999999999
 42
1.0
  0
LWPOLYLINE
  5
1D3
330
74
100
AcDbEntity
  8
L1
 62
     1
100
AcDbPolyline
 90
        2
 70
     1
 43
0.0025
 10
2.259611999999999
 20
2.939408999999999
 42
1.0
 10
2.296661999999999
 20
2.939408999999999
 42
1.0
  0
LWPOLYLINE
  5
1D7
330
74
100
AcDbEntity
  8
L1
 62
     1
100
AcDbPolyline
 90
        2
 70
     1
 43
0.0025
 10
2.419611999999999
 20
2.939408999999999
 42
1.0
 10
2.456661999999999
 20
2.939408999999999
 42
1.0
  0
LWPOLYLINE
  5
1DB
330
74
100
AcDbEntity
  8
L1
 62
     1
100
AcDbPolyline
 90
        2
 70
     1
 43
0.0025
 10
2.419611999999999
 20
3.280123999999999
 42
1.0
 10
2.456661999999999
 20
3.280123999999999
 42
1.0
  0
LWPOLYLINE
  5
1DF
330
74
100
AcDbEntity
  8
L1
 62
     1
100
AcDbPolyline
 90
        2
 70
     1
 43
0.0025
 10
2.419611999999999
 20
3.749795999999999
 42
1.0
 10
2.456661999999999
 20
3.749795999999999
 42
1.0
  0
LWPOLYLINE
  5
1E3
330
74
100
AcDbEntity
  8
L1
 62
     1
100
AcDbPolyline
 90
        2
 70
     1
 43
0.0025
 10
2.419611999999999
 20
4.194187
 42
1.0
 10
2.456661999999999
 20
4.194187
 42
1.0
  0
LWPOLYLINE
  5
1E7
330
74
100
AcDbEntity
  8
L1
 62
     1
100
AcDbPolyline
 90
        2
 70
     1
 43
0.0025
 10
2.579612
 20
2.939408999999999
 42
1.0
 10
2.616661999999999
 20
2.939408999999999
 42
1.0
  0
LWPOLYLINE
  5
1EB
330
74
100
AcDbEntity
  8
L1
 62
     1
100
AcDbPolyline
 90
        2
 70
     1
 43
0.0025
 10
2.579612
 20
3.280123999999999
 42
1.0
 10
2.616661999999999
 20
3.280123999999999
 42
1.0
  0
LWPOLYLINE
  5
1EF
330
74
100
AcDbEntity
  8
L1
 62
     1
100
AcDbPolyline
 90
        2
 70
     1
 43
0.0025
 10
2.579612
 20
3.749795999999999
 42
1.0
 10
2.616661999999999
 20
3.749795999999999
 42
1.0
  0
LWPOLYLINE
  5
1F3
330
74
100
AcDbEntity
  8
L1
 62
     1
100
AcDbPolyline
 90
        2
 70
     1
 43
0.0025
 10
2.579612
 20
4.194187
 42
1.0
 10
2.616661999999999
 20
4.194187
 42
1.0
  0
LWPOLYLINE
  5
1F7
330
74
100
AcDbEntity
  8
L1
 62
     1
100
AcDbPolyline
 90
        2
 70
     1
 43
0.0025
 10
2.739611999999999
 20
2.939408999999999
 42
1.0
 10
2.776661999999999
 20
2.939408999999999
 42
1.0
  0
LWPOLYLINE
  5
1FB
330
74
100
AcDbEntity
  8
L1
 62
     1
100
AcDbPolyline
 90
        2
 70
     1
 43
0.0025
 10
2.739611999999999
 20
3.280123999999999
 42
1.0
 10
2.776661999999999
 20
3.280123999999999
 42
1.0
  0
LWPOLYLINE
  5
1FF
330
74
100
AcDbEntity
  8
L1
 62
     1
100
AcDbPolyline
 90
        2
 70
     1
 43
0.0025
 10
2.739611999999999
 20
3.749795999999999
 42
1.0
 10
2.776661999999999
 20
3.749795999999999
 42
1.0
  0
LWPOLYLINE
  5
203
330
74
100
AcDbEntity
  8
L1
 62
     1
100
AcDbPolyline
 90
        2
 70
     1
 43
0.0025
 10
2.739611999999999
 20
4.194187
 42
1.0
 10
2.776661999999999
 20
4.194187
 42
1.0
  0
LWPOLYLINE
  5
207
330
74
100
AcDbEntity
  8
L1
 62
     1
100
AcDbPolyline
 90
        2
 70
     1
 43
0.0025
 10
2.899611999999999
 20
2.939408999999999
 42
1.0
 10
2.936662
 20
2.939408999999999
 42
1.0
  0
LWPOLYLINE
  5
20B
330
74
100
AcDbEntity
  8
L1
 62
     1
100
AcDbPolyline
 90
        2
 70
     1
 43
0.0025
 10
2.899611999999999
 20
3.280123999999999
 42
1.0
 10
2.936662
 20
3.280123999999999
 42
1.0
  0
LWPOLYLINE
  5
20F
330
74
100
AcDbEntity
  8
L1
 62
     1
100
AcDbPolyline
 90
        2
 70
     1
 43
0.0025
 10
2.899611999999999
 20
3.749795999999999
 42
1.0
 10
2.936662
 20
3.749795999999999
 42
1.0
  0
LWPOLYLINE
  5
213
330
74
100
AcDbEntity
  8
L1
 62
     1
100
AcDbPolyline
 90
        2
 70
     1
 43
0.0025
 10
2.899611999999999
 20
4.194187
 42
1.0
 10
2.936662
 20
4.194187
 42
1.0
  0
LWPOLYLINE
  5
217
330
74
100
AcDbEntity
  8
L1
 62
     1
100
AcDbPolyline
 90
        2
 70
     1
 43
0.0025
 10
3.219611999999999
 20
2.939408999999999
 42
1.0
 10
3.256661999999999
 20
2.939408999999999
 42
1.0
  0
LWPOLYLINE
  5
21B
330
74
100
AcDbEntity
  8
L1
 62
     1
100
AcDbPolyline
 90
        2
 70
     1
 43
0.0025
 10
3.219611999999999
 20
3.280123999999999
 42
1.0
 10
3.256661999999999
 20
3.280123999999999
 42
1.0
  0
LWPOLYLINE
  5
21F
330
74
100
AcDbEntity
  8
L1
 62
     1
100
AcDbPolyline
 90
        2
 70
     1
 43
0.0025
 10
3.219611999999999
 20
3.749795999999999
 42
1.0
 10
3.256661999999999
 20
3.749795999999999
 42
1.0
  0
LWPOLYLINE
  5
223
330
74
100
AcDbEntity
  8
L1
 62
     1
100
AcDbPolyline
 90
        2
 70
     1
 43
0.0025
 10
3.219611999999999
 20
4.194187
 42
1.0
 10
3.256661999999999
 20
4.194187
 42
1.0
  0
LWPOLYLINE
  5
227
330
74
100
AcDbEntity
  8
L1
 62
     1
100
AcDbPolyline
 90
        2
 70
     1
 43
0.0025
 10
3.379612
 20
2.939408999999999
 42
1.0
 10
3.416662
 20
2.939408999999999
 42
1.0
  0
LWPOLYLINE
  5
22B
330
74
100
AcDbEntity
  8
L1
 62
     1
100
AcDbPolyline
 90
        2
 70
     1
 43
0.0025
 10
3.379612
 20
3.280123999999999
 42
1.0
 10
3.416662
 20
3.280123999999999
 42
1.0
  0
LWPOLYLINE
  5
22F
330
74
100
AcDbEntity
  8
L1
 62
     1
100
AcDbPolyline
 90
        2
 70
     1
 43
0.0025
 10
3.379612
 20
3.749795999999999
 42
1.0
 10
3.416662
 20
3.749795999999999
 42
1.0
  0
LWPOLYLINE
  5
233
330
74
100
AcDbEntity
  8
L1
 62
     1
100
AcDbPolyline
 90
        2
 70
     1
 43
0.0025
 10
3.379612
 20
4.194187
 42
1.0
 10
3.416662
 20
4.194187
 42
1.0
  0
LWPOLYLINE
  5
237
330
74
100
AcDbEntity
  8
L1
 62
     1
100
AcDbPolyline
 90
        2
 70
     1
 43
0.0025
 10
3.539612
 20
2.939408999999999
 42
1.0
 10
3.576662
 20
2.939408999999999
 42
1.0
  0
LWPOLYLINE
  5
23B
330
74
100
AcDbEntity
  8
L1
 62
     1
100
AcDbPolyline
 90
        2
 70
     1
 43
0.0025
 10
3.539612
 20
3.280123999999999
 42
1.0
 10
3.576662
 20
3.280123999999999
 42
1.0
  0
LWPOLYLINE
  5
23F
330
74
100
AcDbEntity
  8
L1
 62
     1
100
AcDbPolyline
 90
        2
 70
     1
 43
0.0025
 10
3.539612
 20
3.749795999999999
 42
1.0
 10
3.576662
 20
3.749795999999999
 42
1.0
  0
LWPOLYLINE
  5
243
330
74
100
AcDbEntity
  8
L1
 62
     1
100
AcDbPolyline
 90
        2
 70
     1
 43
0.0025
 10
3.539612
 20
4.194187
 42
1.0
 10
3.576662
 20
4.194187
 42
1.0
  0
LWPOLYLINE
  5
247
330
74
100
AcDbEntity
  8
L1
 62
     1
100
AcDbPolyline
 90
        2
 70
     1
 43
0.0025
 10
3.699612
 20
2.939408999999999
 42
1.0
 10
3.736662
 20
2.939408999999999
 42
1.0
  0
LWPOLYLINE
  5
24B
330
74
100
AcDbEntity
  8
L1
 62
     1
100
AcDbPolyline
 90
        2
 70
     1
 43
0.0025
 10
3.699612
 20
3.280123999999999
 42
1.0
 10
3.736662
 20
3.280123999999999
 42
1.0
  0
LWPOLYLINE
  5
24F
330
74
100
AcDbEntity
  8
L1
 62
     1
100
AcDbPolyline
 90
        2
 70
     1
 43
0.0025
 10
3.699612
 20
3.749795999999999
 42
1.0
 10
3.736662
 20
3.749795999999999
 42
1.0
  0
LWPOLYLINE
  5
253
330
74
100
AcDbEntity
  8
L1
 62
     1
100
AcDbPolyline
 90
        2
 70
     1
 43
0.0025
 10
3.699612
 20
4.194187
 42
1.0
 10
3.736662
 20
4.194187
 42
1.0
  0
LWPOLYLINE
  5
257
330
74
100
AcDbEntity
  8
L1
 62
     1
100
AcDbPolyline
 90
        2
 70
     1
 43
0.0025
 10
3.859612
 20
2.939408999999999
 42
1.0
 10
3.896662
 20
2.939408999999999
 42
1.0
  0
LWPOLYLINE
  5
25B
330
74
100
AcDbEntity
  8
L1
 62
     1
100
AcDbPolyline
 90
        2
 70
     1
 43
0.0025
 10
3.859612
 20
3.280123999999999
 42
1.0
 10
3.896662
 20
3.280123999999999
 42
1.0
  0
LWPOLYLINE
  5
25F
330
74
100
AcDbEntity
  8
L1
 62
     1
100
AcDbPolyline
 90
        2
 70
     1
 43
0.0025
 10
3.859612
 20
3.749795999999999
 42
1.0
 10
3.896662
 20
3.749795999999999
 42
1.0
  0
LWPOLYLINE
  5
263
330
74
100
AcDbEntity
  8
L1
 62
     1
100
AcDbPolyline
 90
        2
 70
     1
 43
0.0025
 10
3.859612
 20
4.194187
 42
1.0
 10
3.896662
 20
4.194187
 42
1.0
  0
LWPOLYLINE
  5
267
330
74
100
AcDbEntity
  8
L1
 62
     1
100
AcDbPolyline
 90
        2
 70
     1
 43
0.0025
 10
4.019612
 20
2.939408999999999
 42
1.0
 10
4.056662
 20
2.939408999999999
 42
1.0
  0
LWPOLYLINE
  5
26B
330
74
100
AcDbEntity
  8
L1
 62
     1
100
AcDbPolyline
 90
        2
 70
     1
 43
0.0025
 10
4.019612
 20
3.280123999999999
 42
1.0
 10
4.056662
 20
3.280123999999999
 42
1.0
  0
LWPOLYLINE
  5
26F
330
74
100
AcDbEntity
  8
L1
 62
     1
100
AcDbPolyline
 90
        2
 70
     1
 43
0.0025
 10
4.019612
 20
3.749795999999999
 42
1.0
 10
4.056662
 20
3.749795999999999
 42
1.0
  0
LWPOLYLINE
  5
273
330
74
100
AcDbEntity
  8
L1
 62
     1
100
AcDbPolyline
 90
        2
 70
     1
 43
0.0025
 10
4.019612
 20
4.194187
 42
1.0
 10
4.056662
 20
4.194187
 42
1.0
  0
LWPOLYLINE
  5
277
330
74
100
AcDbEntity
  8
L1
 62
     1
100
AcDbPolyline
 90
        2
 70
     1
 43
0.0025
 10
4.179612
 20
2.939408999999999
 42
1.0
 10
4.216662
 20
2.939408999999999
 42
1.0
  0
LWPOLYLINE
  5
27B
330
74
100
AcDbEntity
  8
L1
 62
     1
100
AcDbPolyline
 90
        2
 70
     1
 43
0.0025
 10
4.179612
 20
3.280123999999999
 42
1.0
 10
4.216662
 20
3.280123999999999
 42
1.0
  0
LWPOLYLINE
  5
27F
330
74
100
AcDbEntity
  8
L1
 62
     1
100
AcDbPolyline
 90
        2
 70
     1
 43
0.0025
 10
4.179612
 20
3.749795999999999
 42
1.0
 10
4.216662
 20
3.749795999999999
 42
1.0
  0
LWPOLYLINE
  5
283
330
74
100
AcDbEntity
  8
L1
 62
     1
100
AcDbPolyline
 90
        2
 70
     1
 43
0.0025
 10
4.179612
 20
4.194187
 42
1.0
 10
4.216662
 20
4.194187
 42
1.0
  0
LWPOLYLINE
  5
287
330
74
100
AcDbEntity
  8
L1
 62
     1
100
AcDbPolyline
 90
        2
 70
     1
 43
0.0025
 10
4.339612
 20
2.939408999999999
 42
1.0
 10
4.376662
 20
2.939408999999999
 42
1.0
  0
LWPOLYLINE
  5
28B
330
74
100
AcDbEntity
  8
L1
 62
     1
100
AcDbPolyline
 90
        2
 70
     1
 43
0.0025
 10
4.339612
 20
3.280123999999999
 42
1.0
 10
4.376662
 20
3.280123999999999
 42
1.0
  0
LWPOLYLINE
  5
28F
330
74
100
AcDbEntity
  8
L1
 62
     1
100
AcDbPolyline
 90
        2
 70
     1
 43
0.0025
 10
4.339612
 20
3.749795999999999
 42
1.0
 10
4.376662
 20
3.749795999999999
 42
1.0
  0
LWPOLYLINE
  5
293
330
74
100
AcDbEntity
  8
L1
 62
     1
100
AcDbPolyline
 90
        2
 70
     1
 43
0.0025
 10
4.339612
 20
4.194187
 42
1.0
 10
4.376662
 20
4.194187
 42
1.0
  0
LWPOLYLINE
  5
297
330
74
100
AcDbEntity
  8
L1
 62
     1
100
AcDbPolyline
 90
        2
 70
     1
 43
0.0025
 10
4.499611999999999
 20
2.939408999999999
 42
1.0
 10
4.536662
 20
2.939408999999999
 42
1.0
  0
LWPOLYLINE
  5
29B
330
74
100
AcDbEntity
  8
L1
 62
     1
100
AcDbPolyline
 90
        2
 70
     1
 43
0.0025
 10
4.499611999999999
 20
3.280123999999999
 42
1.0
 10
4.536662
 20
3.280123999999999
 42
1.0
  0
LWPOLYLINE
  5
29F
330
74
100
AcDbEntity
  8
L1
 62
     1
100
AcDbPolyline
 90
        2
 70
     1
 43
0.0025
 10
4.499611999999999
 20
3.749795999999999
 42
1.0
 10
4.536662
 20
3.749795999999999
 42
1.0
  0
LWPOLYLINE
  5
2A3
330
74
100
AcDbEntity
  8
L1
 62
     1
100
AcDbPolyline
 90
        2
 70
     1
 43
0.0025
 10
4.499611999999999
 20
4.194187
 42
1.0
 10
4.536662
 20
4.194187
 42
1.0
  0
LWPOLYLINE
  5
2A7
330
74
100
AcDbEntity
  8
L1
 62
     1
100
AcDbPolyline
 90
        2
 70
     1
 43
0.0025
 10
4.659612
 20
2.939408999999999
 42
1.0
 10
4.696661999999999
 20
2.939408999999999
 42
1.0
  0
LWPOLYLINE
  5
2AB
330
74
100
AcDbEntity
  8
L1
 62
     1
100
AcDbPolyline
 90
        2
 70
     1
 43
0.0025
 10
4.659612
 20
3.280123999999999
 42
1.0
 10
4.696661999999999
 20
3.280123999999999
 42
1.0
  0
LWPOLYLINE
  5
2AF
330
74
100
AcDbEntity
  8
L1
 62
     1
100
AcDbPolyline
 90
        2
 70
     1
 43
0.0025
 10
4.659612
 20
3.749795999999999
 42
1.0
 10
4.696661999999999
 20
3.749795999999999
 42
1.0
  0
LWPOLYLINE
  5
2B3
330
74
100
AcDbEntity
  8
L1
 62
     1
100
AcDbPolyline
 90
        2
 70
     1
 43
0.0025
 10
4.659612
 20
4.194187
 42
1.0
 10
4.696661999999999
 20
4.194187
 42
1.0
  0
LWPOLYLINE
  5
2B7
330
74
100
AcDbEntity
  8
L1
 62
     1
100
AcDbPolyline
 90
        2
 70
     1
 43
0.0025
 10
4.819612
 20
2.939408999999999
 42
1.0
 10
4.856662
 20
2.939408999999999
 42
1.0
  0
CIRCLE
  5
2BB
330
74
100
AcDbEntity
  8
L1
 62
     1
100
AcDbCircle
 10
3.078136999999999
 20
2.939408999999999
 30
0.0
 40
0.018525
  0
CIRCLE
  5
2BC
330
74
100
AcDbEntity
  8
L1
 62
     1
100
AcDbCircle
 10
3.078136999999999
 20
3.280123999999999
 30
0.0
 40
0.018525
  0
CIRCLE
  5
2BD
330
74
100
AcDbEntity
  8
L1
 62
     1
100
AcDbCircle
 10
3.078136999999999
 20
3.749795999999999
 30
0.0
 40
0.018525
  0
CIRCLE
  5
2BE
330
74
100
AcDbEntity
  8
L1
 62
     1
100
AcDbCircle
 10
3.078136999999999
 20
4.194187
 30
0.0
 40
0.018525
  0
LWPOLYLINE
  5
2BF
330
74
100
AcDbEntity
  8
L1
100
AcDbPolyline
 90
        5
 70
     0
 43
0.004
 10
3.078136999999999
 20
4.194187
 10
3.078136999999999
 20
4.117154
 10
2.360958999999999
 20
3.656019
 10
2.360958999999999
 20
2.559263999999999
 10
2.504359
 20
2.559263999999999
  0
LWPOLYLINE
  5
2C6
330
74
100
AcDbEntity
  8
L1
100
AcDbPolyline
 90
        4
 70
     0
 43
0.004
 10
3.078136999999999
 20
3.749795999999999
 10
3.639088999999999
 20
3.325746
 10
3.639088999999999
 20
2.559263999999999
 10
3.470749999999999
 20
2.559263999999999
  0
LWPOLYLINE
  5
2CC
330
74
100
AcDbEntity
  8
L1
100
AcDbPolyline
 90
        4
 70
     0
 43
0.004
 10
3.078136999999999
 20
3.280123999999999
 10
3.165245
 20
3.219809
 10
3.165245
 20
2.559263999999999
 10
3.321115
 20
2.559263999999999
  0
LWPOLYLINE
  5
2D2
330
74
100
AcDbEntity
  8
L1
100
AcDbPolyline
 90
        5
 70
     0
 43
0.004
 10
3.078136999999999
 20
2.939408999999999
 10
2.834801999999999
 20
2.715052999999999
 10
2.834801999999999
 20
2.559263999999999
 10
2.653993999999999
 20
2.559263999999999
 10
2.510593999999999
 20
2.640274
  0
LWPOLYLINE
  5
2D9
330
74
100
AcDbEntity
  8
L1
100
AcDbPolyline
 90
        4
 70
     1
 43
0.004
 10
3.321115
 20
2.490715999999999
 10
3.470749999999999
 20
2.490715999999999
 10
3.470749999999999
 20
2.627810999999999
 10
3.321115
 20
2.627810999999999
  0
LWPOLYLINE
  5
2DF
330
74
100
AcDbEntity
  8
SHADE
100
AcDbPolyline
 90
        4
 70
     1
 43
0.0
 10
5.033923999999999
 20
2.191600999999999
 10
5.358133
 20
2.191600999999999
 10
5.358133
 20
2.260149
 10
5.033923999999999
 20
2.260149
  0
LWPOLYLINE
  5
2E5
330
74
100
AcDbEntity
  8
SHADE
100
AcDbPolyline
 90
        4
 70
     1
 43
0.0
 10
2.175556
 20
3.085658
 10
2.213322
 20
3.085658
 10
2.213322
 20
2.836447
 10
2.175556
 20
2.836447
  0
LWPOLYLINE
  5
2EB
330
74
100
AcDbEntity
  8
SHADE
100
AcDbPolyline
 90
        4
 70
     1
 43
0.0
 10
2.175556
 20
2.836447
 10
5.137243999999999
 20
2.836447
 10
5.137243999999999
 20
2.867954999999999
 10
2.175556
 20
2.867954999999999
  0
LWPOLYLINE
  5
2F1
330
74
100
AcDbEntity
  8
SHADE
100
AcDbPolyline
 90
        4
 70
     1
 43
0.0
 10
2.175556
 20
3.085658
 10
5.133302999999999
 20
3.085658
 10
5.133302999999999
 20
3.053068
 10
2.175556
 20
3.053068
  0
LWPOLYLINE
  5
2F7
330
74
100
AcDbEntity
  8
SHADE
100
AcDbPolyline
 90
        4
 70
     1
 43
0.0
 10
5.133302999999999
 20
3.085658
 10
5.097837999999999
 20
3.085658
 10
5.097837999999999
 20
2.844324
 10
5.133302999999999
 20
2.844324
  0
LWPOLYLINE
  5
2FD
330
74
100
AcDbEntity
  8
SHADE
100
AcDbPolyline
 90
        4
 70
     1
 43
0.0
 10
2.196218
 20
4.310864999999999
 10
4.753886
 20
4.310864999999999
 10
4.753886
 20
4.101828
 10
2.196218
 20
4.101828
  0
LWPOLYLINE
  5
303
330
74
100
AcDbEntity
  8
SHADE
100
AcDbPolyline
 90
        4
 70
     1
 43
0.0
 10
2.198125999999999
 20
3.870029
 10
3.466066
 20
3.870029
 10
3.466066
 20
3.656637
 10
2.198125999999999
 20
3.656637
  0
LWPOLYLINE
  5
309
330
74
100
AcDbEntity
  8
SHADE
100
AcDbPolyline
 90
        4
 70
     1
 43
0.0
 10
3.483494999999999
 20
3.870029
 10
4.755792999999999
 20
3.870029
 10
4.755792999999999
 20
3.656637
 10
3.483494999999999
 20
3.656637
  0
LWPOLYLINE
  5
30F
330
74
100
AcDbEntity
  8
L1
 62
     1
100
AcDbPolyline
 90
        2
 70
     1
 43
0.0025
 10
4.98045
 20
9.202174000000001
 42
1.0
 10
5.0175
 20
9.202174000000001
 42
1.0
  0
LWPOLYLINE
  5
313
330
74
100
AcDbEntity
  8
L1
 62
     1
100
AcDbPolyline
 90
        2
 70
     1
 43
0.0025
 10
4.98045
 20
8.757782999999999
 42
1.0
 10
5.0175
 20
8.757782999999999
 42
1.0
  0
LWPOLYLINE
  5
317
330
74
100
AcDbEntity
  8
L1
 62
     1
100
AcDbPolyline
 90
        2
 70
     1
 43
0.0025
 10
4.98045
 20
8.288111
 42
1.0
 10
5.0175
 20
8.288111
 42
1.0
  0
LWPOLYLINE
  5
31B
330
74
100
AcDbEntity
  8
L1
 62
     1
100
AcDbPolyline
 90
        2
 70
     1
 43
0.0025
 10
4.660449999999999
 20
9.202174000000001
 42
1.0
 10
4.697499999999999
 20
9.202174000000001
 42
1.0
  0
LWPOLYLINE
  5
31F
330
74
100
AcDbEntity
  8
L1
 62
     1
100
AcDbPolyline
 90
        2
 70
     1
 43
0.0025
 10
4.660449999999999
 20
8.757782999999999
 42
1.0
 10
4.697499999999999
 20
8.757782999999999
 42
1.0
  0
LWPOLYLINE
  5
323
330
74
100
AcDbEntity
  8
L1
 62
     1
100
AcDbPolyline
 90
        2
 70
     1
 43
0.0025
 10
4.500449999999999
 20
9.202174000000001
 42
1.0
 10
4.537499999999999
 20
9.202174000000001
 42
1.0
  0
LWPOLYLINE
  5
327
330
74
100
AcDbEntity
  8
L1
 62
     1
100
AcDbPolyline
 90
        2
 70
     1
 43
0.0025
 10
4.500449999999999
 20
8.757782999999999
 42
1.0
 10
4.537499999999999
 20
8.757782999999999
 42
1.0
  0
LWPOLYLINE
  5
32B
330
74
100
AcDbEntity
  8
L1
 62
     1
100
AcDbPolyline
 90
        2
 70
     1
 43
0.0025
 10
4.82045
 20
8.288111
 42
1.0
 10
4.857499999999999
 20
8.288111
 42
1.0
  0
LWPOLYLINE
  5
32F
330
74
100
AcDbEntity
  8
L1
 62
     1
100
AcDbPolyline
 90
        2
 70
     1
 43
0.0025
 10
4.340449999999999
 20
9.202174000000001
 42
1.0
 10
4.3775
 20
9.202174000000001
 42
1.0
  0
LWPOLYLINE
  5
333
330
74
100
AcDbEntity
  8
L1
 62
     1
100
AcDbPolyline
 90
        2
 70
     1
 43
0.0025
 10
4.340449999999999
 20
8.757782999999999
 42
1.0
 10
4.3775
 20
8.757782999999999
 42
1.0
  0
LWPOLYLINE
  5
337
330
74
100
AcDbEntity
  8
L1
 62
     1
100
AcDbPolyline
 90
        2
 70
     1
 43
0.0025
 10
4.660449999999999
 20
8.288111
 42
1.0
 10
4.697499999999999
 20
8.288111
 42
1.0
  0
LWPOLYLINE
  5
33B
330
74
100
AcDbEntity
  8
L1
 62
     1
100
AcDbPolyline
 90
        2
 70
     1
 43
0.0025
 10
4.18045
 20
9.202174000000001
 42
1.0
 10
4.2175
 20
9.202174000000001
 42
1.0
  0
LWPOLYLINE
  5
33F
330
74
100
AcDbEntity
  8
L1
 62
     1
100
AcDbPolyline
 90
        2
 70
     1
 43
0.0025
 10
4.18045
 20
8.757782999999999
 42
1.0
 10
4.2175
 20
8.757782999999999
 42
1.0
  0
LWPOLYLINE
  5
343
330
74
100
AcDbEntity
  8
L1
 62
     1
100
AcDbPolyline
 90
        2
 70
     1
 43
0.0025
 10
4.500449999999999
 20
8.288111
 42
1.0
 10
4.537499999999999
 20
8.288111
 42
1.0
  0
LWPOLYLINE
  5
347
330
74
100
AcDbEntity
  8
L1
 62
     1
100
AcDbPolyline
 90
        2
 70
     1
 43
0.0025
 10
4.02045
 20
9.202174000000001
 42
1.0
 10
4.0575
 20
9.202174000000001
 42
1.0
  0
LWPOLYLINE
  5
34B
330
74
100
AcDbEntity
  8
L1
 62
     1
100
AcDbPolyline
 90
        2
 70
     1
 43
0.0025
 10
4.02045
 20
8.757782999999999
 42
1.0
 10
4.0575
 20
8.757782999999999
 42
1.0
  0
LWPOLYLINE
  5
34F
330
74
100
AcDbEntity
  8
L1
 62
     1
100
AcDbPolyline
 90
        2
 70
     1
 43
0.0025
 10
4.340449999999999
 20
8.288111
 42
1.0
 10
4.3775
 20
8.288111
 42
1.0
  0
LWPOLYLINE
  5
353
330
74
100
AcDbEntity
  8
L1
 62
     1
100
AcDbPolyline
 90
        2
 70
     1
 43
0.0025
 10
3.86045
 20
9.202174000000001
 42
1.0
 10
3.897499999999999
 20
9.202174000000001
 42
1.0
  0
LWPOLYLINE
  5
357
330
74
100
AcDbEntity
  8
L1
 62
     1
100
AcDbPolyline
 90
        2
 70
     1
 43
0.0025
 10
3.86045
 20
8.757782999999999
 42
1.0
 10
3.897499999999999
 20
8.757782999999999
 42
1.0
  0
LWPOLYLINE
  5
35B
330
74
100
AcDbEntity
  8
L1
 62
     1
100
AcDbPolyline
 90
        2
 70
     1
 43
0.0025
 10
4.18045
 20
8.288111
 42
1.0
 10
4.2175
 20
8.288111
 42
1.0
  0
LWPOLYLINE
  5
35F
330
74
100
AcDbEntity
  8
L1
 62
     1
100
AcDbPolyline
 90
        2
 70
     1
 43
0.0025
 10
3.70045
 20
9.202174000000001
 42
1.0
 10
3.737499999999999
 20
9.202174000000001
 42
1.0
  0
LWPOLYLINE
  5
363
330
74
100
AcDbEntity
  8
L1
 62
     1
100
AcDbPolyline
 90
        2
 70
     1
 43
0.0025
 10
3.70045
 20
8.757782999999999
 42
1.0
 10
3.737499999999999
 20
8.757782999999999
 42
1.0
  0
LWPOLYLINE
  5
367
330
74
100
AcDbEntity
  8
L1
 62
     1
100
AcDbPolyline
 90
        2
 70
     1
 43
0.0025
 10
4.02045
 20
8.288111
 42
1.0
 10
4.0575
 20
8.288111
 42
1.0
  0
LWPOLYLINE
  5
36B
330
74
100
AcDbEntity
  8
L1
 62
     1
100
AcDbPolyline
 90
        2
 70
     1
 43
0.0025
 10
3.540449999999999
 20
9.202174000000001
 42
1.0
 10
3.5775
 20
9.202174000000001
 42
1.0
  0
LWPOLYLINE
  5
36F
330
74
100
AcDbEntity
  8
L1
 62
     1
100
AcDbPolyline
 90
        2
 70
     1
 43
0.0025
 10
3.540449999999999
 20
8.757782999999999
 42
1.0
 10
3.5775
 20
8.757782999999999
 42
1.0
  0
LWPOLYLINE
  5
373
330
74
100
AcDbEntity
  8
L1
 62
     1
100
AcDbPolyline
 90
        2
 70
     1
 43
0.0025
 10
3.86045
 20
8.288111
 42
1.0
 10
3.897499999999999
 20
8.288111
 42
1.0
  0
LWPOLYLINE
  5
377
330
74
100
AcDbEntity
  8
L1
 62
     1
100
AcDbPolyline
 90
        2
 70
     1
 43
0.0025
 10
3.38045
 20
9.202174000000001
 42
1.0
 10
3.417499999999999
 20
9.202174000000001
 42
1.0
  0
LWPOLYLINE
  5
37B
330
74
100
AcDbEntity
  8
L1
 62
     1
100
AcDbPolyline
 90
        2
 70
     1
 43
0.0025
 10
3.38045
 20
8.757782999999999
 42
1.0
 10
3.417499999999999
 20
8.757782999999999
 42
1.0
  0
LWPOLYLINE
  5
37F
330
74
100
AcDbEntity
  8
L1
 62
     1
100
AcDbPolyline
 90
        2
 70
     1
 43
0.0025
 10
3.70045
 20
8.288111
 42
1.0
 10
3.737499999999999
 20
8.288111
 42
1.0
  0
LWPOLYLINE
  5
383
330
74
100
AcDbEntity
  8
L1
 62
     1
100
AcDbPolyline
 90
        2
 70
     1
 43
0.0025
 10
3.22045
 20
9.202174000000001
 42
1.0
 10
3.257499999999999
 20
9.202174000000001
 42
1.0
  0
LWPOLYLINE
  5
387
330
74
100
AcDbEntity
  8
L1
 62
     1
100
AcDbPolyline
 90
        2
 70
     1
 43
0.0025
 10
3.22045
 20
8.757782999999999
 42
1.0
 10
3.257499999999999
 20
8.757782999999999
 42
1.0
  0
LWPOLYLINE
  5
38B
330
74
100
AcDbEntity
  8
L1
 62
     1
100
AcDbPolyline
 90
        2
 70
     1
 43
0.0025
 10
3.540449999999999
 20
8.288111
 42
1.0
 10
3.5775
 20
8.288111
 42
1.0
  0
LWPOLYLINE
  5
38F
330
74
100
AcDbEntity
  8
L1
 62
     1
100
AcDbPolyline
 90
        2
 70
     1
 43
0.0025
 10
3.060449999999999
 20
9.202174000000001
 42
1.0
 10
3.0975
 20
9.202174000000001
 42
1.0
  0
LWPOLYLINE
  5
393
330
74
100
AcDbEntity
  8
L1
 62
     1
100
AcDbPolyline
 90
        2
 70
     1
 43
0.0025
 10
3.060449999999999
 20
8.757782999999999
 42
1.0
 10
3.0975
 20
8.757782999999999
 42
1.0
  0
LWPOLYLINE
  5
397
330
74
100
AcDbEntity
  8
L1
 62
     1
100
AcDbPolyline
 90
        2
 70
     1
 43
0.0025
 10
3.38045
 20
8.288111
 42
1.0
 10
3.417499999999999
 20
8.288111
 42
1.0
  0
LWPOLYLINE
  5
39B
330
74
100
AcDbEntity
  8
L1
 62
     1
100
AcDbPolyline
 90
        2
 70
     1
 43
0.0025
 10
2.90045
 20
9.202174000000001
 42
1.0
 10
2.9375
 20
9.202174000000001
 42
1.0
  0
LWPOLYLINE
  5
39F
330
74
100
AcDbEntity
  8
L1
 62
     1
100
AcDbPolyline
 90
        2
 70
     1
 43
0.0025
 10
2.90045
 20
8.757782999999999
 42
1.0
 10
2.9375
 20
8.757782999999999
 42
1.0
  0
LWPOLYLINE
  5
3A3
330
74
100
AcDbEntity
  8
L1
 62
     1
100
AcDbPolyline
 90
        2
 70
     1
 43
0.0025
 10
3.22045
 20
8.288111
 42
1.0
 10
3.257499999999999
 20
8.288111
 42
1.0
  0
LWPOLYLINE
  5
3A7
330
74
100
AcDbEntity
  8
L1
 62
     1
100
AcDbPolyline
 90
        2
 70
     1
 43
0.0025
 10
2.74045
 20
9.202174000000001
 42
1.0
 10
2.777499999999999
 20
9.202174000000001
 42
1.0
  0
LWPOLYLINE
  5
3AB
330
74
100
AcDbEntity
  8
L1
 62
     1
100
AcDbPolyline
 90
        2
 70
     1
 43
0.0025
 10
2.74045
 20
8.757782999999999
 42
1.0
 10
2.777499999999999
 20
8.757782999999999
 42
1.0
  0
LWPOLYLINE
  5
3AF
330
74
100
AcDbEntity
  8
L1
 62
     1
100
AcDbPolyline
 90
        2
 70
     1
 43
0.0025
 10
3.060449999999999
 20
8.288111
 42
1.0
 10
3.0975
 20
8.288111
 42
1.0
  0
LWPOLYLINE
  5
3B3
330
74
100
AcDbEntity
  8
L1
 62
     1
100
AcDbPolyline
 90
        2
 70
     1
 43
0.0025
 10
2.580449999999999
 20
9.202174000000001
 42
1.0
 10
2.6175
 20
9.202174000000001
 42
1.0
  0
LWPOLYLINE
  5
3B7
330
74
100
AcDbEntity
  8
L1
 62
     1
100
AcDbPolyline
 90
        2
 70
     1
 43
0.0025
 10
2.580449999999999
 20
8.757782999999999
 42
1.0
 10
2.6175
 20
8.757782999999999
 42
1.0
  0
LWPOLYLINE
  5
3BB
330
74
100
AcDbEntity
  8
L1
 62
     1
100
AcDbPolyline
 90
        2
 70
     1
 43
0.0025
 10
2.90045
 20
8.288111
 42
1.0
 10
2.9375
 20
8.288111
 42
1.0
  0
LWPOLYLINE
  5
3BF
330
74
100
AcDbEntity
  8
L1
 62
     1
100
AcDbPolyline
 90
        2
 70
     1
 43
0.0025
 10
2.74045
 20
8.288111
 42
1.0
 10
2.777499999999999
 20
8.288111
 42
1.0
  0
LWPOLYLINE
  5
3C3
330
74
100
AcDbEntity
  8
L1
 62
     1
100
AcDbPolyline
 90
        2
 70
     1
 43
0.0025
 10
2.580449999999999
 20
8.288111
 42
1.0
 10
2.6175
 20
8.288111
 42
1.0
  0
CIRCLE
  5
3C7
330
74
100
AcDbEntity
  8
L1
 62
     1
100
AcDbCircle
 10
6.040014
 20
9.045234999999999
 30
0.0
 40
0.018525
  0
CIRCLE
  5
3C8
330
74
100
AcDbEntity
  8
L1
 62
     1
100
AcDbCircle
 10
6.160651
 20
8.965266999999998
 30
0.0
 40
0.018525
  0
CIRCLE
  5
3C9
330
74
100
AcDbEntity
  8
L1
 62
     1
100
AcDbCircle
 10
6.286947
 20
8.600842999999999
 30
0.0
 40
0.018525
  0
CIRCLE
  5
3CA
330
74
100
AcDbEntity
  8
L1
 62
     1
100
AcDbCircle
 10
6.286947
 20
8.520875999999999
 30
0.0
 40
0.018525
  0
CIRCLE
  5
3CB
330
74
100
AcDbEntity
  8
L1
 62
     1
100
AcDbCircle
 10
6.403430999999999
 20
8.051203999999998
 30
0.0
 40
0.018525
  0
CIRCLE
  5
3CC
330
74
100
AcDbEntity
  8
L1
 62
     1
100
AcDbCircle
 10
6.403430999999999
 20
8.131171999999999
 30
0.0
 40
0.018525
  0
CIRCLE
  5
3CD
330
74
100
AcDbEntity
  8
L1
 62
     1
100
AcDbCircle
 10
5.683694
 20
3.592855999999999
 30
0.0
 40
0.018525
  0
CIRCLE
  5
3CE
330
74
100
AcDbEntity
  8
L1
 62
     1
100
AcDbCircle
 10
5.565510999999999
 20
4.037247999999999
 30
0.0
 40
0.018525
  0
CIRCLE
  5
3CF
330
74
100
AcDbEntity
  8
L1
 62
     1
100
AcDbCircle
 10
5.809989999999999
 20
3.95728
 30
0.0
 40
0.018525
  0
CIRCLE
  5
3D0
330
74
100
AcDbEntity
  8
L1
 62
     1
100
AcDbCircle
 10
5.683694
 20
3.479484999999999
 30
0.0
 40
0.018525
  0
CIRCLE
  5
3D1
330
74
100
AcDbEntity
  8
L1
 62
     1
100
AcDbCircle
 10
5.563056999999999
 20
2.875999
 30
0.0
 40
0.018525
  0
CIRCLE
  5
3D2
330
74
100
AcDbEntity
  8
L1
 62
     1
100
AcDbCircle
 10
5.809989999999999
 20
3.127485
 30
0.0
 40
0.018525
  0
LWPOLYLINE
  5
3D3
330
74
100
AcDbEntity
  8
L1
 62
     1
100
AcDbPolyline
 90
        3
 70
     0
 43
0.002594
 10
4.999874
 20
3.261709
 10
4.999874
 20
3.216814999999999
 10
5.809989999999999
 20
3.216814999999999
  0
CIRCLE
  5
3D8
330
74
100
AcDbEntity
  8
L1
 62
     1
100
AcDbCircle
 10
5.809989999999999
 20
3.216814999999999
 30
0.0
 40
0.018525
  0
TEXT
  5
3D9
330
74
100
AcDbEntity
  8
L1
100
AcDbText
 10
1.930503999999999
 20
9.996978
 30
0.0
 40
0.067784
  1
120 VAC - 16 Pt. Discrete Input Module
  7
H
100
AcDbText
  0
TEXT
  5
3DA
330
74
100
AcDbEntity
  8
L1
100
AcDbText
 10
1.924724
 20
1.915591999999999
 30
0.0
 40
0.067784
  1
Wiring for 2-wire field devices
  7
H
100
AcDbText
  0
TEXT
  5
3DB
330
74
100
AcDbEntity
  8
L1
100
AcDbText
 10
1.934501999999999
 20
4.98899
 30
0.0
 40
0.067784
  1
24 VDC - 16 Pt. In / 16 Out Module
  7
H
100
AcDbText
  0
TEXT
  5
3DC
330
74
100
AcDbEntity
  8
L1
 62
     1
100
AcDbText
 10
5.885683
 20
3.935162999999999
 30
0.0
 40
0.058687
  1
fast-blow fuse
  7
H
100
AcDbText
  0
TEXT
  5
3DD
330
74
100
AcDbEntity
  8
L1
 62
     1
100
AcDbText
 10
5.885683
 20
3.482553999999999
 30
0.0
 40
0.058687
  1
fast-blow fuse
  7
H
100
AcDbText
  0
TEXT
  5
3DE
330
74
100
AcDbEntity
  8
L1
 62
     1
100
AcDbText
 10
5.885683
 20
2.864874999999999
 30
0.0
 40
0.058687
  1
fast-blow fuse
  7
H
100
AcDbText
  0
TEXT
  5
3DF
330
74
100
AcDbEntity
  8
L1
 62
     1
100
AcDbText
 10
2.352468
 20
2.377663
 30
0.0
 40
0.064556
  1
Input Device
  7
H
100
AcDbText
  0
TEXT
  5
3E0
330
74
100
AcDbEntity
  8
L1
 62
     1
100
AcDbText
 10
2.429963
 20
2.282020999999999
 30
0.0
 40
0.058687
  1
number 6
  7
H
100
AcDbText
  0
TEXT
  5
3E1
330
74
100
AcDbEntity
  8
L1
 62
     1
100
AcDbText
 10
3.233958
 20
2.282020999999999
 30
0.0
 40
0.058687
  1
number 6
  7
H
100
AcDbText
  0
TEXT
  5
3E2
330
74
100
AcDbEntity
  8
L1
 62
     1
100
AcDbText
 10
3.132702
 20
2.377663
 30
0.0
 40
0.064556
  1
Output Device
  7
H
100
AcDbText
  0
VIEWPORT
  5
3E5
102
{ACAD_XDICTIONARY
360
3E6
102
}
330
70
100
AcDbEntity
 67
     1
  8
0
100
AcDbViewport
 10
5.375152615102884
 20
4.124748250498376
 30
0.0
 40
14.73329692730246
 41
6.67703220327443
 68
     1
 69
     1
 12
5.375152615102884
 22
4.124748250498376
 13
0.0
 23
0.0
 14
0.5
 24
0.5
 15
0.5
 25
0.5
 16
0.0
 26
0.0
 36
1.0
 17
0.0
 27
0.0
 37
0.0
 42
50.0
 43
0.0
 44
0.0
 45
6.67703220327443
 50
0.0
 51
0.0
 72
   100
 90
   819232
  1

281
     0
 71
     1
 74
     0
110
0.0
120
0.0
130
0.0
111
1.0
121
0.0
131
0.0
112
0.0
122
1.0
132
0.0
 79
     0
146
0.0
  0
VIEWPORT
  5
3EA
102
{ACAD_XDICTIONARY
360
3EB
102
}
330
70
100
AcDbEntity
 67
     1
  8
SHADE
100
AcDbViewport
 10
5.375000121086602
 20
4.124999820716737
 30
0.0
 40
8.600000193738562
 41
6.599999713146781
 68
     2
 69
     2
 12
4.25
 22
5.5
 13
0.0
 23
0.0
 14
0.5
 24
0.5
 15
0.5
 25
0.5
 16
0.0
 26
0.0
 36
1.0
 17
0.0
 27
0.0
 37
0.0
 42
50.0
 43
0.0
 44
0.0
 45
11.17414248021108
 50
0.0
 51
0.0
 72
   100
 90
   819232
  1

281
     0
 71
     1
 74
     0
110
0.0
120
0.0
130
0.0
111
1.0
121
0.0
131
0.0
112
0.0
122
1.0
132
0.0
 79
     0
146
0.0
  0
ENDSEC
  0
SECTION
  2
OBJECTS
  0
DICTIONARY
  5
C
330
0
100
AcDbDictionary
281
     1
  3
ACAD_COLOR
350
6A
  3
ACAD_GROUP
350
D
  3
ACAD_LAYOUT
350
69
  3
ACAD_MATERIAL
350
10
  3
ACAD_MLEADERSTYLE
350
6D
  3
ACAD_MLINESTYLE
350
66
  3
ACAD_PLOTSETTINGS
350
68
  3
ACAD_PLOTSTYLENAME
350
E
  3
ACAD_SCALELIST
350
3A
  3
ACAD_TABLESTYLE
350
6B
  3
ACAD_VISUALSTYLE
350
29
  3
ACDB_RECOMPOSE_DATA
350
427
  3
AcDbVariableDictionary
350
41E
  3
DWGPROPS
350
428
  0
DICTIONARY
  5
3ED
330
5C
100
AcDbDictionary
280
     1
281
     1
  3
ADSK_XREC_LAYER_RECONCILED
360
3EE
  0
DICTIONARY
  5
3EF
330
78
100
AcDbDictionary
280
     1
281
     1
  3
ADSK_XREC_LAYER_RECONCILED
360
3F0
  0
DICTIONARY
  5
3F1
330
7B
100
AcDbDictionary
280
     1
281
     1
  3
ADSK_XREC_LAYER_RECONCILED
360
3F2
  0
DICTIONARY
  5
3F3
330
7C
100
AcDbDictionary
280
     1
281
     1
  3
ADSK_XREC_LAYER_RECONCILED
360
3F4
  0
DICTIONARY
  5
3F5
330
7D
100
AcDbDictionary
280
     1
281
     1
  3
ADSK_XREC_LAYER_RECONCILED
360
3F6
  0
DICTIONARY
  5
3E6
330
3E5
100
AcDbDictionary
280
     1
281
     1
  3
ACAD_XREC_ROUNDTRIP
360
431
  3
ASDK_XREC_ANNOTATION_SCALE_INFO
360
3E7
  0
DICTIONARY
  5
3EB
330
3EA
100
AcDbDictionary
280
     1
281
     1
  3
ACAD_XREC_ROUNDTRIP
360
432
  3
ASDK_XREC_ANNOTATION_SCALE_INFO
360
3EC
  0
DICTIONARY
  5
6A
102
{ACAD_REACTORS
330
C
102
}
330
C
100
AcDbDictionary
281
     1
  0
DICTIONARY
  5
D
102
{ACAD_REACTORS
330
C
102
}
330
C
100
AcDbDictionary
281
     1
  0
DICTIONARY
  5
69
102
{ACAD_REACTORS
330
C
102
}
330
C
100
AcDbDictionary
281
     1
  3
Layout1
350
73
  3
Model
350
77
  0
DICTIONARY
  5
10
102
{ACAD_REACTORS
330
C
102
}
330
C
100
AcDbDictionary
281
     1
  3
ByBlock
350
19
  3
ByLayer
350
11
  3
Global
350
21
  0
DICTIONARY
  5
6D
102
{ACAD_REACTORS
330
C
102
}
330
C
100
AcDbDictionary
281
     1
  3
Standard
350
6E
  0
DICTIONARY
  5
66
102
{ACAD_REACTORS
330
C
102
}
330
C
100
AcDbDictionary
281
     1
  3
Standard
350
67
  0
DICTIONARY
  5
68
102
{ACAD_REACTORS
330
C
102
}
330
C
100
AcDbDictionary
281
     1
  0
ACDBDICTIONARYWDFLT
  5
E
102
{ACAD_REACTORS
330
C
102
}
330
C
100
AcDbDictionary
281
     1
  3
Normal
350
F
100
AcDbDictionaryWithDefault
340
F
  0
DICTIONARY
  5
3A
102
{ACAD_REACTORS
330
C
102
}
330
C
100
AcDbDictionary
281
     1
  3
A0
350
3B
  3
A1
350
3C
  3
A2
350
3D
  3
A3
350
3E
  3
A4
350
3F
  3
A5
350
40
  3
A6
350
41
  3
A7
350
42
  3
A8
350
43
  3
A9
350
44
  3
B0
350
45
  3
B1
350
46
  3
B2
350
47
  3
B3
350
48
  3
B4
350
49
  3
B5
350
4A
  3
B6
350
4B
  3
B7
350
4C
  3
B8
350
4D
  3
B9
350
4E
  3
C0
350
4F
  3
C1
350
50
  3
C2
350
51
  3
C3
350
52
  3
C4
350
53
  3
C5
350
54
  3
C6
350
55
  3
C7
350
56
  3
C8
350
57
  3
C9
350
58
  3
D0
350
59
  3
D1
350
5A
  3
D2
350
5B
  0
DICTIONARY
  5
6B
102
{ACAD_REACTORS
330
C
102
}
330
C
100
AcDbDictionary
281
     1
  3
Standard
350
6C
  0
DICTIONARY
  5
29
102
{ACAD_REACTORS
330
C
102
}
330
C
100
AcDbDictionary
281
     1
  3
2dWireframe
350
2F
  3
3D Hidden
350
31
  3
3dWireframe
350
30
  3
Basic
350
2E
  3
Brighten
350
35
  3
ColorChange
350
39
  3
Conceptual
350
32
  3
Dim
350
34
  3
Facepattern
350
38
  3
Flat
350
2A
  3
FlatWithEdges
350
2B
  3
Gouraud
350
2C
  3
GouraudWithEdges
350
2D
  3
Linepattern
350
37
  3
Realistic
350
33
  3
Thicken
350
36
  0
XRECORD
  5
427
102
{ACAD_REACTORS
330
C
102
}
330
C
100
AcDbXrecord
280
     1
 90
        1
330
6C
  0
DICTIONARY
  5
41E
102
{ACAD_REACTORS
330
C
102
}
330
C
100
AcDbDictionary
281
     1
  3
CANNOSCALE
350
421
  3
CMLEADERSTYLE
350
420
  3
CTABLESTYLE
350
41F
  3
DIMASSOC
350
424
  3
INDEXCTL
350
423
  3
SORTENTS
350
422
  0
XRECORD
  5
428
102
{ACAD_REACTORS
330
C
102
}
330
C
100
AcDbXrecord
280
     1
  1
DWGPROPS COOKIE
  2

  3

  4

  6

  7

  8
MGP539
  9

300
=
301
=
302
=
303
=
304
=
305
=
306
=
307
=
308
=
309
=
 40
1.063819513888888
 41
2451218.549012037
 42
2455751.660341991
  1

 90
        0
  0
XRECORD
  5
3EE
102
{ACAD_REACTORS
330
3ED
102
}
330
3ED
100
AcDbXrecord
280
     1
290
     1
  0
XRECORD
  5
3F0
102
{ACAD_REACTORS
330
3EF
102
}
330
3EF
100
AcDbXrecord
280
     1
290
     1
  0
XRECORD
  5
3F2
102
{ACAD_REACTORS
330
3F1
102
}
330
3F1
100
AcDbXrecord
280
     1
290
     1
  0
XRECORD
  5
3F4
102
{ACAD_REACTORS
330
3F3
102
}
330
3F3
100
AcDbXrecord
280
     1
290
     1
  0
XRECORD
  5
3F6
102
{ACAD_REACTORS
330
3F5
102
}
330
3F5
100
AcDbXrecord
280
     1
290
     1
  0
XRECORD
  5
431
102
{ACAD_REACTORS
330
3E6
102
}
330
3E6
100
AcDbXrecord
280
     1
102
SHADEPLOT
 70
     0
  0
XRECORD
  5
3E7
102
{ACAD_REACTORS
330
3E6
102
}
330
3E6
100
AcDbXrecord
280
     1
 90
        1
340
3B
  0
XRECORD
  5
432
102
{ACAD_REACTORS
330
3EB
102
}
330
3EB
100
AcDbXrecord
280
     1
102
SHADEPLOT
 70
     0
  0
XRECORD
  5
3EC
102
{ACAD_REACTORS
330
3EB
102
}
330
3EB
100
AcDbXrecord
280
     1
 90
        1
340
3B
  0
LAYOUT
  5
73
102
{ACAD_XDICTIONARY
360
42D
102
}
102
{ACAD_REACTORS
330
69
102
}
330
69
100
AcDbPlotSettings
  1

  2
RightFax Fax Printer
  4
Letter
  6

 40
3.174999952316284
 41
3.174999952316284
 42
3.175003051757812
 43
3.17498779296875
 44
215.8999938964844
 45
279.3999938964844
 46
0.0
 47
0.0
 48
0.0
 49
0.0
140
0.0
141
0.0
142
1.0
143
1.0
 70
   688
 72
     0
 73
     1
 74
     5
  7
monochrome.ctb
 75
    16
147
1.0
148
0.0
149
0.0
100
AcDbLayout
  1
Layout1
 70
     1
 71
     1
 10
-0.1249995194082185
 20
-0.1249999981226884
 11
10.87500024029589
 21
8.37499976158142
 12
0.0
 22
0.0
 32
0.0
 14
1.074462919815516
 24
0.8243866185941577
 34
-0.0015258207003583
 15
9.675842310390251
 25
7.425109882402594
 35
0.0000000349246037
146
0.0
 13
0.0
 23
0.0
 33
0.0
 16
1.0
 26
0.0
 36
0.0
 17
0.0
 27
1.0
 37
0.0
 76
     0
330
70
331
3E5
1001
ACAD_PSEXT
1000
RightFax Fax Printer
1000
PDFCreator
1000
PostScript Fax Printer
1000
PostScript Fax Printer
1070
     0
  0
LAYOUT
  5
77
102
{ACAD_XDICTIONARY
360
42F
102
}
102
{ACAD_REACTORS
330
69
102
}
330
69
100
AcDbPlotSettings
  1

  2
RightFax Fax Printer
  4

  6

 40
0.0
 41
0.0
 42
0.0
 43
0.0
 44
0.0
 45
0.0
 46
0.0
 47
0.0
 48
0.0
 49
0.0
140
0.0
141
0.0
142
1.0
143
1.0
 70
  1712
 72
     0
 73
     0
 74
     0
  7
monochrome.ctb
 75
     0
147
1.0
148
0.0
149
0.0
100
AcDbLayout
  1
Model
 70
     1
 71
     0
 10
0.0
 20
0.0
 11
12.0
 21
9.0
 12
0.0
 22
0.0
 32
0.0
 14
0.0
 24
0.0
 34
0.0
 15
0.0
 25
0.0
 35
0.0
146
0.0
 13
0.0
 23
0.0
 33
0.0
 16
1.0
 26
0.0
 36
0.0
 17
0.0
 27
1.0
 37
0.0
 76
     0
330
74
  0
MATERIAL
  5
19
102
{ACAD_XDICTIONARY
360
1A
102
}
102
{ACAD_REACTORS
330
10
102
}
330
10
100
AcDbMaterial
  1
ByBlock
 72
     0
 43
0.0208333333333333
 43
0.0
 43
0.0
 43
0.0
 43
0.0
 43
0.0208333333333333
 43
0.0
 43
0.0
 43
0.0
 43
0.0
 43
1.0
 43
0.0
 43
0.0
 43
0.0
 43
0.0
 43
1.0
 77
     0
 47
0.0208333333333333
 47
0.0
 47
0.0
 47
0.0
 47
0.0
 47
0.0208333333333333
 47
0.0
 47
0.0
 47
0.0
 47
0.0
 47
1.0
 47
0.0
 47
0.0
 47
0.0
 47
0.0
 47
1.0
171
     0
 49
0.0208333333333333
 49
0.0
 49
0.0
 49
0.0
 49
0.0
 49
0.0208333333333333
 49
0.0
 49
0.0
 49
0.0
 49
0.0
 49
1.0
 49
0.0
 49
0.0
 49
0.0
 49
0.0
 49
1.0
175
     0
142
0.0208333333333333
142
0.0
142
0.0
142
0.0
142
0.0
142
0.0208333333333333
142
0.0
142
0.0
142
0.0
142
0.0
142
1.0
142
0.0
142
0.0
142
0.0
142
0.0
142
1.0
179
     0
144
0.0208333333333333
144
0.0
144
0.0
144
0.0
144
0.0
144
0.0208333333333333
144
0.0
144
0.0
144
0.0
144
0.0
144
1.0
144
0.0
144
0.0
144
0.0
144
0.0
144
1.0
147
0.0208333333333333
147
0.0
147
0.0
147
0.0
147
0.0
147
0.0208333333333333
147
0.0
147
0.0
147
0.0
147
0.0
147
1.0
147
0.0
147
0.0
147
0.0
147
0.0
147
1.0
  0
MATERIAL
  5
11
102
{ACAD_XDICTIONARY
360
12
102
}
102
{ACAD_REACTORS
330
10
102
}
330
10
100
AcDbMaterial
  1
ByLayer
 72
     0
 43
0.0208333333333333
 43
0.0
 43
0.0
 43
0.0
 43
0.0
 43
0.0208333333333333
 43
0.0
 43
0.0
 43
0.0
 43
0.0
 43
1.0
 43
0.0
 43
0.0
 43
0.0
 43
0.0
 43
1.0
 77
     0
 47
0.0208333333333333
 47
0.0
 47
0.0
 47
0.0
 47
0.0
 47
0.0208333333333333
 47
0.0
 47
0.0
 47
0.0
 47
0.0
 47
1.0
 47
0.0
 47
0.0
 47
0.0
 47
0.0
 47
1.0
171
     0
 49
0.0208333333333333
 49
0.0
 49
0.0
 49
0.0
 49
0.0
 49
0.0208333333333333
 49
0.0
 49
0.0
 49
0.0
 49
0.0
 49
1.0
 49
0.0
 49
0.0
 49
0.0
 49
0.0
 49
1.0
175
     0
142
0.0208333333333333
142
0.0
142
0.0
142
0.0
142
0.0
142
0.0208333333333333
142
0.0
142
0.0
142
0.0
142
0.0
142
1.0
142
0.0
142
0.0
142
0.0
142
0.0
142
1.0
179
     0
144
0.0208333333333333
144
0.0
144
0.0
144
0.0
144
0.0
144
0.0208333333333333
144
0.0
144
0.0
144
0.0
144
0.0
144
1.0
144
0.0
144
0.0
144
0.0
144
0.0
144
1.0
147
0.0208333333333333
147
0.0
147
0.0
147
0.0
147
0.0
147
0.0208333333333333
147
0.0
147
0.0
147
0.0
147
0.0
147
1.0
147
0.0
147
0.0
147
0.0
147
0.0
147
1.0
  0
MATERIAL
  5
21
102
{ACAD_XDICTIONARY
360
22
102
}
102
{ACAD_REACTORS
330
10
102
}
330
10
100
AcDbMaterial
  1
Global
 72
     0
 43
0.0208333333333333
 43
0.0
 43
0.0
 43
0.0
 43
0.0
 43
0.0208333333333333
 43
0.0
 43
0.0
 43
0.0
 43
0.0
 43
1.0
 43
0.0
 43
0.0
 43
0.0
 43
0.0
 43
1.0
 77
     0
 47
0.0208333333333333
 47
0.0
 47
0.0
 47
0.0
 47
0.0
 47
0.0208333333333333
 47
0.0
 47
0.0
 47
0.0
 47
0.0
 47
1.0
 47
0.0
 47
0.0
 47
0.0
 47
0.0
 47
1.0
171
     0
 49
0.0208333333333333
 49
0.0
 49
0.0
 49
0.0
 49
0.0
 49
0.0208333333333333
 49
0.0
 49
0.0
 49
0.0
 49
0.0
 49
1.0
 49
0.0
 49
0.0
 49
0.0
 49
0.0
 49
1.0
175
     0
142
0.0208333333333333
142
0.0
142
0.0
142
0.0
142
0.0
142
0.0208333333333333
142
0.0
142
0.0
142
0.0
142
0.0
142
1.0
142
0.0
142
0.0
142
0.0
142
0.0
142
1.0
179
     0
144
0.0208333333333333
144
0.0
144
0.0
144
0.0
144
0.0
144
0.0208333333333333
144
0.0
144
0.0
144
0.0
144
0.0
144
1.0
144
0.0
144
0.0
144
0.0
144
0.0
144
1.0
147
0.0208333333333333
147
0.0
147
0.0
147
0.0
147
0.0
147
0.0208333333333333
147
0.0
147
0.0
147
0.0
147
0.0
147
1.0
147
0.0
147
0.0
147
0.0
147
0.0
147
1.0
  0
MLEADERSTYLE
  5
6E
102
{ACAD_REACTORS
330
6D
102
}
330
6D
100
AcDbMLeaderStyle
170
     2
171
     1
172
     0
 90
        2
 40
0.0
 41
0.0
173
     1
 91
-1056964608
340
62
 92
       -2
290
     1
 42
0.09
291
     1
 43
0.36
  3
Standard
 44
0.18
300

342
5D
174
     1
178
     6
175
     1
176
     0
 93
-1056964608
 45
0.18
292
     0
297
     0
 46
0.18
 94
-1056964608
 47
1.0
 49
1.0
140
1.0
293
     1
141
0.0
294
     1
177
     0
142
1.0
295
     0
296
     0
143
0.125
1001
ACAD_MLEADERVER
1070
     2
  0
MLINESTYLE
  5
67
102
{ACAD_REACTORS
330
66
102
}
330
66
100
AcDbMlineStyle
  2
STANDARD
 70
     0
  3

 62
   256
 51
90.0
 52
90.0
 71
     2
 49
0.5
 62
   256
  6
BYLAYER
 49
-0.5
 62
   256
  6
BYLAYER
  0
ACDBPLACEHOLDER
  5
F
102
{ACAD_REACTORS
330
E
102
}
330
E
  0
SCALE
  5
3B
102
{ACAD_REACTORS
330
3A
102
}
330
3A
100
AcDbScale
 70
     0
300
1:1
140
1.0
141
1.0
290
     1
  0
SCALE
  5
3C
102
{ACAD_REACTORS
330
3A
102
}
330
3A
100
AcDbScale
 70
     0
300
1:2
140
1.0
141
2.0
290
     0
  0
SCALE
  5
3D
102
{ACAD_REACTORS
330
3A
102
}
330
3A
100
AcDbScale
 70
     0
300
1:4
140
1.0
141
4.0
290
     0
  0
SCALE
  5
3E
102
{ACAD_REACTORS
330
3A
102
}
330
3A
100
AcDbScale
 70
     0
300
1:5
140
1.0
141
5.0
290
     0
  0
SCALE
  5
3F
102
{ACAD_REACTORS
330
3A
102
}
330
3A
100
AcDbScale
 70
     0
300
1:8
140
1.0
141
8.0
290
     0
  0
SCALE
  5
40
102
{ACAD_REACTORS
330
3A
102
}
330
3A
100
AcDbScale
 70
     0
300
1:10
140
1.0
141
10.0
290
     0
  0
SCALE
  5
41
102
{ACAD_REACTORS
330
3A
102
}
330
3A
100
AcDbScale
 70
     0
300
1:16
140
1.0
141
16.0
290
     0
  0
SCALE
  5
42
102
{ACAD_REACTORS
330
3A
102
}
330
3A
100
AcDbScale
 70
     0
300
1:20
140
1.0
141
20.0
290
     0
  0
SCALE
  5
43
102
{ACAD_REACTORS
330
3A
102
}
330
3A
100
AcDbScale
 70
     0
300
1:30
140
1.0
141
30.0
290
     0
  0
SCALE
  5
44
102
{ACAD_REACTORS
330
3A
102
}
330
3A
100
AcDbScale
 70
     0
300
1:40
140
1.0
141
40.0
290
     0
  0
SCALE
  5
45
102
{ACAD_REACTORS
330
3A
102
}
330
3A
100
AcDbScale
 70
     0
300
1:50
140
1.0
141
50.0
290
     0
  0
SCALE
  5
46
102
{ACAD_REACTORS
330
3A
102
}
330
3A
100
AcDbScale
 70
     0
300
1:100
140
1.0
141
100.0
290
     0
  0
SCALE
  5
47
102
{ACAD_REACTORS
330
3A
102
}
330
3A
100
AcDbScale
 70
     0
300
2:1
140
2.0
141
1.0
290
     0
  0
SCALE
  5
48
102
{ACAD_REACTORS
330
3A
102
}
330
3A
100
AcDbScale
 70
     0
300
4:1
140
4.0
141
1.0
290
     0
  0
SCALE
  5
49
102
{ACAD_REACTORS
330
3A
102
}
330
3A
100
AcDbScale
 70
     0
300
8:1
140
8.0
141
1.0
290
     0
  0
SCALE
  5
4A
102
{ACAD_REACTORS
330
3A
102
}
330
3A
100
AcDbScale
 70
     0
300
10:1
140
10.0
141
1.0
290
     0
  0
SCALE
  5
4B
102
{ACAD_REACTORS
330
3A
102
}
330
3A
100
AcDbScale
 70
     0
300
100:1
140
100.0
141
1.0
290
     0
  0
SCALE
  5
4C
102
{ACAD_REACTORS
330
3A
102
}
330
3A
100
AcDbScale
 70
     0
300
1/128" = 1'-0"
140
0.0078125
141
12.0
290
     0
  0
SCALE
  5
4D
102
{ACAD_REACTORS
330
3A
102
}
330
3A
100
AcDbScale
 70
     0
300
1/64" = 1'-0"
140
0.015625
141
12.0
290
     0
  0
SCALE
  5
4E
102
{ACAD_REACTORS
330
3A
102
}
330
3A
100
AcDbScale
 70
     0
300
1/32" = 1'-0"
140
0.03125
141
12.0
290
     0
  0
SCALE
  5
4F
102
{ACAD_REACTORS
330
3A
102
}
330
3A
100
AcDbScale
 70
     0
300
1/16" = 1'-0"
140
0.0625
141
12.0
290
     0
  0
SCALE
  5
50
102
{ACAD_REACTORS
330
3A
102
}
330
3A
100
AcDbScale
 70
     0
300
3/32" = 1'-0"
140
0.09375
141
12.0
290
     0
  0
SCALE
  5
51
102
{ACAD_REACTORS
330
3A
102
}
330
3A
100
AcDbScale
 70
     0
300
1/8" = 1'-0"
140
0.125
141
12.0
290
     0
  0
SCALE
  5
52
102
{ACAD_REACTORS
330
3A
102
}
330
3A
100
AcDbScale
 70
     0
300
3/16" = 1'-0"
140
0.1875
141
12.0
290
     0
  0
SCALE
  5
53
102
{ACAD_REACTORS
330
3A
102
}
330
3A
100
AcDbScale
 70
     0
300
1/4" = 1'-0"
140
0.25
141
12.0
290
     0
  0
SCALE
  5
54
102
{ACAD_REACTORS
330
3A
102
}
330
3A
100
AcDbScale
 70
     0
300
3/8" = 1'-0"
140
0.375
141
12.0
290
     0
  0
SCALE
  5
55
102
{ACAD_REACTORS
330
3A
102
}
330
3A
100
AcDbScale
 70
     0
300
1/2" = 1'-0"
140
0.5
141
12.0
290
     0
  0
SCALE
  5
56
102
{ACAD_REACTORS
330
3A
102
}
330
3A
100
AcDbScale
 70
     0
300
3/4" = 1'-0"
140
0.75
141
12.0
290
     0
  0
SCALE
  5
57
102
{ACAD_REACTORS
330
3A
102
}
330
3A
100
AcDbScale
 70
     0
300
1" = 1'-0"
140
1.0
141
12.0
290
     0
  0
SCALE
  5
58
102
{ACAD_REACTORS
330
3A
102
}
330
3A
100
AcDbScale
 70
     0
300
1-1/2" = 1'-0"
140
1.5
141
12.0
290
     0
  0
SCALE
  5
59
102
{ACAD_REACTORS
330
3A
102
}
330
3A
100
AcDbScale
 70
     0
300
3" = 1'-0"
140
3.0
141
12.0
290
     0
  0
SCALE
  5
5A
102
{ACAD_REACTORS
330
3A
102
}
330
3A
100
AcDbScale
 70
     0
300
6" = 1'-0"
140
6.0
141
12.0
290
     0
  0
SCALE
  5
5B
102
{ACAD_REACTORS
330
3A
102
}
330
3A
100
AcDbScale
 70
     0
300
1'-0" = 1'-0"
140
12.0
141
12.0
290
     0
  0
TABLESTYLE
  5
6C
102
{ACAD_XDICTIONARY
360
425
102
}
102
{ACAD_REACTORS
330
6B
102
}
330
6B
100
AcDbTableStyle
  3
Standard
 70
     0
 71
     0
 40
0.06
 41
0.06
280
     0
281
     0
  7
STANDARD
140
0.18
170
     2
 62
     0
 63
     7
283
     0
274
    -2
284
     1
 64
     0
275
    -2
285
     1
 65
     0
276
    -2
286
     1
 66
     0
277
    -2
287
     1
 67
     0
278
    -2
288
     1
 68
     0
279
    -2
289
     1
 69
     0
  7
STANDARD
140
0.25
170
     5
 62
     0
 63
     7
283
     0
274
    -2
284
     1
 64
     0
275
    -2
285
     1
 65
     0
276
    -2
286
     1
 66
     0
277
    -2
287
     1
 67
     0
278
    -2
288
     1
 68
     0
279
    -2
289
     1
 69
     0
  7
STANDARD
140
0.18
170
     5
 62
     0
 63
     7
283
     0
274
    -2
284
     1
 64
     0
275
    -2
285
     1
 65
     0
276
    -2
286
     1
 66
     0
277
    -2
287
     1
 67
     0
278
    -2
288
     1
 68
     0
279
    -2
289
     1
 69
     0
  0
VISUALSTYLE
  5
2F
102
{ACAD_REACTORS
330
29
102
}
330
29
100
AcDbVisualStyle
  2
2dWireframe
 70
     4
 71
     0
 72
     2
 73
     0
 90
        0
 40
-0.6
 41
-30.0
 62
     5
 63
     7
 74
     1
 91
        4
 64
     7
 65
   257
 75
     1
175
     1
 42
1.0
 92
        0
 66
   257
 43
1.0
 76
     1
 77
     6
 78
     2
 67
     7
 79
     5
170
     0
171
     0
290
     0
174
     0
 93
        1
 44
0.0
173
     0
291
     0
 45
0.0
1001
ACAD
1000
AcDbSavedByObjectVersion
1070
     0
  0
VISUALSTYLE
  5
31
102
{ACAD_REACTORS
330
29
102
}
330
29
100
AcDbVisualStyle
  2
3D Hidden
 70
     6
 71
     1
 72
     2
 73
     2
 90
        0
 40
-0.6
 41
-30.0
 62
     5
 63
     7
 74
     2
 91
        2
 64
     7
 65
   257
 75
     2
175
     1
 42
40.0
 92
        0
 66
   257
 43
1.0
 76
     1
 77
     6
 78
     2
 67
     7
 79
     3
170
     0
171
     0
290
     0
174
     0
 93
        1
 44
0.0
173
     0
291
     0
 45
0.0
1001
ACAD
1000
AcDbSavedByObjectVersion
1070
     0
  0
VISUALSTYLE
  5
30
102
{ACAD_REACTORS
330
29
102
}
330
29
100
AcDbVisualStyle
  2
3dWireframe
 70
     5
 71
     0
 72
     2
 73
     0
 90
        0
 40
-0.6
 41
-30.0
 62
     5
 63
     7
 74
     1
 91
        4
 64
     7
 65
   257
 75
     1
175
     1
 42
1.0
 92
        0
 66
   257
 43
1.0
 76
     1
 77
     6
 78
     2
 67
     7
 79
     5
170
     0
171
     0
290
     0
174
     0
 93
        1
 44
0.0
173
     0
291
     0
 45
0.0
1001
ACAD
1000
AcDbSavedByObjectVersion
1070
     0
  0
VISUALSTYLE
  5
2E
102
{ACAD_REACTORS
330
29
102
}
330
29
100
AcDbVisualStyle
  2
Basic
 70
     7
 71
     1
 72
     0
 73
     1
 90
        0
 40
-0.6
 41
-30.0
 62
     5
 63
     7
 74
     0
 91
        4
 64
     7
 65
   257
 75
     1
175
     1
 42
1.0
 92
        8
 66
     7
 43
1.0
 76
     1
 77
     6
 78
     2
 67
     7
 79
     5
170
     0
171
     0
290
     0
174
     0
 93
        1
 44
0.0
173
     0
291
     1
 45
0.0
1001
ACAD
1000
AcDbSavedByObjectVersion
1070
     0
  0
VISUALSTYLE
  5
35
102
{ACAD_REACTORS
330
29
102
}
330
29
100
AcDbVisualStyle
  2
Brighten
 70
    12
 71
     2
 72
     2
 73
     0
 90
        0
 40
-0.6
 41
-30.0
 62
     5
 63
     7
 74
     1
 91
        4
 64
     7
 65
   257
 75
     1
175
     1
 42
1.0
 92
        8
 66
     7
 43
1.0
 76
     1
 77
     6
 78
     2
 67
     7
 79
     5
170
     0
171
     0
290
     0
174
     0
 93
        1
 44
50.0
173
     0
291
     1
 45
0.0
1001
ACAD
1000
AcDbSavedByObjectVersion
1070
     0
  0
VISUALSTYLE
  5
39
102
{ACAD_REACTORS
330
29
102
}
330
29
100
AcDbVisualStyle
  2
ColorChange
 70
    16
 71
     2
 72
     2
 73
     3
 90
        0
 40
-0.6
 41
-30.0
 62
     5
 63
     8
 74
     1
 91
        4
 64
     7
 65
   257
 75
     1
175
     1
 42
1.0
 92
        8
 66
     8
 43
1.0
 76
     1
 77
     6
 78
     2
 67
     7
 79
     5
170
     0
171
     0
290
     0
174
     0
 93
        1
 44
0.0
173
     0
291
     1
 45
0.0
1001
ACAD
1000
AcDbSavedByObjectVersion
1070
     0
  0
VISUALSTYLE
  5
32
102
{ACAD_REACTORS
330
29
102
}
330
29
100
AcDbVisualStyle
  2
Conceptual
 70
     9
 71
     3
 72
     2
 73
     0
 90
        0
 40
-0.6
 41
-30.0
 62
     5
 63
     7
 74
     2
 91
        2
 64
     7
 65
   257
 75
     1
175
     1
 42
40.0
 92
        8
 66
     7
 43
1.0
 76
     1
 77
     6
 78
     2
 67
     7
 79
     3
170
     0
171
     0
290
     0
174
     0
 93
        1
 44
0.0
173
     0
291
     0
 45
0.0
1001
ACAD
1000
AcDbSavedByObjectVersion
1070
     0
  0
VISUALSTYLE
  5
34
102
{ACAD_REACTORS
330
29
102
}
330
29
100
AcDbVisualStyle
  2
Dim
 70
    11
 71
     2
 72
     2
 73
     0
 90
        0
 40
-0.6
 41
-30.0
 62
     5
 63
     7
 74
     1
 91
        4
 64
     7
 65
   257
 75
     1
175
     1
 42
1.0
 92
        8
 66
     7
 43
1.0
 76
     1
 77
     6
 78
     2
 67
     7
 79
     5
170
     0
171
     0
290
     0
174
     0
 93
        1
 44
-50.0
173
     0
291
     1
 45
0.0
1001
ACAD
1000
AcDbSavedByObjectVersion
1070
     0
  0
VISUALSTYLE
  5
38
102
{ACAD_REACTORS
330
29
102
}
330
29
100
AcDbVisualStyle
  2
Facepattern
 70
    15
 71
     2
 72
     2
 73
     0
 90
        0
 40
-0.6
 41
-30.0
 62
     5
 63
     7
 74
     1
 91
        4
 64
     7
 65
   257
 75
     1
175
     1
 42
1.0
 92
        8
 66
     7
 43
1.0
 76
     1
 77
     6
 78
     2
 67
     7
 79
     5
170
     0
171
     0
290
     0
174
     0
 93
        1
 44
0.0
173
     0
291
     1
 45
0.0
1001
ACAD
1000
AcDbSavedByObjectVersion
1070
     0
  0
VISUALSTYLE
  5
2A
102
{ACAD_REACTORS
330
29
102
}
330
29
100
AcDbVisualStyle
  2
Flat
 70
     0
 71
     2
 72
     1
 73
     1
 90
        2
 40
-0.6
 41
30.0
 62
     5
 63
     7
 74
     0
 91
        4
 64
     7
 65
   257
 75
     1
175
     1
 42
1.0
 92
        8
 66
     7
 43
1.0
 76
     1
 77
     6
 78
     2
 67
     7
 79
     5
170
     0
171
     0
290
     0
174
     0
 93
       13
 44
0.0
173
     0
291
     1
 45
0.0
1001
ACAD
1000
AcDbSavedByObjectVersion
1070
     0
  0
VISUALSTYLE
  5
2B
102
{ACAD_REACTORS
330
29
102
}
330
29
100
AcDbVisualStyle
  2
FlatWithEdges
 70
     1
 71
     2
 72
     1
 73
     1
 90
        2
 40
-0.6
 41
30.0
 62
     5
 63
     7
 74
     1
 91
        4
 64
     7
 65
   257
 75
     1
175
     1
 42
1.0
 92
        0
 66
   257
 43
1.0
 76
     1
 77
     6
 78
     2
 67
     7
 79
     5
170
     0
171
     0
290
     0
174
     0
 93
       13
 44
0.0
173
     0
291
     1
 45
0.0
1001
ACAD
1000
AcDbSavedByObjectVersion
1070
     0
  0
VISUALSTYLE
  5
2C
102
{ACAD_REACTORS
330
29
102
}
330
29
100
AcDbVisualStyle
  2
Gouraud
 70
     2
 71
     2
 72
     2
 73
     1
 90
        2
 40
-0.6
 41
30.0
 62
     5
 63
     7
 74
     0
 91
        4
 64
     7
 65
   257
 75
     1
175
     1
 42
1.0
 92
        0
 66
     7
 43
1.0
 76
     1
 77
     6
 78
     2
 67
     7
 79
     5
170
     0
171
     0
290
     0
174
     0
 93
       13
 44
0.0
173
     0
291
     1
 45
0.0
1001
ACAD
1000
AcDbSavedByObjectVersion
1070
     0
  0
VISUALSTYLE
  5
2D
102
{ACAD_REACTORS
330
29
102
}
330
29
100
AcDbVisualStyle
  2
GouraudWithEdges
 70
     3
 71
     2
 72
     2
 73
     1
 90
        2
 40
-0.6
 41
30.0
 62
     5
 63
     7
 74
     1
 91
        4
 64
     7
 65
   257
 75
     1
175
     1
 42
1.0
 92
        0
 66
   257
 43
1.0
 76
     1
 77
     6
 78
     2
 67
     7
 79
     5
170
     0
171
     0
290
     0
174
     0
 93
       13
 44
0.0
173
     0
291
     1
 45
0.0
1001
ACAD
1000
AcDbSavedByObjectVersion
1070
     0
  0
VISUALSTYLE
  5
37
102
{ACAD_REACTORS
330
29
102
}
330
29
100
AcDbVisualStyle
  2
Linepattern
 70
    14
 71
     2
 72
     2
 73
     0
 90
        0
 40
-0.6
 41
-30.0
 62
     5
 63
     7
 74
     1
 91
        4
 64
     7
 65
   257
 75
     7
175
     7
 42
1.0
 92
        8
 66
     7
 43
1.0
 76
     1
 77
     6
 78
     2
 67
     7
 79
     5
170
     0
171
     0
290
     0
174
     0
 93
        1
 44
0.0
173
     0
291
     1
 45
0.0
1001
ACAD
1000
AcDbSavedByObjectVersion
1070
     0
  0
VISUALSTYLE
  5
33
102
{ACAD_REACTORS
330
29
102
}
330
29
100
AcDbVisualStyle
  2
Realistic
 70
     8
 71
     2
 72
     2
 73
     0
 90
        0
 40
-0.6
 41
-30.0
 62
     5
 63
     7
 74
     1
 91
        0
 64
     7
 65
   257
 75
     1
175
     1
 42
1.0
 92
        8
 66
     8
 43
1.0
 76
     1
 77
     6
 78
     2
 67
     7
 79
     5
170
     0
171
     0
290
     0
174
     0
 93
       13
 44
0.0
173
     0
291
     0
 45
0.0
1001
ACAD
1000
AcDbSavedByObjectVersion
1070
     0
  0
VISUALSTYLE
  5
36
102
{ACAD_REACTORS
330
29
102
}
330
29
100
AcDbVisualStyle
  2
Thicken
 70
    13
 71
     2
 72
     2
 73
     0
 90
        0
 40
-0.6
 41
-30.0
 62
     5
 63
     7
 74
     1
 91
        4
 64
     7
 65
   257
 75
     1
175
     1
 42
1.0
 92
       12
 66
     7
 43
1.0
 76
     1
 77
     6
 78
     2
 67
     7
 79
     5
170
     0
171
     0
290
     0
174
     0
 93
        1
 44
0.0
173
     0
291
     1
 45
0.0
1001
ACAD
1000
AcDbSavedByObjectVersion
1070
     0
  0
DICTIONARYVAR
  5
421
102
{ACAD_REACTORS
330
41E
102
}
330
41E
100
DictionaryVariables
280
     0
  1
1:1
  0
DICTIONARYVAR
  5
420
102
{ACAD_REACTORS
330
41E
102
}
330
41E
100
DictionaryVariables
280
     0
  1
STANDARD
  0
DICTIONARYVAR
  5
41F
102
{ACAD_REACTORS
330
41E
102
}
330
41E
100
DictionaryVariables
280
     0
  1
STANDARD
  0
DICTIONARYVAR
  5
424
102
{ACAD_REACTORS
330
41E
102
}
330
41E
100
DictionaryVariables
280
     0
  1
1
  0
DICTIONARYVAR
  5
423
102
{ACAD_REACTORS
330
41E
102
}
330
41E
100
DictionaryVariables
280
     0
  1
0
  0
DICTIONARYVAR
  5
422
102
{ACAD_REACTORS
330
41E
102
}
330
41E
100
DictionaryVariables
280
     0
  1
127
  0
DICTIONARY
  5
42D
330
73
100
AcDbDictionary
280
     1
281
     1
  3
ACAD_XREC_ROUNDTRIP
360
42E
  0
DICTIONARY
  5
42F
330
77
100
AcDbDictionary
280
     1
281
     1
  3
ACAD_XREC_ROUNDTRIP
360
430
  0
DICTIONARY
  5
1A
330
19
100
AcDbDictionary
280
     1
281
     1
  3
ACAD_XREC_ROUNDTRIP
360
42A
  3
BUMPTILE
360
1C
  3
DIFFUSETILE
360
1B
  3
OPACITYTILE
360
1F
  3
REFLECTIONTILE
360
1E
  3
REFRACTIONTILE
360
20
  3
SPECULARTILE
360
1D
  0
DICTIONARY
  5
12
330
11
100
AcDbDictionary
280
     1
281
     1
  3
ACAD_XREC_ROUNDTRIP
360
429
  3
BUMPTILE
360
14
  3
DIFFUSETILE
360
13
  3
OPACITYTILE
360
17
  3
REFLECTIONTILE
360
16
  3
REFRACTIONTILE
360
18
  3
SPECULARTILE
360
15
  0
DICTIONARY
  5
22
330
21
100
AcDbDictionary
280
     1
281
     1
  3
ACAD_XREC_ROUNDTRIP
360
42B
  3
BUMPTILE
360
24
  3
DIFFUSETILE
360
23
  3
OPACITYTILE
360
27
  3
REFLECTIONTILE
360
26
  3
REFRACTIONTILE
360
28
  3
SPECULARTILE
360
25
  0
DICTIONARY
  5
425
330
6C
100
AcDbDictionary
280
     1
281
     1
  3
ACAD_ROUNDTRIP_2008_TABLESTYLE_CELLSTYLEMAP
360
426
  3
ACAD_XREC_ROUNDTRIP
360
42C
  0
XRECORD
  5
42E
102
{ACAD_REACTORS
330
42D
102
}
330
42D
100
AcDbXrecord
280
     1
102
SHADEPLOT
 70
     0
102
SHADEPLOTRESLEVEL
 70
     2
102
SHADEPLOTCUSTOMDPI
 70
   300
  0
XRECORD
  5
430
102
{ACAD_REACTORS
330
42F
102
}
330
42F
100
AcDbXrecord
280
     1
102
SHADEPLOT
 70
     0
102
SHADEPLOTRESLEVEL
 70
     2
102
SHADEPLOTCUSTOMDPI
 70
   300
  0
XRECORD
  5
42A
102
{ACAD_REACTORS
330
1A
102
}
330
1A
100
AcDbXrecord
280
     1
102
MATERIAL
148
0.0
149
0.0
149
0.0
 93
        0
 94
      127
282
     0
 72
     0
 77
     0
171
     0
175
     0
179
     0
273
     0
  0
XRECORD
  5
1C
102
{ACAD_REACTORS
330
1A
102
}
330
1A
100
AcDbXrecord
280
     1
270
     1
271
     1
  0
XRECORD
  5
1B
102
{ACAD_REACTORS
330
1A
102
}
330
1A
100
AcDbXrecord
280
     1
270
     1
271
     1
  0
XRECORD
  5
1F
102
{ACAD_REACTORS
330
1A
102
}
330
1A
100
AcDbXrecord
280
     1
270
     1
271
     1
  0
XRECORD
  5
1E
102
{ACAD_REACTORS
330
1A
102
}
330
1A
100
AcDbXrecord
280
     1
270
     1
271
     1
  0
XRECORD
  5
20
102
{ACAD_REACTORS
330
1A
102
}
330
1A
100
AcDbXrecord
280
     1
270
     1
271
     1
  0
XRECORD
  5
1D
102
{ACAD_REACTORS
330
1A
102
}
330
1A
100
AcDbXrecord
280
     1
270
     1
271
     1
  0
XRECORD
  5
429
102
{ACAD_REACTORS
330
12
102
}
330
12
100
AcDbXrecord
280
     1
102
MATERIAL
148
0.0
149
0.0
149
0.0
 93
        0
 94
      127
282
     0
 72
     0
 77
     0
171
     0
175
     0
179
     0
273
     0
  0
XRECORD
  5
14
102
{ACAD_REACTORS
330
12
102
}
330
12
100
AcDbXrecord
280
     1
270
     1
271
     1
  0
XRECORD
  5
13
102
{ACAD_REACTORS
330
12
102
}
330
12
100
AcDbXrecord
280
     1
270
     1
271
     1
  0
XRECORD
  5
17
102
{ACAD_REACTORS
330
12
102
}
330
12
100
AcDbXrecord
280
     1
270
     1
271
     1
  0
XRECORD
  5
16
102
{ACAD_REACTORS
330
12
102
}
330
12
100
AcDbXrecord
280
     1
270
     1
271
     1
  0
XRECORD
  5
18
102
{ACAD_REACTORS
330
12
102
}
330
12
100
AcDbXrecord
280
     1
270
     1
271
     1
  0
XRECORD
  5
15
102
{ACAD_REACTORS
330
12
102
}
330
12
100
AcDbXrecord
280
     1
270
     1
271
     1
  0
XRECORD
  5
42B
102
{ACAD_REACTORS
330
22
102
}
330
22
100
AcDbXrecord
280
     1
102
MATERIAL
148
0.0
149
0.0
149
0.0
 93
        0
 94
      127
282
     0
 72
     0
 77
     0
171
     0
175
     0
179
     0
273
     0
  0
XRECORD
  5
24
102
{ACAD_REACTORS
330
22
102
}
330
22
100
AcDbXrecord
280
     1
270
     1
271
     1
  0
XRECORD
  5
23
102
{ACAD_REACTORS
330
22
102
}
330
22
100
AcDbXrecord
280
     1
270
     1
271
     1
  0
XRECORD
  5
27
102
{ACAD_REACTORS
330
22
102
}
330
22
100
AcDbXrecord
280
     1
270
     1
271
     1
  0
XRECORD
  5
26
102
{ACAD_REACTORS
330
22
102
}
330
22
100
AcDbXrecord
280
     1
270
     1
271
     1
  0
XRECORD
  5
28
102
{ACAD_REACTORS
330
22
102
}
330
22
100
AcDbXrecord
280
     1
270
     1
271
     1
  0
XRECORD
  5
25
102
{ACAD_REACTORS
330
22
102
}
330
22
100
AcDbXrecord
280
     1
270
     1
271
     1
  0
CELLSTYLEMAP
  5
426
102
{ACAD_REACTORS
330
425
102
}
330
425
100
AcDbCellStyleMap
 90
        3
300
CELLSTYLE
  1
TABLEFORMAT_BEGIN
 90
        5
170
     1
 91
        0
 92
    32768
 62
   257
 93
        1
300
CONTENTFORMAT
  1
CONTENTFORMAT_BEGIN
 90
        0
 91
        0
 92
      512
 93
        0
300

 40
0.0
140
1.0
 94
        5
 62
     0
340
5D
144
0.25
309
CONTENTFORMAT_END
171
     0
 94
        0
309
TABLEFORMAT_END
  1
CELLSTYLE_BEGIN
 90
        1
 91
        1
300
_TITLE
309
CELLSTYLE_END
300
CELLSTYLE
  1
TABLEFORMAT_BEGIN
 90
        5
170
     1
 91
        0
 92
        0
 62
   257
 93
        1
300
CONTENTFORMAT
  1
CONTENTFORMAT_BEGIN
 90
        0
 91
        0
 92
      512
 93
        0
300

 40
0.0
140
1.0
 94
        5
 62
     0
340
5D
144
0.18
309
CONTENTFORMAT_END
171
     0
 94
        0
309
TABLEFORMAT_END
  1
CELLSTYLE_BEGIN
 90
        2
 91
        1
300
_HEADER
309
CELLSTYLE_END
300
CELLSTYLE
  1
TABLEFORMAT_BEGIN
 90
        5
170
     1
 91
        0
 92
        0
 62
   257
 93
        1
300
CONTENTFORMAT
  1
CONTENTFORMAT_BEGIN
 90
        0
 91
        0
 92
      512
 93
        0
300

 40
0.0
140
1.0
 94
        2
 62
     0
340
5D
144
0.18
309
CONTENTFORMAT_END
171
     0
 94
        0
309
TABLEFORMAT_END
  1
CELLSTYLE_BEGIN
 90
        3
 91
        2
300
_DATA
309
CELLSTYLE_END
  0
XRECORD
  5
42C
102
{ACAD_REACTORS
330
425
102
}
330
425
100
AcDbXrecord
280
     1
102
ACAD_ROUNDTRIP_PRE2007_TABLESTYLE
 90
      512
 91
        0
  1

 92
      512
 93
        0
  2

 94
      512
 95
        0
  3

  0
ENDSEC
  0
EOF
