999
DXF file: C:\Users\sesa63760\Dev\_Creo\CAD\MCADFD0001780_3D-CAD\drw0001_1.dxf
999
Pro/ENGINEER 2019471 by Parametric Technology Corporation
  0
SECTION
  2
HEADER
  9
$ACADVER
  1
AC1024
  9
$DWGCODEPAGE
  3
ANSI_1252
  9
$EXTMAX
 10
392.2352788432
 20
554.7327515068
 30
0.0
  9
$EXTMIN
 10
0.0
 20
0.0
 30
0.0
  9
$LIMMIN
 10
0.0
 20
0.0
  9
$LIMMAX
 10
392.2352788432
 20
554.7327515068
  9
$VIEWCTR
 10
196.1176394216
 20
277.3663757534
  9
$VIEWSIZE
 40
554.7327515068
  9
$CLAYER
  8
0
  9
$LTSCALE
 40
36.1603571353
  9
$CELTYPE
  6
BYLAYER
  9
$DIMSCALE
 40
1.0
  9
$DIMASZ
 40
4.6694676053
  9
$DIMEXO
 40
1.0
  9
$DIMDLI
 40
24.9835194753
  9
$DIMEXE
 40
1.0
  9
$DIMCEN
 40
5.9171493494
  9
$DIMLFAC
 40
1.0
  9
$DIMBLK
  1
_FILLED
  9
$DIMALT
 70
0
  9
$DIMALTF
 40
0.0393700787
  9
$DIMTXT
 40
6.5372546474
  9
$DIMTOL
 70
1
  9
$DIMLIM
 70
0
  9
$DIMTFAC
 40
1.0
  9
$DIMTP
 40
0.01
  9
$DIMTM
 40
0.01
  9
$DIMGAP
 40
0.625
  9
$DIMDSEP
 70
46
  9
$AUNITS
 70
0
  9
$PDMODE
 70
3
  9
$PDSIZE
 40
0.3125
  9
$HANDSEED
  5
517
  9
$TILEMODE
 70
1
  9
$MEASUREMENT
 70
1
  9
$INSUNITS
 70
4
  0
ENDSEC
  0
SECTION
  2
CLASSES
  0
CLASS
  1
ACDBDICTIONARYWDFLT
  2
AcDbDictionaryWithDefault
  3
AutoCAD 2000
 90
0
 91
1
280
0
281
0
  0
CLASS
  1
ACDBPLACEHOLDER
  2
AcDbPlaceHolder
  3
AutoCAD 2000
 90
0
 91
1
280
0
281
0
  0
CLASS
  1
LAYOUT
  2
AcDbLayout
  3
AutoCAD 2000
 90
0
 91
0
280
0
281
0
  0
ENDSEC
  0
SECTION
  2
TABLES
  0
TABLE
  2
VPORT
  5
8
100
AcDbSymbolTable
 70
2
  0
VPORT
  5
1F4
100
AcDbSymbolTableRecord
100
AcDbViewportTableRecord
  2
*ACTIVE
 70
0
 10
0.0
 20
0.0
 11
1.0
 21
1.0
 12
196.1176394216
 22
277.3663757534
 13
0.0
 23
0.0
 14
1.0
 24
1.0
 15
0.0
 25
0.0
 16
0.0
 26
0.0
 36
1.0
 17
0.0
 27
0.0
 37
0.0
 40
554.7327515068
 41
0.7070707071
 42
50.0
 43
0.0
 44
0.0
 50
0.0
 51
0.0
 71
0
 72
100
 73
1
 74
1
 75
0
 76
0
 77
0
 78
0
  0
ENDTAB
  0
TABLE
  2
LTYPE
  5
5
100
AcDbSymbolTable
 70
6
  0
LTYPE
  5
14
100
AcDbSymbolTableRecord
100
AcDbLinetypeTableRecord
  2
BYBLOCK
 70
0
  3

 72
65
 73
0
 40
0.0
  0
LTYPE
  5
15
100
AcDbSymbolTableRecord
100
AcDbLinetypeTableRecord
  2
BYLAYER
 70
0
  3

 72
65
 73
0
 40
0.0
  0
LTYPE
  5
16
100
AcDbSymbolTableRecord
100
AcDbLinetypeTableRecord
  2
CONTINUOUS
 70
64
  3
Solid line
 72
65
 73
0
 40
0.0
  0
LTYPE
  5
1F5
100
AcDbSymbolTableRecord
100
AcDbLinetypeTableRecord
  2
CENTER
 70
64
  3
____ _ ____ _ ____ _ ____ _ ____ _ ____ _ ____
 72
65
 73
4
 40
0.6
 49
0.375
 74
0
 49
-0.075
 74
0
 49
0.075
 74
0
 49
-0.075
 74
0
  0
LTYPE
  5
1F6
100
AcDbSymbolTableRecord
100
AcDbLinetypeTableRecord
  2
HIDDEN
 70
64
  3
- - - - - - - - - - - - - - - - - - - -
 72
65
 73
2
 40
0.2
 49
0.1
 74
0
 49
-0.1
 74
0
  0
LTYPE
  5
1F7
100
AcDbSymbolTableRecord
100
AcDbLinetypeTableRecord
  2
PHANTOM
 70
64
  3
_____ _ _ _____ _ _ _____ _ _ _____
 72
65
 73
6
 40
0.8
 49
0.45
 74
0
 49
-0.05
 74
0
 49
0.1
 74
0
 49
-0.05
 74
0
 49
0.1
 74
0
 49
-0.05
 74
0
  0
LTYPE
  5
1F8
100
AcDbSymbolTableRecord
100
AcDbLinetypeTableRecord
  2
DOT
 70
64
  3
. . . . . . . . . . . . . . . . . . . .
 72
65
 73
2
 40
0.2
 49
0.1
 74
0
 49
-0.1
 74
0
  0
LTYPE
  5
1F9
100
AcDbSymbolTableRecord
100
AcDbLinetypeTableRecord
  2
DASHED
 70
64
  3
- - - - - - - - - - - - - - - - - - - -
 72
65
 73
2
 40
0.2
 49
0.1
 74
0
 49
-0.1
 74
0
  0
ENDTAB
  0
TABLE
  2
LAYER
  5
2
100
AcDbSymbolTable
 70
36
  0
LAYER
  5
10
100
AcDbSymbolTableRecord
100
AcDbLayerTableRecord
  2
0
 70
0
 62
7
  6
CONTINUOUS
370
-3
390
F
  0
LAYER
  5
1FA
100
AcDbSymbolTableRecord
100
AcDbLayerTableRecord
  2
DEFAULT_1
 70
0
 62
7
  6
CENTER
370
-3
390
F
  0
LAYER
  5
1FB
100
AcDbSymbolTableRecord
100
AcDbLayerTableRecord
  2
DEFAULT_2
 70
0
 62
8
  6
HIDDEN
370
-3
390
F
  0
LAYER
  5
1FC
100
AcDbSymbolTableRecord
100
AcDbLayerTableRecord
  2
DEFAULT_3
 70
0
 62
7
  6
PHANTOM
370
-3
390
F
  0
LAYER
  5
1FD
100
AcDbSymbolTableRecord
100
AcDbLayerTableRecord
  2
00_COMPONENTS
 70
0
 62
7
  6
CONTINUOUS
370
-3
390
F
  0
LAYER
  5
1FE
100
AcDbSymbolTableRecord
100
AcDbLayerTableRecord
  2
01_1_DEFAULT_DATUMS
 70
0
 62
7
  6
CONTINUOUS
370
-3
390
F
  0
LAYER
  5
1FF
100
AcDbSymbolTableRecord
100
AcDbLayerTableRecord
  2
01_PLANES
 70
0
 62
7
  6
CONTINUOUS
370
-3
390
F
  0
LAYER
  5
200
100
AcDbSymbolTableRecord
100
AcDbLayerTableRecord
  2
02_COORD_SYS
 70
0
 62
7
  6
CONTINUOUS
370
-3
390
F
  0
LAYER
  5
201
100
AcDbSymbolTableRecord
100
AcDbLayerTableRecord
  2
03_AXES
 70
0
 62
7
  6
CONTINUOUS
370
-3
390
F
  0
LAYER
  5
202
100
AcDbSymbolTableRecord
100
AcDbLayerTableRecord
  2
04_POINTS
 70
0
 62
7
  6
CONTINUOUS
370
-3
390
F
  0
LAYER
  5
203
100
AcDbSymbolTableRecord
100
AcDbLayerTableRecord
  2
05_CURVES
 70
0
 62
7
  6
CONTINUOUS
370
-3
390
F
  0
LAYER
  5
204
100
AcDbSymbolTableRecord
100
AcDbLayerTableRecord
  2
06_SURFS
 70
0
 62
7
  6
CONTINUOUS
370
-3
390
F
  0
LAYER
  5
205
100
AcDbSymbolTableRecord
100
AcDbLayerTableRecord
  2
07_COSMETICS
 70
0
 62
7
  6
CONTINUOUS
370
-3
390
F
  0
LAYER
  5
206
100
AcDbSymbolTableRecord
100
AcDbLayerTableRecord
  2
10_NOTES
 70
0
 62
7
  6
CONTINUOUS
370
-3
390
F
  0
LAYER
  5
207
100
AcDbSymbolTableRecord
100
AcDbLayerTableRecord
  2
11_NOTES_PUB
 70
0
 62
7
  6
CONTINUOUS
370
-3
390
F
  0
LAYER
  5
208
100
AcDbSymbolTableRecord
100
AcDbLayerTableRecord
  2
13_REF_GTOL
 70
0
 62
7
  6
CONTINUOUS
370
-3
390
F
  0
LAYER
  5
209
100
AcDbSymbolTableRecord
100
AcDbLayerTableRecord
  2
16_MISC
 70
0
 62
7
  6
CONTINUOUS
370
-3
390
F
  0
LAYER
  5
20A
100
AcDbSymbolTableRecord
100
AcDbLayerTableRecord
  2
17_NO_PRINT
 70
0
 62
7
  6
CONTINUOUS
370
-3
390
F
  0
LAYER
  5
20B
100
AcDbSymbolTableRecord
100
AcDbLayerTableRecord
  2
18_DATUM_CAMS_JOINTS
 70
0
 62
7
  6
CONTINUOUS
370
-3
390
F
  0
LAYER
  5
20C
100
AcDbSymbolTableRecord
100
AcDbLayerTableRecord
  2
19_DATUM_FUNCTIONAL
 70
0
 62
7
  6
CONTINUOUS
370
-3
390
F
  0
LAYER
  5
20D
100
AcDbSymbolTableRecord
100
AcDbLayerTableRecord
  2
20_DATUM_KINEMATIC_SCHEME
 70
0
 62
7
  6
CONTINUOUS
370
-3
390
F
  0
ENDTAB
  0
TABLE
  2
STYLE
  5
3
100
AcDbSymbolTable
 70
1
  0
STYLE
  5
11
100
AcDbSymbolTableRecord
100
AcDbTextStyleTableRecord
  2
STANDARD
 70
0
 40
0.0
 41
0.8
 50
0.0
 71
0
 42
0.2
  3
txt
  4

  0
STYLE
  5
20E
100
AcDbSymbolTableRecord
100
AcDbTextStyleTableRecord
  2
TEXTSTYLE_1
 70
0
 40
0.0
 41
0.8
 50
0.0
 71
0
 42
0.2
  3
gdt
  4

  0
ENDTAB
  0
TABLE
  2
VIEW
  5
6
100
AcDbSymbolTable
 70
0
  0
ENDTAB
  0
TABLE
  2
UCS
  5
7
100
AcDbSymbolTable
 70
0
  0
ENDTAB
  0
TABLE
  2
APPID
  5
9
100
AcDbSymbolTable
 70
1
  0
APPID
  5
20F
100
AcDbSymbolTableRecord
100
AcDbRegAppTableRecord
  2
ACAD
 70
0
  0
ENDTAB
  0
TABLE
  2
BLOCK_RECORD
  5
1
100
AcDbSymbolTable
 70
0
  0
BLOCK_RECORD
  5
210
100
AcDbSymbolTableRecord
100
AcDbBlockTableRecord
  2
*Model_Space
  0
BLOCK_RECORD
  5
211
100
AcDbSymbolTableRecord
100
AcDbBlockTableRecord
  2
*Paper_Space
  0
BLOCK_RECORD
  5
212
100
AcDbSymbolTableRecord
100
AcDbBlockTableRecord
  2
_FILLED
  0
ENDTAB
  0
TABLE
  2
DIMSTYLE
  5
A
100
AcDbSymbolTable
 70
1
100
AcDbDimStyleTable
 71
0
  0
DIMSTYLE
105
213
100
AcDbSymbolTableRecord
100
AcDbDimStyleTableRecord
  2
STANDARD
 70
0
  3

  4

 40
1.0
 41
4.6694676053
 42
1.0
 43
0.38
 44
1.0
 45
0.0
 46
0.0
 47
0.01
 48
0.01
140
6.5372546474
141
0.09
142
0.0
143
25.4
144
1.0
145
0.0
146
1.0
147
0.625
 71
1
 72
0
 73
0
 74
0
 75
0
 76
0
 77
1
 78
8
 79
2
170
0
171
1
172
0
173
0
174
0
175
0
176
0
177
0
178
0
270
2
179
2
271
2
272
2
273
2
274
2
275
0
280
0
281
0
282
0
283
1
284
8
285
0
286
0
287
3
288
0
340
11
278
46
341
212
342
212
343
212
344
212
  0
ENDTAB
  0
ENDSEC
  0
SECTION
  2
BLOCKS
  0
BLOCK
  5
20
100
AcDbEntity
  8
0
100
AcDbBlockBegin
  2
*Model_Space
 70
0
 10
0.0
 20
0.0
 30
0.0
  3
*Model_Space
  1

  0
ENDBLK
  5
21
100
AcDbEntity
  8
0
100
AcDbBlockEnd
  0
BLOCK
  5
1C
100
AcDbEntity
  8
0
100
AcDbBlockBegin
  2
*Paper_Space
 70
0
 10
0.0
 20
0.0
 30
0.0
  3
*Paper_Space
  1

  0
ENDBLK
  5
1D
100
AcDbEntity
  8
0
100
AcDbBlockEnd
  0
BLOCK
  5
214
100
AcDbEntity
  8
0
100
AcDbBlockBegin
  2
_FILLED
 70
64
 10
0.0
 20
0.0
  3
_FILLED
  1

  0
SOLID
  5
215
100
AcDbEntity
  8
0
  6
BYBLOCK
 62
0
100
AcDbTrace
 10
0.0
 20
0.0
 11
-1.0
 21
0.25
 12
-1.0
 22
-0.25
 13
-1.0
 23
-0.25
  0
ENDBLK
  5
216
100
AcDbEntity
  8
0
  6
BYBLOCK
 62
0
100
AcDbBlockEnd
  0
ENDSEC
  0
SECTION
  2
ENTITIES
  0
LINE
  5
217
100
AcDbEntity
  8
0
100
AcDbLine
 62
7
  6
CONTINUOUS
 10
52.0040333362
 20
375.4625305436
 11
52.0782330448
 21
375.5252049373
  0
LINE
  5
218
100
AcDbEntity
  8
0
100
AcDbLine
 62
7
  6
CONTINUOUS
 10
52.0781609121
 20
375.5253294795
 11
53.138816668
 21
376.1376957103
  0
LINE
  5
219
100
AcDbEntity
  8
0
100
AcDbLine
 62
7
  6
CONTINUOUS
 10
53.5388148772
 20
376.0980762871
 11
52.4781591214
 21
375.4857100562
  0
LINE
  5
21A
100
AcDbEntity
  8
0
100
AcDbLine
 62
7
  6
CONTINUOUS
 10
53.67163149
 20
374.796674051
 11
54.7322872458
 21
375.4090402818
  0
LINE
  5
21B
100
AcDbEntity
  8
0
100
AcDbLine
 62
7
  6
CONTINUOUS
 10
47.9511122531
 20
369.9551086112
 11
47.9483394945
 21
370.1168054294
  0
LINE
  5
21C
100
AcDbEntity
  8
0
100
AcDbLine
 62
7
  6
CONTINUOUS
 10
47.9484833983
 20
369.9566200459
 11
47.9483394945
 21
370.1168054294
  0
LINE
  5
21D
100
AcDbEntity
  8
0
100
AcDbLine
 62
7
  6
CONTINUOUS
 10
51.6606758554
 20
366.0161680357
 11
51.6606758554
 21
374.3246687284
  0
LINE
  5
21E
100
AcDbEntity
  8
0
100
AcDbLine
 62
7
  6
CONTINUOUS
 10
52.0142407275
 20
358.8287800285
 11
52.0142407275
 21
351.6579936594
  0
LINE
  5
21F
100
AcDbEntity
  8
0
100
AcDbLine
 62
7
  6
CONTINUOUS
 10
52.1556614949
 20
351.672567855
 11
52.1556614949
 21
358.9104288592
  0
LINE
  5
220
100
AcDbEntity
  8
0
100
AcDbLine
 62
7
  6
CONTINUOUS
 10
54.489114756
 20
372.6917057103
 11
54.489114756
 21
364.3832050176
  0
LINE
  5
221
100
AcDbEntity
  8
0
100
AcDbLine
 62
7
  6
CONTINUOUS
 10
64.6612974163
 20
368.1550210377
 11
64.735497125
 21
368.2176954314
  0
LINE
  5
222
100
AcDbEntity
  8
0
100
AcDbLine
 62
7
  6
CONTINUOUS
 10
55.2064130311
 20
374.8383998549
 11
54.1457572753
 21
374.2260336241
  0
LINE
  5
223
100
AcDbEntity
  8
0
100
AcDbLine
 62
7
  6
CONTINUOUS
 10
48.4079552223
 20
370.6271096019
 11
47.9483377281
 21
370.3617509019
  0
LINE
  5
224
100
AcDbEntity
  8
0
100
AcDbLine
 62
7
  6
CONTINUOUS
 10
46.1098677514
 20
369.3003161019
 11
45.6502502572
 21
369.0349574018
  0
LINE
  5
225
100
AcDbEntity
  8
0
100
AcDbLine
 62
7
  6
CONTINUOUS
 10
48.0897614395
 20
370.0351572785
 11
46.6755537651
 21
369.2186689708
  0
LINE
  5
226
100
AcDbEntity
  8
0
100
AcDbLine
 62
7
  6
CONTINUOUS
 10
46.6402032836
 20
368.5450688363
 11
49.2564874813
 21
370.0555722057
  0
LINE
  5
227
100
AcDbEntity
  8
0
100
AcDbLine
 62
7
  6
CONTINUOUS
 10
55.5497705118
 20
373.3040719411
 11
54.489114756
 21
372.6917057103
  0
LINE
  5
228
100
AcDbEntity
  8
0
100
AcDbLine
 62
7
  6
CONTINUOUS
 10
49.244542935
 20
369.2459658195
 11
48.7926744883
 21
368.9850810075
  0
LINE
  5
229
100
AcDbEntity
  8
0
100
AcDbLine
 62
7
  6
CONTINUOUS
 10
47.6535593012
 20
368.3274164734
 11
47.3353806817
 21
368.1437170582
  0
LINE
  5
22A
100
AcDbEntity
  8
0
100
AcDbLine
 62
7
  6
CONTINUOUS
 10
48.8322469643
 20
366.7896315523
 11
49.2565092666
 21
367.0345780446
  0
LINE
  5
22B
100
AcDbEntity
  8
0
100
AcDbLine
 62
7
  6
CONTINUOUS
 10
50.2845914232
 20
366.9048616604
 11
50.850274493
 21
367.2314569835
  0
LINE
  5
22C
100
AcDbEntity
  8
0
100
AcDbLine
 62
7
  6
CONTINUOUS
 10
50.8510694822
 20
367.1345600799
 11
51.0509106746
 21
367.2499377575
  0
LINE
  5
22D
100
AcDbEntity
  8
0
100
AcDbLine
 62
7
  6
CONTINUOUS
 10
51.6606670235
 20
366.159618294
 11
51.5364380955
 21
366.0878951171
  0
LINE
  5
22E
100
AcDbEntity
  8
0
100
AcDbLine
 62
7
  6
CONTINUOUS
 10
48.9866283116
 20
361.3389998669
 11
49.4108906139
 21
361.5839463592
  0
LINE
  5
22F
100
AcDbEntity
  8
0
100
AcDbLine
 62
7
  6
CONTINUOUS
 10
55.5497705118
 20
363.9142941442
 11
55.4255415838
 21
363.8425709672
  0
LINE
  5
230
100
AcDbEntity
  8
0
100
AcDbLine
 62
7
  6
CONTINUOUS
 10
50.1164386482
 20
360.4143406878
 11
49.6921763459
 21
360.1693941955
  0
LINE
  5
231
100
AcDbEntity
  8
0
100
AcDbLine
 62
7
  6
CONTINUOUS
 10
64.7354249923
 20
368.2178199735
 11
65.7960807481
 21
368.8301862044
  0
LINE
  5
232
100
AcDbEntity
  8
0
100
AcDbLine
 62
7
  6
CONTINUOUS
 10
56.6104350995
 20
363.3019330124
 11
56.4862061715
 21
363.2302098355
  0
LINE
  5
233
100
AcDbEntity
  8
0
100
AcDbLine
 62
7
  6
CONTINUOUS
 10
66.1960789573
 20
368.7905667811
 11
65.1354232015
 21
368.1782005503
  0
LINE
  5
234
100
AcDbEntity
  8
0
100
AcDbLine
 62
7
  6
CONTINUOUS
 10
55.5497705118
 20
373.3040719411
 11
55.5497705118
 21
363.9142941442
  0
LINE
  5
235
100
AcDbEntity
  8
0
100
AcDbLine
 62
7
  6
CONTINUOUS
 10
56.6104350995
 20
363.3019330124
 11
56.6104350995
 21
363.158487853
  0
LINE
  5
236
100
AcDbEntity
  8
0
100
AcDbLine
 62
7
  6
CONTINUOUS
 10
64.3179399355
 20
358.7086585297
 11
64.3179399355
 21
367.0171592225
  0
LINE
  5
237
100
AcDbEntity
  8
0
100
AcDbLine
 62
7
  6
CONTINUOUS
 10
77.3185614965
 20
360.8475115317
 11
77.3927612051
 21
360.9101859255
  0
LINE
  5
238
100
AcDbEntity
  8
0
100
AcDbLine
 62
7
  6
CONTINUOUS
 10
66.3288955702
 20
367.4891645451
 11
67.389551326
 21
368.1015307759
  0
LINE
  5
239
100
AcDbEntity
  8
0
100
AcDbLine
 62
7
  6
CONTINUOUS
 10
52.1556614949
 20
358.9104288592
 11
52.0142407275
 21
358.8287800285
  0
LINE
  5
23A
100
AcDbEntity
  8
0
100
AcDbLine
 62
7
  6
CONTINUOUS
 10
67.8636771112
 20
367.5308903489
 11
66.8030213554
 21
366.9185241181
  0
LINE
  5
23B
100
AcDbEntity
  8
0
100
AcDbLine
 62
7
  6
CONTINUOUS
 10
68.2070345919
 20
365.9965624352
 11
67.1463788361
 21
365.3841962044
  0
LINE
  5
23C
100
AcDbEntity
  8
0
100
AcDbLine
 62
7
  6
CONTINUOUS
 10
64.3179311036
 20
358.8521087881
 11
64.1937021756
 21
358.7803856112
  0
LINE
  5
23D
100
AcDbEntity
  8
0
100
AcDbLine
 62
7
  6
CONTINUOUS
 10
68.2070345919
 20
356.6067846382
 11
68.0828056639
 21
356.5350614613
  0
LINE
  5
23E
100
AcDbEntity
  8
0
100
AcDbLine
 62
7
  6
CONTINUOUS
 10
77.3926890724
 20
360.9103104676
 11
78.4533448282
 21
361.5226766984
  0
LINE
  5
23F
100
AcDbEntity
  8
0
100
AcDbLine
 62
7
  6
CONTINUOUS
 10
69.2676991797
 20
355.9944235065
 11
69.1434702516
 21
355.9227003296
  0
LINE
  5
240
100
AcDbEntity
  8
0
100
AcDbLine
 62
7
  6
CONTINUOUS
 10
78.8533430375
 20
361.4830572752
 11
77.7926872816
 21
360.8706910444
  0
LINE
  5
241
100
AcDbEntity
  8
0
100
AcDbLine
 62
7
  6
CONTINUOUS
 10
67.1463788361
 20
365.3841962044
 11
67.1463788361
 21
357.0756955117
  0
LINE
  5
242
100
AcDbEntity
  8
0
100
AcDbLine
 62
7
  6
CONTINUOUS
 10
68.2070345919
 20
365.9965624352
 11
68.2070345919
 21
356.6067846382
  0
LINE
  5
243
100
AcDbEntity
  8
0
100
AcDbLine
 62
7
  6
CONTINUOUS
 10
69.2676991797
 20
355.9944235065
 11
69.2676991797
 21
355.8509783471
  0
LINE
  5
244
100
AcDbEntity
  8
0
100
AcDbLine
 62
7
  6
CONTINUOUS
 10
76.9752040157
 20
351.4011490238
 11
76.9752040157
 21
359.7096497166
  0
LINE
  5
245
100
AcDbEntity
  8
0
100
AcDbLine
 62
7
  6
CONTINUOUS
 10
89.9758255766
 20
353.5400020258
 11
90.0500252852
 21
353.6026764196
  0
LINE
  5
246
100
AcDbEntity
  8
0
100
AcDbLine
 62
7
  6
CONTINUOUS
 10
78.9861596503
 20
360.1816550392
 11
80.0468154061
 21
360.79402127
  0
LINE
  5
247
100
AcDbEntity
  8
0
100
AcDbLine
 62
7
  6
CONTINUOUS
 10
80.5209411913
 20
360.223380843
 11
79.4602854355
 21
359.6110146122
  0
LINE
  5
248
100
AcDbEntity
  8
0
100
AcDbLine
 62
7
  6
CONTINUOUS
 10
80.8642986721
 20
358.6890529293
 11
79.8036429163
 21
358.0766866985
  0
LINE
  5
249
100
AcDbEntity
  8
0
100
AcDbLine
 62
7
  6
CONTINUOUS
 10
76.9751951838
 20
351.5445992822
 11
76.8509662557
 21
351.4728761053
  0
LINE
  5
24A
100
AcDbEntity
  8
0
100
AcDbLine
 62
7
  6
CONTINUOUS
 10
80.8642986721
 20
349.2992751323
 11
80.7400697441
 21
349.2275519554
  0
LINE
  5
24B
100
AcDbEntity
  8
0
100
AcDbLine
 62
7
  6
CONTINUOUS
 10
90.0499531525
 20
353.6028009617
 11
91.1106089084
 21
354.2151671925
  0
LWPOLYLINE
  5
24C
100
AcDbEntity
  8
0
100
AcDbPolyline
 62
7
  6
CONTINUOUS
 90
4
 70
0
 10
46.5102310633
 20
354.8888822339
 10
46.6528462557
 20
354.4374168442
 10
46.780202635
 20
354.2463816538
 10
47.0534223112
 20
354.0146371071
  0
LINE
  5
24D
100
AcDbEntity
  8
0
100
AcDbLine
 62
7
  6
CONTINUOUS
 10
79.8036429163
 20
358.0766866985
 11
79.8036429163
 21
349.7681860057
  0
LINE
  5
24E
100
AcDbEntity
  8
0
100
AcDbLine
 62
7
  6
CONTINUOUS
 10
80.8642986721
 20
358.6890529293
 11
80.8642986721
 21
349.2992751323
  0
LINE
  5
24F
100
AcDbEntity
  8
0
100
AcDbLine
 62
7
  6
CONTINUOUS
 10
81.9249632598
 20
348.6869140005
 11
81.9249632598
 21
348.5434688412
  0
LINE
  5
250
100
AcDbEntity
  8
0
100
AcDbLine
 62
7
  6
CONTINUOUS
 10
89.6324680958
 20
344.0936395179
 11
89.6324680958
 21
352.4021402107
  0
LINE
  5
251
100
AcDbEntity
  8
0
100
AcDbLine
 62
7
  6
CONTINUOUS
 10
102.6330896567
 20
346.2324925199
 11
102.7072893654
 21
346.2951669137
  0
LINE
  5
252
100
AcDbEntity
  8
0
100
AcDbLine
 62
7
  6
CONTINUOUS
 10
81.9249632598
 20
348.6869140005
 11
81.8007343318
 21
348.6151908236
  0
LINE
  5
253
100
AcDbEntity
  8
0
100
AcDbLine
 62
7
  6
CONTINUOUS
 10
91.5106071176
 20
354.1755477693
 11
90.4499513618
 21
353.5631815385
  0
LINE
  5
254
100
AcDbEntity
  8
0
100
AcDbLine
 62
7
  6
CONTINUOUS
 10
91.6434237304
 20
352.8741455333
 11
92.7040794862
 21
353.4865117641
  0
LINE
  5
255
100
AcDbEntity
  8
0
100
AcDbLine
 62
7
  6
CONTINUOUS
 10
93.1782052715
 20
352.9158713371
 11
92.1175495156
 21
352.3035051063
  0
LINE
  5
256
100
AcDbEntity
  8
0
100
AcDbLine
 62
7
  6
CONTINUOUS
 10
93.5215627522
 20
351.3815434234
 11
92.4609069964
 21
350.7691771926
  0
LINE
  5
257
100
AcDbEntity
  8
0
100
AcDbLine
 62
7
  6
CONTINUOUS
 10
89.6324592639
 20
344.2370897763
 11
89.5082303359
 21
344.1653665994
  0
LINE
  5
258
100
AcDbEntity
  8
0
100
AcDbLine
 62
7
  6
CONTINUOUS
 10
93.5215627522
 20
341.9917656264
 11
93.3973338242
 21
341.9200424495
  0
LINE
  5
259
100
AcDbEntity
  8
0
100
AcDbLine
 62
7
  6
CONTINUOUS
 10
92.4609069964
 20
350.7691771926
 11
92.4609069964
 21
342.4606764998
  0
LINE
  5
25A
100
AcDbEntity
  8
0
100
AcDbLine
 62
7
  6
CONTINUOUS
 10
93.5215627522
 20
351.3815434234
 11
93.5215627522
 21
341.9917656264
  0
LINE
  5
25B
100
AcDbEntity
  8
0
100
AcDbLine
 62
7
  6
CONTINUOUS
 10
94.5822273399
 20
341.3794044946
 11
94.5822273399
 21
341.2359593353
  0
LINE
  5
25C
100
AcDbEntity
  8
0
100
AcDbLine
 62
7
  6
CONTINUOUS
 10
102.2897321759
 20
336.786130012
 11
102.2897321759
 21
345.0946307048
  0
LINE
  5
25D
100
AcDbEntity
  8
0
100
AcDbLine
 62
7
  6
CONTINUOUS
 10
115.2903537369
 20
338.924983014
 11
115.3645534455
 21
338.9876574077
  0
LINE
  5
25E
100
AcDbEntity
  8
0
100
AcDbLine
 62
7
  6
CONTINUOUS
 10
102.7072172327
 20
346.2952914558
 11
103.7678729885
 21
346.9076576866
  0
LINE
  5
25F
100
AcDbEntity
  8
0
100
AcDbLine
 62
7
  6
CONTINUOUS
 10
94.5822273399
 20
341.3794044946
 11
94.4579984119
 21
341.3076813177
  0
LINE
  5
260
100
AcDbEntity
  8
0
100
AcDbLine
 62
7
  6
CONTINUOUS
 10
104.1678711977
 20
346.8680382634
 11
103.1072154419
 21
346.2556720326
  0
LINE
  5
261
100
AcDbEntity
  8
0
100
AcDbLine
 62
7
  6
CONTINUOUS
 10
104.3006878105
 20
345.5666360274
 11
105.3613435664
 21
346.1790022582
  0
LINE
  5
262
100
AcDbEntity
  8
0
100
AcDbLine
 62
7
  6
CONTINUOUS
 10
105.8354693516
 20
345.6083618312
 11
104.7748135958
 21
344.9959956004
  0
LINE
  5
263
100
AcDbEntity
  8
0
100
AcDbLine
 62
7
  6
CONTINUOUS
 10
106.1788268323
 20
344.0740339175
 11
105.1181710765
 21
343.4616676867
  0
LINE
  5
264
100
AcDbEntity
  8
0
100
AcDbLine
 62
7
  6
CONTINUOUS
 10
102.289723344
 20
336.9295802704
 11
102.165494416
 21
336.8578570935
  0
LINE
  5
265
100
AcDbEntity
  8
0
100
AcDbLine
 62
7
  6
CONTINUOUS
 10
51.9486030416
 20
359.3565640122
 11
52.1556614949
 21
358.9104288592
  0
LINE
  5
266
100
AcDbEntity
  8
0
100
AcDbLine
 62
7
  6
CONTINUOUS
 10
105.1181710765
 20
343.4616676867
 11
105.1181710765
 21
335.1531669939
  0
LINE
  5
267
100
AcDbEntity
  8
0
100
AcDbLine
 62
7
  6
CONTINUOUS
 10
106.1788268323
 20
344.0740339175
 11
106.1788268323
 21
334.6842561205
  0
LINE
  5
268
100
AcDbEntity
  8
0
100
AcDbLine
 62
7
  6
CONTINUOUS
 10
107.2394914201
 20
334.0718949887
 11
107.2394914201
 21
333.9284498293
  0
LINE
  5
269
100
AcDbEntity
  8
0
100
AcDbLine
 62
7
  6
CONTINUOUS
 10
114.9469962561
 20
329.4786205061
 11
114.9469962561
 21
337.7871211988
  0
LINE
  5
26A
100
AcDbEntity
  8
0
100
AcDbLine
 62
7
  6
CONTINUOUS
 10
127.947617817
 20
331.6174735081
 11
128.0218175256
 21
331.6801479018
  0
LINE
  5
26B
100
AcDbEntity
  8
0
100
AcDbLine
 62
7
  6
CONTINUOUS
 10
106.1788268323
 20
334.6842561205
 11
106.0545979043
 21
334.6125329436
  0
LINE
  5
26C
100
AcDbEntity
  8
0
100
AcDbLine
 62
7
  6
CONTINUOUS
 10
115.3644813128
 20
338.9877819499
 11
116.4251370686
 21
339.6001481807
  0
LINE
  5
26D
100
AcDbEntity
  8
0
100
AcDbLine
 62
7
  6
CONTINUOUS
 10
107.2394914201
 20
334.0718949887
 11
107.115262492
 21
334.0001718118
  0
LINE
  5
26E
100
AcDbEntity
  8
0
100
AcDbLine
 62
7
  6
CONTINUOUS
 10
116.8251352779
 20
339.5605287575
 11
115.764479522
 21
338.9481625267
  0
LINE
  5
26F
100
AcDbEntity
  8
0
100
AcDbLine
 62
7
  6
CONTINUOUS
 10
116.9579518907
 20
338.2591265215
 11
118.0186076465
 21
338.8714927523
  0
LINE
  5
270
100
AcDbEntity
  8
0
100
AcDbLine
 62
7
  6
CONTINUOUS
 10
118.4927334317
 20
338.3008523253
 11
117.4320776759
 21
337.6884860945
  0
LINE
  5
271
100
AcDbEntity
  8
0
100
AcDbLine
 62
7
  6
CONTINUOUS
 10
118.8360909125
 20
336.7665244116
 11
117.7754351567
 21
336.1541581808
  0
LINE
  5
272
100
AcDbEntity
  8
0
100
AcDbLine
 62
7
  6
CONTINUOUS
 10
114.9469874242
 20
329.6220707644
 11
114.8227584961
 21
329.5503475875
  0
LINE
  5
273
100
AcDbEntity
  8
0
100
AcDbLine
 62
7
  6
CONTINUOUS
 10
117.7754351567
 20
336.1541581808
 11
117.7754351567
 21
327.845657488
  0
LINE
  5
274
100
AcDbEntity
  8
0
100
AcDbLine
 62
7
  6
CONTINUOUS
 10
118.8360909125
 20
336.7665244116
 11
118.8360909125
 21
327.3767466146
  0
LINE
  5
275
100
AcDbEntity
  8
0
100
AcDbLine
 62
7
  6
CONTINUOUS
 10
119.8967555002
 20
326.7643854828
 11
119.8967555002
 21
326.6209403234
  0
LINE
  5
276
100
AcDbEntity
  8
0
100
AcDbLine
 62
7
  6
CONTINUOUS
 10
127.6042603362
 20
322.1711110002
 11
127.6042603362
 21
330.4796116929
  0
LINE
  5
277
100
AcDbEntity
  8
0
100
AcDbLine
 62
7
  6
CONTINUOUS
 10
140.6048818971
 20
324.3099640022
 11
140.6790816057
 21
324.3726383959
  0
LINE
  5
278
100
AcDbEntity
  8
0
100
AcDbLine
 62
7
  6
CONTINUOUS
 10
118.8360909125
 20
327.3767466146
 11
118.7118619844
 21
327.3050234377
  0
LINE
  5
279
100
AcDbEntity
  8
0
100
AcDbLine
 62
7
  6
CONTINUOUS
 10
128.0217453929
 20
331.680272444
 11
129.0824011487
 21
332.2926386748
  0
LINE
  5
27A
100
AcDbEntity
  8
0
100
AcDbLine
 62
7
  6
CONTINUOUS
 10
119.8967555002
 20
326.7643854828
 11
119.7725265722
 21
326.6926623059
  0
LINE
  5
27B
100
AcDbEntity
  8
0
100
AcDbLine
 62
7
  6
CONTINUOUS
 10
129.482399358
 20
332.2530192516
 11
128.4217436022
 21
331.6406530208
  0
LINE
  5
27C
100
AcDbEntity
  8
0
100
AcDbLine
 62
7
  6
CONTINUOUS
 10
129.6152159708
 20
330.9516170155
 11
130.6758717266
 21
331.5639832463
  0
LINE
  5
27D
100
AcDbEntity
  8
0
100
AcDbLine
 62
7
  6
CONTINUOUS
 10
131.1499975119
 20
330.9933428194
 11
130.089341756
 21
330.3809765886
  0
LINE
  5
27E
100
AcDbEntity
  8
0
100
AcDbLine
 62
7
  6
CONTINUOUS
 10
131.4933549926
 20
329.4590149057
 11
130.4326992368
 21
328.8466486749
  0
LINE
  5
27F
100
AcDbEntity
  8
0
100
AcDbLine
 62
7
  6
CONTINUOUS
 10
127.6042515043
 20
322.3145612585
 11
127.4800225763
 21
322.2428380816
  0
LINE
  5
280
100
AcDbEntity
  8
0
100
AcDbLine
 62
7
  6
CONTINUOUS
 10
52.5706945194
 20
351.4889764519
 11
52.8328494006
 21
351.1039198239
  0
LINE
  5
281
100
AcDbEntity
  8
0
100
AcDbLine
 62
7
  6
CONTINUOUS
 10
130.4326992368
 20
328.8466486749
 11
130.4326992368
 21
320.5381479821
  0
LINE
  5
282
100
AcDbEntity
  8
0
100
AcDbLine
 62
7
  6
CONTINUOUS
 10
131.4933549926
 20
329.4590149057
 11
131.4933549926
 21
320.0692371087
  0
LINE
  5
283
100
AcDbEntity
  8
0
100
AcDbLine
 62
7
  6
CONTINUOUS
 10
132.5540195803
 20
319.4568759769
 11
132.5540195803
 21
319.3134308175
  0
LINE
  5
284
100
AcDbEntity
  8
0
100
AcDbLine
 62
7
  6
CONTINUOUS
 10
153.2621459773
 20
317.0024544963
 11
153.3363456859
 21
317.06512889
  0
LINE
  5
285
100
AcDbEntity
  8
0
100
AcDbLine
 62
7
  6
CONTINUOUS
 10
131.4933549926
 20
320.0692371087
 11
131.3691260646
 21
319.9975139318
  0
LINE
  5
286
100
AcDbEntity
  8
0
100
AcDbLine
 62
7
  6
CONTINUOUS
 10
140.6790094731
 20
324.3727629381
 11
141.7396652289
 21
324.9851291689
  0
LINE
  5
287
100
AcDbEntity
  8
0
100
AcDbLine
 62
7
  6
CONTINUOUS
 10
132.5540195803
 20
319.4568759769
 11
132.4297906523
 21
319.3851528
  0
LINE
  5
288
100
AcDbEntity
  8
0
100
AcDbLine
 62
7
  6
CONTINUOUS
 10
142.1396634381
 20
324.9455097457
 11
141.0790076823
 21
324.3331435149
  0
LINE
  5
289
100
AcDbEntity
  8
0
100
AcDbLine
 62
7
  6
CONTINUOUS
 10
142.2724800509
 20
323.6441075096
 11
143.3331358068
 21
324.2564737404
  0
LINE
  5
28A
100
AcDbEntity
  8
0
100
AcDbLine
 62
7
  6
CONTINUOUS
 10
143.807261592
 20
323.6858333135
 11
142.7466058362
 21
323.0734670827
  0
LINE
  5
28B
100
AcDbEntity
  8
0
100
AcDbLine
 62
7
  6
CONTINUOUS
 10
144.1506190727
 20
322.1515053997
 11
143.0899633169
 21
321.5391391689
  0
LINE
  5
28C
100
AcDbEntity
  8
0
100
AcDbLine
 62
7
  6
CONTINUOUS
 10
140.2615155844
 20
315.0070517526
 11
140.1372866564
 21
314.9353285757
  0
LINE
  5
28D
100
AcDbEntity
  8
0
100
AcDbLine
 62
7
  6
CONTINUOUS
 10
342.9898950638
 20
191.0010086127
 11
343.7626365869
 21
190.8814687828
  0
LINE
  5
28E
100
AcDbEntity
  8
0
100
AcDbLine
 62
7
  6
CONTINUOUS
 10
140.2615244163
 20
314.8636014943
 11
140.2615244163
 21
323.172102187
  0
LINE
  5
28F
100
AcDbEntity
  8
0
100
AcDbLine
 62
7
  6
CONTINUOUS
 10
143.0899633169
 20
321.5391391689
 11
143.0899633169
 21
313.2306384762
  0
LINE
  5
290
100
AcDbEntity
  8
0
100
AcDbLine
 62
7
  6
CONTINUOUS
 10
144.1506190727
 20
322.1515053997
 11
144.1506190727
 21
312.7617276028
  0
LINE
  5
291
100
AcDbEntity
  8
0
100
AcDbLine
 62
7
  6
CONTINUOUS
 10
145.2112836605
 20
312.149366471
 11
145.2112836605
 21
312.0059213116
  0
LINE
  5
292
100
AcDbEntity
  8
0
100
AcDbLine
 62
7
  6
CONTINUOUS
 10
144.1506190727
 20
312.7617276028
 11
144.0263901447
 21
312.6900044259
  0
LINE
  5
293
100
AcDbEntity
  8
0
100
AcDbLine
 62
7
  6
CONTINUOUS
 10
153.3362735532
 20
317.0652534322
 11
154.396929309
 21
317.677619663
  0
LINE
  5
294
100
AcDbEntity
  8
0
100
AcDbLine
 62
7
  6
CONTINUOUS
 10
145.2112836605
 20
312.149366471
 11
145.0870547324
 21
312.0776432941
  0
LINE
  5
295
100
AcDbEntity
  8
0
100
AcDbLine
 62
7
  6
CONTINUOUS
 10
154.7969275183
 20
317.6380002397
 11
153.7362717624
 21
317.0256340089
  0
LINE
  5
296
100
AcDbEntity
  8
0
100
AcDbLine
 62
7
  6
CONTINUOUS
 10
154.9297441311
 20
316.3365980037
 11
155.9903998869
 21
316.9489642345
  0
LINE
  5
297
100
AcDbEntity
  8
0
100
AcDbLine
 62
7
  6
CONTINUOUS
 10
156.4645256721
 20
316.3783238076
 11
155.4038699163
 21
315.7659575767
  0
LINE
  5
298
100
AcDbEntity
  8
0
100
AcDbLine
 62
7
  6
CONTINUOUS
 10
156.8078831529
 20
314.8439958938
 11
155.747227397
 21
314.231629663
  0
LINE
  5
299
100
AcDbEntity
  8
0
100
AcDbLine
 62
7
  6
CONTINUOUS
 10
152.9187796646
 20
307.6995422467
 11
152.7945507365
 21
307.6278190698
  0
LWPOLYLINE
  5
29A
100
AcDbEntity
  8
0
100
AcDbPolyline
 62
7
  6
CONTINUOUS
 90
3
 70
0
 10
348.4298726255
 20
180.0190771526
 10
348.7486905346
 20
179.9207139788
 10
349.1969477861
 20
179.9938940825
  0
LINE
  5
29B
100
AcDbEntity
  8
0
100
AcDbLine
 62
7
  6
CONTINUOUS
 10
152.9187884965
 20
307.5560919883
 11
152.9187884965
 21
315.8645926811
  0
LINE
  5
29C
100
AcDbEntity
  8
0
100
AcDbLine
 62
7
  6
CONTINUOUS
 10
155.747227397
 20
314.231629663
 11
155.747227397
 21
305.9231289703
  0
LINE
  5
29D
100
AcDbEntity
  8
0
100
AcDbLine
 62
7
  6
CONTINUOUS
 10
156.8078831529
 20
314.8439958938
 11
156.8078831529
 21
305.4542180968
  0
LINE
  5
29E
100
AcDbEntity
  8
0
100
AcDbLine
 62
7
  6
CONTINUOUS
 10
157.8685477406
 20
304.8418569651
 11
157.8685477406
 21
304.6984118057
  0
LINE
  5
29F
100
AcDbEntity
  8
0
100
AcDbLine
 62
7
  6
CONTINUOUS
 10
165.9194100574
 20
309.6949449904
 11
165.993609766
 21
309.7576193841
  0
LINE
  5
2A0
100
AcDbEntity
  8
0
100
AcDbLine
 62
7
  6
CONTINUOUS
 10
156.8078831529
 20
305.4542180968
 11
156.6836542248
 21
305.3824949199
  0
LINE
  5
2A1
100
AcDbEntity
  8
0
100
AcDbLine
 62
7
  6
CONTINUOUS
 10
165.9935376333
 20
309.7577439262
 11
167.0541933891
 21
310.370110157
  0
LINE
  5
2A2
100
AcDbEntity
  8
0
100
AcDbLine
 62
7
  6
CONTINUOUS
 10
157.8685477406
 20
304.8418569651
 11
157.7443188126
 21
304.7701337882
  0
LINE
  5
2A3
100
AcDbEntity
  8
0
100
AcDbLine
 62
7
  6
CONTINUOUS
 10
167.4541915984
 20
310.3304907338
 11
166.3935358426
 21
309.718124503
  0
LINE
  5
2A4
100
AcDbEntity
  8
0
100
AcDbLine
 62
7
  6
CONTINUOUS
 10
167.5870082112
 20
309.0290884978
 11
168.647663967
 21
309.6414547286
  0
LINE
  5
2A5
100
AcDbEntity
  8
0
100
AcDbLine
 62
7
  6
CONTINUOUS
 10
169.1217897523
 20
309.0708143016
 11
168.0611339964
 21
308.4584480708
  0
LINE
  5
2A6
100
AcDbEntity
  8
0
100
AcDbLine
 62
7
  6
CONTINUOUS
 10
169.465147233
 20
307.5364863879
 11
168.4044914772
 21
306.9241201571
  0
LINE
  5
2A7
100
AcDbEntity
  8
0
100
AcDbLine
 62
7
  6
CONTINUOUS
 10
165.5760437447
 20
300.3920327408
 11
165.4518148167
 21
300.3203095639
  0
LINE
  5
2A8
100
AcDbEntity
  8
0
100
AcDbLine
 62
7
  6
CONTINUOUS
 10
347.4772493332
 20
195.3244864571
 11
350.0963369089
 21
194.5324542388
  0
LINE
  5
2A9
100
AcDbEntity
  8
0
100
AcDbLine
 62
7
  6
CONTINUOUS
 10
350.6620199786
 20
194.8590495619
 11
348.0429324029
 21
195.6510817802
  0
LINE
  5
2AA
100
AcDbEntity
  8
0
100
AcDbLine
 62
7
  6
CONTINUOUS
 10
50.7275536635
 20
367.5732870369
 11
51.0509106746
 21
367.2499377575
  0
LINE
  5
2AB
100
AcDbEntity
  8
0
100
AcDbLine
 62
7
  6
CONTINUOUS
 10
165.5760525766
 20
300.2485824824
 11
165.5760525766
 21
308.5570831752
  0
LINE
  5
2AC
100
AcDbEntity
  8
0
100
AcDbLine
 62
7
  6
CONTINUOUS
 10
168.4044914772
 20
306.9241201571
 11
168.4044914772
 21
298.6156194644
  0
LINE
  5
2AD
100
AcDbEntity
  8
0
100
AcDbLine
 62
7
  6
CONTINUOUS
 10
169.465147233
 20
307.5364863879
 11
169.465147233
 21
298.1467085909
  0
LINE
  5
2AE
100
AcDbEntity
  8
0
100
AcDbLine
 62
7
  6
CONTINUOUS
 10
170.5258118207
 20
297.5343474592
 11
170.5258118207
 21
297.3909022998
  0
LINE
  5
2AF
100
AcDbEntity
  8
0
100
AcDbLine
 62
7
  6
CONTINUOUS
 10
178.5766741375
 20
302.3874354844
 11
178.6508738461
 21
302.4501098782
  0
LINE
  5
2B0
100
AcDbEntity
  8
0
100
AcDbLine
 62
7
  6
CONTINUOUS
 10
169.465147233
 20
298.1467085909
 11
169.340918305
 21
298.074985414
  0
LINE
  5
2B1
100
AcDbEntity
  8
0
100
AcDbLine
 62
7
  6
CONTINUOUS
 10
178.6508017134
 20
302.4502344203
 11
179.7114574693
 21
303.0626006511
  0
LINE
  5
2B2
100
AcDbEntity
  8
0
100
AcDbLine
 62
7
  6
CONTINUOUS
 10
170.5258118207
 20
297.5343474592
 11
170.4015828927
 21
297.4626242822
  0
LINE
  5
2B3
100
AcDbEntity
  8
0
100
AcDbLine
 62
7
  6
CONTINUOUS
 10
180.1114556785
 20
303.0229812279
 11
179.0507999227
 21
302.4106149971
  0
LINE
  5
2B4
100
AcDbEntity
  8
0
100
AcDbLine
 62
7
  6
CONTINUOUS
 10
180.2442722913
 20
301.7215789919
 11
181.3049280472
 21
302.3339452227
  0
LINE
  5
2B5
100
AcDbEntity
  8
0
100
AcDbLine
 62
7
  6
CONTINUOUS
 10
181.7790538324
 20
301.7633047957
 11
180.7183980766
 21
301.1509385649
  0
LINE
  5
2B6
100
AcDbEntity
  8
0
100
AcDbLine
 62
7
  6
CONTINUOUS
 10
182.1224113131
 20
300.228976882
 11
181.0617555573
 21
299.6166106512
  0
LINE
  5
2B7
100
AcDbEntity
  8
0
100
AcDbLine
 62
7
  6
CONTINUOUS
 10
178.2333078248
 20
293.0845232349
 11
178.1090788968
 21
293.012800058
  0
LINE
  5
2B8
100
AcDbEntity
  8
0
100
AcDbLine
 62
7
  6
CONTINUOUS
 10
348.2419786062
 20
195.6704805078
 11
348.802046686
 21
195.4837956117
  0
LINE
  5
2B9
100
AcDbEntity
  8
0
100
AcDbLine
 62
7
  6
CONTINUOUS
 10
47.6655038476
 20
369.1370228595
 11
50.2845914232
 21
366.9048616604
  0
LINE
  5
2BA
100
AcDbEntity
  8
0
100
AcDbLine
 62
7
  6
CONTINUOUS
 10
50.850274493
 20
367.2314569835
 11
48.2311869173
 21
369.4636181826
  0
LINE
  5
2BB
100
AcDbEntity
  8
0
100
AcDbLine
 62
7
  6
CONTINUOUS
 10
178.2333166567
 20
292.9410729765
 11
178.2333166567
 21
301.2495736693
  0
LINE
  5
2BC
100
AcDbEntity
  8
0
100
AcDbLine
 62
7
  6
CONTINUOUS
 10
181.0617555573
 20
299.6166106512
 11
181.0617555573
 21
291.3081099584
  0
LINE
  5
2BD
100
AcDbEntity
  8
0
100
AcDbLine
 62
7
  6
CONTINUOUS
 10
182.1224113131
 20
300.228976882
 11
182.1224113131
 21
290.839199085
  0
LINE
  5
2BE
100
AcDbEntity
  8
0
100
AcDbLine
 62
7
  6
CONTINUOUS
 10
183.1830759008
 20
290.2268379532
 11
183.1830759008
 21
290.0833927939
  0
LINE
  5
2BF
100
AcDbEntity
  8
0
100
AcDbLine
 62
7
  6
CONTINUOUS
 10
191.2339382177
 20
295.0799259785
 11
191.3081379263
 21
295.1426003723
  0
LINE
  5
2C0
100
AcDbEntity
  8
0
100
AcDbLine
 62
7
  6
CONTINUOUS
 10
182.1224113131
 20
290.839199085
 11
181.9981823851
 21
290.7674759081
  0
LINE
  5
2C1
100
AcDbEntity
  8
0
100
AcDbLine
 62
7
  6
CONTINUOUS
 10
191.3080657936
 20
295.1427249144
 11
192.3687215494
 21
295.7550911452
  0
LINE
  5
2C2
100
AcDbEntity
  8
0
100
AcDbLine
 62
7
  6
CONTINUOUS
 10
183.1830759008
 20
290.2268379532
 11
183.0588469728
 21
290.1551147763
  0
LINE
  5
2C3
100
AcDbEntity
  8
0
100
AcDbLine
 62
7
  6
CONTINUOUS
 10
192.7687197586
 20
295.715471722
 11
191.7080640028
 21
295.1031054912
  0
LINE
  5
2C4
100
AcDbEntity
  8
0
100
AcDbLine
 62
7
  6
CONTINUOUS
 10
192.9015363715
 20
294.414069486
 11
193.9621921273
 21
295.0264357168
  0
LINE
  5
2C5
100
AcDbEntity
  8
0
100
AcDbLine
 62
7
  6
CONTINUOUS
 10
194.4363179125
 20
294.4557952898
 11
193.3756621567
 21
293.843429059
  0
LINE
  5
2C6
100
AcDbEntity
  8
0
100
AcDbLine
 62
7
  6
CONTINUOUS
 10
194.7796753933
 20
292.9214673761
 11
193.7190196374
 21
292.3091011453
  0
LINE
  5
2C7
100
AcDbEntity
  8
0
100
AcDbLine
 62
7
  6
CONTINUOUS
 10
190.890571905
 20
285.777013729
 11
190.7663429769
 21
285.7052905521
  0
LINE
  5
2C8
100
AcDbEntity
  8
0
100
AcDbLine
 62
7
  6
CONTINUOUS
 10
190.8905807369
 20
285.6335634706
 11
190.8905807369
 21
293.9420641634
  0
LINE
  5
2C9
100
AcDbEntity
  8
0
100
AcDbLine
 62
7
  6
CONTINUOUS
 10
193.7190196374
 20
292.3091011453
 11
193.7190196374
 21
284.0006004525
  0
LINE
  5
2CA
100
AcDbEntity
  8
0
100
AcDbLine
 62
7
  6
CONTINUOUS
 10
194.7796753933
 20
292.9214673761
 11
194.7796753933
 21
283.5316895791
  0
LINE
  5
2CB
100
AcDbEntity
  8
0
100
AcDbLine
 62
7
  6
CONTINUOUS
 10
195.840339981
 20
282.9193284473
 11
195.840339981
 21
282.7758832879
  0
LINE
  5
2CC
100
AcDbEntity
  8
0
100
AcDbLine
 62
7
  6
CONTINUOUS
 10
203.8912022978
 20
287.7724164726
 11
203.9654020064
 21
287.8350908663
  0
LINE
  5
2CD
100
AcDbEntity
  8
0
100
AcDbLine
 62
7
  6
CONTINUOUS
 10
194.7796753933
 20
283.5316895791
 11
194.6554464652
 21
283.4599664022
  0
LINE
  5
2CE
100
AcDbEntity
  8
0
100
AcDbLine
 62
7
  6
CONTINUOUS
 10
203.9653298737
 20
287.8352154085
 11
205.0259856295
 21
288.4475816393
  0
LINE
  5
2CF
100
AcDbEntity
  8
0
100
AcDbLine
 62
7
  6
CONTINUOUS
 10
195.840339981
 20
282.9193284473
 11
195.716111053
 21
282.8476052704
  0
LINE
  5
2D0
100
AcDbEntity
  8
0
100
AcDbLine
 62
7
  6
CONTINUOUS
 10
205.4259838388
 20
288.4079622161
 11
204.365328083
 21
287.7955959853
  0
LINE
  5
2D1
100
AcDbEntity
  8
0
100
AcDbLine
 62
7
  6
CONTINUOUS
 10
205.5588004516
 20
287.1065599801
 11
206.6194562074
 21
287.7189262109
  0
LINE
  5
2D2
100
AcDbEntity
  8
0
100
AcDbLine
 62
7
  6
CONTINUOUS
 10
207.0935819927
 20
287.1482857839
 11
206.0329262368
 21
286.5359195531
  0
LINE
  5
2D3
100
AcDbEntity
  8
0
100
AcDbLine
 62
7
  6
CONTINUOUS
 10
207.4369394734
 20
285.6139578702
 11
206.3762837176
 21
285.0015916394
  0
LINE
  5
2D4
100
AcDbEntity
  8
0
100
AcDbLine
 62
7
  6
CONTINUOUS
 10
47.0521704942
 20
354.015462686
 11
52.3249092086
 21
350.9713144377
  0
LINE
  5
2D5
100
AcDbEntity
  8
0
100
AcDbLine
 62
7
  6
CONTINUOUS
 10
348.4318792808
 20
180.0177472194
 11
343.1591427775
 21
183.0618941912
  0
LINE
  5
2D6
100
AcDbEntity
  8
0
100
AcDbLine
 62
7
  6
CONTINUOUS
 10
342.8484742964
 20
183.7485734129
 11
348.2108447262
 21
180.6526774403
  0
LINE
  5
2D7
100
AcDbEntity
  8
0
100
AcDbLine
 62
7
  6
CONTINUOUS
 10
46.651870324
 20
354.7538894239
 11
52.0142407275
 21
351.6579936594
  0
LINE
  5
2D8
100
AcDbEntity
  8
0
100
AcDbLine
 62
7
  6
CONTINUOUS
 10
342.8484742964
 20
183.9008135088
 11
52.1799197199
 21
351.7145852837
  0
LINE
  5
2D9
100
AcDbEntity
  8
0
100
AcDbLine
 62
7
  6
CONTINUOUS
 10
52.1556614949
 20
351.9991604586
 11
342.8484742964
 21
184.1713835078
  0
LINE
  5
2DA
100
AcDbEntity
  8
0
100
AcDbLine
 62
7
  6
CONTINUOUS
 10
49.6921763459
 20
360.1693941955
 11
52.0142407275
 21
358.8287800285
  0
LINE
  5
2DB
100
AcDbEntity
  8
0
100
AcDbLine
 62
7
  6
CONTINUOUS
 10
345.1705386779
 20
189.5787456149
 11
342.8484742964
 21
190.9193597819
  0
LINE
  5
2DC
100
AcDbEntity
  8
0
100
AcDbLine
 62
7
  6
CONTINUOUS
 10
50.1164386482
 20
360.4143406878
 11
51.9486030416
 21
359.3565640122
  0
LINE
  5
2DD
100
AcDbEntity
  8
0
100
AcDbLine
 62
7
  6
CONTINUOUS
 10
345.5948009803
 20
189.8236921072
 11
343.7626365869
 21
190.8814687828
  0
LINE
  5
2DE
100
AcDbEntity
  8
0
100
AcDbLine
 62
7
  6
CONTINUOUS
 10
203.547844817
 20
278.3260539647
 11
203.547844817
 21
286.6345546575
  0
LINE
  5
2DF
100
AcDbEntity
  8
0
100
AcDbLine
 62
7
  6
CONTINUOUS
 10
206.3762837176
 20
285.0015916394
 11
206.3762837176
 21
276.6930909466
  0
LINE
  5
2E0
100
AcDbEntity
  8
0
100
AcDbLine
 62
7
  6
CONTINUOUS
 10
207.4369394734
 20
285.6139578702
 11
207.4369394734
 21
276.2241800732
  0
LINE
  5
2E1
100
AcDbEntity
  8
0
100
AcDbLine
 62
7
  6
CONTINUOUS
 10
208.4976040611
 20
275.6118189414
 11
208.4976040611
 21
275.468373782
  0
LINE
  5
2E2
100
AcDbEntity
  8
0
100
AcDbLine
 62
7
  6
CONTINUOUS
 10
216.5484663779
 20
280.4649069667
 11
216.6226660865
 21
280.5275813604
  0
LINE
  5
2E3
100
AcDbEntity
  8
0
100
AcDbLine
 62
7
  6
CONTINUOUS
 10
203.5478359851
 20
278.4695042231
 11
203.4236070571
 21
278.3977810461
  0
LINE
  5
2E4
100
AcDbEntity
  8
0
100
AcDbLine
 62
7
  6
CONTINUOUS
 10
207.4369394734
 20
276.2241800732
 11
207.3127105454
 21
276.1524568963
  0
LINE
  5
2E5
100
AcDbEntity
  8
0
100
AcDbLine
 62
7
  6
CONTINUOUS
 10
216.6225939538
 20
280.5277059026
 11
217.6832497097
 21
281.1400721334
  0
LINE
  5
2E6
100
AcDbEntity
  8
0
100
AcDbLine
 62
7
  6
CONTINUOUS
 10
208.4976040611
 20
275.6118189414
 11
208.3733751331
 21
275.5400957645
  0
LINE
  5
2E7
100
AcDbEntity
  8
0
100
AcDbLine
 62
7
  6
CONTINUOUS
 10
218.0832479189
 20
281.1004527102
 11
217.0225921631
 21
280.4880864794
  0
LINE
  5
2E8
100
AcDbEntity
  8
0
100
AcDbLine
 62
7
  6
CONTINUOUS
 10
218.2160645317
 20
279.7990504741
 11
219.2767202875
 21
280.411416705
  0
LINE
  5
2E9
100
AcDbEntity
  8
0
100
AcDbLine
 62
7
  6
CONTINUOUS
 10
219.7508460728
 20
279.840776278
 11
218.690190317
 21
279.2284100472
  0
LINE
  5
2EA
100
AcDbEntity
  8
0
100
AcDbLine
 62
7
  6
CONTINUOUS
 10
220.0942035535
 20
278.3064483643
 11
219.0335477977
 21
277.6940821335
  0
LINE
  5
2EB
100
AcDbEntity
  8
0
100
AcDbLine
 62
7
  6
CONTINUOUS
 10
45.6502532011
 20
368.6267149476
 11
48.8322469643
 21
366.7896315523
  0
LINE
  5
2EC
100
AcDbEntity
  8
0
100
AcDbLine
 62
7
  6
CONTINUOUS
 10
349.2124618227
 20
193.3689611197
 11
346.0304680595
 21
195.2060445151
  0
LINE
  5
2ED
100
AcDbEntity
  8
0
100
AcDbLine
 62
7
  6
CONTINUOUS
 10
346.2626847396
 20
195.3401140775
 11
49.2586369373
 21
366.8116018233
  0
LINE
  5
2EE
100
AcDbEntity
  8
0
100
AcDbLine
 62
7
  6
CONTINUOUS
 10
46.6402032836
 20
368.5450688363
 11
49.2565092666
 21
367.0345780446
  0
LINE
  5
2EF
100
AcDbEntity
  8
0
100
AcDbLine
 62
7
  6
CONTINUOUS
 10
349.0710363449
 20
193.9405002157
 11
346.4547303619
 21
195.4509910074
  0
LINE
  5
2F0
100
AcDbEntity
  8
0
100
AcDbLine
 62
7
  6
CONTINUOUS
 10
47.8499032363
 20
368.214059814
 11
47.6535593012
 21
368.3274164734
  0
LINE
  5
2F1
100
AcDbEntity
  8
0
100
AcDbLine
 62
7
  6
CONTINUOUS
 10
347.476454344
 20
195.2285075071
 11
349.3892149645
 21
194.1241996308
  0
LINE
  5
2F2
100
AcDbEntity
  8
0
100
AcDbLine
 62
7
  6
CONTINUOUS
 10
346.9582772971
 20
195.5298752676
 11
47.8508635599
 21
368.2157144297
  0
LINE
  5
2F3
100
AcDbEntity
  8
0
100
AcDbLine
 62
7
  6
CONTINUOUS
 10
55.5497705118
 20
363.9142941442
 11
56.6104350995
 21
363.3019330124
  0
LINE
  5
2F4
100
AcDbEntity
  8
0
100
AcDbLine
 62
7
  6
CONTINUOUS
 10
68.2070345919
 20
356.6067846382
 11
69.2676991797
 21
355.9944235065
  0
LINE
  5
2F5
100
AcDbEntity
  8
0
100
AcDbLine
 62
7
  6
CONTINUOUS
 10
80.8642986721
 20
349.2992751323
 11
81.9249632598
 21
348.6869140005
  0
LINE
  5
2F6
100
AcDbEntity
  8
0
100
AcDbLine
 62
7
  6
CONTINUOUS
 10
93.5215627522
 20
341.9917656264
 11
94.5822273399
 21
341.3794044946
  0
LINE
  5
2F7
100
AcDbEntity
  8
0
100
AcDbLine
 62
7
  6
CONTINUOUS
 10
106.1788268323
 20
334.6842561205
 11
107.2394914201
 21
334.0718949887
  0
LINE
  5
2F8
100
AcDbEntity
  8
0
100
AcDbLine
 62
7
  6
CONTINUOUS
 10
118.8360909125
 20
327.3767466146
 11
119.8967555002
 21
326.7643854828
  0
LINE
  5
2F9
100
AcDbEntity
  8
0
100
AcDbLine
 62
7
  6
CONTINUOUS
 10
131.4933549926
 20
320.0692371087
 11
132.5540195803
 21
319.4568759769
  0
LINE
  5
2FA
100
AcDbEntity
  8
0
100
AcDbLine
 62
7
  6
CONTINUOUS
 10
144.1506190727
 20
312.7617276028
 11
145.2112836605
 21
312.149366471
  0
LINE
  5
2FB
100
AcDbEntity
  8
0
100
AcDbLine
 62
7
  6
CONTINUOUS
 10
156.8078831529
 20
305.4542180968
 11
157.8685477406
 21
304.8418569651
  0
LINE
  5
2FC
100
AcDbEntity
  8
0
100
AcDbLine
 62
7
  6
CONTINUOUS
 10
169.465147233
 20
298.1467085909
 11
170.5258118207
 21
297.5343474592
  0
LINE
  5
2FD
100
AcDbEntity
  8
0
100
AcDbLine
 62
7
  6
CONTINUOUS
 10
182.1224113131
 20
290.839199085
 11
183.1830759008
 21
290.2268379532
  0
LINE
  5
2FE
100
AcDbEntity
  8
0
100
AcDbLine
 62
7
  6
CONTINUOUS
 10
194.7796753933
 20
283.5316895791
 11
195.840339981
 21
282.9193284473
  0
LINE
  5
2FF
100
AcDbEntity
  8
0
100
AcDbLine
 62
7
  6
CONTINUOUS
 10
207.4369394734
 20
276.2241800732
 11
208.4976040611
 21
275.6118189414
  0
LINE
  5
300
100
AcDbEntity
  8
0
100
AcDbLine
 62
7
  6
CONTINUOUS
 10
220.0942035535
 20
268.9166705673
 11
221.1548681412
 21
268.3043094355
  0
LINE
  5
301
100
AcDbEntity
  8
0
100
AcDbLine
 62
7
  6
CONTINUOUS
 10
232.7514676337
 20
261.6091610614
 11
233.8121322214
 21
260.9967999296
  0
LINE
  5
302
100
AcDbEntity
  8
0
100
AcDbLine
 62
7
  6
CONTINUOUS
 10
245.4087317138
 20
254.3016515555
 11
246.4693963015
 21
253.6892904237
  0
LINE
  5
303
100
AcDbEntity
  8
0
100
AcDbLine
 62
7
  6
CONTINUOUS
 10
258.0659957939
 20
246.9941420495
 11
259.1266603816
 21
246.3817809178
  0
LINE
  5
304
100
AcDbEntity
  8
0
100
AcDbLine
 62
7
  6
CONTINUOUS
 10
270.723259874
 20
239.6866325436
 11
271.7839244618
 21
239.0742714118
  0
LINE
  5
305
100
AcDbEntity
  8
0
100
AcDbLine
 62
7
  6
CONTINUOUS
 10
283.3805239542
 20
232.3791230377
 11
284.4411885419
 21
231.7667619059
  0
LINE
  5
306
100
AcDbEntity
  8
0
100
AcDbLine
 62
7
  6
CONTINUOUS
 10
296.0377880343
 20
225.0716135318
 11
297.098452622
 21
224.4592524
  0
LINE
  5
307
100
AcDbEntity
  8
0
100
AcDbLine
 62
7
  6
CONTINUOUS
 10
308.6950521144
 20
217.7641040259
 11
309.7557167022
 21
217.1517428941
  0
LINE
  5
308
100
AcDbEntity
  8
0
100
AcDbLine
 62
7
  6
CONTINUOUS
 10
321.3523161946
 20
210.45659452
 11
322.4129807823
 21
209.8442333882
  0
LINE
  5
309
100
AcDbEntity
  8
0
100
AcDbLine
 62
7
  6
CONTINUOUS
 10
334.0095802747
 20
203.1490850141
 11
335.0702448624
 21
202.5367238823
  0
LINE
  5
30A
100
AcDbEntity
  8
0
100
AcDbLine
 62
7
  6
CONTINUOUS
 10
346.6668443548
 20
195.8415755081
 11
347.498558558
 21
195.3613959522
  0
LINE
  5
30B
100
AcDbEntity
  8
0
100
AcDbLine
 62
7
  6
CONTINUOUS
 10
46.5341318201
 20
369.3003171217
 11
46.6755537651
 21
369.2186689708
  0
LINE
  5
30C
100
AcDbEntity
  8
0
100
AcDbLine
 62
7
  6
CONTINUOUS
 10
350.3791843317
 20
193.8792669919
 11
350.2377623867
 21
193.9609151428
  0
LINE
  5
30D
100
AcDbEntity
  8
0
100
AcDbLine
 62
7
  6
CONTINUOUS
 10
50.7275536635
 20
367.573287037
 11
49.8646446044
 21
368.071476544
  0
LINE
  5
30E
100
AcDbEntity
  8
0
100
AcDbLine
 62
7
  6
CONTINUOUS
 10
349.0285622916
 20
195.3530197244
 11
348.802046686
 21
195.4837956117
  0
LINE
  5
30F
100
AcDbEntity
  8
0
100
AcDbLine
 62
7
  6
CONTINUOUS
 10
49.244542935
 20
369.2459658195
 11
49.599027613
 21
369.0413086252
  0
LINE
  5
310
100
AcDbEntity
  8
0
100
AcDbLine
 62
7
  6
CONTINUOUS
 10
350.9801985982
 20
195.042748977
 11
350.8387888724
 21
195.1243900733
  0
LINE
  5
311
100
AcDbEntity
  8
0
100
AcDbLine
 62
7
  6
CONTINUOUS
 10
47.9483394945
 20
370.1168054294
 11
48.0897614395
 21
370.0351572785
  0
LINE
  5
312
100
AcDbEntity
  8
0
100
AcDbLine
 62
7
  6
CONTINUOUS
 10
351.7933920061
 20
194.6957552997
 11
351.6519700611
 21
194.7774034506
  0
LINE
  5
313
100
AcDbEntity
  8
0
100
AcDbLine
 62
7
  6
CONTINUOUS
 10
348.81073773
 20
196.5361201789
 11
346.6668443548
 21
197.7738695946
  0
LINE
  5
314
100
AcDbEntity
  8
0
100
AcDbLine
 62
7
  6
CONTINUOUS
 10
342.7777496984
 20
200.0191886455
 11
334.0095802747
 21
205.0813791005
  0
LINE
  5
315
100
AcDbEntity
  8
0
100
AcDbLine
 62
7
  6
CONTINUOUS
 10
330.1204856183
 20
207.3266981514
 11
321.3523161946
 21
212.3888886064
  0
LINE
  5
316
100
AcDbEntity
  8
0
100
AcDbLine
 62
7
  6
CONTINUOUS
 10
317.4632215382
 20
214.6342076573
 11
308.6950521144
 21
219.6963981123
  0
LINE
  5
317
100
AcDbEntity
  8
0
100
AcDbLine
 62
7
  6
CONTINUOUS
 10
304.805957458
 20
221.9417171632
 11
296.0377880343
 21
227.0039076182
  0
LINE
  5
318
100
AcDbEntity
  8
0
100
AcDbLine
 62
7
  6
CONTINUOUS
 10
292.1486933779
 20
229.2492266691
 11
283.3805239542
 21
234.3114171242
  0
LINE
  5
319
100
AcDbEntity
  8
0
100
AcDbLine
 62
7
  6
CONTINUOUS
 10
279.4914292978
 20
236.556736175
 11
270.723259874
 21
241.6189266301
  0
LINE
  5
31A
100
AcDbEntity
  8
0
100
AcDbLine
 62
7
  6
CONTINUOUS
 10
266.8341652176
 20
243.8642456809
 11
258.0659957939
 21
248.926436136
  0
LINE
  5
31B
100
AcDbEntity
  8
0
100
AcDbLine
 62
7
  6
CONTINUOUS
 10
254.1769011375
 20
251.1717551869
 11
245.4087317138
 21
256.2339456419
  0
LINE
  5
31C
100
AcDbEntity
  8
0
100
AcDbLine
 62
7
  6
CONTINUOUS
 10
241.5196370574
 20
258.4792646928
 11
232.7514676337
 21
263.5414551478
  0
LINE
  5
31D
100
AcDbEntity
  8
0
100
AcDbLine
 62
7
  6
CONTINUOUS
 10
228.8623729772
 20
265.7867741987
 11
220.0942035535
 21
270.8489646537
  0
LINE
  5
31E
100
AcDbEntity
  8
0
100
AcDbLine
 62
7
  6
CONTINUOUS
 10
216.2051088971
 20
273.0942837046
 11
207.4369394734
 21
278.1564741596
  0
LINE
  5
31F
100
AcDbEntity
  8
0
100
AcDbLine
 62
7
  6
CONTINUOUS
 10
203.547844817
 20
280.4017932105
 11
194.7796753933
 21
285.4639836656
  0
LINE
  5
320
100
AcDbEntity
  8
0
100
AcDbLine
 62
7
  6
CONTINUOUS
 10
190.8905807369
 20
287.7093027164
 11
182.1224113131
 21
292.7714931715
  0
LINE
  5
321
100
AcDbEntity
  8
0
100
AcDbLine
 62
7
  6
CONTINUOUS
 10
178.2333166567
 20
295.0168122223
 11
169.465147233
 21
300.0790026774
  0
LINE
  5
322
100
AcDbEntity
  8
0
100
AcDbLine
 62
7
  6
CONTINUOUS
 10
165.5760525766
 20
302.3243217283
 11
156.8078831529
 21
307.3865121833
  0
LINE
  5
323
100
AcDbEntity
  8
0
100
AcDbLine
 62
7
  6
CONTINUOUS
 10
152.9187884965
 20
309.6318312342
 11
144.1506190727
 21
314.6940216892
  0
LINE
  5
324
100
AcDbEntity
  8
0
100
AcDbLine
 62
7
  6
CONTINUOUS
 10
140.2615244163
 20
316.9393407401
 11
131.4933549926
 21
322.0015311951
  0
LINE
  5
325
100
AcDbEntity
  8
0
100
AcDbLine
 62
7
  6
CONTINUOUS
 10
127.6042603362
 20
324.246850246
 11
118.8360909125
 21
329.309040701
  0
LINE
  5
326
100
AcDbEntity
  8
0
100
AcDbLine
 62
7
  6
CONTINUOUS
 10
114.9469962561
 20
331.5543597519
 11
106.1788268323
 21
336.6165502069
  0
LINE
  5
327
100
AcDbEntity
  8
0
100
AcDbLine
 62
7
  6
CONTINUOUS
 10
102.2897321759
 20
338.8618692578
 11
93.5215627522
 21
343.9240597129
  0
LINE
  5
328
100
AcDbEntity
  8
0
100
AcDbLine
 62
7
  6
CONTINUOUS
 10
89.6324680958
 20
346.1693787637
 11
80.8642986721
 21
351.2315692188
  0
LINE
  5
329
100
AcDbEntity
  8
0
100
AcDbLine
 62
7
  6
CONTINUOUS
 10
76.9752040157
 20
353.4768882696
 11
68.2070345919
 21
358.5390787247
  0
LINE
  5
32A
100
AcDbEntity
  8
0
100
AcDbLine
 62
7
  6
CONTINUOUS
 10
64.3179399355
 20
360.7843977756
 11
55.5497705118
 21
365.8465882306
  0
LINE
  5
32B
100
AcDbEntity
  8
0
100
AcDbLine
 62
7
  6
CONTINUOUS
 10
51.6606758554
 20
368.0919072815
 11
49.7033239929
 21
369.221959341
  0
LINE
  5
32C
100
AcDbEntity
  8
0
100
AcDbLine
 62
7
  6
CONTINUOUS
 10
349.1502991924
 20
196.7954321446
 11
346.6668443548
 21
198.2292230269
  0
LINE
  5
32D
100
AcDbEntity
  8
0
100
AcDbLine
 62
7
  6
CONTINUOUS
 10
342.7777496984
 20
200.4745420778
 11
334.0095802747
 21
205.5367325328
  0
LINE
  5
32E
100
AcDbEntity
  8
0
100
AcDbLine
 62
7
  6
CONTINUOUS
 10
330.1204856183
 20
207.7820515837
 11
321.3523161946
 21
212.8442420387
  0
LINE
  5
32F
100
AcDbEntity
  8
0
100
AcDbLine
 62
7
  6
CONTINUOUS
 10
317.4632215382
 20
215.0895610896
 11
308.6950521144
 21
220.1517515446
  0
LINE
  5
330
100
AcDbEntity
  8
0
100
AcDbLine
 62
7
  6
CONTINUOUS
 10
304.805957458
 20
222.3970705955
 11
296.0377880343
 21
227.4592610505
  0
LINE
  5
331
100
AcDbEntity
  8
0
100
AcDbLine
 62
7
  6
CONTINUOUS
 10
292.1486933779
 20
229.7045801014
 11
283.3805239542
 21
234.7667705564
  0
LINE
  5
332
100
AcDbEntity
  8
0
100
AcDbLine
 62
7
  6
CONTINUOUS
 10
279.4914292978
 20
237.0120896073
 11
270.723259874
 21
242.0742800624
  0
LINE
  5
333
100
AcDbEntity
  8
0
100
AcDbLine
 62
7
  6
CONTINUOUS
 10
266.8341652176
 20
244.3195991132
 11
258.0659957939
 21
249.3817895683
  0
LINE
  5
334
100
AcDbEntity
  8
0
100
AcDbLine
 62
7
  6
CONTINUOUS
 10
254.1769011375
 20
251.6271086192
 11
245.4087317138
 21
256.6892990742
  0
LINE
  5
335
100
AcDbEntity
  8
0
100
AcDbLine
 62
7
  6
CONTINUOUS
 10
241.5196370574
 20
258.9346181251
 11
232.7514676337
 21
263.9968085801
  0
LINE
  5
336
100
AcDbEntity
  8
0
100
AcDbLine
 62
7
  6
CONTINUOUS
 10
228.8623729772
 20
266.242127631
 11
220.0942035535
 21
271.304318086
  0
LINE
  5
337
100
AcDbEntity
  8
0
100
AcDbLine
 62
7
  6
CONTINUOUS
 10
216.2051088971
 20
273.5496371369
 11
207.4369394734
 21
278.6118275919
  0
LINE
  5
338
100
AcDbEntity
  8
0
100
AcDbLine
 62
7
  6
CONTINUOUS
 10
203.547844817
 20
280.8571466428
 11
194.7796753933
 21
285.9193370978
  0
LINE
  5
339
100
AcDbEntity
  8
0
100
AcDbLine
 62
7
  6
CONTINUOUS
 10
190.8905807369
 20
288.1646561487
 11
182.1224113131
 21
293.2268466038
  0
LINE
  5
33A
100
AcDbEntity
  8
0
100
AcDbLine
 62
7
  6
CONTINUOUS
 10
178.2333166567
 20
295.4721656546
 11
169.465147233
 21
300.5343561097
  0
LINE
  5
33B
100
AcDbEntity
  8
0
100
AcDbLine
 62
7
  6
CONTINUOUS
 10
165.5760525766
 20
302.7796751605
 11
156.8078831529
 21
307.8418656156
  0
LINE
  5
33C
100
AcDbEntity
  8
0
100
AcDbLine
 62
7
  6
CONTINUOUS
 10
152.9187884965
 20
310.0871846665
 11
144.1506190727
 21
315.1493751215
  0
LINE
  5
33D
100
AcDbEntity
  8
0
100
AcDbLine
 62
7
  6
CONTINUOUS
 10
140.2615244163
 20
317.3946941724
 11
131.4933549926
 21
322.4568846274
  0
LINE
  5
33E
100
AcDbEntity
  8
0
100
AcDbLine
 62
7
  6
CONTINUOUS
 10
127.6042603362
 20
324.7022036783
 11
118.8360909125
 21
329.7643941333
  0
LINE
  5
33F
100
AcDbEntity
  8
0
100
AcDbLine
 62
7
  6
CONTINUOUS
 10
114.9469962561
 20
332.0097131842
 11
106.1788268323
 21
337.0719036392
  0
LINE
  5
340
100
AcDbEntity
  8
0
100
AcDbLine
 62
7
  6
CONTINUOUS
 10
102.2897321759
 20
339.3172226901
 11
93.5215627522
 21
344.3794131452
  0
LINE
  5
341
100
AcDbEntity
  8
0
100
AcDbLine
 62
7
  6
CONTINUOUS
 10
89.6324680958
 20
346.624732196
 11
80.8642986721
 21
351.6869226511
  0
LINE
  5
342
100
AcDbEntity
  8
0
100
AcDbLine
 62
7
  6
CONTINUOUS
 10
76.9752040157
 20
353.9322417019
 11
68.2070345919
 21
358.994432157
  0
LINE
  5
343
100
AcDbEntity
  8
0
100
AcDbLine
 62
7
  6
CONTINUOUS
 10
64.3179399355
 20
361.2397512079
 11
55.5497705118
 21
366.3019416629
  0
LINE
  5
344
100
AcDbEntity
  8
0
100
AcDbLine
 62
7
  6
CONTINUOUS
 10
51.6606758554
 20
368.5472607138
 11
50.0428854552
 21
369.4812713067
  0
LINE
  5
345
100
AcDbEntity
  8
0
100
AcDbLine
 62
7
  6
CONTINUOUS
 10
49.2564874813
 20
370.0555722057
 11
51.6606758554
 21
368.6675448021
  0
LINE
  5
346
100
AcDbEntity
  8
0
100
AcDbLine
 62
7
  6
CONTINUOUS
 10
351.6873205426
 20
195.451003585
 11
349.0710145596
 21
196.9614943767
  0
LINE
  5
347
100
AcDbEntity
  8
0
100
AcDbLine
 62
7
  6
CONTINUOUS
 10
49.1150620035
 20
370.6271113016
 11
51.6606758554
 21
369.1574337075
  0
LINE
  5
348
100
AcDbEntity
  8
0
100
AcDbLine
 62
7
  6
CONTINUOUS
 10
352.677270625
 20
195.3693574737
 11
349.4952768619
 21
197.206440869
  0
LINE
  5
349
100
AcDbEntity
  8
0
100
AcDbLine
 62
7
  6
CONTINUOUS
 10
344.788705333
 20
206.723955415
 11
343.5952329644
 21
207.4129914202
  0
LINE
  5
34A
100
AcDbEntity
  8
0
100
AcDbLine
 62
7
  6
CONTINUOUS
 10
332.1314412529
 20
214.0314649209
 11
330.9379688843
 21
214.7205009261
  0
LINE
  5
34B
100
AcDbEntity
  8
0
100
AcDbLine
 62
7
  6
CONTINUOUS
 10
319.4741771727
 20
221.3389744269
 11
318.2807048042
 21
222.028010432
  0
LINE
  5
34C
100
AcDbEntity
  8
0
100
AcDbLine
 62
7
  6
CONTINUOUS
 10
306.8169130926
 20
228.6464839328
 11
305.623440724
 21
229.335519938
  0
LINE
  5
34D
100
AcDbEntity
  8
0
100
AcDbLine
 62
7
  6
CONTINUOUS
 10
294.1596490125
 20
235.9539934387
 11
292.9661766439
 21
236.6430294439
  0
LINE
  5
34E
100
AcDbEntity
  8
0
100
AcDbLine
 62
7
  6
CONTINUOUS
 10
281.5023849324
 20
243.2615029446
 11
280.3089125638
 21
243.9505389498
  0
LINE
  5
34F
100
AcDbEntity
  8
0
100
AcDbLine
 62
7
  6
CONTINUOUS
 10
268.8451208522
 20
250.5690124505
 11
267.6516484836
 21
251.2580484557
  0
LINE
  5
350
100
AcDbEntity
  8
0
100
AcDbLine
 62
7
  6
CONTINUOUS
 10
256.1878567721
 20
257.8765219564
 11
254.9943844035
 21
258.5655579616
  0
LINE
  5
351
100
AcDbEntity
  8
0
100
AcDbLine
 62
7
  6
CONTINUOUS
 10
243.530592692
 20
265.1840314623
 11
242.3371203234
 21
265.8730674675
  0
LINE
  5
352
100
AcDbEntity
  8
0
100
AcDbLine
 62
7
  6
CONTINUOUS
 10
230.8733286119
 20
272.4915409682
 11
229.6798562432
 21
273.1805769735
  0
LINE
  5
353
100
AcDbEntity
  8
0
100
AcDbLine
 62
7
  6
CONTINUOUS
 10
218.2160645317
 20
279.7990504741
 11
217.0225921631
 21
280.4880864794
  0
LINE
  5
354
100
AcDbEntity
  8
0
100
AcDbLine
 62
7
  6
CONTINUOUS
 10
205.5588004516
 20
287.1065599801
 11
204.365328083
 21
287.7955959853
  0
LINE
  5
355
100
AcDbEntity
  8
0
100
AcDbLine
 62
7
  6
CONTINUOUS
 10
192.9015363715
 20
294.414069486
 11
191.7080640028
 21
295.1031054912
  0
LINE
  5
356
100
AcDbEntity
  8
0
100
AcDbLine
 62
7
  6
CONTINUOUS
 10
180.2442722913
 20
301.7215789919
 11
179.0507999227
 21
302.4106149971
  0
LINE
  5
357
100
AcDbEntity
  8
0
100
AcDbLine
 62
7
  6
CONTINUOUS
 10
167.5870082112
 20
309.0290884978
 11
166.3935358426
 21
309.718124503
  0
LINE
  5
358
100
AcDbEntity
  8
0
100
AcDbLine
 62
7
  6
CONTINUOUS
 10
154.9297441311
 20
316.3365980037
 11
153.7362717624
 21
317.0256340089
  0
LINE
  5
359
100
AcDbEntity
  8
0
100
AcDbLine
 62
7
  6
CONTINUOUS
 10
142.2724800509
 20
323.6441075096
 11
141.0790076823
 21
324.3331435149
  0
LINE
  5
35A
100
AcDbEntity
  8
0
100
AcDbLine
 62
7
  6
CONTINUOUS
 10
129.6152159708
 20
330.9516170155
 11
128.4217436022
 21
331.6406530208
  0
LINE
  5
35B
100
AcDbEntity
  8
0
100
AcDbLine
 62
7
  6
CONTINUOUS
 10
116.9579518907
 20
338.2591265215
 11
115.764479522
 21
338.9481625267
  0
LINE
  5
35C
100
AcDbEntity
  8
0
100
AcDbLine
 62
7
  6
CONTINUOUS
 10
104.3006878105
 20
345.5666360274
 11
103.1072154419
 21
346.2556720326
  0
LINE
  5
35D
100
AcDbEntity
  8
0
100
AcDbLine
 62
7
  6
CONTINUOUS
 10
91.6434237304
 20
352.8741455333
 11
90.4499513618
 21
353.5631815385
  0
LINE
  5
35E
100
AcDbEntity
  8
0
100
AcDbLine
 62
7
  6
CONTINUOUS
 10
78.9861596503
 20
360.1816550392
 11
77.7926872816
 21
360.8706910444
  0
LINE
  5
35F
100
AcDbEntity
  8
0
100
AcDbLine
 62
7
  6
CONTINUOUS
 10
66.3288955702
 20
367.4891645451
 11
65.1354232015
 21
368.1782005503
  0
LINE
  5
360
100
AcDbEntity
  8
0
100
AcDbLine
 62
7
  6
CONTINUOUS
 10
53.67163149
 20
374.796674051
 11
52.4781591214
 21
375.4857100562
  0
LINE
  5
361
100
AcDbEntity
  8
0
100
AcDbLine
 62
7
  6
CONTINUOUS
 10
345.8493610888
 20
207.3363216458
 11
344.6558887202
 21
208.025357651
  0
LINE
  5
362
100
AcDbEntity
  8
0
100
AcDbLine
 62
7
  6
CONTINUOUS
 10
333.1920970087
 20
214.6438311518
 11
331.9986246401
 21
215.3328671569
  0
LINE
  5
363
100
AcDbEntity
  8
0
100
AcDbLine
 62
7
  6
CONTINUOUS
 10
320.5348329286
 20
221.9513406577
 11
319.34136056
 21
222.6403766629
  0
LINE
  5
364
100
AcDbEntity
  8
0
100
AcDbLine
 62
7
  6
CONTINUOUS
 10
307.8775688484
 20
229.2588501636
 11
306.6840964799
 21
229.9478861688
  0
LINE
  5
365
100
AcDbEntity
  8
0
100
AcDbLine
 62
7
  6
CONTINUOUS
 10
295.2203047683
 20
236.5663596695
 11
294.0268323997
 21
237.2553956747
  0
LINE
  5
366
100
AcDbEntity
  8
0
100
AcDbLine
 62
7
  6
CONTINUOUS
 10
282.5630406882
 20
243.8738691754
 11
281.3695683196
 21
244.5629051806
  0
LINE
  5
367
100
AcDbEntity
  8
0
100
AcDbLine
 62
7
  6
CONTINUOUS
 10
269.9057766081
 20
251.1813786813
 11
268.7123042394
 21
251.8704146865
  0
LINE
  5
368
100
AcDbEntity
  8
0
100
AcDbLine
 62
7
  6
CONTINUOUS
 10
257.2485125279
 20
258.4888881872
 11
256.0550401593
 21
259.1779241924
  0
LINE
  5
369
100
AcDbEntity
  8
0
100
AcDbLine
 62
7
  6
CONTINUOUS
 10
244.5912484478
 20
265.7963976931
 11
243.3977760792
 21
266.4854336984
  0
LINE
  5
36A
100
AcDbEntity
  8
0
100
AcDbLine
 62
7
  6
CONTINUOUS
 10
231.9339843677
 20
273.103907199
 11
230.740511999
 21
273.7929432043
  0
LINE
  5
36B
100
AcDbEntity
  8
0
100
AcDbLine
 62
7
  6
CONTINUOUS
 10
219.2767202875
 20
280.411416705
 11
218.0832479189
 21
281.1004527102
  0
LINE
  5
36C
100
AcDbEntity
  8
0
100
AcDbLine
 62
7
  6
CONTINUOUS
 10
206.6194562074
 20
287.7189262109
 11
205.4259838388
 21
288.4079622161
  0
LINE
  5
36D
100
AcDbEntity
  8
0
100
AcDbLine
 62
7
  6
CONTINUOUS
 10
193.9621921273
 20
295.0264357168
 11
192.7687197586
 21
295.715471722
  0
LINE
  5
36E
100
AcDbEntity
  8
0
100
AcDbLine
 62
7
  6
CONTINUOUS
 10
181.3049280472
 20
302.3339452227
 11
180.1114556785
 21
303.0229812279
  0
LINE
  5
36F
100
AcDbEntity
  8
0
100
AcDbLine
 62
7
  6
CONTINUOUS
 10
168.647663967
 20
309.6414547286
 11
167.4541915984
 21
310.3304907338
  0
LINE
  5
370
100
AcDbEntity
  8
0
100
AcDbLine
 62
7
  6
CONTINUOUS
 10
155.9903998869
 20
316.9489642345
 11
154.7969275183
 21
317.6380002397
  0
LINE
  5
371
100
AcDbEntity
  8
0
100
AcDbLine
 62
7
  6
CONTINUOUS
 10
143.3331358068
 20
324.2564737404
 11
142.1396634381
 21
324.9455097457
  0
LINE
  5
372
100
AcDbEntity
  8
0
100
AcDbLine
 62
7
  6
CONTINUOUS
 10
130.6758717266
 20
331.5639832463
 11
129.482399358
 21
332.2530192516
  0
LINE
  5
373
100
AcDbEntity
  8
0
100
AcDbLine
 62
7
  6
CONTINUOUS
 10
118.0186076465
 20
338.8714927523
 11
116.8251352779
 21
339.5605287575
  0
LINE
  5
374
100
AcDbEntity
  8
0
100
AcDbLine
 62
7
  6
CONTINUOUS
 10
105.3613435664
 20
346.1790022582
 11
104.1678711977
 21
346.8680382634
  0
LINE
  5
375
100
AcDbEntity
  8
0
100
AcDbLine
 62
7
  6
CONTINUOUS
 10
92.7040794862
 20
353.4865117641
 11
91.5106071176
 21
354.1755477693
  0
LINE
  5
376
100
AcDbEntity
  8
0
100
AcDbLine
 62
7
  6
CONTINUOUS
 10
80.0468154061
 20
360.79402127
 11
78.8533430375
 21
361.4830572752
  0
LINE
  5
377
100
AcDbEntity
  8
0
100
AcDbLine
 62
7
  6
CONTINUOUS
 10
67.389551326
 20
368.1015307759
 11
66.1960789573
 21
368.7905667811
  0
LINE
  5
378
100
AcDbEntity
  8
0
100
AcDbLine
 62
7
  6
CONTINUOUS
 10
54.7322872458
 20
375.4090402818
 11
53.5388148772
 21
376.0980762871
  0
LINE
  5
379
100
AcDbEntity
  8
0
100
AcDbLine
 62
7
  6
CONTINUOUS
 10
216.2051088971
 20
271.0185444588
 11
216.2051088971
 21
279.3270451515
  0
LINE
  5
37A
100
AcDbEntity
  8
0
100
AcDbLine
 62
7
  6
CONTINUOUS
 10
219.0335477977
 20
277.6940821335
 11
219.0335477977
 21
269.3855814407
  0
LINE
  5
37B
100
AcDbEntity
  8
0
100
AcDbLine
 62
7
  6
CONTINUOUS
 10
220.0942035535
 20
278.3064483643
 11
220.0942035535
 21
268.9166705673
  0
LINE
  5
37C
100
AcDbEntity
  8
0
100
AcDbLine
 62
7
  6
CONTINUOUS
 10
221.1548681412
 20
268.3043094355
 11
221.1548681412
 21
268.1608642761
  0
LINE
  5
37D
100
AcDbEntity
  8
0
100
AcDbLine
 62
7
  6
CONTINUOUS
 10
229.205730458
 20
273.1573974608
 11
229.2799301667
 21
273.2200718545
  0
LINE
  5
37E
100
AcDbEntity
  8
0
100
AcDbLine
 62
7
  6
CONTINUOUS
 10
216.2051000652
 20
271.1619947171
 11
216.0808711372
 21
271.0902715402
  0
LINE
  5
37F
100
AcDbEntity
  8
0
100
AcDbLine
 62
7
  6
CONTINUOUS
 10
220.0942035535
 20
268.9166705673
 11
219.9699746255
 21
268.8449473904
  0
LINE
  5
380
100
AcDbEntity
  8
0
100
AcDbLine
 62
7
  6
CONTINUOUS
 10
229.279858034
 20
273.2201963967
 11
230.3405137898
 21
273.8325626275
  0
LINE
  5
381
100
AcDbEntity
  8
0
100
AcDbLine
 62
7
  6
CONTINUOUS
 10
221.1548681412
 20
268.3043094355
 11
221.0306392132
 21
268.2325862586
  0
LINE
  5
382
100
AcDbEntity
  8
0
100
AcDbLine
 62
7
  6
CONTINUOUS
 10
230.740511999
 20
273.7929432043
 11
229.6798562432
 21
273.1805769735
  0
LINE
  5
383
100
AcDbEntity
  8
0
100
AcDbLine
 62
7
  6
CONTINUOUS
 10
230.8733286119
 20
272.4915409682
 11
231.9339843677
 21
273.103907199
  0
LINE
  5
384
100
AcDbEntity
  8
0
100
AcDbLine
 62
7
  6
CONTINUOUS
 10
232.4081101529
 20
272.5332667721
 11
231.3474543971
 21
271.9209005413
  0
LINE
  5
385
100
AcDbEntity
  8
0
100
AcDbLine
 62
7
  6
CONTINUOUS
 10
232.7514676337
 20
270.9989388584
 11
231.6908118778
 21
270.3865726275
  0
LINE
  5
386
100
AcDbEntity
  8
0
100
AcDbLine
 62
7
  6
CONTINUOUS
 10
228.8623729772
 20
263.7110349529
 11
228.8623729772
 21
272.0195356456
  0
LINE
  5
387
100
AcDbEntity
  8
0
100
AcDbLine
 62
7
  6
CONTINUOUS
 10
231.6908118778
 20
270.3865726275
 11
231.6908118778
 21
262.0780719348
  0
LINE
  5
388
100
AcDbEntity
  8
0
100
AcDbLine
 62
7
  6
CONTINUOUS
 10
232.7514676337
 20
270.9989388584
 11
232.7514676337
 21
261.6091610614
  0
LINE
  5
389
100
AcDbEntity
  8
0
100
AcDbLine
 62
7
  6
CONTINUOUS
 10
233.8121322214
 20
260.9967999296
 11
233.8121322214
 21
260.8533547702
  0
LINE
  5
38A
100
AcDbEntity
  8
0
100
AcDbLine
 62
7
  6
CONTINUOUS
 10
241.8629945382
 20
265.8498879549
 11
241.9371942468
 21
265.9125623486
  0
LINE
  5
38B
100
AcDbEntity
  8
0
100
AcDbLine
 62
7
  6
CONTINUOUS
 10
228.8623641453
 20
263.8544852112
 11
228.7381352173
 21
263.7827620343
  0
LINE
  5
38C
100
AcDbEntity
  8
0
100
AcDbLine
 62
7
  6
CONTINUOUS
 10
232.7514676337
 20
261.6091610614
 11
232.6272387056
 21
261.5374378845
  0
LINE
  5
38D
100
AcDbEntity
  8
0
100
AcDbLine
 62
7
  6
CONTINUOUS
 10
241.9371221141
 20
265.9126868908
 11
242.9977778699
 21
266.5250531216
  0
LINE
  5
38E
100
AcDbEntity
  8
0
100
AcDbLine
 62
7
  6
CONTINUOUS
 10
233.8121322214
 20
260.9967999296
 11
233.6879032933
 21
260.9250767527
  0
LINE
  5
38F
100
AcDbEntity
  8
0
100
AcDbLine
 62
7
  6
CONTINUOUS
 10
243.3977760792
 20
266.4854336984
 11
242.3371203234
 21
265.8730674675
  0
LINE
  5
390
100
AcDbEntity
  8
0
100
AcDbLine
 62
7
  6
CONTINUOUS
 10
243.530592692
 20
265.1840314623
 11
244.5912484478
 21
265.7963976931
  0
LINE
  5
391
100
AcDbEntity
  8
0
100
AcDbLine
 62
7
  6
CONTINUOUS
 10
245.065374233
 20
265.2257572662
 11
244.0047184772
 21
264.6133910354
  0
LINE
  5
392
100
AcDbEntity
  8
0
100
AcDbLine
 62
7
  6
CONTINUOUS
 10
245.4087317138
 20
263.6914293524
 11
244.348075958
 21
263.0790631216
  0
LINE
  5
393
100
AcDbEntity
  8
0
100
AcDbLine
 62
7
  6
CONTINUOUS
 10
241.5196370574
 20
256.403525447
 11
241.5196370574
 21
264.7120261397
  0
LINE
  5
394
100
AcDbEntity
  8
0
100
AcDbLine
 62
7
  6
CONTINUOUS
 10
244.348075958
 20
263.0790631216
 11
244.348075958
 21
254.7705624289
  0
LINE
  5
395
100
AcDbEntity
  8
0
100
AcDbLine
 62
7
  6
CONTINUOUS
 10
245.4087317138
 20
263.6914293524
 11
245.4087317138
 21
254.3016515555
  0
LINE
  5
396
100
AcDbEntity
  8
0
100
AcDbLine
 62
7
  6
CONTINUOUS
 10
246.4693963015
 20
253.6892904237
 11
246.4693963015
 21
253.5458452643
  0
LINE
  5
397
100
AcDbEntity
  8
0
100
AcDbLine
 62
7
  6
CONTINUOUS
 10
241.5196282255
 20
256.5469757053
 11
241.3953992975
 21
256.4752525284
  0
LINE
  5
398
100
AcDbEntity
  8
0
100
AcDbLine
 62
7
  6
CONTINUOUS
 10
245.4087317138
 20
254.3016515555
 11
245.2845027858
 21
254.2299283785
  0
LINE
  5
399
100
AcDbEntity
  8
0
100
AcDbLine
 62
7
  6
CONTINUOUS
 10
254.5943861942
 20
258.6051773848
 11
255.6550419501
 21
259.2175436157
  0
LINE
  5
39A
100
AcDbEntity
  8
0
100
AcDbLine
 62
7
  6
CONTINUOUS
 10
246.4693963015
 20
253.6892904237
 11
246.3451673735
 21
253.6175672468
  0
LINE
  5
39B
100
AcDbEntity
  8
0
100
AcDbLine
 62
7
  6
CONTINUOUS
 10
256.0550401593
 20
259.1779241924
 11
254.9943844035
 21
258.5655579616
  0
LINE
  5
39C
100
AcDbEntity
  8
0
100
AcDbLine
 62
7
  6
CONTINUOUS
 10
256.1878567721
 20
257.8765219564
 11
257.2485125279
 21
258.4888881872
  0
LINE
  5
39D
100
AcDbEntity
  8
0
100
AcDbLine
 62
7
  6
CONTINUOUS
 10
257.7226383132
 20
257.9182477602
 11
256.6619825574
 21
257.3058815294
  0
LINE
  5
39E
100
AcDbEntity
  8
0
100
AcDbLine
 62
7
  6
CONTINUOUS
 10
258.0659957939
 20
256.3839198465
 11
257.0053400381
 21
255.7715536157
  0
LINE
  5
39F
100
AcDbEntity
  8
0
100
AcDbLine
 62
7
  6
CONTINUOUS
 10
346.9579523431
 20
195.5293211033
 11
346.9978438495
 21
195.4894516568
  0
LINE
  5
3A0
100
AcDbEntity
  8
0
100
AcDbLine
 62
7
  6
CONTINUOUS
 10
347.5999701627
 20
194.7897805501
 11
347.2766131516
 21
195.1131298296
  0
LINE
  5
3A1
100
AcDbEntity
  8
0
100
AcDbLine
 62
7
  6
CONTINUOUS
 10
254.1769011375
 20
249.096015941
 11
254.1769011375
 21
257.4045166338
  0
LINE
  5
3A2
100
AcDbEntity
  8
0
100
AcDbLine
 62
7
  6
CONTINUOUS
 10
257.0053400381
 20
255.7715536157
 11
257.0053400381
 21
247.463052923
  0
LINE
  5
3A3
100
AcDbEntity
  8
0
100
AcDbLine
 62
7
  6
CONTINUOUS
 10
258.0659957939
 20
256.3839198465
 11
258.0659957939
 21
246.9941420495
  0
LINE
  5
3A4
100
AcDbEntity
  8
0
100
AcDbLine
 62
7
  6
CONTINUOUS
 10
259.1266603816
 20
246.3817809178
 11
259.1266603816
 21
246.2383357584
  0
LINE
  5
3A5
100
AcDbEntity
  8
0
100
AcDbLine
 62
7
  6
CONTINUOUS
 10
254.5202586183
 20
258.542378449
 11
254.5944583269
 21
258.6050528427
  0
LINE
  5
3A6
100
AcDbEntity
  8
0
100
AcDbLine
 62
7
  6
CONTINUOUS
 10
254.1768923056
 20
249.2394661994
 11
254.0526633776
 21
249.1677430225
  0
LINE
  5
3A7
100
AcDbEntity
  8
0
100
AcDbLine
 62
7
  6
CONTINUOUS
 10
258.0659957939
 20
246.9941420495
 11
257.9417668659
 21
246.9224188726
  0
LINE
  5
3A8
100
AcDbEntity
  8
0
100
AcDbLine
 62
7
  6
CONTINUOUS
 10
267.2516502744
 20
251.2976678789
 11
268.3123060302
 21
251.9100341097
  0
LINE
  5
3A9
100
AcDbEntity
  8
0
100
AcDbLine
 62
7
  6
CONTINUOUS
 10
259.1266603816
 20
246.3817809178
 11
259.0024314536
 21
246.3100577409
  0
LINE
  5
3AA
100
AcDbEntity
  8
0
100
AcDbLine
 62
7
  6
CONTINUOUS
 10
268.7123042394
 20
251.8704146865
 11
267.6516484836
 21
251.2580484557
  0
LINE
  5
3AB
100
AcDbEntity
  8
0
100
AcDbLine
 62
7
  6
CONTINUOUS
 10
268.8451208522
 20
250.5690124505
 11
269.9057766081
 21
251.1813786813
  0
LINE
  5
3AC
100
AcDbEntity
  8
0
100
AcDbLine
 62
7
  6
CONTINUOUS
 10
270.3799023933
 20
250.6107382543
 11
269.3192466375
 21
249.9983720235
  0
LINE
  5
3AD
100
AcDbEntity
  8
0
100
AcDbLine
 62
7
  6
CONTINUOUS
 10
270.723259874
 20
249.0764103406
 11
269.6626041182
 21
248.4640441098
  0
LINE
  5
3AE
100
AcDbEntity
  8
0
100
AcDbLine
 62
7
  6
CONTINUOUS
 10
266.8341652176
 20
241.7885064351
 11
266.8341652176
 21
250.0970071279
  0
LINE
  5
3AF
100
AcDbEntity
  8
0
100
AcDbLine
 62
7
  6
CONTINUOUS
 10
269.6626041182
 20
248.4640441098
 11
269.6626041182
 21
240.155543417
  0
LINE
  5
3B0
100
AcDbEntity
  8
0
100
AcDbLine
 62
7
  6
CONTINUOUS
 10
270.723259874
 20
249.0764103406
 11
270.723259874
 21
239.6866325436
  0
LINE
  5
3B1
100
AcDbEntity
  8
0
100
AcDbLine
 62
7
  6
CONTINUOUS
 10
271.7839244618
 20
239.0742714118
 11
271.7839244618
 21
238.9308262525
  0
LINE
  5
3B2
100
AcDbEntity
  8
0
100
AcDbLine
 62
7
  6
CONTINUOUS
 10
267.1775226984
 20
251.234868943
 11
267.2517224071
 21
251.2975433368
  0
LINE
  5
3B3
100
AcDbEntity
  8
0
100
AcDbLine
 62
7
  6
CONTINUOUS
 10
266.8341563857
 20
241.9319566935
 11
266.7099274577
 21
241.8602335166
  0
LINE
  5
3B4
100
AcDbEntity
  8
0
100
AcDbLine
 62
7
  6
CONTINUOUS
 10
270.723259874
 20
239.6866325436
 11
270.599030946
 21
239.6149093667
  0
LINE
  5
3B5
100
AcDbEntity
  8
0
100
AcDbLine
 62
7
  6
CONTINUOUS
 10
279.9089143545
 20
243.990158373
 11
280.9695701103
 21
244.6025246038
  0
LINE
  5
3B6
100
AcDbEntity
  8
0
100
AcDbLine
 62
7
  6
CONTINUOUS
 10
271.7839244618
 20
239.0742714118
 11
271.6596955337
 21
239.0025482349
  0
LINE
  5
3B7
100
AcDbEntity
  8
0
100
AcDbLine
 62
7
  6
CONTINUOUS
 10
281.3695683196
 20
244.5629051806
 11
280.3089125638
 21
243.9505389498
  0
LINE
  5
3B8
100
AcDbEntity
  8
0
100
AcDbLine
 62
7
  6
CONTINUOUS
 10
281.5023849324
 20
243.2615029446
 11
282.5630406882
 21
243.8738691754
  0
LINE
  5
3B9
100
AcDbEntity
  8
0
100
AcDbLine
 62
7
  6
CONTINUOUS
 10
283.0371664734
 20
243.3032287484
 11
281.9765107176
 21
242.6908625176
  0
LINE
  5
3BA
100
AcDbEntity
  8
0
100
AcDbLine
 62
7
  6
CONTINUOUS
 10
283.3805239542
 20
241.7689008347
 11
282.3198681984
 21
241.1565346039
  0
LINE
  5
3BB
100
AcDbEntity
  8
0
100
AcDbLine
 62
7
  6
CONTINUOUS
 10
279.4914292978
 20
234.4809969292
 11
279.4914292978
 21
242.789497622
  0
LINE
  5
3BC
100
AcDbEntity
  8
0
100
AcDbLine
 62
7
  6
CONTINUOUS
 10
282.3198681984
 20
241.1565346039
 11
282.3198681984
 21
232.8480339111
  0
LINE
  5
3BD
100
AcDbEntity
  8
0
100
AcDbLine
 62
7
  6
CONTINUOUS
 10
283.3805239542
 20
241.7689008347
 11
283.3805239542
 21
232.3791230377
  0
LINE
  5
3BE
100
AcDbEntity
  8
0
100
AcDbLine
 62
7
  6
CONTINUOUS
 10
284.4411885419
 20
231.7667619059
 11
284.4411885419
 21
231.6233167466
  0
LINE
  5
3BF
100
AcDbEntity
  8
0
100
AcDbLine
 62
7
  6
CONTINUOUS
 10
279.8347867785
 20
243.9273594371
 11
279.9089864872
 21
243.9900338308
  0
LINE
  5
3C0
100
AcDbEntity
  8
0
100
AcDbLine
 62
7
  6
CONTINUOUS
 10
279.4914204659
 20
234.6244471876
 11
279.3671915378
 21
234.5527240107
  0
LINE
  5
3C1
100
AcDbEntity
  8
0
100
AcDbLine
 62
7
  6
CONTINUOUS
 10
283.3805239542
 20
232.3791230377
 11
283.2562950262
 21
232.3073998608
  0
LINE
  5
3C2
100
AcDbEntity
  8
0
100
AcDbLine
 62
7
  6
CONTINUOUS
 10
292.5661784347
 20
236.6826488671
 11
293.6268341905
 21
237.2950150979
  0
LINE
  5
3C3
100
AcDbEntity
  8
0
100
AcDbLine
 62
7
  6
CONTINUOUS
 10
284.4411885419
 20
231.7667619059
 11
284.3169596139
 21
231.695038729
  0
LINE
  5
3C4
100
AcDbEntity
  8
0
100
AcDbLine
 62
7
  6
CONTINUOUS
 10
294.0268323997
 20
237.2553956747
 11
292.9661766439
 21
236.6430294439
  0
LINE
  5
3C5
100
AcDbEntity
  8
0
100
AcDbLine
 62
7
  6
CONTINUOUS
 10
294.1596490125
 20
235.9539934387
 11
295.2203047683
 21
236.5663596695
  0
LINE
  5
3C6
100
AcDbEntity
  8
0
100
AcDbLine
 62
7
  6
CONTINUOUS
 10
295.6944305536
 20
235.9957192425
 11
294.6337747977
 21
235.3833530117
  0
LINE
  5
3C7
100
AcDbEntity
  8
0
100
AcDbLine
 62
7
  6
CONTINUOUS
 10
296.0377880343
 20
234.4613913288
 11
294.9771322785
 21
233.849025098
  0
LINE
  5
3C8
100
AcDbEntity
  8
0
100
AcDbLine
 62
7
  6
CONTINUOUS
 10
292.1486933779
 20
227.1734874233
 11
292.1486933779
 21
235.4819881161
  0
LINE
  5
3C9
100
AcDbEntity
  8
0
100
AcDbLine
 62
7
  6
CONTINUOUS
 10
294.9771322785
 20
233.849025098
 11
294.9771322785
 21
225.5405244052
  0
LINE
  5
3CA
100
AcDbEntity
  8
0
100
AcDbLine
 62
7
  6
CONTINUOUS
 10
296.0377880343
 20
234.4613913288
 11
296.0377880343
 21
225.0716135318
  0
LINE
  5
3CB
100
AcDbEntity
  8
0
100
AcDbLine
 62
7
  6
CONTINUOUS
 10
297.098452622
 20
224.4592524
 11
297.098452622
 21
224.3158072406
  0
LINE
  5
3CC
100
AcDbEntity
  8
0
100
AcDbLine
 62
7
  6
CONTINUOUS
 10
292.4920508587
 20
236.6198499311
 11
292.5662505673
 21
236.6825243249
  0
LINE
  5
3CD
100
AcDbEntity
  8
0
100
AcDbLine
 62
7
  6
CONTINUOUS
 10
292.148684546
 20
227.3169376817
 11
292.024455618
 21
227.2452145048
  0
LINE
  5
3CE
100
AcDbEntity
  8
0
100
AcDbLine
 62
7
  6
CONTINUOUS
 10
296.0377880343
 20
225.0716135318
 11
295.9135591063
 21
224.9998903549
  0
LINE
  5
3CF
100
AcDbEntity
  8
0
100
AcDbLine
 62
7
  6
CONTINUOUS
 10
305.2234425148
 20
229.3751393612
 11
306.2840982706
 21
229.987505592
  0
LINE
  5
3D0
100
AcDbEntity
  8
0
100
AcDbLine
 62
7
  6
CONTINUOUS
 10
297.098452622
 20
224.4592524
 11
296.974223694
 21
224.3875292231
  0
LINE
  5
3D1
100
AcDbEntity
  8
0
100
AcDbLine
 62
7
  6
CONTINUOUS
 10
306.6840964799
 20
229.9478861688
 11
305.623440724
 21
229.335519938
  0
LINE
  5
3D2
100
AcDbEntity
  8
0
100
AcDbLine
 62
7
  6
CONTINUOUS
 10
306.8169130926
 20
228.6464839328
 11
307.8775688484
 21
229.2588501636
  0
LINE
  5
3D3
100
AcDbEntity
  8
0
100
AcDbLine
 62
7
  6
CONTINUOUS
 10
308.3516946337
 20
228.6882097366
 11
307.2910388779
 21
228.0758435058
  0
LINE
  5
3D4
100
AcDbEntity
  8
0
100
AcDbLine
 62
7
  6
CONTINUOUS
 10
308.6950521144
 20
227.1538818229
 11
307.6343963586
 21
226.5415155921
  0
LINE
  5
3D5
100
AcDbEntity
  8
0
100
AcDbLine
 62
7
  6
CONTINUOUS
 10
304.805957458
 20
219.8659779174
 11
304.805957458
 21
228.1744786101
  0
LINE
  5
3D6
100
AcDbEntity
  8
0
100
AcDbLine
 62
7
  6
CONTINUOUS
 10
307.6343963586
 20
226.5415155921
 11
307.6343963586
 21
218.2330148993
  0
LINE
  5
3D7
100
AcDbEntity
  8
0
100
AcDbLine
 62
7
  6
CONTINUOUS
 10
308.6950521144
 20
227.1538818229
 11
308.6950521144
 21
217.7641040259
  0
LINE
  5
3D8
100
AcDbEntity
  8
0
100
AcDbLine
 62
7
  6
CONTINUOUS
 10
309.7557167022
 20
217.1517428941
 11
309.7557167022
 21
217.0082977347
  0
LINE
  5
3D9
100
AcDbEntity
  8
0
100
AcDbLine
 62
7
  6
CONTINUOUS
 10
305.1493149388
 20
229.3123404252
 11
305.2235146475
 21
229.375014819
  0
LINE
  5
3DA
100
AcDbEntity
  8
0
100
AcDbLine
 62
7
  6
CONTINUOUS
 10
304.8059486261
 20
220.0094281757
 11
304.6817196981
 21
219.9377049988
  0
LINE
  5
3DB
100
AcDbEntity
  8
0
100
AcDbLine
 62
7
  6
CONTINUOUS
 10
308.6950521144
 20
217.7641040259
 11
308.5708231864
 21
217.692380849
  0
LINE
  5
3DC
100
AcDbEntity
  8
0
100
AcDbLine
 62
7
  6
CONTINUOUS
 10
317.8807065949
 20
222.0676298553
 11
318.9413623507
 21
222.6799960861
  0
LINE
  5
3DD
100
AcDbEntity
  8
0
100
AcDbLine
 62
7
  6
CONTINUOUS
 10
309.7557167022
 20
217.1517428941
 11
309.6314877741
 21
217.0800197172
  0
LINE
  5
3DE
100
AcDbEntity
  8
0
100
AcDbLine
 62
7
  6
CONTINUOUS
 10
319.34136056
 20
222.6403766629
 11
318.2807048042
 21
222.028010432
  0
LINE
  5
3DF
100
AcDbEntity
  8
0
100
AcDbLine
 62
7
  6
CONTINUOUS
 10
319.4741771727
 20
221.3389744269
 11
320.5348329286
 21
221.9513406577
  0
LINE
  5
3E0
100
AcDbEntity
  8
0
100
AcDbLine
 62
7
  6
CONTINUOUS
 10
321.0089587138
 20
221.3807002307
 11
319.948302958
 21
220.7683339999
  0
LINE
  5
3E1
100
AcDbEntity
  8
0
100
AcDbLine
 62
7
  6
CONTINUOUS
 10
349.1500560729
 20
196.7950092405
 11
349.2124328886
 21
196.6580963002
  0
LINE
  5
3E2
100
AcDbEntity
  8
0
100
AcDbLine
 62
7
  6
CONTINUOUS
 10
317.4632215382
 20
212.5584684115
 11
317.4632215382
 21
220.8669691042
  0
LINE
  5
3E3
100
AcDbEntity
  8
0
100
AcDbLine
 62
7
  6
CONTINUOUS
 10
320.2916604387
 20
219.2340060862
 11
320.2916604387
 21
210.9255053934
  0
LINE
  5
3E4
100
AcDbEntity
  8
0
100
AcDbLine
 62
7
  6
CONTINUOUS
 10
321.3523161946
 20
219.846372317
 11
321.3523161946
 21
210.45659452
  0
LINE
  5
3E5
100
AcDbEntity
  8
0
100
AcDbLine
 62
7
  6
CONTINUOUS
 10
317.8065790189
 20
222.0048309193
 11
317.8807787276
 21
222.0675053131
  0
LINE
  5
3E6
100
AcDbEntity
  8
0
100
AcDbLine
 62
7
  6
CONTINUOUS
 10
321.3523161946
 20
219.846372317
 11
320.2916604387
 21
219.2340060862
  0
LINE
  5
3E7
100
AcDbEntity
  8
0
100
AcDbLine
 62
7
  6
CONTINUOUS
 10
317.4632127063
 20
212.7019186698
 11
317.3389837782
 21
212.6301954929
  0
LINE
  5
3E8
100
AcDbEntity
  8
0
100
AcDbLine
 62
7
  6
CONTINUOUS
 10
321.3523161946
 20
210.45659452
 11
321.2280872665
 21
210.3848713431
  0
LINE
  5
3E9
100
AcDbEntity
  8
0
100
AcDbLine
 62
7
  6
CONTINUOUS
 10
330.537970675
 20
214.7601203493
 11
331.5986264309
 21
215.3724865802
  0
LINE
  5
3EA
100
AcDbEntity
  8
0
100
AcDbLine
 62
7
  6
CONTINUOUS
 10
322.4129807823
 20
209.8442333882
 11
322.2887518543
 21
209.7725102113
  0
LINE
  5
3EB
100
AcDbEntity
  8
0
100
AcDbLine
 62
7
  6
CONTINUOUS
 10
331.9986246401
 20
215.3328671569
 11
330.9379688843
 21
214.7205009261
  0
LINE
  5
3EC
100
AcDbEntity
  8
0
100
AcDbLine
 62
7
  6
CONTINUOUS
 10
332.1314412529
 20
214.0314649209
 11
333.1920970087
 21
214.6438311518
  0
LINE
  5
3ED
100
AcDbEntity
  8
0
100
AcDbLine
 62
7
  6
CONTINUOUS
 10
333.6662227939
 20
214.0731907247
 11
332.6055670381
 21
213.4608244939
  0
LINE
  5
3EE
100
AcDbEntity
  8
0
100
AcDbLine
 62
7
  6
CONTINUOUS
 10
322.4129807823
 20
209.8442333882
 11
322.4129807823
 21
209.7007882288
  0
LINE
  5
3EF
100
AcDbEntity
  8
0
100
AcDbLine
 62
7
  6
CONTINUOUS
 10
330.1204856183
 20
205.2509589056
 11
330.1204856183
 21
213.5594595983
  0
LINE
  5
3F0
100
AcDbEntity
  8
0
100
AcDbLine
 62
7
  6
CONTINUOUS
 10
332.9489245189
 20
211.9264965802
 11
332.9489245189
 21
203.6179958875
  0
LINE
  5
3F1
100
AcDbEntity
  8
0
100
AcDbLine
 62
7
  6
CONTINUOUS
 10
334.0095802747
 20
212.538862811
 11
334.0095802747
 21
203.1490850141
  0
LINE
  5
3F2
100
AcDbEntity
  8
0
100
AcDbLine
 62
7
  6
CONTINUOUS
 10
330.463843099
 20
214.6973214134
 11
330.5380428077
 21
214.7599958072
  0
LINE
  5
3F3
100
AcDbEntity
  8
0
100
AcDbLine
 62
7
  6
CONTINUOUS
 10
334.0095802747
 20
212.538862811
 11
332.9489245189
 21
211.9264965802
  0
LINE
  5
3F4
100
AcDbEntity
  8
0
100
AcDbLine
 62
7
  6
CONTINUOUS
 10
330.1204767864
 20
205.3944091639
 11
329.9962478584
 21
205.322685987
  0
LINE
  5
3F5
100
AcDbEntity
  8
0
100
AcDbLine
 62
7
  6
CONTINUOUS
 10
334.0095802747
 20
203.1490850141
 11
333.8853513467
 21
203.0773618372
  0
LINE
  5
3F6
100
AcDbEntity
  8
0
100
AcDbLine
 62
7
  6
CONTINUOUS
 10
343.1952347552
 20
207.4526108434
 11
344.255890511
 21
208.0649770742
  0
LINE
  5
3F7
100
AcDbEntity
  8
0
100
AcDbLine
 62
7
  6
CONTINUOUS
 10
335.0702448624
 20
202.5367238823
 11
334.9460159344
 21
202.4650007054
  0
LINE
  5
3F8
100
AcDbEntity
  8
0
100
AcDbLine
 62
7
  6
CONTINUOUS
 10
344.6558887202
 20
208.025357651
 11
343.5952329644
 21
207.4129914202
  0
LINE
  5
3F9
100
AcDbEntity
  8
0
100
AcDbLine
 62
7
  6
CONTINUOUS
 10
344.788705333
 20
206.723955415
 11
345.8493610888
 21
207.3363216458
  0
LINE
  5
3FA
100
AcDbEntity
  8
0
100
AcDbLine
 62
7
  6
CONTINUOUS
 10
345.2628311183
 20
206.153314988
 11
346.3234868741
 21
206.7656812188
  0
LINE
  5
3FB
100
AcDbEntity
  8
0
100
AcDbLine
 62
7
  6
CONTINUOUS
 10
335.0702448624
 20
202.5367238823
 11
335.0702448624
 21
202.3932787229
  0
LINE
  5
3FC
100
AcDbEntity
  8
0
100
AcDbLine
 62
7
  6
CONTINUOUS
 10
342.7777496984
 20
197.9434493996
 11
342.7777496984
 21
206.2519500924
  0
LINE
  5
3FD
100
AcDbEntity
  8
0
100
AcDbLine
 62
7
  6
CONTINUOUS
 10
342.8484742964
 20
183.7485734129
 11
342.8484742964
 21
190.9193597819
  0
LINE
  5
3FE
100
AcDbEntity
  8
0
100
AcDbLine
 62
7
  6
CONTINUOUS
 10
345.606188599
 20
204.6189870743
 11
345.606188599
 21
196.3104863816
  0
LINE
  5
3FF
100
AcDbEntity
  8
0
100
AcDbLine
 62
7
  6
CONTINUOUS
 10
343.1211071792
 20
207.3898119075
 11
343.1953068879
 21
207.4524863013
  0
LINE
  5
400
100
AcDbEntity
  8
0
100
AcDbLine
 62
7
  6
CONTINUOUS
 10
346.6668443548
 20
205.2313533051
 11
345.606188599
 21
204.6189870743
  0
LINE
  5
401
100
AcDbEntity
  8
0
100
AcDbLine
 62
7
  6
CONTINUOUS
 10
342.7777408665
 20
198.086899658
 11
342.6535119385
 21
198.0151764811
  0
LINE
  5
402
100
AcDbEntity
  8
0
100
AcDbLine
 62
7
  6
CONTINUOUS
 10
346.5426154268
 20
195.7698523312
 11
346.6668443548
 21
195.8415755081
  0
LINE
  5
403
100
AcDbEntity
  8
0
100
AcDbLine
 62
7
  6
CONTINUOUS
 10
349.4952768619
 20
197.206440869
 11
349.0710145596
 21
196.9614943767
  0
LINE
  5
404
100
AcDbEntity
  8
0
100
AcDbLine
 62
7
  6
CONTINUOUS
 10
346.4547303619
 20
195.4509910074
 11
346.0304680595
 21
195.2060445151
  0
LINE
  5
405
100
AcDbEntity
  8
0
100
AcDbLine
 62
7
  6
CONTINUOUS
 10
348.0429324029
 20
195.6510817802
 11
347.4772493332
 21
195.3244864571
  0
LINE
  5
406
100
AcDbEntity
  8
0
100
AcDbLine
 62
7
  6
CONTINUOUS
 10
348.2419786062
 20
195.6704805078
 11
348.1515081071
 21
195.6182476525
  0
LINE
  5
407
100
AcDbEntity
  8
0
100
AcDbLine
 62
7
  6
CONTINUOUS
 10
347.476454344
 20
195.2285075071
 11
347.2766131516
 21
195.1131298296
  0
LINE
  5
408
100
AcDbEntity
  8
0
100
AcDbLine
 62
7
  6
CONTINUOUS
 10
342.8484742964
 20
190.9193597819
 11
342.9898950638
 21
191.0010086127
  0
LINE
  5
409
100
AcDbEntity
  8
0
100
AcDbLine
 62
7
  6
CONTINUOUS
 10
346.6668443548
 20
205.2313533051
 11
346.6668443548
 21
195.8415755081
  0
LINE
  5
40A
100
AcDbEntity
  8
0
100
AcDbLine
 62
7
  6
CONTINUOUS
 10
349.2124328886
 20
195.2974158422
 11
349.2124328886
 21
196.6580963002
  0
LINE
  5
40B
100
AcDbEntity
  8
0
100
AcDbLine
 62
7
  6
CONTINUOUS
 10
349.0709369282
 20
196.8412490799
 11
349.0710145596
 21
196.9614943767
  0
LINE
  5
40C
100
AcDbEntity
  8
0
100
AcDbLine
 62
7
  6
CONTINUOUS
 10
349.0698603936
 20
196.8418724561
 11
349.0710145596
 21
196.9614943767
  0
LINE
  5
40D
100
AcDbEntity
  8
0
100
AcDbLine
 62
7
  6
CONTINUOUS
 10
350.4764187113
 20
194.915176812
 11
350.8387888724
 21
195.1243900733
  0
LINE
  5
40E
100
AcDbEntity
  8
0
100
AcDbLine
 62
7
  6
CONTINUOUS
 10
349.0710363449
 20
193.9405002157
 11
351.6873205426
 21
195.451003585
  0
LINE
  5
40F
100
AcDbEntity
  8
0
100
AcDbLine
 62
7
  6
CONTINUOUS
 10
350.2377623867
 20
193.9609151428
 11
351.6519700611
 21
194.7774034506
  0
LINE
  5
410
100
AcDbEntity
  8
0
100
AcDbLine
 62
7
  6
CONTINUOUS
 10
349.9195686039
 20
193.3689628194
 11
350.3791860981
 21
193.6343215194
  0
LINE
  5
411
100
AcDbEntity
  8
0
100
AcDbLine
 62
7
  6
CONTINUOUS
 10
352.2176560748
 20
194.6957563195
 11
352.677273569
 21
194.9611150195
  0
LINE
  5
412
100
AcDbEntity
  8
0
100
AcDbLine
 62
7
  6
CONTINUOUS
 10
345.1705386779
 20
189.5787456149
 11
345.5948009803
 21
189.8236921072
  0
LWPOLYLINE
  5
413
100
AcDbEntity
  8
0
100
AcDbPolyline
 62
7
  6
CONTINUOUS
 90
4
 70
0
 10
349.1969319428
 20
179.9938878462
 10
349.7589434058
 20
180.2496532774
 10
350.351524017
 20
180.591814894
 10
350.9209770144
 20
180.9869455722
  0
LINE
  5
414
100
AcDbEntity
  8
0
100
AcDbLine
 62
7
  6
CONTINUOUS
 10
351.8153184803
 20
182.3668717638
 11
351.815342569
 21
182.367016807
  0
LINE
  5
415
100
AcDbEntity
  8
0
100
AcDbLine
 62
7
  6
CONTINUOUS
 10
349.3246061594
 20
180.2227545948
 11
349.4241013988
 21
180.7547523145
  0
LINE
  5
416
100
AcDbEntity
  8
0
100
AcDbLine
 62
7
  6
CONTINUOUS
 10
350.9209749133
 20
180.9869464226
 11
350.9549335645
 21
181.0315101182
  0
LWPOLYLINE
  5
417
100
AcDbEntity
  8
0
100
AcDbPolyline
 62
7
  6
CONTINUOUS
 90
4
 70
0
 10
350.9209727327
 20
180.9869447896
 10
351.3163676165
 20
181.3646662251
 10
351.6384473578
 20
181.849444008
 10
351.8153293692
 20
182.3669883579
  0
LINE
  5
418
100
AcDbEntity
  8
0
100
AcDbLine
 62
7
  6
CONTINUOUS
 10
349.1969496504
 20
179.9938947993
 11
349.3094497153
 21
180.0814805366
  0
ARC
  5
419
100
AcDbEntity
  8
0
100
AcDbCircle
 62
7
  6
CONTINUOUS
 10
149.7196072973
 20
367.1870500246
 40
100.465085544
100
AcDbArc
 50
181.4934909276
 51
183.1971391066
  0
ARC
  5
41A
100
AcDbEntity
  8
0
100
AcDbCircle
 62
7
  6
CONTINUOUS
 10
144.9399058279
 20
367.0484948388
 40
95.6833975733
100
AcDbArc
 50
180.008333458
 51
181.4851478069
  0
ARC
  5
41B
100
AcDbEntity
  8
0
100
AcDbCircle
 62
7
  6
CONTINUOUS
 10
137.5127175086
 20
370.2394517836
 40
89.6522468631
100
AcDbArc
 50
180.0001106315
 51
180.2078180694
  0
ARC
  5
41C
100
AcDbEntity
  8
0
100
AcDbCircle
 62
7
  6
CONTINUOUS
 10
137.3270507994
 20
368.3513298316
 40
88.0870510645
100
AcDbArc
 50
178.8914149482
 51
179.4180785149
  0
ARC
  5
41D
100
AcDbEntity
  8
0
100
AcDbCircle
 62
7
  6
CONTINUOUS
 10
135.736066063
 20
367.4327805005
 40
88.0870499618
100
AcDbArc
 50
178.8914149442
 51
179.4180785174
  0
ARC
  5
41E
100
AcDbEntity
  8
0
100
AcDbCircle
 62
7
  6
CONTINUOUS
 10
261.6639693442
 20
193.3661481292
 40
87.5484925237
100
AcDbArc
 50
358.783113236
 51
0.001840951
  0
ARC
  5
41F
100
AcDbEntity
  8
0
100
AcDbCircle
 62
7
  6
CONTINUOUS
 10
279.5081137527
 20
192.1095063193
 40
70.3547925468
100
AcDbArc
 50
350.5723495852
 51
352.9540717205
  0
ARC
  5
420
100
AcDbEntity
  8
0
100
AcDbCircle
 62
7
  6
CONTINUOUS
 10
279.3499861973
 20
192.0897946552
 40
69.8041939107
100
AcDbArc
 50
350.5698144282
 51
352.8025584903
  0
ARC
  5
421
100
AcDbEntity
  8
0
100
AcDbCircle
 62
7
  6
CONTINUOUS
 10
345.0766556373
 20
189.0111612015
 40
9.9110675248
100
AcDbArc
 50
306.0632777619
 51
306.377573003
  0
ARC
  5
422
100
AcDbEntity
  8
0
100
AcDbCircle
 62
7
  6
CONTINUOUS
 10
354.9609167044
 20
194.3018362011
 40
6.5386003834
100
AcDbArc
 50
168.4669218758
 51
168.9540006151
  0
ARC
  5
423
100
AcDbEntity
  8
0
100
AcDbCircle
 62
7
  6
CONTINUOUS
 10
51.1956114156
 20
355.6253795788
 40
4.9658361737
100
AcDbArc
 50
289.7950325813
 51
294.3164604424
  0
ARC
  5
424
100
AcDbEntity
  8
0
100
AcDbCircle
 62
7
  6
CONTINUOUS
 10
51.3833254394
 20
355.3730389096
 40
4.508491708
100
AcDbArc
 50
288.7542516771
 51
292.0622951255
  0
ARC
  5
425
100
AcDbEntity
  8
0
100
AcDbCircle
 62
7
  6
CONTINUOUS
 10
349.7357183825
 20
182.6759375276
 40
2.0472272108
100
AcDbArc
 50
308.9267244211
 51
310.9114724915
  0
ARC
  5
426
100
AcDbEntity
  8
0
100
AcDbCircle
 62
7
  6
CONTINUOUS
 10
349.8139417065
 20
182.5789930007
 40
1.9226594541
100
AcDbArc
 50
306.4023387212
 51
308.9284801827
  0
ARC
  5
427
100
AcDbEntity
  8
0
100
AcDbCircle
 62
7
  6
CONTINUOUS
 10
350.9521463858
 20
181.185132918
 40
0.1364513413
100
AcDbArc
 50
335.6180107407
 51
339.9416473264
  0
SPLINE
  5
428
100
AcDbEntity
  8
0
100
AcDbSpline
 62
7
  6
CONTINUOUS
 70
0
 71
3
 72
9
 73
5
 74
0
 42
0.0000001
 43
0.0000001
 44
0.0000000001
 40
0.0
 40
0.0
 40
0.0
 40
0.0
 40
0.2698092778
 40
1.0
 40
1.0
 40
1.0
 40
1.0
 10
52.1556614949
 20
351.672567855
 30
0.0
 10
52.1556614949
 20
351.6434897562
 30
0.0
 10
52.1598055903
 20
351.535881799
 30
0.0
 10
52.1817374612
 20
351.4280341312
 30
0.0
 10
52.2115215743
 20
351.3551934755
 30
0.0
  0
SPLINE
  5
429
100
AcDbEntity
  8
0
100
AcDbSpline
 62
7
  6
CONTINUOUS
 70
0
 71
3
 72
11
 73
7
 74
0
 42
0.0000001
 43
0.0000001
 44
0.0000000001
 40
0.0
 40
0.0
 40
0.0
 40
0.0
 40
0.2780070931
 40
0.5336435522
 40
0.771655358
 40
1.0
 40
1.0
 40
1.0
 40
1.0
 10
52.8773233523
 20
350.9529740028
 30
0.0
 10
52.8276303538
 20
350.9351629642
 30
0.0
 10
52.7293901636
 20
350.9080924809
 30
0.0
 10
52.5823526505
 20
350.8960767311
 30
0.0
 10
52.4453788997
 20
350.9153845607
 30
0.0
 10
52.3624604325
 20
350.9496380384
 30
0.0
 10
52.3249103803
 20
350.971316467
 30
0.0
  0
SPLINE
  5
42A
100
AcDbEntity
  8
0
100
AcDbSpline
 62
7
  6
CONTINUOUS
 70
0
 71
3
 72
11
 73
7
 74
0
 42
0.0000001
 43
0.0000001
 44
0.0000000001
 40
0.0
 40
0.0
 40
0.0
 40
0.0
 40
0.2353394689
 40
0.4959620865
 40
0.7587656207
 40
1.0
 40
1.0
 40
1.0
 40
1.0
 10
50.1164386482
 20
360.4143406878
 30
0.0
 10
50.0205626647
 20
360.4696934604
 30
0.0
 10
49.838234885
 20
360.6208742356
 30
0.0
 10
49.6217707897
 20
360.9077774584
 30
0.0
 10
49.468077933
 20
361.2357325978
 30
0.0
 10
49.4172124738
 20
361.4706421045
 30
0.0
 10
49.4108906139
 20
361.5839463592
 30
0.0
  0
SPLINE
  5
42B
100
AcDbEntity
  8
0
100
AcDbSpline
 62
7
  6
CONTINUOUS
 70
0
 71
3
 72
11
 73
7
 74
0
 42
0.0000001
 43
0.0000001
 44
0.0000000001
 40
0.0
 40
0.0
 40
0.0
 40
0.0
 40
0.2177821605
 40
0.4509085882
 40
0.7102951949
 40
1.0
 40
1.0
 40
1.0
 40
1.0
 10
47.8604721426
 20
370.2392786756
 30
0.0
 10
47.8604721458
 20
370.2507050766
 30
0.0
 10
47.8646947132
 20
370.2745212952
 30
0.0
 10
47.8827496935
 20
370.3077049691
 30
0.0
 10
47.911292085
 20
370.3377017171
 30
0.0
 10
47.9351741444
 20
370.3541509487
 30
0.0
 10
47.9483377281
 20
370.3617509019
 30
0.0
  0
SPLINE
  5
42C
100
AcDbEntity
  8
0
100
AcDbSpline
 62
7
  6
CONTINUOUS
 70
0
 71
3
 72
11
 73
7
 74
0
 42
0.0000001
 43
0.0000001
 44
0.0000000001
 40
0.0
 40
0.0
 40
0.0
 40
0.0
 40
0.2177821605
 40
0.4509085882
 40
0.7102951949
 40
1.0
 40
1.0
 40
1.0
 40
1.0
 10
45.5038076147
 20
368.8308370246
 30
0.0
 10
45.50380762
 20
368.8498810263
 30
0.0
 10
45.5108452323
 20
368.889574724
 30
0.0
 10
45.5409368661
 20
368.9448808472
 30
0.0
 10
45.5885075187
 20
368.9948754271
 30
0.0
 10
45.628310951
 20
369.0222908131
 30
0.0
 10
45.6502502572
 20
369.0349574018
 30
0.0
  0
SPLINE
  5
42D
100
AcDbEntity
  8
0
100
AcDbSpline
 62
7
  6
CONTINUOUS
 70
0
 71
3
 72
9
 73
5
 74
0
 42
0.0000001
 43
0.0000001
 44
0.0000000001
 40
0.0
 40
0.0
 40
0.0
 40
0.0
 40
0.4902814752
 40
1.0
 40
1.0
 40
1.0
 40
1.0
 10
45.5038051198
 20
368.8308370246
 30
0.0
 10
45.5038051198
 20
366.5450462579
 30
0.0
 10
45.6822621881
 20
361.8816239431
 30
0.0
 10
46.18167787
 20
357.242474596
 30
0.0
 10
46.510223745
 20
354.8888852014
 30
0.0
  0
SPLINE
  5
42E
100
AcDbEntity
  8
0
100
AcDbSpline
 62
7
  6
CONTINUOUS
 70
0
 71
3
 72
11
 73
7
 74
0
 42
0.0000001
 43
0.0000001
 44
0.0000000001
 40
0.0
 40
0.0
 40
0.0
 40
0.0
 40
0.2372398078
 40
0.4999994051
 40
0.7627593222
 40
1.0
 40
1.0
 40
1.0
 40
1.0
 10
46.1098677514
 20
369.3003161019
 30
0.0
 10
46.1399844764
 20
369.3177038974
 30
0.0
 10
46.2100205328
 20
369.3430768022
 30
0.0
 10
46.3219994264
 20
369.3552332462
 30
0.0
 10
46.4339785053
 20
369.3430773228
 30
0.0
 10
46.5040148592
 20
369.3177047638
 30
0.0
 10
46.5341318201
 20
369.3003171217
 30
0.0
  0
SPLINE
  5
42F
100
AcDbEntity
  8
0
100
AcDbSpline
 62
7
  6
CONTINUOUS
 70
0
 71
3
 72
11
 73
7
 74
0
 42
0.0000001
 43
0.0000001
 44
0.0000000001
 40
0.0
 40
0.0
 40
0.0
 40
0.0
 40
0.2372398078
 40
0.4999994051
 40
0.7627593222
 40
1.0
 40
1.0
 40
1.0
 40
1.0
 10
48.4079552223
 20
370.6271096019
 30
0.0
 10
48.4581497641
 20
370.6560892611
 30
0.0
 10
48.5748765247
 20
370.6983774358
 30
0.0
 10
48.7615080141
 20
370.7186381758
 30
0.0
 10
48.9481398122
 20
370.6983783034
 30
0.0
 10
49.0648670687
 20
370.6560907051
 30
0.0
 10
49.1150620035
 20
370.6271113016
 30
0.0
  0
SPLINE
  5
430
100
AcDbEntity
  8
0
100
AcDbSpline
 62
7
  6
CONTINUOUS
 70
0
 71
3
 72
10
 73
6
 74
0
 42
0.0000001
 43
0.0000001
 44
0.0000000001
 40
0.0
 40
0.0
 40
0.0
 40
0.0
 40
0.2506775398
 40
0.62425153
 40
1.0
 40
1.0
 40
1.0
 40
1.0
 10
50.850274493
 20
367.2314569835
 30
0.0
 10
50.8503367717
 20
367.2233602188
 30
0.0
 10
50.8507758004
 20
367.2031997773
 30
0.0
 10
50.8504606853
 20
367.1708965894
 30
0.0
 10
50.8509636908
 20
367.1466964739
 30
0.0
 10
50.8510694822
 20
367.13456008
 30
0.0
  0
SPLINE
  5
431
100
AcDbEntity
  8
0
100
AcDbSpline
 62
7
  6
CONTINUOUS
 70
0
 71
3
 72
11
 73
7
 74
0
 42
0.0000001
 43
0.0000001
 44
0.0000000001
 40
0.0
 40
0.0
 40
0.0
 40
0.0
 40
0.2897052857
 40
0.5490919933
 40
0.7822182543
 40
1.0
 40
1.0
 40
1.0
 40
1.0
 10
45.6502532011
 20
368.6267149476
 30
0.0
 10
45.6283134845
 20
368.6393815624
 30
0.0
 10
45.5885092972
 20
368.6667970428
 30
0.0
 10
45.540937684
 20
368.7167919955
 30
0.0
 10
45.5108454042
 20
368.772098652
 30
0.0
 10
45.5038076093
 20
368.8117928137
 30
0.0
 10
45.5038076147
 20
368.8308370246
 30
0.0
  0
SPLINE
  5
432
100
AcDbEntity
  8
0
100
AcDbSpline
 62
7
  6
CONTINUOUS
 70
0
 71
3
 72
11
 73
7
 74
0
 42
0.0000001
 43
0.0000001
 44
0.0000000001
 40
0.0
 40
0.0
 40
0.0
 40
0.0
 40
0.2897052857
 40
0.5490919933
 40
0.7822182543
 40
1.0
 40
1.0
 40
1.0
 40
1.0
 10
47.9483394945
 20
370.1168054294
 30
0.0
 10
47.9351756645
 20
370.1244053982
 30
0.0
 10
47.9112931521
 20
370.1408546865
 30
0.0
 10
47.8827501842
 20
370.1708516581
 30
0.0
 10
47.8646948164
 20
370.204035652
 30
0.0
 10
47.8604721394
 20
370.227852149
 30
0.0
 10
47.8604721426
 20
370.2392786756
 30
0.0
  0
SPLINE
  5
433
100
AcDbEntity
  8
0
100
AcDbSpline
 62
7
  6
CONTINUOUS
 70
0
 71
3
 72
11
 73
7
 74
0
 42
0.0000001
 43
0.0000001
 44
0.0000000001
 40
0.0
 40
0.0
 40
0.0
 40
0.0
 40
0.2178729196
 40
0.4537263485
 40
0.71548153
 40
1.0
 40
1.0
 40
1.0
 40
1.0
 10
46.5102305155
 20
354.8888861468
 30
0.0
 10
46.5122897249
 20
354.8741755596
 30
0.0
 10
46.5231562164
 20
354.8442191939
 30
0.0
 10
46.5554268725
 20
354.8066584221
 30
0.0
 10
46.5996377343
 20
354.7761531432
 30
0.0
 10
46.633707012
 20
354.7606989774
 30
0.0
 10
46.6518702977
 20
354.7538896317
 30
0.0
  0
LINE
  5
434
100
AcDbEntity
  8
0
100
AcDbLine
 62
7
  6
CONTINUOUS
 10
50.2845914232
 20
366.9048616604
 11
50.2853670852
 21
366.8101849571
  0
SPLINE
  5
435
100
AcDbEntity
  8
0
100
AcDbSpline
 62
7
  6
CONTINUOUS
 70
0
 71
3
 72
11
 73
7
 74
0
 42
0.0000001
 43
0.0000001
 44
0.0000000001
 40
0.0
 40
0.0
 40
0.0
 40
0.0
 40
0.2412343793
 40
0.5040379135
 40
0.7646605311
 40
1.0
 40
1.0
 40
1.0
 40
1.0
 10
48.9866283116
 20
361.3389998668
 30
0.0
 10
48.9929501714
 20
361.2256956121
 30
0.0
 10
49.0438156307
 20
360.9907861055
 30
0.0
 10
49.1975084874
 20
360.662830966
 30
0.0
 10
49.4139725827
 20
360.3759277433
 30
0.0
 10
49.5963003624
 20
360.2247469681
 30
0.0
 10
49.6921763459
 20
360.1693941955
 30
0.0
  0
SPLINE
  5
436
100
AcDbEntity
  8
0
100
AcDbSpline
 62
7
  6
CONTINUOUS
 70
0
 71
3
 72
9
 73
5
 74
0
 42
0.0000001
 43
0.0000001
 44
0.0000000001
 40
0.0
 40
0.0
 40
0.0
 40
0.0
 40
0.5098291511
 40
1.0
 40
1.0
 40
1.0
 40
1.0
 10
46.651870324
 20
354.7538894239
 30
0.0
 10
46.3248821666
 20
357.0963198665
 30
0.0
 10
45.8278927821
 20
361.7124656762
 30
0.0
 10
45.6502532011
 20
366.3527685233
 30
0.0
 10
45.6502532011
 20
368.6267149476
 30
0.0
  0
SPLINE
  5
437
100
AcDbEntity
  8
0
100
AcDbSpline
 62
7
  6
CONTINUOUS
 70
0
 71
3
 72
9
 73
5
 74
0
 42
0.0000001
 43
0.0000001
 44
0.0000000001
 40
0.0
 40
0.0
 40
0.0
 40
0.0
 40
0.2469928435
 40
1.0
 40
1.0
 40
1.0
 40
1.0
 10
48.8322469643
 20
366.7896315523
 30
0.0
 10
48.8322469643
 20
366.3406629793
 30
0.0
 10
48.8453820866
 20
364.5229412712
 30
0.0
 10
48.9103757632
 20
362.7056448719
 30
0.0
 10
48.9866283116
 20
361.3389998668
 30
0.0
  0
SPLINE
  5
438
100
AcDbEntity
  8
0
100
AcDbSpline
 62
7
  6
CONTINUOUS
 70
0
 71
3
 72
11
 73
7
 74
0
 42
0.0000001
 43
0.0000001
 44
0.0000000001
 40
0.0
 40
0.0
 40
0.0
 40
0.0
 40
0.2177700677
 40
0.4509465916
 40
0.710197864
 40
1.0
 40
1.0
 40
1.0
 40
1.0
 10
52.3249103803
 20
350.971316467
 30
0.0
 10
52.2754320941
 20
350.999881314
 30
0.0
 10
52.1828279928
 20
351.07769648
 30
0.0
 10
52.0843238455
 20
351.2388482146
 30
0.0
 10
52.0257235041
 20
351.4374228307
 30
0.0
 10
52.0142407327
 20
351.5819642035
 30
0.0
 10
52.0142407275
 20
351.6579936594
 30
0.0
  0
SPLINE
  5
439
100
AcDbEntity
  8
0
100
AcDbSpline
 62
7
  6
CONTINUOUS
 70
0
 71
3
 72
9
 73
5
 74
0
 42
0.0000001
 43
0.0000001
 44
0.0000000001
 40
0.0
 40
0.0
 40
0.0
 40
0.0
 40
0.2463251276
 40
1.0
 40
1.0
 40
1.0
 40
1.0
 10
47.0521216657
 20
354.0153880883
 30
0.0
 10
47.0374782517
 20
354.0238665454
 30
0.0
 10
46.9794427434
 20
354.0606902612
 30
0.0
 10
46.9273351371
 20
354.1066915644
 30
0.0
 10
46.8924532176
 20
354.144948727
 30
0.0
  0
SPLINE
  5
43A
100
AcDbEntity
  8
0
100
AcDbSpline
 62
7
  6
CONTINUOUS
 70
0
 71
3
 72
9
 73
5
 74
0
 42
0.0000001
 43
0.0000001
 44
0.0000000001
 40
0.0
 40
0.0
 40
0.0
 40
0.0
 40
0.468515814
 40
1.0
 40
1.0
 40
1.0
 40
1.0
 10
46.8924532176
 20
354.144948727
 30
0.0
 10
46.8226769957
 20
354.2214766331
 30
0.0
 10
46.7092352868
 20
354.4178624542
 30
0.0
 10
46.6630505777
 20
354.6369433119
 30
0.0
 10
46.6518666093
 20
354.7538912972
 30
0.0
  0
SPLINE
  5
43B
100
AcDbEntity
  8
0
100
AcDbSpline
 62
7
  6
CONTINUOUS
 70
0
 71
3
 72
13
 73
9
 74
0
 42
0.0000001
 43
0.0000001
 44
0.0000000001
 40
0.0
 40
0.0
 40
0.0
 40
0.0
 40
0.2506552657
 40
0.368107244
 40
0.4842775183
 40
0.6027503382
 40
0.7267873958
 40
1.0
 40
1.0
 40
1.0
 40
1.0
 10
52.2115215743
 20
351.3551934755
 30
0.0
 10
52.2351494432
 20
351.2974086605
 30
0.0
 10
52.2839043398
 20
351.2164063849
 30
0.0
 10
52.3759755095
 20
351.1372524399
 30
0.0
 10
52.4539099832
 20
351.0954956226
 30
0.0
 10
52.5405386414
 20
351.0710705149
 30
0.0
 10
52.6693279961
 20
351.0616323267
 30
0.0
 10
52.7684101872
 20
351.0820569105
 30
0.0
 10
52.8328494006
 20
351.1039198239
 30
0.0
  0
SPLINE
  5
43C
100
AcDbEntity
  8
0
100
AcDbSpline
 62
7
  6
CONTINUOUS
 70
0
 71
3
 72
9
 73
5
 74
0
 42
0.0000001
 43
0.0000001
 44
0.0000000001
 40
0.0
 40
0.0
 40
0.0
 40
0.0
 40
0.4778199165
 40
1.0
 40
1.0
 40
1.0
 40
1.0
 10
345.6705337851
 20
189.5292259507
 30
0.0
 10
345.7090001493
 20
189.5514301266
 30
0.0
 10
345.7803318353
 20
189.6151739764
 30
0.0
 10
345.8234956038
 20
189.6995333186
 30
0.0
 10
345.8397823669
 20
189.7452576424
 30
0.0
  0
SPLINE
  5
43D
100
AcDbEntity
  8
0
100
AcDbSpline
 62
7
  6
CONTINUOUS
 70
0
 71
3
 72
9
 73
5
 74
0
 42
0.0000001
 43
0.0000001
 44
0.0000000001
 40
0.0
 40
0.0
 40
0.0
 40
0.0
 40
0.2365019432
 40
1.0
 40
1.0
 40
1.0
 40
1.0
 10
345.8397823669
 20
189.7452576424
 30
0.0
 10
345.8448678517
 20
189.7595349024
 30
0.0
 10
345.8638418494
 20
189.8208006375
 30
0.0
 10
345.8731739486
 20
189.8848319759
 30
0.0
 10
345.8760867123
 20
189.9336730219
 30
0.0
  0
SPLINE
  5
43E
100
AcDbEntity
  8
0
100
AcDbSpline
 62
7
  6
CONTINUOUS
 70
0
 71
3
 72
9
 73
5
 74
0
 42
0.0000001
 43
0.0000001
 44
0.0000000001
 40
0.0
 40
0.0
 40
0.0
 40
0.0
 40
0.2320592973
 40
1.0
 40
1.0
 40
1.0
 40
1.0
 10
345.8386499807
 20
189.7329970847
 30
0.0
 10
345.8186900015
 20
189.7360532541
 30
0.0
 10
345.7334361085
 20
189.7541955087
 30
0.0
 10
345.6526710443
 20
189.790281566
 30
0.0
 10
345.5948009803
 20
189.8236921072
 30
0.0
  0
SPLINE
  5
43F
100
AcDbEntity
  8
0
100
AcDbSpline
 62
7
  6
CONTINUOUS
 70
0
 71
3
 72
11
 73
7
 74
0
 42
0.0000001
 43
0.0000001
 44
0.0000000001
 40
0.0
 40
0.0
 40
0.0
 40
0.0
 40
0.289802136
 40
0.5490534084
 40
0.7822299323
 40
1.0
 40
1.0
 40
1.0
 40
1.0
 10
342.8484742964
 20
183.7485734129
 30
0.0
 10
342.8484742964
 20
183.6725439569
 30
0.0
 10
342.8599570751
 20
183.5280025841
 30
0.0
 10
342.918557414
 20
183.329427968
 30
0.0
 10
343.0170615618
 20
183.1682762335
 30
0.0
 10
343.109665663
 20
183.0904610675
 30
0.0
 10
343.1591439492
 20
183.0618962205
 30
0.0
  0
SPLINE
  5
440
100
AcDbEntity
  8
0
100
AcDbSpline
 62
7
  6
CONTINUOUS
 70
0
 71
3
 72
9
 73
5
 74
0
 42
0.0000001
 43
0.0000001
 44
0.0000000001
 40
0.0
 40
0.0
 40
0.0
 40
0.0
 40
0.4882140474
 40
1.0
 40
1.0
 40
1.0
 40
1.0
 10
349.4240253904
 20
180.7547137928
 30
0.0
 10
349.7793955055
 20
182.849379408
 30
0.0
 10
350.3047998452
 20
187.1758470786
 30
0.0
 10
350.4670531805
 20
191.5296172628
 30
0.0
 10
350.4670531805
 20
193.7567937458
 30
0.0
  0
SPLINE
  5
441
100
AcDbEntity
  8
0
100
AcDbSpline
 62
7
  6
CONTINUOUS
 70
0
 71
3
 72
9
 73
5
 74
0
 42
0.0000001
 43
0.0000001
 44
0.0000000001
 40
0.0
 40
0.0
 40
0.0
 40
0.0
 40
0.5115025897
 40
1.0
 40
1.0
 40
1.0
 40
1.0
 10
352.8237187064
 20
195.1652353968
 30
0.0
 10
352.8237187064
 20
192.9744865988
 30
0.0
 10
352.6666453542
 20
188.6896276415
 30
0.0
 10
352.1587768532
 20
184.4307065566
 30
0.0
 10
351.8153184803
 20
182.3668717638
 30
0.0
  0
SPLINE
  5
442
100
AcDbEntity
  8
0
100
AcDbSpline
 62
7
  6
CONTINUOUS
 70
0
 71
3
 72
11
 73
7
 74
0
 42
0.0000001
 43
0.0000001
 44
0.0000000001
 40
0.0
 40
0.0
 40
0.0
 40
0.0
 40
0.2897052857
 40
0.5490919933
 40
0.7822182543
 40
1.0
 40
1.0
 40
1.0
 40
1.0
 10
352.677270625
 20
195.3693574737
 30
0.0
 10
352.6992103417
 20
195.356690859
 30
0.0
 10
352.739014529
 20
195.3292753785
 30
0.0
 10
352.7865861422
 20
195.2792804258
 30
0.0
 10
352.8166784219
 20
195.2239737693
 30
0.0
 10
352.8237162168
 20
195.1842796076
 30
0.0
 10
352.8237162115
 20
195.1652353968
 30
0.0
  0
SPLINE
  5
443
100
AcDbEntity
  8
0
100
AcDbSpline
 62
7
  6
CONTINUOUS
 70
0
 71
3
 72
11
 73
7
 74
0
 42
0.0000001
 43
0.0000001
 44
0.0000000001
 40
0.0
 40
0.0
 40
0.0
 40
0.0
 40
0.2897052857
 40
0.5490919933
 40
0.7822182543
 40
1.0
 40
1.0
 40
1.0
 40
1.0
 10
350.3791843317
 20
193.8792669919
 30
0.0
 10
350.3923481616
 20
193.8716670231
 30
0.0
 10
350.4162306741
 20
193.8552177348
 30
0.0
 10
350.444773642
 20
193.8252207632
 30
0.0
 10
350.4628290098
 20
193.7920367693
 30
0.0
 10
350.4670516868
 20
193.7682202723
 30
0.0
 10
350.4670516836
 20
193.7567937458
 30
0.0
  0
SPLINE
  5
444
100
AcDbEntity
  8
0
100
AcDbSpline
 62
7
  6
CONTINUOUS
 70
0
 71
3
 72
9
 73
5
 74
0
 42
0.0000001
 43
0.0000001
 44
0.0000000001
 40
0.0
 40
0.0
 40
0.0
 40
0.0
 40
0.2467914205
 40
1.0
 40
1.0
 40
1.0
 40
1.0
 10
345.8760867123
 20
189.9336730219
 30
0.0
 10
345.9019204153
 20
190.3668509981
 30
0.0
 10
345.993010433
 20
192.1228815697
 30
0.0
 10
346.0304680595
 20
193.8816343239
 30
0.0
 10
346.0304680595
 20
195.2060445151
 30
0.0
  0
SPLINE
  5
445
100
AcDbEntity
  8
0
100
AcDbSpline
 62
7
  6
CONTINUOUS
 70
0
 71
3
 72
10
 73
6
 74
0
 42
0.0000001
 43
0.0000001
 44
0.0000000001
 40
0.0
 40
0.0
 40
0.0
 40
0.0
 40
0.2493174166
 40
0.6257634044
 40
1.0
 40
1.0
 40
1.0
 40
1.0
 10
347.4772493332
 20
195.3244864571
 30
0.0
 10
347.4771874294
 20
195.3165099076
 30
0.0
 10
347.4767449699
 20
195.2964921641
 30
0.0
 10
347.4770658954
 20
195.2644948612
 30
0.0
 10
347.4765597728
 20
195.240480561
 30
0.0
 10
347.476454344
 20
195.2285075071
 30
0.0
  0
SPLINE
  5
446
100
AcDbEntity
  8
0
100
AcDbSpline
 62
7
  6
CONTINUOUS
 70
0
 71
3
 72
9
 73
5
 74
0
 42
0.0000001
 43
0.0000001
 44
0.0000000001
 40
0.0
 40
0.0
 40
0.0
 40
0.0
 40
0.4883188656
 40
1.0
 40
1.0
 40
1.0
 40
1.0
 10
351.6703450544
 20
182.1773989636
 30
0.0
 10
352.0132842675
 20
184.2381141286
 30
0.0
 10
352.5204619078
 20
188.4921664114
 30
0.0
 10
352.677273569
 20
192.7721140691
 30
0.0
 10
352.677273569
 20
194.9611150195
 30
0.0
  0
SPLINE
  5
447
100
AcDbEntity
  8
0
100
AcDbSpline
 62
7
  6
CONTINUOUS
 70
0
 71
3
 72
9
 73
5
 74
0
 42
0.0000001
 43
0.0000001
 44
0.0000000001
 40
0.0
 40
0.0
 40
0.0
 40
0.0
 40
0.5124037087
 40
1.0
 40
1.0
 40
1.0
 40
1.0
 10
352.2176560748
 20
194.6957563195
 30
0.0
 10
352.2176560748
 20
192.382555841
 30
0.0
 10
352.0428453915
 20
187.8658866311
 30
0.0
 10
351.4748514397
 20
183.3799258463
 30
0.0
 10
351.0905157036
 20
181.2125288259
 30
0.0
  0
SPLINE
  5
448
100
AcDbEntity
  8
0
100
AcDbSpline
 62
7
  6
CONTINUOUS
 70
0
 71
3
 72
13
 73
9
 74
0
 42
0.0000001
 43
0.0000001
 44
0.0000000001
 40
0.0
 40
0.0
 40
0.0
 40
0.0
 40
0.1193211293
 40
0.2415369405
 40
0.3654493117
 40
0.490597234
 40
0.7437635278
 40
1.0
 40
1.0
 40
1.0
 40
1.0
 10
350.9744716777
 20
181.17529921
 30
0.0
 10
350.9782676298
 20
181.3572849678
 30
0.0
 10
350.9980789639
 20
181.7253458393
 30
0.0
 10
351.0365241867
 20
182.2814830888
 30
0.0
 10
351.0803825117
 20
182.8461813799
 30
0.0
 10
351.1421246629
 20
183.6098364565
 30
0.0
 10
351.2216207934
 20
184.574580836
 30
0.0
 10
351.2831681894
 20
185.3492399952
 30
0.0
 10
351.3130959196
 20
185.738983434
 30
0.0
  0
SPLINE
  5
449
100
AcDbEntity
  8
0
100
AcDbSpline
 62
7
  6
CONTINUOUS
 70
0
 71
3
 72
9
 73
5
 74
0
 42
0.0000001
 43
0.0000001
 44
0.0000000001
 40
0.0
 40
0.0
 40
0.0
 40
0.0
 40
0.2458826264
 40
1.0
 40
1.0
 40
1.0
 40
1.0
 10
351.3130959196
 20
185.738983434
 30
0.0
 10
351.3698612093
 20
186.4782275771
 30
0.0
 10
351.5704435912
 20
189.4869949026
 30
0.0
 10
351.6519700611
 20
192.5034810969
 30
0.0
 10
351.6519700611
 20
194.7774034506
 30
0.0
  0
SPLINE
  5
44A
100
AcDbEntity
  8
0
100
AcDbSpline
 62
7
  6
CONTINUOUS
 70
0
 71
3
 72
9
 73
5
 74
0
 42
0.0000001
 43
0.0000001
 44
0.0000000001
 40
0.0
 40
0.0
 40
0.0
 40
0.0
 40
0.255963445
 40
1.0
 40
1.0
 40
1.0
 40
1.0
 10
351.7933920061
 20
194.6957552997
 30
0.0
 10
351.7933920061
 20
193.930239508
 30
0.0
 10
351.7548421814
 20
190.9397247448
 30
0.0
 10
351.558805374
 20
187.9505834202
 30
0.0
 10
351.3130959196
 20
185.738983434
 30
0.0
  0
SPLINE
  5
44B
100
AcDbEntity
  8
0
100
AcDbSpline
 62
7
  6
CONTINUOUS
 70
0
 71
3
 72
9
 73
5
 74
0
 42
0.0000001
 43
0.0000001
 44
0.0000000001
 40
0.0
 40
0.0
 40
0.0
 40
0.0
 40
0.2588285659
 40
1.0
 40
1.0
 40
1.0
 40
1.0
 10
349.3094514695
 20
180.0814807351
 30
0.0
 10
349.2998117006
 20
180.0775173726
 30
0.0
 10
349.2623447
 20
180.0627625145
 30
0.0
 10
349.2239765032
 20
180.0502226339
 30
0.0
 10
349.1951109217
 20
180.0426351382
 30
0.0
  0
SPLINE
  5
44C
100
AcDbEntity
  8
0
100
AcDbSpline
 62
7
  6
CONTINUOUS
 70
0
 71
3
 72
10
 73
6
 74
0
 42
0.0000001
 43
0.0000001
 44
0.0000000001
 40
0.0
 40
0.0
 40
0.0
 40
0.0
 40
0.223613115
 40
0.494978662
 40
1.0
 40
1.0
 40
1.0
 40
1.0
 10
349.1951109217
 20
180.0426351382
 30
0.0
 10
349.2116378468
 20
180.047005543
 30
0.0
 10
349.2442786722
 20
180.0692904436
 30
0.0
 10
349.2925666945
 20
180.1286133927
 30
0.0
 10
349.3166694722
 20
180.1849707453
 30
0.0
 10
349.3246061594
 20
180.2227545948
 30
0.0
  0
SPLINE
  5
44D
100
AcDbEntity
  8
0
100
AcDbSpline
 62
7
  6
CONTINUOUS
 70
0
 71
3
 72
9
 73
5
 74
0
 42
0.0000001
 43
0.0000001
 44
0.0000000001
 40
0.0
 40
0.0
 40
0.0
 40
0.0
 40
0.4875962924
 40
1.0
 40
1.0
 40
1.0
 40
1.0
 10
349.2520459192
 20
180.1510951109
 30
0.0
 10
349.636381607
 20
182.3184919633
 30
0.0
 10
350.2043754345
 20
186.8044523933
 30
0.0
 10
350.3791860981
 20
191.321121234
 30
0.0
 10
350.3791860981
 20
193.6343215194
 30
0.0
  0
SPLINE
  5
44E
100
AcDbEntity
  8
0
100
AcDbSpline
 62
7
  6
CONTINUOUS
 70
0
 71
3
 72
9
 73
5
 74
0
 42
0.0000001
 43
0.0000001
 44
0.0000000001
 40
0.0
 40
0.0
 40
0.0
 40
0.0
 40
0.2548688336
 40
1.0
 40
1.0
 40
1.0
 40
1.0
 10
349.2520457242
 20
180.1510940109
 30
0.0
 10
349.2595991481
 20
180.1554549591
 30
0.0
 10
349.2882072796
 20
180.1741553038
 30
0.0
 10
349.3126413449
 20
180.200236631
 30
0.0
 10
349.3246061594
 20
180.2227545948
 30
0.0
  0
SPLINE
  5
44F
100
AcDbEntity
  8
0
100
AcDbSpline
 62
7
  6
CONTINUOUS
 70
0
 71
3
 72
11
 73
7
 74
0
 42
0.0000001
 43
0.0000001
 44
0.0000000001
 40
0.0
 40
0.0
 40
0.0
 40
0.0
 40
0.2370681586
 40
0.5104964104
 40
0.7776612267
 40
1.0
 40
1.0
 40
1.0
 40
1.0
 10
348.2108447262
 20
180.6526774401
 30
0.0
 10
348.2569348505
 20
180.6167374757
 30
0.0
 10
348.3693802499
 20
180.5557937189
 30
0.0
 10
348.5582167706
 20
180.5118200909
 30
0.0
 10
348.7484711844
 20
180.5182222841
 30
0.0
 10
348.8651676908
 20
180.5578413871
 30
0.0
 10
348.9126400927
 20
180.5852468403
 30
0.0
  0
SPLINE
  5
450
100
AcDbEntity
  8
0
100
AcDbSpline
 62
7
  6
CONTINUOUS
 70
0
 71
3
 72
15
 73
11
 74
0
 42
0.0000001
 43
0.0000001
 44
0.0000000001
 40
0.0
 40
0.0
 40
0.0
 40
0.0
 40
0.1593968817
 40
0.3010786673
 40
0.4261116913
 40
0.5380575785
 40
0.6434125082
 40
0.7506654465
 40
0.8676224989
 40
1.0
 40
1.0
 40
1.0
 40
1.0
 10
348.9126400958
 20
180.5852468033
 30
0.0
 10
348.9067200147
 20
180.5496741779
 30
0.0
 10
348.899404756
 20
180.4817133329
 30
0.0
 10
348.9036291716
 20
180.3849481046
 30
0.0
 10
348.9240619315
 20
180.3010381268
 30
0.0
 10
348.9613837828
 20
180.2318966099
 30
0.0
 10
349.0160447142
 20
180.1808454883
 30
0.0
 10
349.0851890813
 20
180.1498163621
 30
0.0
 10
349.16609473
 20
180.1392668688
 30
0.0
 10
349.2226545757
 20
180.1453424545
 30
0.0
 10
349.2520459192
 20
180.1510951109
 30
0.0
  0
SPLINE
  5
451
100
AcDbEntity
  8
0
100
AcDbSpline
 62
7
  6
CONTINUOUS
 70
0
 71
3
 72
9
 73
5
 74
0
 42
0.0000001
 43
0.0000001
 44
0.0000000001
 40
0.0
 40
0.0
 40
0.0
 40
0.0
 40
0.2593984227
 40
1.0
 40
1.0
 40
1.0
 40
1.0
 10
349.2520443497
 20
180.1510947835
 30
0.0
 10
349.2485826343
 20
180.1410580826
 30
0.0
 10
349.2339139891
 20
180.1028571113
 30
0.0
 10
349.2135877154
 20
180.0666579525
 30
0.0
 10
349.195108716
 20
180.0426298857
 30
0.0
  0
SPLINE
  5
452
100
AcDbEntity
  8
0
100
AcDbSpline
 62
7
  6
CONTINUOUS
 70
0
 71
3
 72
12
 73
8
 74
0
 42
0.0000001
 43
0.0000001
 44
0.0000000001
 40
0.0
 40
0.0
 40
0.0
 40
0.0
 40
0.3004376373
 40
0.5601154918
 40
0.7876426191
 40
0.894561964
 40
1.0
 40
1.0
 40
1.0
 40
1.0
 10
348.2108313111
 20
180.6526869961
 30
0.0
 10
348.2032642837
 20
180.5822975703
 30
0.0
 10
348.1992188028
 20
180.4494912834
 30
0.0
 10
348.2326160349
 20
180.2652351059
 30
0.0
 10
348.2966972316
 20
180.1375863059
 30
0.0
 10
348.3675099479
 20
180.061083731
 30
0.0
 10
348.4084068937
 20
180.0315727687
 30
0.0
 10
348.4298791396
 20
180.0190733605
 30
0.0
  0
SPLINE
  5
453
100
AcDbEntity
  8
0
100
AcDbSpline
 62
7
  6
CONTINUOUS
 70
0
 71
3
 72
9
 73
5
 74
0
 42
0.0000001
 43
0.0000001
 44
0.0000000001
 40
0.0
 40
0.0
 40
0.0
 40
0.0
 40
0.2762310929
 40
1.0
 40
1.0
 40
1.0
 40
1.0
 10
350.9744716777
 20
181.17529921
 30
0.0
 10
350.9856412986
 20
181.1767329166
 30
0.0
 10
351.0257832037
 20
181.1837674144
 30
0.0
 10
351.0649624836
 20
181.197775744
 30
0.0
 10
351.0905157009
 20
181.2125288109
 30
0.0
  0
SPLINE
  5
454
100
AcDbEntity
  8
0
100
AcDbSpline
 62
7
  6
CONTINUOUS
 70
0
 71
3
 72
11
 73
7
 74
0
 42
0.0000001
 43
0.0000001
 44
0.0000000001
 40
0.0
 40
0.0
 40
0.0
 40
0.0
 40
0.2897862064
 40
0.5490616347
 40
0.7822267606
 40
1.0
 40
1.0
 40
1.0
 40
1.0
 10
345.1705386779
 20
189.5787456149
 30
0.0
 10
345.2144306881
 20
189.5534051243
 30
0.0
 10
345.3017093828
 20
189.5118600768
 30
0.0
 10
345.4358838355
 20
189.4794954308
 30
0.0
 10
345.5617586666
 20
189.4826601859
 30
0.0
 10
345.6375476619
 20
189.510185168
 30
0.0
 10
345.6705337851
 20
189.5292259507
 30
0.0
  0
SPLINE
  5
455
100
AcDbEntity
  8
0
100
AcDbSpline
 62
7
  6
CONTINUOUS
 70
0
 71
3
 72
9
 73
5
 74
0
 42
0.0000001
 43
0.0000001
 44
0.0000000001
 40
0.0
 40
0.0
 40
0.0
 40
0.0
 40
0.2556024288
 40
1.0
 40
1.0
 40
1.0
 40
1.0
 10
349.192716855
 20
191.5068734427
 30
0.0
 10
349.1778364294
 20
190.8095766738
 30
0.0
 10
349.0863109354
 20
188.0824009324
 30
0.0
 10
348.8588419685
 20
185.3592877683
 30
0.0
 10
348.6041437894
 20
183.3441017879
 30
0.0
  0
SPLINE
  5
456
100
AcDbEntity
  8
0
100
AcDbSpline
 62
7
  6
CONTINUOUS
 70
0
 71
3
 72
11
 73
7
 74
0
 42
0.0000001
 43
0.0000001
 44
0.0000000001
 40
0.0
 40
0.0
 40
0.0
 40
0.0
 40
0.2177821605
 40
0.4509085882
 40
0.7102951949
 40
1.0
 40
1.0
 40
1.0
 40
1.0
 10
350.4670516836
 20
193.7567937458
 30
0.0
 10
350.4670516804
 20
193.7453673447
 30
0.0
 10
350.462829113
 20
193.7215511261
 30
0.0
 10
350.4447741327
 20
193.6883674522
 30
0.0
 10
350.4162317412
 20
193.6583707043
 30
0.0
 10
350.3923496818
 20
193.6419214727
 30
0.0
 10
350.3791860981
 20
193.6343215194
 30
0.0
  0
SPLINE
  5
457
100
AcDbEntity
  8
0
100
AcDbSpline
 62
7
  6
CONTINUOUS
 70
0
 71
3
 72
9
 73
5
 74
0
 42
0.0000001
 43
0.0000001
 44
0.0000000001
 40
0.0
 40
0.0
 40
0.0
 40
0.0
 40
0.2627583249
 40
1.0
 40
1.0
 40
1.0
 40
1.0
 10
351.0764314064
 20
181.1288021618
 30
0.0
 10
351.0745459693
 20
181.1271684817
 30
0.0
 10
351.0672378591
 20
181.1211094113
 30
0.0
 10
351.0593766023
 20
181.1156889699
 30
0.0
 10
351.0532678291
 20
181.1122715202
 30
0.0
  0
SPLINE
  5
458
100
AcDbEntity
  8
0
100
AcDbSpline
 62
7
  6
CONTINUOUS
 70
0
 71
3
 72
13
 73
9
 74
0
 42
0.0000001
 43
0.0000001
 44
0.0000000001
 40
0.0
 40
0.0
 40
0.0
 40
0.0
 40
0.1562014731
 40
0.2859274114
 40
0.396861203
 40
0.5013866406
 40
0.7270052062
 40
1.0
 40
1.0
 40
1.0
 40
1.0
 10
351.0532678291
 20
181.1122715202
 30
0.0
 10
351.0473016331
 20
181.108933833
 30
0.0
 10
351.0357575494
 20
181.1037836222
 30
0.0
 10
351.0182913332
 20
181.1011785873
 30
0.0
 10
351.0031494164
 20
181.104522751
 30
0.0
 10
350.9871205536
 20
181.116143998
 30
0.0
 10
350.9757361366
 20
181.141433974
 30
0.0
 10
350.9742236376
 20
181.1633538353
 30
0.0
 10
350.9744716777
 20
181.17529921
 30
0.0
  0
SPLINE
  5
459
100
AcDbEntity
  8
0
100
AcDbSpline
 62
7
  6
CONTINUOUS
 70
0
 71
3
 72
9
 73
5
 74
0
 42
0.0000001
 43
0.0000001
 44
0.0000000001
 40
0.0
 40
0.0
 40
0.0
 40
0.0
 40
0.2566284734
 40
1.0
 40
1.0
 40
1.0
 40
1.0
 10
349.9195686039
 20
193.3689628194
 30
0.0
 10
349.9195686039
 20
192.521196191
 30
0.0
 10
349.8725658748
 20
189.2180129459
 30
0.0
 10
349.6331149239
 20
185.9165716708
 30
0.0
 10
349.3315969203
 20
183.4794406965
 30
0.0
  0
SPLINE
  5
45A
100
AcDbEntity
  8
0
100
AcDbSpline
 62
7
  6
CONTINUOUS
 70
0
 71
3
 72
9
 73
5
 74
0
 42
0.0000001
 43
0.0000001
 44
0.0000000001
 40
0.0
 40
0.0
 40
0.0
 40
0.0
 40
0.4777581127
 40
1.0
 40
1.0
 40
1.0
 40
1.0
 10
349.3094514695
 20
180.0814807351
 30
0.0
 10
349.581834491
 20
180.1934478671
 30
0.0
 10
350.1346017912
 20
180.4708077766
 30
0.0
 10
350.6508573979
 20
180.8098724064
 30
0.0
 10
350.9110867751
 20
180.9993778308
 30
0.0
  0
SPLINE
  5
45B
100
AcDbEntity
  8
0
100
AcDbSpline
 62
7
  6
CONTINUOUS
 70
0
 71
3
 72
11
 73
7
 74
0
 42
0.0000001
 43
0.0000001
 44
0.0000000001
 40
0.0
 40
0.0
 40
0.0
 40
0.0
 40
0.2642600556
 40
0.530859121
 40
0.7811436426
 40
1.0
 40
1.0
 40
1.0
 40
1.0
 10
351.0905157036
 20
181.2125288259
 30
0.0
 10
351.1650683329
 20
181.2801761387
 30
0.0
 10
351.3036118448
 20
181.4286517615
 30
0.0
 10
351.4764880965
 20
181.6719899153
 30
0.0
 10
351.6039264286
 20
181.9227352111
 30
0.0
 10
351.6566591892
 20
182.0951572874
 30
0.0
 10
351.6703450544
 20
182.1773989636
 30
0.0
  0
SPLINE
  5
45C
100
AcDbEntity
  8
0
100
AcDbSpline
 62
7
  6
CONTINUOUS
 70
0
 71
3
 72
9
 73
5
 74
0
 42
0.0000001
 43
0.0000001
 44
0.0000000001
 40
0.0
 40
0.0
 40
0.0
 40
0.0
 40
0.5068672642
 40
1.0
 40
1.0
 40
1.0
 40
1.0
 10
351.6703450467
 20
182.177399049
 30
0.0
 10
351.6972831552
 20
182.1929539216
 30
0.0
 10
351.7471990599
 20
182.2299055871
 30
0.0
 10
351.7842353678
 20
182.2806359714
 30
0.0
 10
351.7970132657
 20
182.3080697605
 30
0.0
  0
SPLINE
  5
45D
100
AcDbEntity
  8
0
100
AcDbSpline
 62
7
  6
CONTINUOUS
 70
0
 71
3
 72
8
 73
4
 74
0
 42
0.0000001
 43
0.0000001
 44
0.0000000001
 40
0.0
 40
0.0
 40
0.0
 40
0.0
 40
1.0
 40
1.0
 40
1.0
 40
1.0
 10
351.7970132657
 20
182.3080697605
 30
0.0
 10
351.8056806194
 20
182.3266783266
 30
0.0
 10
351.8119392802
 20
182.3466237306
 30
0.0
 10
351.8153102193
 20
182.3668731386
 30
0.0
  0
SPLINE
  5
45E
100
AcDbEntity
  8
0
100
AcDbSpline
 62
7
  6
CONTINUOUS
 70
0
 71
3
 72
9
 73
5
 74
0
 42
0.0000001
 43
0.0000001
 44
0.0000000001
 40
0.0
 40
0.0
 40
0.0
 40
0.0
 40
0.232630737
 40
1.0
 40
1.0
 40
1.0
 40
1.0
 10
351.0803211078
 20
181.1383332474
 30
0.0
 10
351.0823232651
 20
181.1438075178
 30
0.0
 10
351.0894846709
 20
181.1678706198
 30
0.0
 10
351.091214667
 20
181.1933148973
 30
0.0
 10
351.0905169471
 20
181.212529837
 30
0.0
  0
SPLINE
  5
45F
100
AcDbEntity
  8
0
100
AcDbSpline
 62
7
  6
CONTINUOUS
 70
0
 71
3
 72
11
 73
7
 74
0
 42
0.0000001
 43
0.0000001
 44
0.0000000001
 40
0.0
 40
0.0
 40
0.0
 40
0.0
 40
0.2372398078
 40
0.4999994051
 40
0.7627593222
 40
1.0
 40
1.0
 40
1.0
 40
1.0
 10
352.2176560748
 20
194.6957563195
 30
0.0
 10
352.1875393498
 20
194.678368524
 30
0.0
 10
352.1175032934
 20
194.6529956192
 30
0.0
 10
352.0055243997
 20
194.6408391751
 30
0.0
 10
351.8935453209
 20
194.6529950986
 30
0.0
 10
351.823508967
 20
194.6783676576
 30
0.0
 10
351.7933920061
 20
194.6957552997
 30
0.0
  0
SPLINE
  5
460
100
AcDbEntity
  8
0
100
AcDbSpline
 62
7
  6
CONTINUOUS
 70
0
 71
3
 72
11
 73
7
 74
0
 42
0.0000001
 43
0.0000001
 44
0.0000000001
 40
0.0
 40
0.0
 40
0.0
 40
0.0
 40
0.2177821605
 40
0.4509085882
 40
0.7102951949
 40
1.0
 40
1.0
 40
1.0
 40
1.0
 10
352.8237162115
 20
195.1652353968
 30
0.0
 10
352.8237162062
 20
195.146191395
 30
0.0
 10
352.8166785939
 20
195.1064976974
 30
0.0
 10
352.7865869601
 20
195.0511915741
 30
0.0
 10
352.7390163075
 20
195.0011969942
 30
0.0
 10
352.6992128752
 20
194.9737816082
 30
0.0
 10
352.677273569
 20
194.9611150195
 30
0.0
  0
SPLINE
  5
461
100
AcDbEntity
  8
0
100
AcDbSpline
 62
7
  6
CONTINUOUS
 70
0
 71
3
 72
11
 73
7
 74
0
 42
0.0000001
 43
0.0000001
 44
0.0000000001
 40
0.0
 40
0.0
 40
0.0
 40
0.0
 40
0.2372398078
 40
0.4999994051
 40
0.7627593222
 40
1.0
 40
1.0
 40
1.0
 40
1.0
 10
349.9195686039
 20
193.3689628194
 30
0.0
 10
349.8693740621
 20
193.3399831602
 30
0.0
 10
349.7526473015
 20
193.2976949856
 30
0.0
 10
349.5660158121
 20
193.2774342455
 30
0.0
 10
349.379384014
 20
193.2976941179
 30
0.0
 10
349.2626567575
 20
193.3399817162
 30
0.0
 10
349.2124618227
 20
193.3689611197
 30
0.0
  0
SPLINE
  5
462
100
AcDbEntity
  8
0
100
AcDbSpline
 62
7
  6
CONTINUOUS
 70
0
 71
3
 72
10
 73
6
 74
0
 42
0.0000001
 43
0.0000001
 44
0.0000000001
 40
0.0
 40
0.0
 40
0.0
 40
0.0
 40
0.1861041007
 40
0.5490117644
 40
1.0
 40
1.0
 40
1.0
 40
1.0
 10
47.85078191
 20
368.2155813397
 30
0.0
 10
47.8294762767
 20
368.2279181004
 30
0.0
 10
47.75149316
 20
368.2376150379
 30
0.0
 10
47.6328584876
 20
368.1622360858
 30
0.0
 10
47.5673386285
 20
368.0752625853
 30
0.0
 10
47.5398105211
 20
368.0223320689
 30
0.0
  0
SPLINE
  5
463
100
AcDbEntity
  8
0
100
AcDbSpline
 62
7
  6
CONTINUOUS
 70
0
 71
3
 72
10
 73
6
 74
0
 42
0.0000001
 43
0.0000001
 44
0.0000000001
 40
0.0
 40
0.0
 40
0.0
 40
0.0
 40
0.1828160835
 40
0.5540905697
 40
1.0
 40
1.0
 40
1.0
 40
1.0
 10
50.0428764151
 20
369.4812540349
 30
0.0
 10
50.0182137013
 20
369.4954704675
 30
0.0
 10
49.9235051373
 20
369.5006026261
 30
0.0
 10
49.7932322532
 20
369.3981092456
 30
0.0
 10
49.7261246937
 20
369.287542619
 30
0.0
 10
49.7033239929
 20
369.221959341
 30
0.0
  0
SPLINE
  5
464
100
AcDbEntity
  8
0
100
AcDbSpline
 62
7
  6
CONTINUOUS
 70
0
 71
3
 72
9
 73
5
 74
0
 42
0.0000001
 43
0.0000001
 44
0.0000000001
 40
0.0
 40
0.0
 40
0.0
 40
0.0
 40
0.2543742222
 40
1.0
 40
1.0
 40
1.0
 40
1.0
 10
49.7033239929
 20
369.221959341
 30
0.0
 10
49.6795761748
 20
369.1536518024
 30
0.0
 10
49.5899706623
 20
368.8838379548
 30
0.0
 10
49.5154631657
 20
368.6089496369
 30
0.0
 10
49.4696767458
 20
368.401974125
 30
0.0
  0
SPLINE
  5
465
100
AcDbEntity
  8
0
100
AcDbSpline
 62
7
  6
CONTINUOUS
 70
0
 71
3
 72
9
 73
5
 74
0
 42
0.0000001
 43
0.0000001
 44
0.0000000001
 40
0.0
 40
0.0
 40
0.0
 40
0.0
 40
0.2421136851
 40
1.0
 40
1.0
 40
1.0
 40
1.0
 10
346.9978438495
 20
195.4894516568
 30
0.0
 10
347.0187971016
 20
195.4533769141
 30
0.0
 10
347.1010499434
 20
195.3019011453
 30
0.0
 10
347.1663470026
 20
195.1414291299
 30
0.0
 10
347.2070829768
 20
195.0173544347
 30
0.0
  0
SPLINE
  5
466
100
AcDbEntity
  8
0
100
AcDbSpline
 62
7
  6
CONTINUOUS
 70
0
 71
3
 72
9
 73
5
 74
0
 42
0.0000001
 43
0.0000001
 44
0.0000000001
 40
0.0
 40
0.0
 40
0.0
 40
0.0
 40
0.2445183326
 40
1.0
 40
1.0
 40
1.0
 40
1.0
 10
348.5543343127
 20
195.6091223333
 30
0.0
 10
348.5700136028
 20
195.6859649312
 30
0.0
 10
348.6397600799
 20
195.9990632362
 30
0.0
 10
348.7311676062
 20
196.3072469709
 30
0.0
 10
348.81073773
 20
196.5361201789
 30
0.0
  0
SPLINE
  5
467
100
AcDbEntity
  8
0
100
AcDbSpline
 62
7
  6
CONTINUOUS
 70
0
 71
3
 72
9
 73
5
 74
0
 42
0.0000001
 43
0.0000001
 44
0.0000000001
 40
0.0
 40
0.0
 40
0.0
 40
0.0
 40
0.2790475128
 40
1.0
 40
1.0
 40
1.0
 40
1.0
 10
348.81073773
 20
196.5361201789
 30
0.0
 10
348.8224626466
 20
196.5698453907
 30
0.0
 10
348.8769926321
 20
196.6834646406
 30
0.0
 10
348.9805227761
 20
196.7921100131
 30
0.0
 10
349.0714986847
 20
196.8073812355
 30
0.0
  0
SPLINE
  5
468
100
AcDbEntity
  8
0
100
AcDbSpline
 62
7
  6
CONTINUOUS
 70
0
 71
3
 72
8
 73
4
 74
0
 42
0.0000001
 43
0.0000001
 44
0.0000000001
 40
0.0
 40
0.0
 40
0.0
 40
0.0
 40
1.0
 40
1.0
 40
1.0
 40
1.0
 10
349.0714986847
 20
196.8073812355
 30
0.0
 10
349.0976971417
 20
196.8117789103
 30
0.0
 10
349.1272751075
 20
196.8086816382
 30
0.0
 10
349.1502901489
 20
196.7954148919
 30
0.0
  0
SPLINE
  5
469
100
AcDbEntity
  8
0
100
AcDbSpline
 62
7
  6
CONTINUOUS
 70
0
 71
3
 72
8
 73
4
 74
0
 42
0.0000001
 43
0.0000001
 44
0.0000000001
 40
0.0
 40
0.0
 40
0.0
 40
0.0
 40
1.0
 40
1.0
 40
1.0
 40
1.0
 10
346.6472250142
 20
195.3364943746
 30
0.0
 10
346.6638813136
 20
195.3685205244
 30
0.0
 10
346.6839273906
 20
195.3990361639
 30
0.0
 10
346.7069990253
 20
195.4267995616
 30
0.0
  0
SPLINE
  5
46A
100
AcDbEntity
  8
0
100
AcDbSpline
 62
7
  6
CONTINUOUS
 70
0
 71
3
 72
8
 73
4
 74
0
 42
0.0000001
 43
0.0000001
 44
0.0000000001
 40
0.0
 40
0.0
 40
0.0
 40
0.0
 40
1.0
 40
1.0
 40
1.0
 40
1.0
 10
346.7069990253
 20
195.4267995616
 30
0.0
 10
346.7372648541
 20
195.4632201383
 30
0.0
 10
346.7735439913
 20
195.4963344212
 30
0.0
 10
346.8151973364
 20
195.5188616858
 30
0.0
  0
SPLINE
  5
46B
100
AcDbEntity
  8
0
100
AcDbSpline
 62
7
  6
CONTINUOUS
 70
0
 71
3
 72
9
 73
5
 74
0
 42
0.0000001
 43
0.0000001
 44
0.0000000001
 40
0.0
 40
0.0
 40
0.0
 40
0.0
 40
0.2928887712
 40
1.0
 40
1.0
 40
1.0
 40
1.0
 10
346.8151973364
 20
195.5188616858
 30
0.0
 10
346.827793422
 20
195.5256739923
 30
0.0
 10
346.8718385676
 20
195.5458061994
 30
0.0
 10
346.9282768298
 20
195.5470668015
 30
0.0
 10
346.9581958214
 20
195.5297424148
 30
0.0
  0
SPLINE
  5
46C
100
AcDbEntity
  8
0
100
AcDbSpline
 62
7
  6
CONTINUOUS
 70
0
 71
3
 72
9
 73
5
 74
0
 42
0.0000001
 43
0.0000001
 44
0.0000000001
 40
0.0
 40
0.0
 40
0.0
 40
0.0
 40
0.2831555266
 40
1.0
 40
1.0
 40
1.0
 40
1.0
 10
330.1204856183
 20
213.5594595983
 30
0.0
 10
330.1204856183
 20
213.6727971675
 30
0.0
 10
330.1432853636
 20
214.0705528325
 30
0.0
 10
330.2798819372
 20
214.4771253763
 30
0.0
 10
330.463843099
 20
214.6973214134
 30
0.0
  0
SPLINE
  5
46D
100
AcDbEntity
  8
0
100
AcDbSpline
 62
7
  6
CONTINUOUS
 70
0
 71
3
 72
9
 73
5
 74
0
 42
0.0000001
 43
0.0000001
 44
0.0000000001
 40
0.0
 40
0.0
 40
0.0
 40
0.0
 40
0.2831555266
 40
1.0
 40
1.0
 40
1.0
 40
1.0
 10
342.7777496984
 20
206.2519500924
 30
0.0
 10
342.7777496984
 20
206.3652876616
 30
0.0
 10
342.8005494437
 20
206.7630433266
 30
0.0
 10
342.9371460173
 20
207.1696158704
 30
0.0
 10
343.1211071792
 20
207.3898119075
 30
0.0
  0
SPLINE
  5
46E
100
AcDbEntity
  8
0
100
AcDbSpline
 62
7
  6
CONTINUOUS
 70
0
 71
3
 72
9
 73
5
 74
0
 42
0.0000001
 43
0.0000001
 44
0.0000000001
 40
0.0
 40
0.0
 40
0.0
 40
0.0
 40
0.2831555266
 40
1.0
 40
1.0
 40
1.0
 40
1.0
 10
51.6606758554
 20
374.3246687284
 30
0.0
 10
51.6606758554
 20
374.4380062976
 30
0.0
 10
51.6834756007
 20
374.8357619626
 30
0.0
 10
51.8200721743
 20
375.2423345065
 30
0.0
 10
52.0040333362
 20
375.4625305436
 30
0.0
  0
SPLINE
  5
46F
100
AcDbEntity
  8
0
100
AcDbSpline
 62
7
  6
CONTINUOUS
 70
0
 71
3
 72
9
 73
5
 74
0
 42
0.0000001
 43
0.0000001
 44
0.0000000001
 40
0.0
 40
0.0
 40
0.0
 40
0.0
 40
0.2831555266
 40
1.0
 40
1.0
 40
1.0
 40
1.0
 10
64.3179399355
 20
367.0171592225
 30
0.0
 10
64.3179399355
 20
367.1304967917
 30
0.0
 10
64.3407396808
 20
367.5282524567
 30
0.0
 10
64.4773362544
 20
367.9348250006
 30
0.0
 10
64.6612974163
 20
368.1550210377
 30
0.0
  0
SPLINE
  5
470
100
AcDbEntity
  8
0
100
AcDbSpline
 62
7
  6
CONTINUOUS
 70
0
 71
3
 72
9
 73
5
 74
0
 42
0.0000001
 43
0.0000001
 44
0.0000000001
 40
0.0
 40
0.0
 40
0.0
 40
0.0
 40
0.2831555266
 40
1.0
 40
1.0
 40
1.0
 40
1.0
 10
76.9752040157
 20
359.7096497166
 30
0.0
 10
76.9752040157
 20
359.8229872858
 30
0.0
 10
76.9980037609
 20
360.2207429508
 30
0.0
 10
77.1346003346
 20
360.6273154947
 30
0.0
 10
77.3185614965
 20
360.8475115317
 30
0.0
  0
SPLINE
  5
471
100
AcDbEntity
  8
0
100
AcDbSpline
 62
7
  6
CONTINUOUS
 70
0
 71
3
 72
9
 73
5
 74
0
 42
0.0000001
 43
0.0000001
 44
0.0000000001
 40
0.0
 40
0.0
 40
0.0
 40
0.0
 40
0.2831555266
 40
1.0
 40
1.0
 40
1.0
 40
1.0
 10
89.6324680958
 20
352.4021402107
 30
0.0
 10
89.6324680958
 20
352.5154777799
 30
0.0
 10
89.6552678411
 20
352.9132334449
 30
0.0
 10
89.7918644147
 20
353.3198059888
 30
0.0
 10
89.9758255766
 20
353.5400020258
 30
0.0
  0
SPLINE
  5
472
100
AcDbEntity
  8
0
100
AcDbSpline
 62
7
  6
CONTINUOUS
 70
0
 71
3
 72
9
 73
5
 74
0
 42
0.0000001
 43
0.0000001
 44
0.0000000001
 40
0.0
 40
0.0
 40
0.0
 40
0.0
 40
0.2831555266
 40
1.0
 40
1.0
 40
1.0
 40
1.0
 10
102.2897321759
 20
345.0946307048
 30
0.0
 10
102.2897321759
 20
345.207968274
 30
0.0
 10
102.3125319212
 20
345.605723939
 30
0.0
 10
102.4491284948
 20
346.0122964828
 30
0.0
 10
102.6330896567
 20
346.2324925199
 30
0.0
  0
SPLINE
  5
473
100
AcDbEntity
  8
0
100
AcDbSpline
 62
7
  6
CONTINUOUS
 70
0
 71
3
 72
9
 73
5
 74
0
 42
0.0000001
 43
0.0000001
 44
0.0000000001
 40
0.0
 40
0.0
 40
0.0
 40
0.0
 40
0.2831555266
 40
1.0
 40
1.0
 40
1.0
 40
1.0
 10
114.9469962561
 20
337.7871211988
 30
0.0
 10
114.9469962561
 20
337.9004587681
 30
0.0
 10
114.9697960013
 20
338.2982144331
 30
0.0
 10
115.106392575
 20
338.7047869769
 30
0.0
 10
115.2903537369
 20
338.924983014
 30
0.0
  0
SPLINE
  5
474
100
AcDbEntity
  8
0
100
AcDbSpline
 62
7
  6
CONTINUOUS
 70
0
 71
3
 72
9
 73
5
 74
0
 42
0.0000001
 43
0.0000001
 44
0.0000000001
 40
0.0
 40
0.0
 40
0.0
 40
0.0
 40
0.2831555266
 40
1.0
 40
1.0
 40
1.0
 40
1.0
 10
127.6042603362
 20
330.4796116929
 30
0.0
 10
127.6042603362
 20
330.5929492621
 30
0.0
 10
127.6270600815
 20
330.9907049272
 30
0.0
 10
127.7636566551
 20
331.397277471
 30
0.0
 10
127.947617817
 20
331.6174735081
 30
0.0
  0
SPLINE
  5
475
100
AcDbEntity
  8
0
100
AcDbSpline
 62
7
  6
CONTINUOUS
 70
0
 71
3
 72
9
 73
5
 74
0
 42
0.0000001
 43
0.0000001
 44
0.0000000001
 40
0.0
 40
0.0
 40
0.0
 40
0.0
 40
0.2831555266
 40
1.0
 40
1.0
 40
1.0
 40
1.0
 10
140.2615244163
 20
323.172102187
 30
0.0
 10
140.2615244163
 20
323.2854397562
 30
0.0
 10
140.2843241616
 20
323.6831954212
 30
0.0
 10
140.4209207352
 20
324.0897679651
 30
0.0
 10
140.6048818971
 20
324.3099640022
 30
0.0
  0
SPLINE
  5
476
100
AcDbEntity
  8
0
100
AcDbSpline
 62
7
  6
CONTINUOUS
 70
0
 71
3
 72
9
 73
5
 74
0
 42
0.0000001
 43
0.0000001
 44
0.0000000001
 40
0.0
 40
0.0
 40
0.0
 40
0.0
 40
0.2831555266
 40
1.0
 40
1.0
 40
1.0
 40
1.0
 10
152.9187884965
 20
315.8645926811
 30
0.0
 10
152.9187884965
 20
315.9779302503
 30
0.0
 10
152.9415882417
 20
316.3756859153
 30
0.0
 10
153.0781848154
 20
316.7822584592
 30
0.0
 10
153.2621459773
 20
317.0024544963
 30
0.0
  0
SPLINE
  5
477
100
AcDbEntity
  8
0
100
AcDbSpline
 62
7
  6
CONTINUOUS
 70
0
 71
3
 72
9
 73
5
 74
0
 42
0.0000001
 43
0.0000001
 44
0.0000000001
 40
0.0
 40
0.0
 40
0.0
 40
0.0
 40
0.2831555266
 40
1.0
 40
1.0
 40
1.0
 40
1.0
 10
165.5760525766
 20
308.5570831752
 30
0.0
 10
165.5760525766
 20
308.6704207444
 30
0.0
 10
165.5988523218
 20
309.0681764094
 30
0.0
 10
165.7354488955
 20
309.4747489533
 30
0.0
 10
165.9194100574
 20
309.6949449904
 30
0.0
  0
SPLINE
  5
478
100
AcDbEntity
  8
0
100
AcDbSpline
 62
7
  6
CONTINUOUS
 70
0
 71
3
 72
9
 73
5
 74
0
 42
0.0000001
 43
0.0000001
 44
0.0000000001
 40
0.0
 40
0.0
 40
0.0
 40
0.0
 40
0.2831555266
 40
1.0
 40
1.0
 40
1.0
 40
1.0
 10
178.2333166567
 20
301.2495736693
 30
0.0
 10
178.2333166567
 20
301.3629112385
 30
0.0
 10
178.256116402
 20
301.7606669035
 30
0.0
 10
178.3927129756
 20
302.1672394474
 30
0.0
 10
178.5766741375
 20
302.3874354844
 30
0.0
  0
SPLINE
  5
479
100
AcDbEntity
  8
0
100
AcDbSpline
 62
7
  6
CONTINUOUS
 70
0
 71
3
 72
9
 73
5
 74
0
 42
0.0000001
 43
0.0000001
 44
0.0000000001
 40
0.0
 40
0.0
 40
0.0
 40
0.0
 40
0.2831555266
 40
1.0
 40
1.0
 40
1.0
 40
1.0
 10
190.8905807369
 20
293.9420641634
 30
0.0
 10
190.8905807369
 20
294.0554017326
 30
0.0
 10
190.9133804821
 20
294.4531573976
 30
0.0
 10
191.0499770558
 20
294.8597299414
 30
0.0
 10
191.2339382177
 20
295.0799259785
 30
0.0
  0
SPLINE
  5
47A
100
AcDbEntity
  8
0
100
AcDbSpline
 62
7
  6
CONTINUOUS
 70
0
 71
3
 72
9
 73
5
 74
0
 42
0.0000001
 43
0.0000001
 44
0.0000000001
 40
0.0
 40
0.0
 40
0.0
 40
0.0
 40
0.2831555266
 40
1.0
 40
1.0
 40
1.0
 40
1.0
 10
203.547844817
 20
286.6345546575
 30
0.0
 10
203.547844817
 20
286.7478922267
 30
0.0
 10
203.5706445622
 20
287.1456478917
 30
0.0
 10
203.7072411359
 20
287.5522204355
 30
0.0
 10
203.8912022978
 20
287.7724164726
 30
0.0
  0
SPLINE
  5
47B
100
AcDbEntity
  8
0
100
AcDbSpline
 62
7
  6
CONTINUOUS
 70
0
 71
3
 72
9
 73
5
 74
0
 42
0.0000001
 43
0.0000001
 44
0.0000000001
 40
0.0
 40
0.0
 40
0.0
 40
0.0
 40
0.2831555266
 40
1.0
 40
1.0
 40
1.0
 40
1.0
 10
216.2051088971
 20
279.3270451515
 30
0.0
 10
216.2051088971
 20
279.4403827207
 30
0.0
 10
216.2279086424
 20
279.8381383858
 30
0.0
 10
216.364505216
 20
280.2447109296
 30
0.0
 10
216.5484663779
 20
280.4649069667
 30
0.0
  0
SPLINE
  5
47C
100
AcDbEntity
  8
0
100
AcDbSpline
 62
7
  6
CONTINUOUS
 70
0
 71
3
 72
9
 73
5
 74
0
 42
0.0000001
 43
0.0000001
 44
0.0000000001
 40
0.0
 40
0.0
 40
0.0
 40
0.0
 40
0.2831555266
 40
1.0
 40
1.0
 40
1.0
 40
1.0
 10
228.8623729772
 20
272.0195356456
 30
0.0
 10
228.8623729772
 20
272.1328732148
 30
0.0
 10
228.8851727225
 20
272.5306288799
 30
0.0
 10
229.0217692962
 20
272.9372014237
 30
0.0
 10
229.205730458
 20
273.1573974608
 30
0.0
  0
SPLINE
  5
47D
100
AcDbEntity
  8
0
100
AcDbSpline
 62
7
  6
CONTINUOUS
 70
0
 71
3
 72
9
 73
5
 74
0
 42
0.0000001
 43
0.0000001
 44
0.0000000001
 40
0.0
 40
0.0
 40
0.0
 40
0.0
 40
0.2831555266
 40
1.0
 40
1.0
 40
1.0
 40
1.0
 10
241.5196370574
 20
264.7120261397
 30
0.0
 10
241.5196370574
 20
264.8253637089
 30
0.0
 10
241.5424368026
 20
265.2231193739
 30
0.0
 10
241.6790333763
 20
265.6296919178
 30
0.0
 10
241.8629945382
 20
265.8498879549
 30
0.0
  0
SPLINE
  5
47E
100
AcDbEntity
  8
0
100
AcDbSpline
 62
7
  6
CONTINUOUS
 70
0
 71
3
 72
9
 73
5
 74
0
 42
0.0000001
 43
0.0000001
 44
0.0000000001
 40
0.0
 40
0.0
 40
0.0
 40
0.0
 40
0.2831555266
 40
1.0
 40
1.0
 40
1.0
 40
1.0
 10
254.1769011375
 20
257.4045166338
 30
0.0
 10
254.1769011375
 20
257.517854203
 30
0.0
 10
254.1997008828
 20
257.915609868
 30
0.0
 10
254.3362974564
 20
258.3221824119
 30
0.0
 10
254.5202586183
 20
258.542378449
 30
0.0
  0
SPLINE
  5
47F
100
AcDbEntity
  8
0
100
AcDbSpline
 62
7
  6
CONTINUOUS
 70
0
 71
3
 72
9
 73
5
 74
0
 42
0.0000001
 43
0.0000001
 44
0.0000000001
 40
0.0
 40
0.0
 40
0.0
 40
0.0
 40
0.2831555266
 40
1.0
 40
1.0
 40
1.0
 40
1.0
 10
266.8341652176
 20
250.0970071279
 30
0.0
 10
266.8341652176
 20
250.2103446971
 30
0.0
 10
266.8569649629
 20
250.6081003621
 30
0.0
 10
266.9935615365
 20
251.014672906
 30
0.0
 10
267.1775226984
 20
251.234868943
 30
0.0
  0
SPLINE
  5
480
100
AcDbEntity
  8
0
100
AcDbSpline
 62
7
  6
CONTINUOUS
 70
0
 71
3
 72
9
 73
5
 74
0
 42
0.0000001
 43
0.0000001
 44
0.0000000001
 40
0.0
 40
0.0
 40
0.0
 40
0.0
 40
0.2831555266
 40
1.0
 40
1.0
 40
1.0
 40
1.0
 10
279.4914292978
 20
242.789497622
 30
0.0
 10
279.4914292978
 20
242.9028351912
 30
0.0
 10
279.514229043
 20
243.3005908562
 30
0.0
 10
279.6508256166
 20
243.7071634
 30
0.0
 10
279.8347867785
 20
243.9273594371
 30
0.0
  0
SPLINE
  5
481
100
AcDbEntity
  8
0
100
AcDbSpline
 62
7
  6
CONTINUOUS
 70
0
 71
3
 72
9
 73
5
 74
0
 42
0.0000001
 43
0.0000001
 44
0.0000000001
 40
0.0
 40
0.0
 40
0.0
 40
0.0
 40
0.2831555266
 40
1.0
 40
1.0
 40
1.0
 40
1.0
 10
292.1486933779
 20
235.4819881161
 30
0.0
 10
292.1486933779
 20
235.5953256853
 30
0.0
 10
292.1714931232
 20
235.9930813502
 30
0.0
 10
292.3080896968
 20
236.3996538941
 30
0.0
 10
292.4920508587
 20
236.6198499311
 30
0.0
  0
SPLINE
  5
482
100
AcDbEntity
  8
0
100
AcDbSpline
 62
7
  6
CONTINUOUS
 70
0
 71
3
 72
9
 73
5
 74
0
 42
0.0000001
 43
0.0000001
 44
0.0000000001
 40
0.0
 40
0.0
 40
0.0
 40
0.0
 40
0.2831555266
 40
1.0
 40
1.0
 40
1.0
 40
1.0
 10
304.805957458
 20
228.1744786101
 30
0.0
 10
304.805957458
 20
228.2878161793
 30
0.0
 10
304.8287572033
 20
228.6855718443
 30
0.0
 10
304.9653537769
 20
229.0921443882
 30
0.0
 10
305.1493149388
 20
229.3123404252
 30
0.0
  0
SPLINE
  5
483
100
AcDbEntity
  8
0
100
AcDbSpline
 62
7
  6
CONTINUOUS
 70
0
 71
3
 72
9
 73
5
 74
0
 42
0.0000001
 43
0.0000001
 44
0.0000000001
 40
0.0
 40
0.0
 40
0.0
 40
0.0
 40
0.2831555266
 40
1.0
 40
1.0
 40
1.0
 40
1.0
 10
317.4632215382
 20
220.8669691042
 30
0.0
 10
317.4632215382
 20
220.9803066734
 30
0.0
 10
317.4860212834
 20
221.3780623384
 30
0.0
 10
317.622617857
 20
221.7846348822
 30
0.0
 10
317.8065790189
 20
222.0048309193
 30
0.0
  0
SPLINE
  5
484
100
AcDbEntity
  8
0
100
AcDbSpline
 62
7
  6
CONTINUOUS
 70
0
 71
3
 72
9
 73
5
 74
0
 42
0.0000001
 43
0.0000001
 44
0.0000000001
 40
0.0
 40
0.0
 40
0.0
 40
0.0
 40
0.2642156092
 40
1.0
 40
1.0
 40
1.0
 40
1.0
 10
321.0089587138
 20
221.3807002307
 30
0.0
 10
320.983170089
 20
221.4413459125
 30
0.0
 10
320.8689067848
 20
221.662462429
 30
0.0
 10
320.6937672517
 20
221.8595819593
 30
0.0
 10
320.5348329286
 20
221.9513406577
 30
0.0
  0
SPLINE
  5
485
100
AcDbEntity
  8
0
100
AcDbSpline
 62
7
  6
CONTINUOUS
 70
0
 71
3
 72
9
 73
5
 74
0
 42
0.0000001
 43
0.0000001
 44
0.0000000001
 40
0.0
 40
0.0
 40
0.0
 40
0.0
 40
0.5507096336
 40
1.0
 40
1.0
 40
1.0
 40
1.0
 10
319.34136056
 20
222.6403766629
 30
0.0
 10
319.275207209
 20
222.6785694538
 30
0.0
 10
319.1430082898
 20
222.7335336545
 30
0.0
 10
318.995351165
 20
222.711123856
 30
0.0
 10
318.9413949551
 20
222.6799399857
 30
0.0
  0
SPLINE
  5
486
100
AcDbEntity
  8
0
100
AcDbSpline
 62
7
  6
CONTINUOUS
 70
0
 71
3
 72
9
 73
5
 74
0
 42
0.0000001
 43
0.0000001
 44
0.0000000001
 40
0.0
 40
0.0
 40
0.0
 40
0.0
 40
0.2315151057
 40
1.0
 40
1.0
 40
1.0
 40
1.0
 10
308.6950521144
 20
227.1538818229
 30
0.0
 10
308.6950521144
 20
227.275684133
 30
0.0
 10
308.6610131704
 20
227.8016959579
 30
0.0
 10
308.5099094684
 20
228.3161446651
 30
0.0
 10
308.3516946337
 20
228.6882097366
 30
0.0
  0
SPLINE
  5
487
100
AcDbEntity
  8
0
100
AcDbSpline
 62
7
  6
CONTINUOUS
 70
0
 71
3
 72
9
 73
5
 74
0
 42
0.0000001
 43
0.0000001
 44
0.0000000001
 40
0.0
 40
0.0
 40
0.0
 40
0.0
 40
0.2642156092
 40
1.0
 40
1.0
 40
1.0
 40
1.0
 10
308.3516946337
 20
228.6882097366
 30
0.0
 10
308.3259060089
 20
228.7488554184
 30
0.0
 10
308.2116427047
 20
228.9699719349
 30
0.0
 10
308.0365031716
 20
229.1670914652
 30
0.0
 10
307.8775688484
 20
229.2588501636
 30
0.0
  0
SPLINE
  5
488
100
AcDbEntity
  8
0
100
AcDbSpline
 62
7
  6
CONTINUOUS
 70
0
 71
3
 72
9
 73
5
 74
0
 42
0.0000001
 43
0.0000001
 44
0.0000000001
 40
0.0
 40
0.0
 40
0.0
 40
0.0
 40
0.5507096336
 40
1.0
 40
1.0
 40
1.0
 40
1.0
 10
306.6840964799
 20
229.9478861688
 30
0.0
 10
306.6179431289
 20
229.9860789597
 30
0.0
 10
306.4857442097
 20
230.0410431604
 30
0.0
 10
306.3380870849
 20
230.018633362
 30
0.0
 10
306.2841308749
 20
229.9874494916
 30
0.0
  0
SPLINE
  5
489
100
AcDbEntity
  8
0
100
AcDbSpline
 62
7
  6
CONTINUOUS
 70
0
 71
3
 72
9
 73
5
 74
0
 42
0.0000001
 43
0.0000001
 44
0.0000000001
 40
0.0
 40
0.0
 40
0.0
 40
0.0
 40
0.2315151057
 40
1.0
 40
1.0
 40
1.0
 40
1.0
 10
296.0377880343
 20
234.4613913288
 30
0.0
 10
296.0377880343
 20
234.5831936389
 30
0.0
 10
296.0037490902
 20
235.1092054638
 30
0.0
 10
295.8526453883
 20
235.623654171
 30
0.0
 10
295.6944305536
 20
235.9957192425
 30
0.0
  0
SPLINE
  5
48A
100
AcDbEntity
  8
0
100
AcDbSpline
 62
7
  6
CONTINUOUS
 70
0
 71
3
 72
9
 73
5
 74
0
 42
0.0000001
 43
0.0000001
 44
0.0000000001
 40
0.0
 40
0.0
 40
0.0
 40
0.0
 40
0.2642156092
 40
1.0
 40
1.0
 40
1.0
 40
1.0
 10
295.6944305536
 20
235.9957192425
 30
0.0
 10
295.6686419287
 20
236.0563649244
 30
0.0
 10
295.5543786246
 20
236.2774814408
 30
0.0
 10
295.3792390914
 20
236.4746009711
 30
0.0
 10
295.2203047683
 20
236.5663596695
 30
0.0
  0
SPLINE
  5
48B
100
AcDbEntity
  8
0
100
AcDbSpline
 62
7
  6
CONTINUOUS
 70
0
 71
3
 72
9
 73
5
 74
0
 42
0.0000001
 43
0.0000001
 44
0.0000000001
 40
0.0
 40
0.0
 40
0.0
 40
0.0
 40
0.5507096336
 40
1.0
 40
1.0
 40
1.0
 40
1.0
 10
294.0268323997
 20
237.2553956747
 30
0.0
 10
293.9606790487
 20
237.2935884656
 30
0.0
 10
293.8284801296
 20
237.3485526663
 30
0.0
 10
293.6808230048
 20
237.3261428679
 30
0.0
 10
293.6268667948
 20
237.2949589975
 30
0.0
  0
SPLINE
  5
48C
100
AcDbEntity
  8
0
100
AcDbSpline
 62
7
  6
CONTINUOUS
 70
0
 71
3
 72
9
 73
5
 74
0
 42
0.0000001
 43
0.0000001
 44
0.0000000001
 40
0.0
 40
0.0
 40
0.0
 40
0.0
 40
0.2315151057
 40
1.0
 40
1.0
 40
1.0
 40
1.0
 10
283.3805239542
 20
241.7689008347
 30
0.0
 10
283.3805239542
 20
241.8907031448
 30
0.0
 10
283.3464850101
 20
242.4167149697
 30
0.0
 10
283.1953813082
 20
242.9311636769
 30
0.0
 10
283.0371664734
 20
243.3032287484
 30
0.0
  0
SPLINE
  5
48D
100
AcDbEntity
  8
0
100
AcDbSpline
 62
7
  6
CONTINUOUS
 70
0
 71
3
 72
9
 73
5
 74
0
 42
0.0000001
 43
0.0000001
 44
0.0000000001
 40
0.0
 40
0.0
 40
0.0
 40
0.0
 40
0.2642156092
 40
1.0
 40
1.0
 40
1.0
 40
1.0
 10
283.0371664734
 20
243.3032287484
 30
0.0
 10
283.0113778486
 20
243.3638744303
 30
0.0
 10
282.8971145444
 20
243.5849909467
 30
0.0
 10
282.7219750113
 20
243.782110477
 30
0.0
 10
282.5630406882
 20
243.8738691754
 30
0.0
  0
SPLINE
  5
48E
100
AcDbEntity
  8
0
100
AcDbSpline
 62
7
  6
CONTINUOUS
 70
0
 71
3
 72
9
 73
5
 74
0
 42
0.0000001
 43
0.0000001
 44
0.0000000001
 40
0.0
 40
0.0
 40
0.0
 40
0.0
 40
0.5507096336
 40
1.0
 40
1.0
 40
1.0
 40
1.0
 10
281.3695683196
 20
244.5629051806
 30
0.0
 10
281.3034149686
 20
244.6010979716
 30
0.0
 10
281.1712160494
 20
244.6560621722
 30
0.0
 10
281.0235589246
 20
244.6336523738
 30
0.0
 10
280.9696027147
 20
244.6024685035
 30
0.0
  0
SPLINE
  5
48F
100
AcDbEntity
  8
0
100
AcDbSpline
 62
7
  6
CONTINUOUS
 70
0
 71
3
 72
9
 73
5
 74
0
 42
0.0000001
 43
0.0000001
 44
0.0000000001
 40
0.0
 40
0.0
 40
0.0
 40
0.0
 40
0.2315151057
 40
1.0
 40
1.0
 40
1.0
 40
1.0
 10
270.723259874
 20
249.0764103406
 30
0.0
 10
270.723259874
 20
249.1982126507
 30
0.0
 10
270.68922093
 20
249.7242244757
 30
0.0
 10
270.538117228
 20
250.2386731829
 30
0.0
 10
270.3799023932
 20
250.6107382544
 30
0.0
  0
SPLINE
  5
490
100
AcDbEntity
  8
0
100
AcDbSpline
 62
7
  6
CONTINUOUS
 70
0
 71
3
 72
9
 73
5
 74
0
 42
0.0000001
 43
0.0000001
 44
0.0000000001
 40
0.0
 40
0.0
 40
0.0
 40
0.0
 40
0.2642156092
 40
1.0
 40
1.0
 40
1.0
 40
1.0
 10
270.3799023932
 20
250.6107382544
 30
0.0
 10
270.3541137684
 20
250.6713839363
 30
0.0
 10
270.2398504643
 20
250.8925004527
 30
0.0
 10
270.0647109312
 20
251.0896199829
 30
0.0
 10
269.9057766081
 20
251.1813786813
 30
0.0
  0
SPLINE
  5
491
100
AcDbEntity
  8
0
100
AcDbSpline
 62
7
  6
CONTINUOUS
 70
0
 71
3
 72
9
 73
5
 74
0
 42
0.0000001
 43
0.0000001
 44
0.0000000001
 40
0.0
 40
0.0
 40
0.0
 40
0.0
 40
0.5507096336
 40
1.0
 40
1.0
 40
1.0
 40
1.0
 10
268.7123042394
 20
251.8704146865
 30
0.0
 10
268.6461508884
 20
251.9086074775
 30
0.0
 10
268.5139519693
 20
251.9635716781
 30
0.0
 10
268.3662948445
 20
251.9411618797
 30
0.0
 10
268.3123386345
 20
251.9099780094
 30
0.0
  0
SPLINE
  5
492
100
AcDbEntity
  8
0
100
AcDbSpline
 62
7
  6
CONTINUOUS
 70
0
 71
3
 72
9
 73
5
 74
0
 42
0.0000001
 43
0.0000001
 44
0.0000000001
 40
0.0
 40
0.0
 40
0.0
 40
0.0
 40
0.2315151057
 40
1.0
 40
1.0
 40
1.0
 40
1.0
 10
258.0659957939
 20
256.3839198465
 30
0.0
 10
258.0659957939
 20
256.5057221566
 30
0.0
 10
258.0319568498
 20
257.0317339816
 30
0.0
 10
257.8808531479
 20
257.5461826888
 30
0.0
 10
257.7226383131
 20
257.9182477604
 30
0.0
  0
SPLINE
  5
493
100
AcDbEntity
  8
0
100
AcDbSpline
 62
7
  6
CONTINUOUS
 70
0
 71
3
 72
9
 73
5
 74
0
 42
0.0000001
 43
0.0000001
 44
0.0000000001
 40
0.0
 40
0.0
 40
0.0
 40
0.0
 40
0.2642156092
 40
1.0
 40
1.0
 40
1.0
 40
1.0
 10
257.7226383131
 20
257.9182477604
 30
0.0
 10
257.6968496883
 20
257.9788934422
 30
0.0
 10
257.5825863841
 20
258.2000099586
 30
0.0
 10
257.407446851
 20
258.3971294889
 30
0.0
 10
257.2485125279
 20
258.4888881872
 30
0.0
  0
SPLINE
  5
494
100
AcDbEntity
  8
0
100
AcDbSpline
 62
7
  6
CONTINUOUS
 70
0
 71
3
 72
9
 73
5
 74
0
 42
0.0000001
 43
0.0000001
 44
0.0000000001
 40
0.0
 40
0.0
 40
0.0
 40
0.0
 40
0.5507096336
 40
1.0
 40
1.0
 40
1.0
 40
1.0
 10
256.0550401593
 20
259.1779241924
 30
0.0
 10
255.9888868083
 20
259.2161169834
 30
0.0
 10
255.8566878892
 20
259.2710811841
 30
0.0
 10
255.7090307643
 20
259.2486713856
 30
0.0
 10
255.6550745544
 20
259.2174875153
 30
0.0
  0
SPLINE
  5
495
100
AcDbEntity
  8
0
100
AcDbSpline
 62
7
  6
CONTINUOUS
 70
0
 71
3
 72
9
 73
5
 74
0
 42
0.0000001
 43
0.0000001
 44
0.0000000001
 40
0.0
 40
0.0
 40
0.0
 40
0.0
 40
0.2315151057
 40
1.0
 40
1.0
 40
1.0
 40
1.0
 10
245.4087317138
 20
263.6914293524
 30
0.0
 10
245.4087317138
 20
263.8132316626
 30
0.0
 10
245.3746927697
 20
264.3392434875
 30
0.0
 10
245.2235890678
 20
264.8536921947
 30
0.0
 10
245.065374233
 20
265.2257572663
 30
0.0
  0
SPLINE
  5
496
100
AcDbEntity
  8
0
100
AcDbSpline
 62
7
  6
CONTINUOUS
 70
0
 71
3
 72
9
 73
5
 74
0
 42
0.0000001
 43
0.0000001
 44
0.0000000001
 40
0.0
 40
0.0
 40
0.0
 40
0.0
 40
0.2642156092
 40
1.0
 40
1.0
 40
1.0
 40
1.0
 10
245.065374233
 20
265.2257572663
 30
0.0
 10
245.0395856082
 20
265.2864029481
 30
0.0
 10
244.925322304
 20
265.5075194645
 30
0.0
 10
244.7501827709
 20
265.7046389948
 30
0.0
 10
244.5912484478
 20
265.7963976931
 30
0.0
  0
SPLINE
  5
497
100
AcDbEntity
  8
0
100
AcDbSpline
 62
7
  6
CONTINUOUS
 70
0
 71
3
 72
9
 73
5
 74
0
 42
0.0000001
 43
0.0000001
 44
0.0000000001
 40
0.0
 40
0.0
 40
0.0
 40
0.0
 40
0.5507096336
 40
1.0
 40
1.0
 40
1.0
 40
1.0
 10
243.3977760792
 20
266.4854336984
 30
0.0
 10
243.3316227282
 20
266.5236264893
 30
0.0
 10
243.199423809
 20
266.57859069
 30
0.0
 10
243.0517666842
 20
266.5561808915
 30
0.0
 10
242.9978104743
 20
266.5249970212
 30
0.0
  0
SPLINE
  5
498
100
AcDbEntity
  8
0
100
AcDbSpline
 62
7
  6
CONTINUOUS
 70
0
 71
3
 72
9
 73
5
 74
0
 42
0.0000001
 43
0.0000001
 44
0.0000000001
 40
0.0
 40
0.0
 40
0.0
 40
0.0
 40
0.2315151057
 40
1.0
 40
1.0
 40
1.0
 40
1.0
 10
232.7514676337
 20
270.9989388584
 30
0.0
 10
232.7514676337
 20
271.1207411685
 30
0.0
 10
232.7174286896
 20
271.6467529934
 30
0.0
 10
232.5663249876
 20
272.1612017006
 30
0.0
 10
232.4081101529
 20
272.5332667722
 30
0.0
  0
SPLINE
  5
499
100
AcDbEntity
  8
0
100
AcDbSpline
 62
7
  6
CONTINUOUS
 70
0
 71
3
 72
9
 73
5
 74
0
 42
0.0000001
 43
0.0000001
 44
0.0000000001
 40
0.0
 40
0.0
 40
0.0
 40
0.0
 40
0.2642156092
 40
1.0
 40
1.0
 40
1.0
 40
1.0
 10
232.4081101529
 20
272.5332667722
 30
0.0
 10
232.382321528
 20
272.593912454
 30
0.0
 10
232.2680582239
 20
272.8150289704
 30
0.0
 10
232.0929186908
 20
273.0121485007
 30
0.0
 10
231.9339843677
 20
273.103907199
 30
0.0
  0
SPLINE
  5
49A
100
AcDbEntity
  8
0
100
AcDbSpline
 62
7
  6
CONTINUOUS
 70
0
 71
3
 72
9
 73
5
 74
0
 42
0.0000001
 43
0.0000001
 44
0.0000000001
 40
0.0
 40
0.0
 40
0.0
 40
0.0
 40
0.5507096336
 40
1.0
 40
1.0
 40
1.0
 40
1.0
 10
230.740511999
 20
273.7929432043
 30
0.0
 10
230.6743586481
 20
273.8311359952
 30
0.0
 10
230.5421597289
 20
273.8861001959
 30
0.0
 10
230.3945026041
 20
273.8636903975
 30
0.0
 10
230.3405463941
 20
273.8325065271
 30
0.0
  0
SPLINE
  5
49B
100
AcDbEntity
  8
0
100
AcDbSpline
 62
7
  6
CONTINUOUS
 70
0
 71
3
 72
9
 73
5
 74
0
 42
0.0000001
 43
0.0000001
 44
0.0000000001
 40
0.0
 40
0.0
 40
0.0
 40
0.0
 40
0.2315151057
 40
1.0
 40
1.0
 40
1.0
 40
1.0
 10
220.0942035535
 20
278.3064483643
 30
0.0
 10
220.0942035535
 20
278.4282506744
 30
0.0
 10
220.0601646094
 20
278.9542624993
 30
0.0
 10
219.9090609075
 20
279.4687112065
 30
0.0
 10
219.7508460727
 20
279.8407762781
 30
0.0
  0
SPLINE
  5
49C
100
AcDbEntity
  8
0
100
AcDbSpline
 62
7
  6
CONTINUOUS
 70
0
 71
3
 72
9
 73
5
 74
0
 42
0.0000001
 43
0.0000001
 44
0.0000000001
 40
0.0
 40
0.0
 40
0.0
 40
0.0
 40
0.2642156092
 40
1.0
 40
1.0
 40
1.0
 40
1.0
 10
219.7508460727
 20
279.8407762781
 30
0.0
 10
219.7250574479
 20
279.9014219599
 30
0.0
 10
219.6107941437
 20
280.1225384763
 30
0.0
 10
219.4356546106
 20
280.3196580066
 30
0.0
 10
219.2767202875
 20
280.411416705
 30
0.0
  0
SPLINE
  5
49D
100
AcDbEntity
  8
0
100
AcDbSpline
 62
7
  6
CONTINUOUS
 70
0
 71
3
 72
9
 73
5
 74
0
 42
0.0000001
 43
0.0000001
 44
0.0000000001
 40
0.0
 40
0.0
 40
0.0
 40
0.0
 40
0.5507096336
 40
1.0
 40
1.0
 40
1.0
 40
1.0
 10
218.0832479189
 20
281.1004527102
 30
0.0
 10
218.0170945679
 20
281.1386455011
 30
0.0
 10
217.8848956488
 20
281.1936097018
 30
0.0
 10
217.737238524
 20
281.1711999034
 30
0.0
 10
217.683282314
 20
281.140016033
 30
0.0
  0
SPLINE
  5
49E
100
AcDbEntity
  8
0
100
AcDbSpline
 62
7
  6
CONTINUOUS
 70
0
 71
3
 72
9
 73
5
 74
0
 42
0.0000001
 43
0.0000001
 44
0.0000000001
 40
0.0
 40
0.0
 40
0.0
 40
0.0
 40
0.2315151057
 40
1.0
 40
1.0
 40
1.0
 40
1.0
 10
207.4369394734
 20
285.6139578702
 30
0.0
 10
207.4369394734
 20
285.7357601803
 30
0.0
 10
207.4029005293
 20
286.2617720052
 30
0.0
 10
207.2517968274
 20
286.7762207125
 30
0.0
 10
207.0935819926
 20
287.148285784
 30
0.0
  0
SPLINE
  5
49F
100
AcDbEntity
  8
0
100
AcDbSpline
 62
7
  6
CONTINUOUS
 70
0
 71
3
 72
9
 73
5
 74
0
 42
0.0000001
 43
0.0000001
 44
0.0000000001
 40
0.0
 40
0.0
 40
0.0
 40
0.0
 40
0.2642156092
 40
1.0
 40
1.0
 40
1.0
 40
1.0
 10
207.0935819926
 20
287.148285784
 30
0.0
 10
207.0677933678
 20
287.2089314659
 30
0.0
 10
206.9535300636
 20
287.4300479822
 30
0.0
 10
206.7783905305
 20
287.6271675125
 30
0.0
 10
206.6194562074
 20
287.7189262109
 30
0.0
  0
SPLINE
  5
4A0
100
AcDbEntity
  8
0
100
AcDbSpline
 62
7
  6
CONTINUOUS
 70
0
 71
3
 72
9
 73
5
 74
0
 42
0.0000001
 43
0.0000001
 44
0.0000000001
 40
0.0
 40
0.0
 40
0.0
 40
0.0
 40
0.5507096336
 40
1.0
 40
1.0
 40
1.0
 40
1.0
 10
205.4259838388
 20
288.4079622161
 30
0.0
 10
205.3598304878
 20
288.4461550071
 30
0.0
 10
205.2276315686
 20
288.5011192077
 30
0.0
 10
205.0799744438
 20
288.4787094093
 30
0.0
 10
205.0260182339
 20
288.4475255389
 30
0.0
  0
SPLINE
  5
4A1
100
AcDbEntity
  8
0
100
AcDbSpline
 62
7
  6
CONTINUOUS
 70
0
 71
3
 72
9
 73
5
 74
0
 42
0.0000001
 43
0.0000001
 44
0.0000000001
 40
0.0
 40
0.0
 40
0.0
 40
0.0
 40
0.2315151057
 40
1.0
 40
1.0
 40
1.0
 40
1.0
 10
194.7796753933
 20
292.9214673761
 30
0.0
 10
194.7796753933
 20
293.0432696862
 30
0.0
 10
194.7456364492
 20
293.5692815112
 30
0.0
 10
194.5945327472
 20
294.0837302184
 30
0.0
 10
194.4363179125
 20
294.4557952899
 30
0.0
  0
SPLINE
  5
4A2
100
AcDbEntity
  8
0
100
AcDbSpline
 62
7
  6
CONTINUOUS
 70
0
 71
3
 72
9
 73
5
 74
0
 42
0.0000001
 43
0.0000001
 44
0.0000000001
 40
0.0
 40
0.0
 40
0.0
 40
0.0
 40
0.2642156092
 40
1.0
 40
1.0
 40
1.0
 40
1.0
 10
194.4363179125
 20
294.4557952899
 30
0.0
 10
194.4105292877
 20
294.5164409718
 30
0.0
 10
194.2962659835
 20
294.7375574882
 30
0.0
 10
194.1211264504
 20
294.9346770184
 30
0.0
 10
193.9621921273
 20
295.0264357168
 30
0.0
  0
SPLINE
  5
4A3
100
AcDbEntity
  8
0
100
AcDbSpline
 62
7
  6
CONTINUOUS
 70
0
 71
3
 72
9
 73
5
 74
0
 42
0.0000001
 43
0.0000001
 44
0.0000000001
 40
0.0
 40
0.0
 40
0.0
 40
0.0
 40
0.5507096336
 40
1.0
 40
1.0
 40
1.0
 40
1.0
 10
192.7687197586
 20
295.715471722
 30
0.0
 10
192.7025664077
 20
295.753664513
 30
0.0
 10
192.5703674885
 20
295.8086287136
 30
0.0
 10
192.4227103637
 20
295.7862189152
 30
0.0
 10
192.3687541537
 20
295.7550350449
 30
0.0
  0
SPLINE
  5
4A4
100
AcDbEntity
  8
0
100
AcDbSpline
 62
7
  6
CONTINUOUS
 70
0
 71
3
 72
9
 73
5
 74
0
 42
0.0000001
 43
0.0000001
 44
0.0000000001
 40
0.0
 40
0.0
 40
0.0
 40
0.0
 40
0.2315151057
 40
1.0
 40
1.0
 40
1.0
 40
1.0
 10
182.1224113131
 20
300.228976882
 30
0.0
 10
182.1224113131
 20
300.3507791921
 30
0.0
 10
182.0883723691
 20
300.8767910171
 30
0.0
 10
181.9372686671
 20
301.3912397243
 30
0.0
 10
181.7790538323
 20
301.7633047958
 30
0.0
  0
SPLINE
  5
4A5
100
AcDbEntity
  8
0
100
AcDbSpline
 62
7
  6
CONTINUOUS
 70
0
 71
3
 72
9
 73
5
 74
0
 42
0.0000001
 43
0.0000001
 44
0.0000000001
 40
0.0
 40
0.0
 40
0.0
 40
0.0
 40
0.2642156092
 40
1.0
 40
1.0
 40
1.0
 40
1.0
 10
181.7790538323
 20
301.7633047958
 30
0.0
 10
181.7532652075
 20
301.8239504777
 30
0.0
 10
181.6390019033
 20
302.0450669941
 30
0.0
 10
181.4638623702
 20
302.2421865243
 30
0.0
 10
181.3049280472
 20
302.3339452227
 30
0.0
  0
SPLINE
  5
4A6
100
AcDbEntity
  8
0
100
AcDbSpline
 62
7
  6
CONTINUOUS
 70
0
 71
3
 72
9
 73
5
 74
0
 42
0.0000001
 43
0.0000001
 44
0.0000000001
 40
0.0
 40
0.0
 40
0.0
 40
0.0
 40
0.5507096336
 40
1.0
 40
1.0
 40
1.0
 40
1.0
 10
180.1114556785
 20
303.0229812279
 30
0.0
 10
180.0453023275
 20
303.0611740189
 30
0.0
 10
179.9131034084
 20
303.1161382195
 30
0.0
 10
179.7654462836
 20
303.0937284211
 30
0.0
 10
179.7114900736
 20
303.0625445508
 30
0.0
  0
SPLINE
  5
4A7
100
AcDbEntity
  8
0
100
AcDbSpline
 62
7
  6
CONTINUOUS
 70
0
 71
3
 72
9
 73
5
 74
0
 42
0.0000001
 43
0.0000001
 44
0.0000000001
 40
0.0
 40
0.0
 40
0.0
 40
0.0
 40
0.2315151057
 40
1.0
 40
1.0
 40
1.0
 40
1.0
 10
169.465147233
 20
307.5364863879
 30
0.0
 10
169.465147233
 20
307.658288698
 30
0.0
 10
169.4311082889
 20
308.184300523
 30
0.0
 10
169.280004587
 20
308.6987492302
 30
0.0
 10
169.1217897522
 20
309.0708143018
 30
0.0
  0
SPLINE
  5
4A8
100
AcDbEntity
  8
0
100
AcDbSpline
 62
7
  6
CONTINUOUS
 70
0
 71
3
 72
9
 73
5
 74
0
 42
0.0000001
 43
0.0000001
 44
0.0000000001
 40
0.0
 40
0.0
 40
0.0
 40
0.0
 40
0.2642156092
 40
1.0
 40
1.0
 40
1.0
 40
1.0
 10
169.1217897522
 20
309.0708143018
 30
0.0
 10
169.0960011274
 20
309.1314599836
 30
0.0
 10
168.9817378232
 20
309.3525765
 30
0.0
 10
168.8065982901
 20
309.5496960303
 30
0.0
 10
168.647663967
 20
309.6414547286
 30
0.0
  0
SPLINE
  5
4A9
100
AcDbEntity
  8
0
100
AcDbSpline
 62
7
  6
CONTINUOUS
 70
0
 71
3
 72
9
 73
5
 74
0
 42
0.0000001
 43
0.0000001
 44
0.0000000001
 40
0.0
 40
0.0
 40
0.0
 40
0.0
 40
0.5507096336
 40
1.0
 40
1.0
 40
1.0
 40
1.0
 10
167.4541915984
 20
310.3304907338
 30
0.0
 10
167.3880382474
 20
310.3686835248
 30
0.0
 10
167.2558393282
 20
310.4236477254
 30
0.0
 10
167.1081822034
 20
310.401237927
 30
0.0
 10
167.0542259935
 20
310.3700540567
 30
0.0
  0
SPLINE
  5
4AA
100
AcDbEntity
  8
0
100
AcDbSpline
 62
7
  6
CONTINUOUS
 70
0
 71
3
 72
9
 73
5
 74
0
 42
0.0000001
 43
0.0000001
 44
0.0000000001
 40
0.0
 40
0.0
 40
0.0
 40
0.0
 40
0.2315151057
 40
1.0
 40
1.0
 40
1.0
 40
1.0
 10
156.8078831529
 20
314.8439958938
 30
0.0
 10
156.8078831529
 20
314.9657982039
 30
0.0
 10
156.7738442088
 20
315.4918100289
 30
0.0
 10
156.6227405068
 20
316.0062587361
 30
0.0
 10
156.4645256721
 20
316.3783238077
 30
0.0
  0
SPLINE
  5
4AB
100
AcDbEntity
  8
0
100
AcDbSpline
 62
7
  6
CONTINUOUS
 70
0
 71
3
 72
9
 73
5
 74
0
 42
0.0000001
 43
0.0000001
 44
0.0000000001
 40
0.0
 40
0.0
 40
0.0
 40
0.0
 40
0.2642156092
 40
1.0
 40
1.0
 40
1.0
 40
1.0
 10
156.4645256721
 20
316.3783238077
 30
0.0
 10
156.4387370473
 20
316.4389694895
 30
0.0
 10
156.3244737431
 20
316.6600860059
 30
0.0
 10
156.14933421
 20
316.8572055362
 30
0.0
 10
155.9903998869
 20
316.9489642345
 30
0.0
  0
SPLINE
  5
4AC
100
AcDbEntity
  8
0
100
AcDbSpline
 62
7
  6
CONTINUOUS
 70
0
 71
3
 72
9
 73
5
 74
0
 42
0.0000001
 43
0.0000001
 44
0.0000000001
 40
0.0
 40
0.0
 40
0.0
 40
0.0
 40
0.5507096336
 40
1.0
 40
1.0
 40
1.0
 40
1.0
 10
154.7969275183
 20
317.6380002397
 30
0.0
 10
154.7307741673
 20
317.6761930307
 30
0.0
 10
154.5985752481
 20
317.7311572314
 30
0.0
 10
154.4509181233
 20
317.7087474329
 30
0.0
 10
154.3969619133
 20
317.6775635626
 30
0.0
  0
SPLINE
  5
4AD
100
AcDbEntity
  8
0
100
AcDbSpline
 62
7
  6
CONTINUOUS
 70
0
 71
3
 72
9
 73
5
 74
0
 42
0.0000001
 43
0.0000001
 44
0.0000000001
 40
0.0
 40
0.0
 40
0.0
 40
0.0
 40
0.2315151057
 40
1.0
 40
1.0
 40
1.0
 40
1.0
 10
144.1506190727
 20
322.1515053997
 30
0.0
 10
144.1506190727
 20
322.2733077099
 30
0.0
 10
144.1165801287
 20
322.7993195348
 30
0.0
 10
143.9654764267
 20
323.313768242
 30
0.0
 10
143.8072615919
 20
323.6858333136
 30
0.0
  0
SPLINE
  5
4AE
100
AcDbEntity
  8
0
100
AcDbSpline
 62
7
  6
CONTINUOUS
 70
0
 71
3
 72
9
 73
5
 74
0
 42
0.0000001
 43
0.0000001
 44
0.0000000001
 40
0.0
 40
0.0
 40
0.0
 40
0.0
 40
0.2642156092
 40
1.0
 40
1.0
 40
1.0
 40
1.0
 10
143.8072615919
 20
323.6858333136
 30
0.0
 10
143.7814729671
 20
323.7464789954
 30
0.0
 10
143.667209663
 20
323.9675955118
 30
0.0
 10
143.4920701298
 20
324.1647150421
 30
0.0
 10
143.3331358068
 20
324.2564737404
 30
0.0
  0
SPLINE
  5
4AF
100
AcDbEntity
  8
0
100
AcDbSpline
 62
7
  6
CONTINUOUS
 70
0
 71
3
 72
9
 73
5
 74
0
 42
0.0000001
 43
0.0000001
 44
0.0000000001
 40
0.0
 40
0.0
 40
0.0
 40
0.0
 40
0.5507096336
 40
1.0
 40
1.0
 40
1.0
 40
1.0
 10
142.1396634381
 20
324.9455097457
 30
0.0
 10
142.0735100871
 20
324.9837025366
 30
0.0
 10
141.941311168
 20
325.0386667373
 30
0.0
 10
141.7936540432
 20
325.0162569389
 30
0.0
 10
141.7396978332
 20
324.9850730685
 30
0.0
  0
SPLINE
  5
4B0
100
AcDbEntity
  8
0
100
AcDbSpline
 62
7
  6
CONTINUOUS
 70
0
 71
3
 72
9
 73
5
 74
0
 42
0.0000001
 43
0.0000001
 44
0.0000000001
 40
0.0
 40
0.0
 40
0.0
 40
0.0
 40
0.2315151057
 40
1.0
 40
1.0
 40
1.0
 40
1.0
 10
131.4933549926
 20
329.4590149057
 30
0.0
 10
131.4933549926
 20
329.5808172158
 30
0.0
 10
131.4593160485
 20
330.1068290407
 30
0.0
 10
131.3082123466
 20
330.6212777479
 30
0.0
 10
131.1499975118
 20
330.9933428195
 30
0.0
  0
SPLINE
  5
4B1
100
AcDbEntity
  8
0
100
AcDbSpline
 62
7
  6
CONTINUOUS
 70
0
 71
3
 72
9
 73
5
 74
0
 42
0.0000001
 43
0.0000001
 44
0.0000000001
 40
0.0
 40
0.0
 40
0.0
 40
0.0
 40
0.2642156092
 40
1.0
 40
1.0
 40
1.0
 40
1.0
 10
131.1499975118
 20
330.9933428195
 30
0.0
 10
131.124208887
 20
331.0539885013
 30
0.0
 10
131.0099455828
 20
331.2751050177
 30
0.0
 10
130.8348060497
 20
331.472224548
 30
0.0
 10
130.6758717266
 20
331.5639832463
 30
0.0
  0
SPLINE
  5
4B2
100
AcDbEntity
  8
0
100
AcDbSpline
 62
7
  6
CONTINUOUS
 70
0
 71
3
 72
9
 73
5
 74
0
 42
0.0000001
 43
0.0000001
 44
0.0000000001
 40
0.0
 40
0.0
 40
0.0
 40
0.0
 40
0.5507096336
 40
1.0
 40
1.0
 40
1.0
 40
1.0
 10
129.482399358
 20
332.2530192516
 30
0.0
 10
129.416246007
 20
332.2912120425
 30
0.0
 10
129.2840470879
 20
332.3461762432
 30
0.0
 10
129.136389963
 20
332.3237664448
 30
0.0
 10
129.0824337531
 20
332.2925825744
 30
0.0
  0
SPLINE
  5
4B3
100
AcDbEntity
  8
0
100
AcDbSpline
 62
7
  6
CONTINUOUS
 70
0
 71
3
 72
9
 73
5
 74
0
 42
0.0000001
 43
0.0000001
 44
0.0000000001
 40
0.0
 40
0.0
 40
0.0
 40
0.0
 40
0.2315151057
 40
1.0
 40
1.0
 40
1.0
 40
1.0
 10
118.8360909125
 20
336.7665244116
 30
0.0
 10
118.8360909125
 20
336.8883267217
 30
0.0
 10
118.8020519684
 20
337.4143385466
 30
0.0
 10
118.6509482664
 20
337.9287872539
 30
0.0
 10
118.4927334317
 20
338.3008523254
 30
0.0
  0
SPLINE
  5
4B4
100
AcDbEntity
  8
0
100
AcDbSpline
 62
7
  6
CONTINUOUS
 70
0
 71
3
 72
9
 73
5
 74
0
 42
0.0000001
 43
0.0000001
 44
0.0000000001
 40
0.0
 40
0.0
 40
0.0
 40
0.0
 40
0.2642156092
 40
1.0
 40
1.0
 40
1.0
 40
1.0
 10
118.4927334317
 20
338.3008523254
 30
0.0
 10
118.4669448069
 20
338.3614980073
 30
0.0
 10
118.3526815027
 20
338.5826145236
 30
0.0
 10
118.1775419696
 20
338.7797340539
 30
0.0
 10
118.0186076465
 20
338.8714927523
 30
0.0
  0
SPLINE
  5
4B5
100
AcDbEntity
  8
0
100
AcDbSpline
 62
7
  6
CONTINUOUS
 70
0
 71
3
 72
9
 73
5
 74
0
 42
0.0000001
 43
0.0000001
 44
0.0000000001
 40
0.0
 40
0.0
 40
0.0
 40
0.0
 40
0.5507096336
 40
1.0
 40
1.0
 40
1.0
 40
1.0
 10
116.8251352779
 20
339.5605287575
 30
0.0
 10
116.7589819269
 20
339.5987215485
 30
0.0
 10
116.6267830077
 20
339.6536857491
 30
0.0
 10
116.4791258829
 20
339.6312759507
 30
0.0
 10
116.4251696729
 20
339.6000920803
 30
0.0
  0
SPLINE
  5
4B6
100
AcDbEntity
  8
0
100
AcDbSpline
 62
7
  6
CONTINUOUS
 70
0
 71
3
 72
9
 73
5
 74
0
 42
0.0000001
 43
0.0000001
 44
0.0000000001
 40
0.0
 40
0.0
 40
0.0
 40
0.0
 40
0.2315151057
 40
1.0
 40
1.0
 40
1.0
 40
1.0
 10
106.1788268323
 20
344.0740339175
 30
0.0
 10
106.1788268323
 20
344.1958362276
 30
0.0
 10
106.1447878883
 20
344.7218480525
 30
0.0
 10
105.9936841863
 20
345.2362967598
 30
0.0
 10
105.8354693515
 20
345.6083618313
 30
0.0
  0
SPLINE
  5
4B7
100
AcDbEntity
  8
0
100
AcDbSpline
 62
7
  6
CONTINUOUS
 70
0
 71
3
 72
9
 73
5
 74
0
 42
0.0000001
 43
0.0000001
 44
0.0000000001
 40
0.0
 40
0.0
 40
0.0
 40
0.0
 40
0.2642156092
 40
1.0
 40
1.0
 40
1.0
 40
1.0
 10
105.8354693515
 20
345.6083618313
 30
0.0
 10
105.8096807267
 20
345.6690075132
 30
0.0
 10
105.6954174226
 20
345.8901240296
 30
0.0
 10
105.5202778895
 20
346.0872435598
 30
0.0
 10
105.3613435664
 20
346.1790022582
 30
0.0
  0
SPLINE
  5
4B8
100
AcDbEntity
  8
0
100
AcDbSpline
 62
7
  6
CONTINUOUS
 70
0
 71
3
 72
9
 73
5
 74
0
 42
0.0000001
 43
0.0000001
 44
0.0000000001
 40
0.0
 40
0.0
 40
0.0
 40
0.0
 40
0.5507096336
 40
1.0
 40
1.0
 40
1.0
 40
1.0
 10
104.1678711977
 20
346.8680382634
 30
0.0
 10
104.1017178467
 20
346.9062310544
 30
0.0
 10
103.9695189276
 20
346.961195255
 30
0.0
 10
103.8218618028
 20
346.9387854566
 30
0.0
 10
103.7679055928
 20
346.9076015863
 30
0.0
  0
SPLINE
  5
4B9
100
AcDbEntity
  8
0
100
AcDbSpline
 62
7
  6
CONTINUOUS
 70
0
 71
3
 72
9
 73
5
 74
0
 42
0.0000001
 43
0.0000001
 44
0.0000000001
 40
0.0
 40
0.0
 40
0.0
 40
0.0
 40
0.2315151057
 40
1.0
 40
1.0
 40
1.0
 40
1.0
 10
93.5215627522
 20
351.3815434234
 30
0.0
 10
93.5215627522
 20
351.5033457335
 30
0.0
 10
93.4875238081
 20
352.0293575585
 30
0.0
 10
93.3364201062
 20
352.5438062657
 30
0.0
 10
93.1782052714
 20
352.9158713372
 30
0.0
  0
SPLINE
  5
4BA
100
AcDbEntity
  8
0
100
AcDbSpline
 62
7
  6
CONTINUOUS
 70
0
 71
3
 72
9
 73
5
 74
0
 42
0.0000001
 43
0.0000001
 44
0.0000000001
 40
0.0
 40
0.0
 40
0.0
 40
0.0
 40
0.2642156092
 40
1.0
 40
1.0
 40
1.0
 40
1.0
 10
93.1782052714
 20
352.9158713372
 30
0.0
 10
93.1524166466
 20
352.9765170191
 30
0.0
 10
93.0381533424
 20
353.1976335355
 30
0.0
 10
92.8630138093
 20
353.3947530657
 30
0.0
 10
92.7040794862
 20
353.4865117641
 30
0.0
  0
SPLINE
  5
4BB
100
AcDbEntity
  8
0
100
AcDbSpline
 62
7
  6
CONTINUOUS
 70
0
 71
3
 72
9
 73
5
 74
0
 42
0.0000001
 43
0.0000001
 44
0.0000000001
 40
0.0
 40
0.0
 40
0.0
 40
0.0
 40
0.5507096336
 40
1.0
 40
1.0
 40
1.0
 40
1.0
 10
91.5106071176
 20
354.1755477693
 30
0.0
 10
91.4444537666
 20
354.2137405603
 30
0.0
 10
91.3122548475
 20
354.2687047609
 30
0.0
 10
91.1645977226
 20
354.2462949625
 30
0.0
 10
91.1106415127
 20
354.2151110922
 30
0.0
  0
SPLINE
  5
4BC
100
AcDbEntity
  8
0
100
AcDbSpline
 62
7
  6
CONTINUOUS
 70
0
 71
3
 72
9
 73
5
 74
0
 42
0.0000001
 43
0.0000001
 44
0.0000000001
 40
0.0
 40
0.0
 40
0.0
 40
0.0
 40
0.2315151057
 40
1.0
 40
1.0
 40
1.0
 40
1.0
 10
80.8642986721
 20
358.6890529293
 30
0.0
 10
80.8642986721
 20
358.8108552394
 30
0.0
 10
80.830259728
 20
359.3368670644
 30
0.0
 10
80.679156026
 20
359.8513157716
 30
0.0
 10
80.5209411913
 20
360.2233808431
 30
0.0
  0
SPLINE
  5
4BD
100
AcDbEntity
  8
0
100
AcDbSpline
 62
7
  6
CONTINUOUS
 70
0
 71
3
 72
9
 73
5
 74
0
 42
0.0000001
 43
0.0000001
 44
0.0000000001
 40
0.0
 40
0.0
 40
0.0
 40
0.0
 40
0.2642156092
 40
1.0
 40
1.0
 40
1.0
 40
1.0
 10
80.5209411913
 20
360.2233808431
 30
0.0
 10
80.4951525665
 20
360.284026525
 30
0.0
 10
80.3808892623
 20
360.5051430414
 30
0.0
 10
80.2057497292
 20
360.7022625716
 30
0.0
 10
80.0468154061
 20
360.79402127
 30
0.0
  0
SPLINE
  5
4BE
100
AcDbEntity
  8
0
100
AcDbSpline
 62
7
  6
CONTINUOUS
 70
0
 71
3
 72
9
 73
5
 74
0
 42
0.0000001
 43
0.0000001
 44
0.0000000001
 40
0.0
 40
0.0
 40
0.0
 40
0.0
 40
0.5507096336
 40
1.0
 40
1.0
 40
1.0
 40
1.0
 10
78.8533430375
 20
361.4830572752
 30
0.0
 10
78.7871896865
 20
361.5212500662
 30
0.0
 10
78.6549907673
 20
361.5762142668
 30
0.0
 10
78.5073336425
 20
361.5538044684
 30
0.0
 10
78.4533774326
 20
361.5226205981
 30
0.0
  0
SPLINE
  5
4BF
100
AcDbEntity
  8
0
100
AcDbSpline
 62
7
  6
CONTINUOUS
 70
0
 71
3
 72
9
 73
5
 74
0
 42
0.0000001
 43
0.0000001
 44
0.0000000001
 40
0.0
 40
0.0
 40
0.0
 40
0.0
 40
0.2315151057
 40
1.0
 40
1.0
 40
1.0
 40
1.0
 10
68.2070345919
 20
365.9965624352
 30
0.0
 10
68.2070345919
 20
366.1183647453
 30
0.0
 10
68.1729956479
 20
366.6443765703
 30
0.0
 10
68.0218919459
 20
367.1588252775
 30
0.0
 10
67.8636771111
 20
367.5308903491
 30
0.0
  0
SPLINE
  5
4C0
100
AcDbEntity
  8
0
100
AcDbSpline
 62
7
  6
CONTINUOUS
 70
0
 71
3
 72
9
 73
5
 74
0
 42
0.0000001
 43
0.0000001
 44
0.0000000001
 40
0.0
 40
0.0
 40
0.0
 40
0.0
 40
0.2642156092
 40
1.0
 40
1.0
 40
1.0
 40
1.0
 10
67.8636771111
 20
367.5308903491
 30
0.0
 10
67.8378884863
 20
367.5915360309
 30
0.0
 10
67.7236251822
 20
367.8126525473
 30
0.0
 10
67.5484856491
 20
368.0097720776
 30
0.0
 10
67.389551326
 20
368.1015307759
 30
0.0
  0
SPLINE
  5
4C1
100
AcDbEntity
  8
0
100
AcDbSpline
 62
7
  6
CONTINUOUS
 70
0
 71
3
 72
9
 73
5
 74
0
 42
0.0000001
 43
0.0000001
 44
0.0000000001
 40
0.0
 40
0.0
 40
0.0
 40
0.0
 40
0.5507096336
 40
1.0
 40
1.0
 40
1.0
 40
1.0
 10
66.1960789573
 20
368.7905667811
 30
0.0
 10
66.1299256063
 20
368.8287595721
 30
0.0
 10
65.9977266872
 20
368.8837237728
 30
0.0
 10
65.8500695624
 20
368.8613139743
 30
0.0
 10
65.7961133524
 20
368.830130104
 30
0.0
  0
SPLINE
  5
4C2
100
AcDbEntity
  8
0
100
AcDbSpline
 62
7
  6
CONTINUOUS
 70
0
 71
3
 72
9
 73
5
 74
0
 42
0.0000001
 43
0.0000001
 44
0.0000000001
 40
0.0
 40
0.0
 40
0.0
 40
0.0
 40
0.2315151057
 40
1.0
 40
1.0
 40
1.0
 40
1.0
 10
55.5497705118
 20
373.3040719411
 30
0.0
 10
55.5497705118
 20
373.4258742513
 30
0.0
 10
55.5157315677
 20
373.9518860762
 30
0.0
 10
55.3646278658
 20
374.4663347834
 30
0.0
 10
55.206413031
 20
374.838399855
 30
0.0
  0
SPLINE
  5
4C3
100
AcDbEntity
  8
0
100
AcDbSpline
 62
7
  6
CONTINUOUS
 70
0
 71
3
 72
9
 73
5
 74
0
 42
0.0000001
 43
0.0000001
 44
0.0000000001
 40
0.0
 40
0.0
 40
0.0
 40
0.0
 40
0.2642156092
 40
1.0
 40
1.0
 40
1.0
 40
1.0
 10
55.206413031
 20
374.838399855
 30
0.0
 10
55.1806244062
 20
374.8990455368
 30
0.0
 10
55.066361102
 20
375.1201620532
 30
0.0
 10
54.8912215689
 20
375.3172815835
 30
0.0
 10
54.7322872458
 20
375.4090402818
 30
0.0
  0
SPLINE
  5
4C4
100
AcDbEntity
  8
0
100
AcDbSpline
 62
7
  6
CONTINUOUS
 70
0
 71
3
 72
9
 73
5
 74
0
 42
0.0000001
 43
0.0000001
 44
0.0000000001
 40
0.0
 40
0.0
 40
0.0
 40
0.0
 40
0.5507096336
 40
1.0
 40
1.0
 40
1.0
 40
1.0
 10
53.5388148772
 20
376.0980762871
 30
0.0
 10
53.4726615262
 20
376.136269078
 30
0.0
 10
53.3404626071
 20
376.1912332787
 30
0.0
 10
53.1928054822
 20
376.1688234802
 30
0.0
 10
53.1388492723
 20
376.1376396099
 30
0.0
  0
SPLINE
  5
4C5
100
AcDbEntity
  8
0
100
AcDbSpline
 62
7
  6
CONTINUOUS
 70
0
 71
3
 72
9
 73
5
 74
0
 42
0.0000001
 43
0.0000001
 44
0.0000000001
 40
0.0
 40
0.0
 40
0.0
 40
0.0
 40
0.2315151057
 40
1.0
 40
1.0
 40
1.0
 40
1.0
 10
346.6668443548
 20
205.2313533051
 30
0.0
 10
346.6668443548
 20
205.3531556152
 30
0.0
 10
346.6328054108
 20
205.8791674401
 30
0.0
 10
346.4817017088
 20
206.3936161473
 30
0.0
 10
346.3234868741
 20
206.7656812188
 30
0.0
  0
SPLINE
  5
4C6
100
AcDbEntity
  8
0
100
AcDbSpline
 62
7
  6
CONTINUOUS
 70
0
 71
3
 72
9
 73
5
 74
0
 42
0.0000001
 43
0.0000001
 44
0.0000000001
 40
0.0
 40
0.0
 40
0.0
 40
0.0
 40
0.2642156092
 40
1.0
 40
1.0
 40
1.0
 40
1.0
 10
346.3234868741
 20
206.7656812188
 30
0.0
 10
346.2976982493
 20
206.8263269007
 30
0.0
 10
346.1834349451
 20
207.0474434171
 30
0.0
 10
346.0082954119
 20
207.2445629475
 30
0.0
 10
345.8493610888
 20
207.3363216458
 30
0.0
  0
SPLINE
  5
4C7
100
AcDbEntity
  8
0
100
AcDbSpline
 62
7
  6
CONTINUOUS
 70
0
 71
3
 72
9
 73
5
 74
0
 42
0.0000001
 43
0.0000001
 44
0.0000000001
 40
0.0
 40
0.0
 40
0.0
 40
0.0
 40
0.5507096336
 40
1.0
 40
1.0
 40
1.0
 40
1.0
 10
344.6558887202
 20
208.025357651
 30
0.0
 10
344.5897353693
 20
208.063550442
 30
0.0
 10
344.4575364501
 20
208.1185146426
 30
0.0
 10
344.3098793253
 20
208.0961048442
 30
0.0
 10
344.2559231153
 20
208.0649209739
 30
0.0
  0
SPLINE
  5
4C8
100
AcDbEntity
  8
0
100
AcDbSpline
 62
7
  6
CONTINUOUS
 70
0
 71
3
 72
9
 73
5
 74
0
 42
0.0000001
 43
0.0000001
 44
0.0000000001
 40
0.0
 40
0.0
 40
0.0
 40
0.0
 40
0.2315151057
 40
1.0
 40
1.0
 40
1.0
 40
1.0
 10
334.0095802747
 20
212.538862811
 30
0.0
 10
334.0095802747
 20
212.6606651212
 30
0.0
 10
333.9755413306
 20
213.186676946
 30
0.0
 10
333.8244376287
 20
213.7011256532
 30
0.0
 10
333.6662227939
 20
214.0731907248
 30
0.0
  0
SPLINE
  5
4C9
100
AcDbEntity
  8
0
100
AcDbSpline
 62
7
  6
CONTINUOUS
 70
0
 71
3
 72
9
 73
5
 74
0
 42
0.0000001
 43
0.0000001
 44
0.0000000001
 40
0.0
 40
0.0
 40
0.0
 40
0.0
 40
0.2642156092
 40
1.0
 40
1.0
 40
1.0
 40
1.0
 10
333.6662227939
 20
214.0731907248
 30
0.0
 10
333.6404341691
 20
214.1338364066
 30
0.0
 10
333.526170865
 20
214.354952923
 30
0.0
 10
333.3510313318
 20
214.5520724534
 30
0.0
 10
333.1920970087
 20
214.6438311518
 30
0.0
  0
SPLINE
  5
4CA
100
AcDbEntity
  8
0
100
AcDbSpline
 62
7
  6
CONTINUOUS
 70
0
 71
3
 72
9
 73
5
 74
0
 42
0.0000001
 43
0.0000001
 44
0.0000000001
 40
0.0
 40
0.0
 40
0.0
 40
0.0
 40
0.5507096336
 40
1.0
 40
1.0
 40
1.0
 40
1.0
 10
331.9986246401
 20
215.3328671569
 30
0.0
 10
331.9324712891
 20
215.3710599479
 30
0.0
 10
331.80027237
 20
215.4260241486
 30
0.0
 10
331.6526152452
 20
215.4036143501
 30
0.0
 10
331.5986590352
 20
215.3724304798
 30
0.0
  0
SPLINE
  5
4CB
100
AcDbEntity
  8
0
100
AcDbSpline
 62
7
  6
CONTINUOUS
 70
0
 71
3
 72
9
 73
5
 74
0
 42
0.0000001
 43
0.0000001
 44
0.0000000001
 40
0.0
 40
0.0
 40
0.0
 40
0.0
 40
0.2315151057
 40
1.0
 40
1.0
 40
1.0
 40
1.0
 10
321.3523161946
 20
219.846372317
 30
0.0
 10
321.3523161946
 20
219.9681746271
 30
0.0
 10
321.3182772505
 20
220.494186452
 30
0.0
 10
321.1671735486
 20
221.0086351591
 30
0.0
 10
321.0089587138
 20
221.3807002307
 30
0.0
  0
SPLINE
  5
4CC
100
AcDbEntity
  8
0
100
AcDbSpline
 62
7
  6
CONTINUOUS
 70
0
 71
3
 72
9
 73
5
 74
0
 42
0.0000001
 43
0.0000001
 44
0.0000000001
 40
0.0
 40
0.0
 40
0.0
 40
0.0
 40
0.2289654281
 40
1.0
 40
1.0
 40
1.0
 40
1.0
 10
294.1596490125
 20
235.9539934387
 30
0.0
 10
294.2091507835
 20
235.9254142244
 30
0.0
 10
294.410889089
 20
235.7763075197
 30
0.0
 10
294.5584518578
 20
235.5604858012
 30
0.0
 10
294.6337747977
 20
235.3833530117
 30
0.0
  0
SPLINE
  5
4CD
100
AcDbEntity
  8
0
100
AcDbSpline
 62
7
  6
CONTINUOUS
 70
0
 71
3
 72
9
 73
5
 74
0
 42
0.0000001
 43
0.0000001
 44
0.0000000001
 40
0.0
 40
0.0
 40
0.0
 40
0.0
 40
0.2668696552
 40
1.0
 40
1.0
 40
1.0
 40
1.0
 10
294.6337747977
 20
235.3833530117
 30
0.0
 10
294.688698346
 20
235.2541923426
 30
0.0
 10
294.8735976288
 20
234.7622801616
 30
0.0
 10
294.9771322785
 20
234.2345965877
 30
0.0
 10
294.9771322785
 20
233.849025098
 30
0.0
  0
SPLINE
  5
4CE
100
AcDbEntity
  8
0
100
AcDbSpline
 62
7
  6
CONTINUOUS
 70
0
 71
3
 72
9
 73
5
 74
0
 42
0.0000001
 43
0.0000001
 44
0.0000000001
 40
0.0
 40
0.0
 40
0.0
 40
0.0
 40
0.2289654281
 40
1.0
 40
1.0
 40
1.0
 40
1.0
 10
344.788705333
 20
206.723955415
 30
0.0
 10
344.838207104
 20
206.6953762007
 30
0.0
 10
345.0399454095
 20
206.546269496
 30
0.0
 10
345.1875081783
 20
206.3304477776
 30
0.0
 10
345.2628311183
 20
206.153314988
 30
0.0
  0
SPLINE
  5
4CF
100
AcDbEntity
  8
0
100
AcDbSpline
 62
7
  6
CONTINUOUS
 70
0
 71
3
 72
9
 73
5
 74
0
 42
0.0000001
 43
0.0000001
 44
0.0000000001
 40
0.0
 40
0.0
 40
0.0
 40
0.0
 40
0.2668696552
 40
1.0
 40
1.0
 40
1.0
 40
1.0
 10
345.2628311183
 20
206.153314988
 30
0.0
 10
345.3177546665
 20
206.024154319
 30
0.0
 10
345.5026539493
 20
205.532242138
 30
0.0
 10
345.606188599
 20
205.0045585641
 30
0.0
 10
345.606188599
 20
204.6189870743
 30
0.0
  0
SPLINE
  5
4D0
100
AcDbEntity
  8
0
100
AcDbSpline
 62
7
  6
CONTINUOUS
 70
0
 71
3
 72
9
 73
5
 74
0
 42
0.0000001
 43
0.0000001
 44
0.0000000001
 40
0.0
 40
0.0
 40
0.0
 40
0.0
 40
0.2289654281
 40
1.0
 40
1.0
 40
1.0
 40
1.0
 10
306.8169130926
 20
228.6464839328
 30
0.0
 10
306.8664148637
 20
228.6179047185
 30
0.0
 10
307.0681531691
 20
228.4687980138
 30
0.0
 10
307.2157159379
 20
228.2529762953
 30
0.0
 10
307.2910388779
 20
228.0758435058
 30
0.0
  0
SPLINE
  5
4D1
100
AcDbEntity
  8
0
100
AcDbSpline
 62
7
  6
CONTINUOUS
 70
0
 71
3
 72
9
 73
5
 74
0
 42
0.0000001
 43
0.0000001
 44
0.0000000001
 40
0.0
 40
0.0
 40
0.0
 40
0.0
 40
0.2668696552
 40
1.0
 40
1.0
 40
1.0
 40
1.0
 10
307.2910388779
 20
228.0758435058
 30
0.0
 10
307.3459624261
 20
227.9466828367
 30
0.0
 10
307.5308617089
 20
227.4547706557
 30
0.0
 10
307.6343963586
 20
226.9270870818
 30
0.0
 10
307.6343963586
 20
226.5415155921
 30
0.0
  0
SPLINE
  5
4D2
100
AcDbEntity
  8
0
100
AcDbSpline
 62
7
  6
CONTINUOUS
 70
0
 71
3
 72
9
 73
5
 74
0
 42
0.0000001
 43
0.0000001
 44
0.0000000001
 40
0.0
 40
0.0
 40
0.0
 40
0.0
 40
0.2289654281
 40
1.0
 40
1.0
 40
1.0
 40
1.0
 10
104.3006878105
 20
345.5666360274
 30
0.0
 10
104.3501895816
 20
345.5380568131
 30
0.0
 10
104.551927887
 20
345.3889501084
 30
0.0
 10
104.6994906558
 20
345.17312839
 30
0.0
 10
104.7748135957
 20
344.9959956005
 30
0.0
  0
SPLINE
  5
4D3
100
AcDbEntity
  8
0
100
AcDbSpline
 62
7
  6
CONTINUOUS
 70
0
 71
3
 72
9
 73
5
 74
0
 42
0.0000001
 43
0.0000001
 44
0.0000000001
 40
0.0
 40
0.0
 40
0.0
 40
0.0
 40
0.2668696552
 40
1.0
 40
1.0
 40
1.0
 40
1.0
 10
104.7748135957
 20
344.9959956005
 30
0.0
 10
104.829737144
 20
344.8668349314
 30
0.0
 10
105.0146364268
 20
344.3749227504
 30
0.0
 10
105.1181710765
 20
343.8472391765
 30
0.0
 10
105.1181710765
 20
343.4616676867
 30
0.0
  0
SPLINE
  5
4D4
100
AcDbEntity
  8
0
100
AcDbSpline
 62
7
  6
CONTINUOUS
 70
0
 71
3
 72
9
 73
5
 74
0
 42
0.0000001
 43
0.0000001
 44
0.0000000001
 40
0.0
 40
0.0
 40
0.0
 40
0.0
 40
0.2289654281
 40
1.0
 40
1.0
 40
1.0
 40
1.0
 10
319.4741771727
 20
221.3389744269
 30
0.0
 10
319.5236789438
 20
221.3103952126
 30
0.0
 10
319.7254172493
 20
221.1612885078
 30
0.0
 10
319.8729800181
 20
220.9454667894
 30
0.0
 10
319.948302958
 20
220.7683339999
 30
0.0
  0
SPLINE
  5
4D5
100
AcDbEntity
  8
0
100
AcDbSpline
 62
7
  6
CONTINUOUS
 70
0
 71
3
 72
9
 73
5
 74
0
 42
0.0000001
 43
0.0000001
 44
0.0000000001
 40
0.0
 40
0.0
 40
0.0
 40
0.0
 40
0.2289654281
 40
1.0
 40
1.0
 40
1.0
 40
1.0
 10
116.9579518907
 20
338.2591265215
 30
0.0
 10
117.0074536617
 20
338.2305473072
 30
0.0
 10
117.2091919671
 20
338.0814406025
 30
0.0
 10
117.356754736
 20
337.8656188841
 30
0.0
 10
117.4320776759
 20
337.6884860946
 30
0.0
  0
SPLINE
  5
4D6
100
AcDbEntity
  8
0
100
AcDbSpline
 62
7
  6
CONTINUOUS
 70
0
 71
3
 72
9
 73
5
 74
0
 42
0.0000001
 43
0.0000001
 44
0.0000000001
 40
0.0
 40
0.0
 40
0.0
 40
0.0
 40
0.2668696552
 40
1.0
 40
1.0
 40
1.0
 40
1.0
 10
117.4320776759
 20
337.6884860946
 30
0.0
 10
117.4870012241
 20
337.5593254255
 30
0.0
 10
117.6719005069
 20
337.0674132445
 30
0.0
 10
117.7754351567
 20
336.5397296706
 30
0.0
 10
117.7754351567
 20
336.1541581808
 30
0.0
  0
SPLINE
  5
4D7
100
AcDbEntity
  8
0
100
AcDbSpline
 62
7
  6
CONTINUOUS
 70
0
 71
3
 72
9
 73
5
 74
0
 42
0.0000001
 43
0.0000001
 44
0.0000000001
 40
0.0
 40
0.0
 40
0.0
 40
0.0
 40
0.2289654281
 40
1.0
 40
1.0
 40
1.0
 40
1.0
 10
129.6152159708
 20
330.9516170155
 30
0.0
 10
129.6647177418
 20
330.9230378013
 30
0.0
 10
129.8664560473
 20
330.7739310966
 30
0.0
 10
130.0140188161
 20
330.5581093782
 30
0.0
 10
130.089341756
 20
330.3809765887
 30
0.0
  0
SPLINE
  5
4D8
100
AcDbEntity
  8
0
100
AcDbSpline
 62
7
  6
CONTINUOUS
 70
0
 71
3
 72
9
 73
5
 74
0
 42
0.0000001
 43
0.0000001
 44
0.0000000001
 40
0.0
 40
0.0
 40
0.0
 40
0.0
 40
0.2668696552
 40
1.0
 40
1.0
 40
1.0
 40
1.0
 10
130.089341756
 20
330.3809765887
 30
0.0
 10
130.1442653043
 20
330.2518159196
 30
0.0
 10
130.329164587
 20
329.7599037386
 30
0.0
 10
130.4326992368
 20
329.2322201646
 30
0.0
 10
130.4326992368
 20
328.8466486749
 30
0.0
  0
SPLINE
  5
4D9
100
AcDbEntity
  8
0
100
AcDbSpline
 62
7
  6
CONTINUOUS
 70
0
 71
3
 72
9
 73
5
 74
0
 42
0.0000001
 43
0.0000001
 44
0.0000000001
 40
0.0
 40
0.0
 40
0.0
 40
0.0
 40
0.4492903664
 40
1.0
 40
1.0
 40
1.0
 40
1.0
 10
343.1952673595
 20
207.4525547431
 30
0.0
 10
343.2492235695
 20
207.4837386134
 30
0.0
 10
343.3968806943
 20
207.5061484118
 30
0.0
 10
343.5290796134
 20
207.4511842112
 30
0.0
 10
343.5952329644
 20
207.4129914202
 30
0.0
  0
SPLINE
  5
4DA
100
AcDbEntity
  8
0
100
AcDbSpline
 62
7
  6
CONTINUOUS
 70
0
 71
3
 72
9
 73
5
 74
0
 42
0.0000001
 43
0.0000001
 44
0.0000000001
 40
0.0
 40
0.0
 40
0.0
 40
0.0
 40
0.2289654281
 40
1.0
 40
1.0
 40
1.0
 40
1.0
 10
142.2724800509
 20
323.6441075096
 30
0.0
 10
142.321981822
 20
323.6155282953
 30
0.0
 10
142.5237201274
 20
323.4664215907
 30
0.0
 10
142.6712828962
 20
323.2505998723
 30
0.0
 10
142.7466058361
 20
323.0734670828
 30
0.0
  0
SPLINE
  5
4DB
100
AcDbEntity
  8
0
100
AcDbSpline
 62
7
  6
CONTINUOUS
 70
0
 71
3
 72
9
 73
5
 74
0
 42
0.0000001
 43
0.0000001
 44
0.0000000001
 40
0.0
 40
0.0
 40
0.0
 40
0.0
 40
0.2668696552
 40
1.0
 40
1.0
 40
1.0
 40
1.0
 10
142.7466058361
 20
323.0734670828
 30
0.0
 10
142.8015293844
 20
322.9443064137
 30
0.0
 10
142.9864286672
 20
322.4523942326
 30
0.0
 10
143.0899633169
 20
321.9247106587
 30
0.0
 10
143.0899633169
 20
321.5391391689
 30
0.0
  0
SPLINE
  5
4DC
100
AcDbEntity
  8
0
100
AcDbSpline
 62
7
  6
CONTINUOUS
 70
0
 71
3
 72
9
 73
5
 74
0
 42
0.0000001
 43
0.0000001
 44
0.0000000001
 40
0.0
 40
0.0
 40
0.0
 40
0.0
 40
0.4492903664
 40
1.0
 40
1.0
 40
1.0
 40
1.0
 10
52.0781935165
 20
375.5252733791
 30
0.0
 10
52.1321497264
 20
375.5564572494
 30
0.0
 10
52.2798068512
 20
375.5788670479
 30
0.0
 10
52.4120057704
 20
375.5239028472
 30
0.0
 10
52.4781591214
 20
375.4857100562
 30
0.0
  0
SPLINE
  5
4DD
100
AcDbEntity
  8
0
100
AcDbSpline
 62
7
  6
CONTINUOUS
 70
0
 71
3
 72
9
 73
5
 74
0
 42
0.0000001
 43
0.0000001
 44
0.0000000001
 40
0.0
 40
0.0
 40
0.0
 40
0.0
 40
0.2289654281
 40
1.0
 40
1.0
 40
1.0
 40
1.0
 10
53.67163149
 20
374.796674051
 30
0.0
 10
53.7211332611
 20
374.7680948367
 30
0.0
 10
53.9228715665
 20
374.618988132
 30
0.0
 10
54.0704343353
 20
374.4031664137
 30
0.0
 10
54.1457572752
 20
374.2260336242
 30
0.0
  0
SPLINE
  5
4DE
100
AcDbEntity
  8
0
100
AcDbSpline
 62
7
  6
CONTINUOUS
 70
0
 71
3
 72
9
 73
5
 74
0
 42
0.0000001
 43
0.0000001
 44
0.0000000001
 40
0.0
 40
0.0
 40
0.0
 40
0.0
 40
0.4492903664
 40
1.0
 40
1.0
 40
1.0
 40
1.0
 10
64.7354575966
 20
368.2177638732
 30
0.0
 10
64.7894138066
 20
368.2489477435
 30
0.0
 10
64.9370709314
 20
368.2713575419
 30
0.0
 10
65.0692698505
 20
368.2163933413
 30
0.0
 10
65.1354232015
 20
368.1782005503
 30
0.0
  0
SPLINE
  5
4DF
100
AcDbEntity
  8
0
100
AcDbSpline
 62
7
  6
CONTINUOUS
 70
0
 71
3
 72
9
 73
5
 74
0
 42
0.0000001
 43
0.0000001
 44
0.0000000001
 40
0.0
 40
0.0
 40
0.0
 40
0.0
 40
0.2668696552
 40
1.0
 40
1.0
 40
1.0
 40
1.0
 10
54.1457572752
 20
374.2260336242
 30
0.0
 10
54.2006808235
 20
374.0968729551
 30
0.0
 10
54.3855801063
 20
373.604960774
 30
0.0
 10
54.489114756
 20
373.0772772001
 30
0.0
 10
54.489114756
 20
372.6917057103
 30
0.0
  0
SPLINE
  5
4E0
100
AcDbEntity
  8
0
100
AcDbSpline
 62
7
  6
CONTINUOUS
 70
0
 71
3
 72
9
 73
5
 74
0
 42
0.0000001
 43
0.0000001
 44
0.0000000001
 40
0.0
 40
0.0
 40
0.0
 40
0.0
 40
0.2289654281
 40
1.0
 40
1.0
 40
1.0
 40
1.0
 10
154.9297441311
 20
316.3365980037
 30
0.0
 10
154.9792459021
 20
316.3080187894
 30
0.0
 10
155.1809842075
 20
316.1589120847
 30
0.0
 10
155.3285469763
 20
315.9430903663
 30
0.0
 10
155.4038699162
 20
315.7659575768
 30
0.0
  0
SPLINE
  5
4E1
100
AcDbEntity
  8
0
100
AcDbSpline
 62
7
  6
CONTINUOUS
 70
0
 71
3
 72
9
 73
5
 74
0
 42
0.0000001
 43
0.0000001
 44
0.0000000001
 40
0.0
 40
0.0
 40
0.0
 40
0.0
 40
0.4492903664
 40
1.0
 40
1.0
 40
1.0
 40
1.0
 10
77.3927216767
 20
360.9102543673
 30
0.0
 10
77.4466778867
 20
360.9414382376
 30
0.0
 10
77.5943350115
 20
360.963848036
 30
0.0
 10
77.7265339307
 20
360.9088838354
 30
0.0
 10
77.7926872816
 20
360.8706910444
 30
0.0
  0
SPLINE
  5
4E2
100
AcDbEntity
  8
0
100
AcDbSpline
 62
7
  6
CONTINUOUS
 70
0
 71
3
 72
9
 73
5
 74
0
 42
0.0000001
 43
0.0000001
 44
0.0000000001
 40
0.0
 40
0.0
 40
0.0
 40
0.0
 40
0.2668696552
 40
1.0
 40
1.0
 40
1.0
 40
1.0
 10
155.4038699162
 20
315.7659575768
 30
0.0
 10
155.4587934645
 20
315.6367969078
 30
0.0
 10
155.6436927473
 20
315.1448847267
 30
0.0
 10
155.747227397
 20
314.6172011528
 30
0.0
 10
155.747227397
 20
314.231629663
 30
0.0
  0
SPLINE
  5
4E3
100
AcDbEntity
  8
0
100
AcDbSpline
 62
7
  6
CONTINUOUS
 70
0
 71
3
 72
9
 73
5
 74
0
 42
0.0000001
 43
0.0000001
 44
0.0000000001
 40
0.0
 40
0.0
 40
0.0
 40
0.0
 40
0.4492903664
 40
1.0
 40
1.0
 40
1.0
 40
1.0
 10
90.0499857569
 20
353.6027448614
 30
0.0
 10
90.1039419668
 20
353.6339287317
 30
0.0
 10
90.2515990916
 20
353.6563385301
 30
0.0
 10
90.3837980108
 20
353.6013743295
 30
0.0
 10
90.4499513618
 20
353.5631815385
 30
0.0
  0
SPLINE
  5
4E4
100
AcDbEntity
  8
0
100
AcDbSpline
 62
7
  6
CONTINUOUS
 70
0
 71
3
 72
9
 73
5
 74
0
 42
0.0000001
 43
0.0000001
 44
0.0000000001
 40
0.0
 40
0.0
 40
0.0
 40
0.0
 40
0.2289654281
 40
1.0
 40
1.0
 40
1.0
 40
1.0
 10
167.5870082112
 20
309.0290884978
 30
0.0
 10
167.6365099822
 20
309.0005092835
 30
0.0
 10
167.8382482877
 20
308.8514025788
 30
0.0
 10
167.9858110565
 20
308.6355808604
 30
0.0
 10
168.0611339964
 20
308.4584480709
 30
0.0
  0
SPLINE
  5
4E5
100
AcDbEntity
  8
0
100
AcDbSpline
 62
7
  6
CONTINUOUS
 70
0
 71
3
 72
9
 73
5
 74
0
 42
0.0000001
 43
0.0000001
 44
0.0000000001
 40
0.0
 40
0.0
 40
0.0
 40
0.0
 40
0.4492903664
 40
1.0
 40
1.0
 40
1.0
 40
1.0
 10
102.707249837
 20
346.2952353554
 30
0.0
 10
102.761206047
 20
346.3264192258
 30
0.0
 10
102.9088631718
 20
346.3488290242
 30
0.0
 10
103.0410620909
 20
346.2938648236
 30
0.0
 10
103.1072154419
 20
346.2556720326
 30
0.0
  0
SPLINE
  5
4E6
100
AcDbEntity
  8
0
100
AcDbSpline
 62
7
  6
CONTINUOUS
 70
0
 71
3
 72
9
 73
5
 74
0
 42
0.0000001
 43
0.0000001
 44
0.0000000001
 40
0.0
 40
0.0
 40
0.0
 40
0.0
 40
0.2668696552
 40
1.0
 40
1.0
 40
1.0
 40
1.0
 10
168.0611339964
 20
308.4584480709
 30
0.0
 10
168.1160575447
 20
308.3292874018
 30
0.0
 10
168.3009568274
 20
307.8373752208
 30
0.0
 10
168.4044914772
 20
307.3096916469
 30
0.0
 10
168.4044914772
 20
306.9241201571
 30
0.0
  0
SPLINE
  5
4E7
100
AcDbEntity
  8
0
100
AcDbSpline
 62
7
  6
CONTINUOUS
 70
0
 71
3
 72
9
 73
5
 74
0
 42
0.0000001
 43
0.0000001
 44
0.0000000001
 40
0.0
 40
0.0
 40
0.0
 40
0.0
 40
0.4492903664
 40
1.0
 40
1.0
 40
1.0
 40
1.0
 10
115.3645139171
 20
338.9877258495
 30
0.0
 10
115.4184701271
 20
339.0189097199
 30
0.0
 10
115.5661272519
 20
339.0413195183
 30
0.0
 10
115.6983261711
 20
338.9863553176
 30
0.0
 10
115.764479522
 20
338.9481625267
 30
0.0
  0
SPLINE
  5
4E8
100
AcDbEntity
  8
0
100
AcDbSpline
 62
7
  6
CONTINUOUS
 70
0
 71
3
 72
9
 73
5
 74
0
 42
0.0000001
 43
0.0000001
 44
0.0000000001
 40
0.0
 40
0.0
 40
0.0
 40
0.0
 40
0.2668696552
 40
1.0
 40
1.0
 40
1.0
 40
1.0
 10
319.948302958
 20
220.7683339999
 30
0.0
 10
320.0032265063
 20
220.6391733308
 30
0.0
 10
320.188125789
 20
220.1472611498
 30
0.0
 10
320.2916604387
 20
219.6195775759
 30
0.0
 10
320.2916604387
 20
219.2340060862
 30
0.0
  0
SPLINE
  5
4E9
100
AcDbEntity
  8
0
100
AcDbSpline
 62
7
  6
CONTINUOUS
 70
0
 71
3
 72
9
 73
5
 74
0
 42
0.0000001
 43
0.0000001
 44
0.0000000001
 40
0.0
 40
0.0
 40
0.0
 40
0.0
 40
0.4492903664
 40
1.0
 40
1.0
 40
1.0
 40
1.0
 10
128.0217779973
 20
331.6802163436
 30
0.0
 10
128.0757342072
 20
331.711400214
 30
0.0
 10
128.223391332
 20
331.7338100124
 30
0.0
 10
128.3555902512
 20
331.6788458117
 30
0.0
 10
128.4217436022
 20
331.6406530208
 30
0.0
  0
SPLINE
  5
4EA
100
AcDbEntity
  8
0
100
AcDbSpline
 62
7
  6
CONTINUOUS
 70
0
 71
3
 72
9
 73
5
 74
0
 42
0.0000001
 43
0.0000001
 44
0.0000000001
 40
0.0
 40
0.0
 40
0.0
 40
0.0
 40
0.2289654281
 40
1.0
 40
1.0
 40
1.0
 40
1.0
 10
332.1314412529
 20
214.0314649209
 30
0.0
 10
332.1809430239
 20
214.0028857067
 30
0.0
 10
332.3826813294
 20
213.8537790019
 30
0.0
 10
332.5302440982
 20
213.6379572835
 30
0.0
 10
332.6055670381
 20
213.4608244939
 30
0.0
  0
SPLINE
  5
4EB
100
AcDbEntity
  8
0
100
AcDbSpline
 62
7
  6
CONTINUOUS
 70
0
 71
3
 72
9
 73
5
 74
0
 42
0.0000001
 43
0.0000001
 44
0.0000000001
 40
0.0
 40
0.0
 40
0.0
 40
0.0
 40
0.2668696552
 40
1.0
 40
1.0
 40
1.0
 40
1.0
 10
332.6055670381
 20
213.4608244939
 30
0.0
 10
332.6604905864
 20
213.3316638249
 30
0.0
 10
332.8453898692
 20
212.8397516439
 30
0.0
 10
332.9489245189
 20
212.31206807
 30
0.0
 10
332.9489245189
 20
211.9264965802
 30
0.0
  0
SPLINE
  5
4EC
100
AcDbEntity
  8
0
100
AcDbSpline
 62
7
  6
CONTINUOUS
 70
0
 71
3
 72
9
 73
5
 74
0
 42
0.0000001
 43
0.0000001
 44
0.0000000001
 40
0.0
 40
0.0
 40
0.0
 40
0.0
 40
0.2289654281
 40
1.0
 40
1.0
 40
1.0
 40
1.0
 10
180.2442722913
 20
301.7215789919
 30
0.0
 10
180.2937740624
 20
301.6929997776
 30
0.0
 10
180.4955123678
 20
301.5438930729
 30
0.0
 10
180.6430751366
 20
301.3280713545
 30
0.0
 10
180.7183980765
 20
301.150938565
 30
0.0
  0
SPLINE
  5
4ED
100
AcDbEntity
  8
0
100
AcDbSpline
 62
7
  6
CONTINUOUS
 70
0
 71
3
 72
9
 73
5
 74
0
 42
0.0000001
 43
0.0000001
 44
0.0000000001
 40
0.0
 40
0.0
 40
0.0
 40
0.0
 40
0.2668696552
 40
1.0
 40
1.0
 40
1.0
 40
1.0
 10
180.7183980765
 20
301.150938565
 30
0.0
 10
180.7733216248
 20
301.0217778959
 30
0.0
 10
180.9582209076
 20
300.5298657149
 30
0.0
 10
181.0617555573
 20
300.002182141
 30
0.0
 10
181.0617555573
 20
299.6166106512
 30
0.0
  0
SPLINE
  5
4EE
100
AcDbEntity
  8
0
100
AcDbSpline
 62
7
  6
CONTINUOUS
 70
0
 71
3
 72
9
 73
5
 74
0
 42
0.0000001
 43
0.0000001
 44
0.0000000001
 40
0.0
 40
0.0
 40
0.0
 40
0.0
 40
0.4492903664
 40
1.0
 40
1.0
 40
1.0
 40
1.0
 10
140.6790420774
 20
324.3727068377
 30
0.0
 10
140.7329982873
 20
324.403890708
 30
0.0
 10
140.8806554122
 20
324.4263005065
 30
0.0
 10
141.0128543313
 20
324.3713363058
 30
0.0
 10
141.0790076823
 20
324.3331435149
 30
0.0
  0
SPLINE
  5
4EF
100
AcDbEntity
  8
0
100
AcDbSpline
 62
7
  6
CONTINUOUS
 70
0
 71
3
 72
9
 73
5
 74
0
 42
0.0000001
 43
0.0000001
 44
0.0000000001
 40
0.0
 40
0.0
 40
0.0
 40
0.0
 40
0.4492903664
 40
1.0
 40
1.0
 40
1.0
 40
1.0
 10
153.3363061575
 20
317.0651973318
 30
0.0
 10
153.3902623675
 20
317.0963812021
 30
0.0
 10
153.5379194923
 20
317.1187910006
 30
0.0
 10
153.6701184114
 20
317.0638267999
 30
0.0
 10
153.7362717624
 20
317.0256340089
 30
0.0
  0
SPLINE
  5
4F0
100
AcDbEntity
  8
0
100
AcDbSpline
 62
7
  6
CONTINUOUS
 70
0
 71
3
 72
9
 73
5
 74
0
 42
0.0000001
 43
0.0000001
 44
0.0000000001
 40
0.0
 40
0.0
 40
0.0
 40
0.0
 40
0.2289654281
 40
1.0
 40
1.0
 40
1.0
 40
1.0
 10
66.3288955702
 20
367.4891645451
 30
0.0
 10
66.3783973412
 20
367.4605853308
 30
0.0
 10
66.5801356466
 20
367.3114786261
 30
0.0
 10
66.7276984154
 20
367.0956569077
 30
0.0
 10
66.8030213553
 20
366.9185241182
 30
0.0
  0
SPLINE
  5
4F1
100
AcDbEntity
  8
0
100
AcDbSpline
 62
7
  6
CONTINUOUS
 70
0
 71
3
 72
9
 73
5
 74
0
 42
0.0000001
 43
0.0000001
 44
0.0000000001
 40
0.0
 40
0.0
 40
0.0
 40
0.0
 40
0.2668696552
 40
1.0
 40
1.0
 40
1.0
 40
1.0
 10
66.8030213553
 20
366.9185241182
 30
0.0
 10
66.8579449036
 20
366.7893634492
 30
0.0
 10
67.0428441864
 20
366.2974512681
 30
0.0
 10
67.1463788361
 20
365.7697676942
 30
0.0
 10
67.1463788361
 20
365.3841962044
 30
0.0
  0
SPLINE
  5
4F2
100
AcDbEntity
  8
0
100
AcDbSpline
 62
7
  6
CONTINUOUS
 70
0
 71
3
 72
9
 73
5
 74
0
 42
0.0000001
 43
0.0000001
 44
0.0000000001
 40
0.0
 40
0.0
 40
0.0
 40
0.0
 40
0.2289654281
 40
1.0
 40
1.0
 40
1.0
 40
1.0
 10
192.9015363715
 20
294.414069486
 30
0.0
 10
192.9510381425
 20
294.3854902717
 30
0.0
 10
193.1527764479
 20
294.236383567
 30
0.0
 10
193.3003392167
 20
294.0205618486
 30
0.0
 10
193.3756621566
 20
293.8434290591
 30
0.0
  0
SPLINE
  5
4F3
100
AcDbEntity
  8
0
100
AcDbSpline
 62
7
  6
CONTINUOUS
 70
0
 71
3
 72
9
 73
5
 74
0
 42
0.0000001
 43
0.0000001
 44
0.0000000001
 40
0.0
 40
0.0
 40
0.0
 40
0.0
 40
0.4492903664
 40
1.0
 40
1.0
 40
1.0
 40
1.0
 10
165.9935702376
 20
309.7576878259
 30
0.0
 10
166.0475264476
 20
309.7888716962
 30
0.0
 10
166.1951835724
 20
309.8112814946
 30
0.0
 10
166.3273824916
 20
309.756317294
 30
0.0
 10
166.3935358426
 20
309.718124503
 30
0.0
  0
SPLINE
  5
4F4
100
AcDbEntity
  8
0
100
AcDbSpline
 62
7
  6
CONTINUOUS
 70
0
 71
3
 72
9
 73
5
 74
0
 42
0.0000001
 43
0.0000001
 44
0.0000000001
 40
0.0
 40
0.0
 40
0.0
 40
0.0
 40
0.2668696552
 40
1.0
 40
1.0
 40
1.0
 40
1.0
 10
193.3756621566
 20
293.8434290591
 30
0.0
 10
193.4305857049
 20
293.71426839
 30
0.0
 10
193.6154849877
 20
293.222356209
 30
0.0
 10
193.7190196374
 20
292.6946726351
 30
0.0
 10
193.7190196374
 20
292.3091011453
 30
0.0
  0
SPLINE
  5
4F5
100
AcDbEntity
  8
0
100
AcDbSpline
 62
7
  6
CONTINUOUS
 70
0
 71
3
 72
9
 73
5
 74
0
 42
0.0000001
 43
0.0000001
 44
0.0000000001
 40
0.0
 40
0.0
 40
0.0
 40
0.0
 40
0.4492903664
 40
1.0
 40
1.0
 40
1.0
 40
1.0
 10
178.6508343178
 20
302.45017832
 30
0.0
 10
178.7047905277
 20
302.4813621903
 30
0.0
 10
178.8524476526
 20
302.5037719887
 30
0.0
 10
178.9846465717
 20
302.4488077881
 30
0.0
 10
179.0507999227
 20
302.4106149971
 30
0.0
  0
SPLINE
  5
4F6
100
AcDbEntity
  8
0
100
AcDbSpline
 62
7
  6
CONTINUOUS
 70
0
 71
3
 72
9
 73
5
 74
0
 42
0.0000001
 43
0.0000001
 44
0.0000000001
 40
0.0
 40
0.0
 40
0.0
 40
0.0
 40
0.4492903664
 40
1.0
 40
1.0
 40
1.0
 40
1.0
 10
191.3080983979
 20
295.1426688141
 30
0.0
 10
191.3620546079
 20
295.1738526844
 30
0.0
 10
191.5097117327
 20
295.1962624828
 30
0.0
 10
191.6419106518
 20
295.1412982822
 30
0.0
 10
191.7080640028
 20
295.1031054912
 30
0.0
  0
SPLINE
  5
4F7
100
AcDbEntity
  8
0
100
AcDbSpline
 62
7
  6
CONTINUOUS
 70
0
 71
3
 72
9
 73
5
 74
0
 42
0.0000001
 43
0.0000001
 44
0.0000000001
 40
0.0
 40
0.0
 40
0.0
 40
0.0
 40
0.2289654281
 40
1.0
 40
1.0
 40
1.0
 40
1.0
 10
205.5588004516
 20
287.1065599801
 30
0.0
 10
205.6083022226
 20
287.0779807658
 30
0.0
 10
205.8100405281
 20
286.9288740611
 30
0.0
 10
205.9576032969
 20
286.7130523427
 30
0.0
 10
206.0329262368
 20
286.5359195532
 30
0.0
  0
SPLINE
  5
4F8
100
AcDbEntity
  8
0
100
AcDbSpline
 62
7
  6
CONTINUOUS
 70
0
 71
3
 72
9
 73
5
 74
0
 42
0.0000001
 43
0.0000001
 44
0.0000000001
 40
0.0
 40
0.0
 40
0.0
 40
0.0
 40
0.2668696552
 40
1.0
 40
1.0
 40
1.0
 40
1.0
 10
206.0329262368
 20
286.5359195532
 30
0.0
 10
206.087849785
 20
286.4067588841
 30
0.0
 10
206.2727490678
 20
285.9148467031
 30
0.0
 10
206.3762837176
 20
285.3871631292
 30
0.0
 10
206.3762837176
 20
285.0015916394
 30
0.0
  0
SPLINE
  5
4F9
100
AcDbEntity
  8
0
100
AcDbSpline
 62
7
  6
CONTINUOUS
 70
0
 71
3
 72
9
 73
5
 74
0
 42
0.0000001
 43
0.0000001
 44
0.0000000001
 40
0.0
 40
0.0
 40
0.0
 40
0.0
 40
0.4492903664
 40
1.0
 40
1.0
 40
1.0
 40
1.0
 10
203.965362478
 20
287.8351593081
 30
0.0
 10
204.019318688
 20
287.8663431785
 30
0.0
 10
204.1669758128
 20
287.8887529769
 30
0.0
 10
204.299174732
 20
287.8337887763
 30
0.0
 10
204.365328083
 20
287.7955959853
 30
0.0
  0
SPLINE
  5
4FA
100
AcDbEntity
  8
0
100
AcDbSpline
 62
7
  6
CONTINUOUS
 70
0
 71
3
 72
9
 73
5
 74
0
 42
0.0000001
 43
0.0000001
 44
0.0000000001
 40
0.0
 40
0.0
 40
0.0
 40
0.0
 40
0.4492903664
 40
1.0
 40
1.0
 40
1.0
 40
1.0
 10
216.6226265582
 20
280.5276498022
 30
0.0
 10
216.6765827681
 20
280.5588336726
 30
0.0
 10
216.8242398929
 20
280.581243471
 30
0.0
 10
216.9564388121
 20
280.5262792703
 30
0.0
 10
217.0225921631
 20
280.4880864794
 30
0.0
  0
SPLINE
  5
4FB
100
AcDbEntity
  8
0
100
AcDbSpline
 62
7
  6
CONTINUOUS
 70
0
 71
3
 72
9
 73
5
 74
0
 42
0.0000001
 43
0.0000001
 44
0.0000000001
 40
0.0
 40
0.0
 40
0.0
 40
0.0
 40
0.2289654281
 40
1.0
 40
1.0
 40
1.0
 40
1.0
 10
218.2160645317
 20
279.7990504741
 30
0.0
 10
218.2655663028
 20
279.7704712599
 30
0.0
 10
218.4673046082
 20
279.6213645552
 30
0.0
 10
218.614867377
 20
279.4055428368
 30
0.0
 10
218.6901903169
 20
279.2284100473
 30
0.0
  0
SPLINE
  5
4FC
100
AcDbEntity
  8
0
100
AcDbSpline
 62
7
  6
CONTINUOUS
 70
0
 71
3
 72
9
 73
5
 74
0
 42
0.0000001
 43
0.0000001
 44
0.0000000001
 40
0.0
 40
0.0
 40
0.0
 40
0.0
 40
0.2668696552
 40
1.0
 40
1.0
 40
1.0
 40
1.0
 10
218.6901903169
 20
279.2284100473
 30
0.0
 10
218.7451138652
 20
279.0992493782
 30
0.0
 10
218.930013148
 20
278.6073371972
 30
0.0
 10
219.0335477977
 20
278.0796536233
 30
0.0
 10
219.0335477977
 20
277.6940821335
 30
0.0
  0
SPLINE
  5
4FD
100
AcDbEntity
  8
0
100
AcDbSpline
 62
7
  6
CONTINUOUS
 70
0
 71
3
 72
9
 73
5
 74
0
 42
0.0000001
 43
0.0000001
 44
0.0000000001
 40
0.0
 40
0.0
 40
0.0
 40
0.0
 40
0.4492903664
 40
1.0
 40
1.0
 40
1.0
 40
1.0
 10
229.2798906383
 20
273.2201402963
 30
0.0
 10
229.3338468483
 20
273.2513241666
 30
0.0
 10
229.4815039731
 20
273.2737339651
 30
0.0
 10
229.6137028922
 20
273.2187697644
 30
0.0
 10
229.6798562432
 20
273.1805769735
 30
0.0
  0
SPLINE
  5
4FE
100
AcDbEntity
  8
0
100
AcDbSpline
 62
7
  6
CONTINUOUS
 70
0
 71
3
 72
9
 73
5
 74
0
 42
0.0000001
 43
0.0000001
 44
0.0000000001
 40
0.0
 40
0.0
 40
0.0
 40
0.0
 40
0.4492903664
 40
1.0
 40
1.0
 40
1.0
 40
1.0
 10
241.9371547184
 20
265.9126307904
 30
0.0
 10
241.9911109284
 20
265.9438146607
 30
0.0
 10
242.1387680532
 20
265.9662244592
 30
0.0
 10
242.2709669724
 20
265.9112602585
 30
0.0
 10
242.3371203234
 20
265.8730674675
 30
0.0
  0
SPLINE
  5
4FF
100
AcDbEntity
  8
0
100
AcDbSpline
 62
7
  6
CONTINUOUS
 70
0
 71
3
 72
9
 73
5
 74
0
 42
0.0000001
 43
0.0000001
 44
0.0000000001
 40
0.0
 40
0.0
 40
0.0
 40
0.0
 40
0.2289654281
 40
1.0
 40
1.0
 40
1.0
 40
1.0
 10
78.9861596503
 20
360.1816550392
 30
0.0
 10
79.0356614213
 20
360.1530758249
 30
0.0
 10
79.2373997268
 20
360.0039691202
 30
0.0
 10
79.3849624956
 20
359.7881474018
 30
0.0
 10
79.4602854355
 20
359.6110146123
 30
0.0
  0
SPLINE
  5
500
100
AcDbEntity
  8
0
100
AcDbSpline
 62
7
  6
CONTINUOUS
 70
0
 71
3
 72
9
 73
5
 74
0
 42
0.0000001
 43
0.0000001
 44
0.0000000001
 40
0.0
 40
0.0
 40
0.0
 40
0.0
 40
0.2668696552
 40
1.0
 40
1.0
 40
1.0
 40
1.0
 10
79.4602854355
 20
359.6110146123
 30
0.0
 10
79.5152089837
 20
359.4818539432
 30
0.0
 10
79.7001082665
 20
358.9899417622
 30
0.0
 10
79.8036429163
 20
358.4622581883
 30
0.0
 10
79.8036429163
 20
358.0766866985
 30
0.0
  0
SPLINE
  5
501
100
AcDbEntity
  8
0
100
AcDbSpline
 62
7
  6
CONTINUOUS
 70
0
 71
3
 72
9
 73
5
 74
0
 42
0.0000001
 43
0.0000001
 44
0.0000000001
 40
0.0
 40
0.0
 40
0.0
 40
0.0
 40
0.2289654281
 40
1.0
 40
1.0
 40
1.0
 40
1.0
 10
230.8733286119
 20
272.4915409682
 30
0.0
 10
230.9228303829
 20
272.462961754
 30
0.0
 10
231.1245686883
 20
272.3138550493
 30
0.0
 10
231.2721314571
 20
272.0980333309
 30
0.0
 10
231.347454397
 20
271.9209005414
 30
0.0
  0
SPLINE
  5
502
100
AcDbEntity
  8
0
100
AcDbSpline
 62
7
  6
CONTINUOUS
 70
0
 71
3
 72
9
 73
5
 74
0
 42
0.0000001
 43
0.0000001
 44
0.0000000001
 40
0.0
 40
0.0
 40
0.0
 40
0.0
 40
0.2668696552
 40
1.0
 40
1.0
 40
1.0
 40
1.0
 10
231.347454397
 20
271.9209005414
 30
0.0
 10
231.4023779453
 20
271.7917398723
 30
0.0
 10
231.5872772281
 20
271.2998276913
 30
0.0
 10
231.6908118778
 20
270.7721441173
 30
0.0
 10
231.6908118778
 20
270.3865726275
 30
0.0
  0
SPLINE
  5
503
100
AcDbEntity
  8
0
100
AcDbSpline
 62
7
  6
CONTINUOUS
 70
0
 71
3
 72
9
 73
5
 74
0
 42
0.0000001
 43
0.0000001
 44
0.0000000001
 40
0.0
 40
0.0
 40
0.0
 40
0.0
 40
0.4492903664
 40
1.0
 40
1.0
 40
1.0
 40
1.0
 10
254.5944187986
 20
258.6051212845
 30
0.0
 10
254.6483750085
 20
258.6363051548
 30
0.0
 10
254.7960321333
 20
258.6587149532
 30
0.0
 10
254.9282310525
 20
258.6037507526
 30
0.0
 10
254.9943844035
 20
258.5655579616
 30
0.0
  0
SPLINE
  5
504
100
AcDbEntity
  8
0
100
AcDbSpline
 62
7
  6
CONTINUOUS
 70
0
 71
3
 72
9
 73
5
 74
0
 42
0.0000001
 43
0.0000001
 44
0.0000000001
 40
0.0
 40
0.0
 40
0.0
 40
0.0
 40
0.4492903664
 40
1.0
 40
1.0
 40
1.0
 40
1.0
 10
267.2516828787
 20
251.2976117786
 30
0.0
 10
267.3056390887
 20
251.3287956489
 30
0.0
 10
267.4532962135
 20
251.3512054473
 30
0.0
 10
267.5854951326
 20
251.2962412467
 30
0.0
 10
267.6516484836
 20
251.2580484557
 30
0.0
  0
SPLINE
  5
505
100
AcDbEntity
  8
0
100
AcDbSpline
 62
7
  6
CONTINUOUS
 70
0
 71
3
 72
9
 73
5
 74
0
 42
0.0000001
 43
0.0000001
 44
0.0000000001
 40
0.0
 40
0.0
 40
0.0
 40
0.0
 40
0.4492903664
 40
1.0
 40
1.0
 40
1.0
 40
1.0
 10
279.9089469589
 20
243.9901022726
 30
0.0
 10
279.9629031688
 20
244.021286143
 30
0.0
 10
280.1105602936
 20
244.0436959414
 30
0.0
 10
280.2427592128
 20
243.9887317408
 30
0.0
 10
280.3089125638
 20
243.9505389498
 30
0.0
  0
SPLINE
  5
506
100
AcDbEntity
  8
0
100
AcDbSpline
 62
7
  6
CONTINUOUS
 70
0
 71
3
 72
9
 73
5
 74
0
 42
0.0000001
 43
0.0000001
 44
0.0000000001
 40
0.0
 40
0.0
 40
0.0
 40
0.0
 40
0.2289654281
 40
1.0
 40
1.0
 40
1.0
 40
1.0
 10
243.530592692
 20
265.1840314623
 30
0.0
 10
243.580094463
 20
265.155452248
 30
0.0
 10
243.7818327685
 20
265.0063455433
 30
0.0
 10
243.9293955373
 20
264.7905238249
 30
0.0
 10
244.0047184772
 20
264.6133910355
 30
0.0
  0
SPLINE
  5
507
100
AcDbEntity
  8
0
100
AcDbSpline
 62
7
  6
CONTINUOUS
 70
0
 71
3
 72
9
 73
5
 74
0
 42
0.0000001
 43
0.0000001
 44
0.0000000001
 40
0.0
 40
0.0
 40
0.0
 40
0.0
 40
0.2668696552
 40
1.0
 40
1.0
 40
1.0
 40
1.0
 10
244.0047184772
 20
264.6133910355
 30
0.0
 10
244.0596420254
 20
264.4842303664
 30
0.0
 10
244.2445413082
 20
263.9923181853
 30
0.0
 10
244.348075958
 20
263.4646346114
 30
0.0
 10
244.348075958
 20
263.0790631216
 30
0.0
  0
SPLINE
  5
508
100
AcDbEntity
  8
0
100
AcDbSpline
 62
7
  6
CONTINUOUS
 70
0
 71
3
 72
9
 73
5
 74
0
 42
0.0000001
 43
0.0000001
 44
0.0000000001
 40
0.0
 40
0.0
 40
0.0
 40
0.0
 40
0.4492903664
 40
1.0
 40
1.0
 40
1.0
 40
1.0
 10
292.566211039
 20
236.6825927667
 30
0.0
 10
292.6201672489
 20
236.7137766371
 30
0.0
 10
292.7678243738
 20
236.7361864355
 30
0.0
 10
292.9000232929
 20
236.6812222348
 30
0.0
 10
292.9661766439
 20
236.6430294439
 30
0.0
  0
SPLINE
  5
509
100
AcDbEntity
  8
0
100
AcDbSpline
 62
7
  6
CONTINUOUS
 70
0
 71
3
 72
9
 73
5
 74
0
 42
0.0000001
 43
0.0000001
 44
0.0000000001
 40
0.0
 40
0.0
 40
0.0
 40
0.0
 40
0.4492903664
 40
1.0
 40
1.0
 40
1.0
 40
1.0
 10
305.2234751191
 20
229.3750832608
 30
0.0
 10
305.2774313291
 20
229.4062671312
 30
0.0
 10
305.4250884539
 20
229.4286769296
 30
0.0
 10
305.557287373
 20
229.3737127289
 30
0.0
 10
305.623440724
 20
229.335519938
 30
0.0
  0
SPLINE
  5
50A
100
AcDbEntity
  8
0
100
AcDbSpline
 62
7
  6
CONTINUOUS
 70
0
 71
3
 72
9
 73
5
 74
0
 42
0.0000001
 43
0.0000001
 44
0.0000000001
 40
0.0
 40
0.0
 40
0.0
 40
0.0
 40
0.2289654281
 40
1.0
 40
1.0
 40
1.0
 40
1.0
 10
256.1878567721
 20
257.8765219564
 30
0.0
 10
256.2373585431
 20
257.8479427421
 30
0.0
 10
256.4390968486
 20
257.6988360374
 30
0.0
 10
256.5866596174
 20
257.483014319
 30
0.0
 10
256.6619825573
 20
257.3058815295
 30
0.0
  0
SPLINE
  5
50B
100
AcDbEntity
  8
0
100
AcDbSpline
 62
7
  6
CONTINUOUS
 70
0
 71
3
 72
9
 73
5
 74
0
 42
0.0000001
 43
0.0000001
 44
0.0000000001
 40
0.0
 40
0.0
 40
0.0
 40
0.0
 40
0.2668696552
 40
1.0
 40
1.0
 40
1.0
 40
1.0
 10
256.6619825573
 20
257.3058815295
 30
0.0
 10
256.7169061056
 20
257.1767208605
 30
0.0
 10
256.9018053883
 20
256.6848086794
 30
0.0
 10
257.0053400381
 20
256.1571251055
 30
0.0
 10
257.0053400381
 20
255.7715536157
 30
0.0
  0
SPLINE
  5
50C
100
AcDbEntity
  8
0
100
AcDbSpline
 62
7
  6
CONTINUOUS
 70
0
 71
3
 72
9
 73
5
 74
0
 42
0.0000001
 43
0.0000001
 44
0.0000000001
 40
0.0
 40
0.0
 40
0.0
 40
0.0
 40
0.4492903664
 40
1.0
 40
1.0
 40
1.0
 40
1.0
 10
317.8807391992
 20
222.0675737549
 30
0.0
 10
317.9346954092
 20
222.0987576252
 30
0.0
 10
318.082352534
 20
222.1211674237
 30
0.0
 10
318.2145514532
 20
222.066203223
 30
0.0
 10
318.2807048042
 20
222.028010432
 30
0.0
  0
SPLINE
  5
50D
100
AcDbEntity
  8
0
100
AcDbSpline
 62
7
  6
CONTINUOUS
 70
0
 71
3
 72
9
 73
5
 74
0
 42
0.0000001
 43
0.0000001
 44
0.0000000001
 40
0.0
 40
0.0
 40
0.0
 40
0.0
 40
0.4492903664
 40
1.0
 40
1.0
 40
1.0
 40
1.0
 10
330.5380032794
 20
214.760064249
 30
0.0
 10
330.5919594893
 20
214.7912481193
 30
0.0
 10
330.7396166142
 20
214.8136579177
 30
0.0
 10
330.8718155333
 20
214.7586937171
 30
0.0
 10
330.9379688843
 20
214.7205009261
 30
0.0
  0
SPLINE
  5
50E
100
AcDbEntity
  8
0
100
AcDbSpline
 62
7
  6
CONTINUOUS
 70
0
 71
3
 72
9
 73
5
 74
0
 42
0.0000001
 43
0.0000001
 44
0.0000000001
 40
0.0
 40
0.0
 40
0.0
 40
0.0
 40
0.2289654281
 40
1.0
 40
1.0
 40
1.0
 40
1.0
 10
91.6434237304
 20
352.8741455333
 30
0.0
 10
91.6929255014
 20
352.845566319
 30
0.0
 10
91.8946638069
 20
352.6964596143
 30
0.0
 10
92.0422265757
 20
352.4806378959
 30
0.0
 10
92.1175495156
 20
352.3035051064
 30
0.0
  0
SPLINE
  5
50F
100
AcDbEntity
  8
0
100
AcDbSpline
 62
7
  6
CONTINUOUS
 70
0
 71
3
 72
9
 73
5
 74
0
 42
0.0000001
 43
0.0000001
 44
0.0000000001
 40
0.0
 40
0.0
 40
0.0
 40
0.0
 40
0.2289654281
 40
1.0
 40
1.0
 40
1.0
 40
1.0
 10
268.8451208522
 20
250.5690124505
 30
0.0
 10
268.8946226233
 20
250.5404332362
 30
0.0
 10
269.0963609287
 20
250.3913265315
 30
0.0
 10
269.2439236975
 20
250.1755048131
 30
0.0
 10
269.3192466374
 20
249.9983720236
 30
0.0
  0
SPLINE
  5
510
100
AcDbEntity
  8
0
100
AcDbSpline
 62
7
  6
CONTINUOUS
 70
0
 71
3
 72
9
 73
5
 74
0
 42
0.0000001
 43
0.0000001
 44
0.0000000001
 40
0.0
 40
0.0
 40
0.0
 40
0.0
 40
0.2668696552
 40
1.0
 40
1.0
 40
1.0
 40
1.0
 10
269.3192466374
 20
249.9983720236
 30
0.0
 10
269.3741701857
 20
249.8692113545
 30
0.0
 10
269.5590694685
 20
249.3772991735
 30
0.0
 10
269.6626041182
 20
248.8496155996
 30
0.0
 10
269.6626041182
 20
248.4640441098
 30
0.0
  0
SPLINE
  5
511
100
AcDbEntity
  8
0
100
AcDbSpline
 62
7
  6
CONTINUOUS
 70
0
 71
3
 72
9
 73
5
 74
0
 42
0.0000001
 43
0.0000001
 44
0.0000000001
 40
0.0
 40
0.0
 40
0.0
 40
0.0
 40
0.2668696552
 40
1.0
 40
1.0
 40
1.0
 40
1.0
 10
92.1175495156
 20
352.3035051064
 30
0.0
 10
92.1724730639
 20
352.1743444373
 30
0.0
 10
92.3573723466
 20
351.6824322563
 30
0.0
 10
92.4609069964
 20
351.1547486824
 30
0.0
 10
92.4609069964
 20
350.7691771926
 30
0.0
  0
SPLINE
  5
512
100
AcDbEntity
  8
0
100
AcDbSpline
 62
7
  6
CONTINUOUS
 70
0
 71
3
 72
9
 73
5
 74
0
 42
0.0000001
 43
0.0000001
 44
0.0000000001
 40
0.0
 40
0.0
 40
0.0
 40
0.0
 40
0.2289654281
 40
1.0
 40
1.0
 40
1.0
 40
1.0
 10
281.5023849324
 20
243.2615029446
 30
0.0
 10
281.5518867034
 20
243.2329237303
 30
0.0
 10
281.7536250089
 20
243.0838170256
 30
0.0
 10
281.9011877777
 20
242.8679953071
 30
0.0
 10
281.9765107176
 20
242.6908625176
 30
0.0
  0
SPLINE
  5
513
100
AcDbEntity
  8
0
100
AcDbSpline
 62
7
  6
CONTINUOUS
 70
0
 71
3
 72
9
 73
5
 74
0
 42
0.0000001
 43
0.0000001
 44
0.0000000001
 40
0.0
 40
0.0
 40
0.0
 40
0.0
 40
0.2668696552
 40
1.0
 40
1.0
 40
1.0
 40
1.0
 10
281.9765107176
 20
242.6908625176
 30
0.0
 10
282.0314342659
 20
242.5617018485
 30
0.0
 10
282.2163335486
 20
242.0697896675
 30
0.0
 10
282.3198681984
 20
241.5421060937
 30
0.0
 10
282.3198681984
 20
241.1565346039
 30
0.0
  0
ELLIPSE
  5
514
100
AcDbEntity
  8
0
100
AcDbEllipse
 62
7
  6
CONTINUOUS
 10
102.2199071367
 20
316.8986671948
 30
0.0
 11
-33.3028535874
 21
94.5847827585
 31
0.0
 40
0.4107605099
 41
0.8722652261
 42
0.882382234
  0
ENDSEC
  0
SECTION
  2
OBJECTS
  0
DICTIONARY
  5
C
100
AcDbDictionary
280
0
281
1
  3
ACAD_GROUP
350
D
  3
ACAD_MLINESTYLE
350
17
  3
ACAD_LAYOUT
350
1A
  3
ACAD_PLOTSETTINGS
350
19
  3
ACAD_PLOTSTYLENAME
350
E
  0
DICTIONARY
  5
D
102
{ACAD_REACTORS
330
C
102
}
100
AcDbDictionary
280
0
281
1
  0
ACDBDICTIONARYWDFLT
  5
E
102
{ACAD_REACTORS
330
C
102
}
100
AcDbDictionary
281
1
  3
Normal
350
F
100
AcDbDictionaryWithDefault
340
F
  0
DICTIONARY
  5
17
102
{ACAD_REACTORS
330
C
102
}
100
AcDbDictionary
280
0
281
1
  3
Standard
350
18
  0
DICTIONARY
  5
19
102
{ACAD_REACTORS
330
C
102
}
100
AcDbDictionary
281
1
  0
DICTIONARY
  5
1A
102
{ACAD_REACTORS
330
C
102
}
100
AcDbDictionary
281
1
  3
Model
350
515
  3
Layout1
350
516
  0
ACDBPLACEHOLDER
  5
F
102
{ACAD_REACTORS
330
E
102
}
  0
MLINESTYLE
  5
18
102
{ACAD_REACTORS
330
17
102
}
100
AcDbMlineStyle
  2
STANDARD
 70
0
  3

 62
256
 51
90.0
 52
90.0
 71
2
 49
0.5
 62
256
  6
BYLAYER
 49
-0.5
 62
256
  6
BYLAYER
  0
LAYOUT
  5
515
102
{ACAD_REACTORS
330
1A
102
}
100
AcDbPlotSettings
  1

  2
none_device
  4

  6

 40
0.0
 41
0.0
 42
0.0
 43
0.0
 44
210.0
 45
297.0
 46
0.0
 47
0.0
 48
0.0
 49
0.0
140
0.0
141
0.0
142
1.0
143
1.0
 70
1024
 72
1
 73
0
 74
0
  7

 75
0
147
1.0
148
0.0
149
0.0
100
AcDbLayout
  1
Model
 70
0
 71
0
 10
0.0
 20
0.0
 11
210.0
 21
297.0
 12
0.0
 22
0.0
 32
0.0
 14
0.0
 24
0.0
 34
0.0
 15
0.0
 25
0.0
 35
0.0
146
0.0
 13
0.0
 23
0.0
 33
0.0
 16
1.0
 26
0.0
 36
0.0
 17
0.0
 27
1.0
 37
0.0
 76
0
330
210
345
0
346
0
  0
LAYOUT
  5
516
102
{ACAD_REACTORS
330
1A
102
}
100
AcDbPlotSettings
  1

  2
none_device
  4

  6

 40
0.0
 41
0.0
 42
0.0
 43
0.0
 44
210.0
 45
297.0
 46
0.0
 47
0.0
 48
0.0
 49
0.0
140
0.0
141
0.0
142
1.0
143
1.0
 70
0
 72
1
 73
0
 74
0
  7

 75
0
147
1.0
148
0.0
149
0.0
100
AcDbLayout
  1
Layout1
 70
0
 71
1
 10
0.0
 20
0.0
 11
210.0
 21
297.0
 12
0.0
 22
0.0
 32
0.0
 14
0.0
 24
0.0
 34
0.0
 15
0.0
 25
0.0
 35
0.0
146
0.0
 13
0.0
 23
0.0
 33
0.0
 16
1.0
 26
0.0
 36
0.0
 17
0.0
 27
1.0
 37
0.0
 76
0
330
211
345
0
346
0
  0
ENDSEC
  0
EOF
