999
DXF file: C:\Users\sesa63760\Dev\_Creo\CAD\MCADPP0003092_3D-CAD\drw0001_1.dxf
999
Pro/ENGINEER 2019471 by Parametric Technology Corporation
  0
SECTION
  2
HEADER
  9
$ACADVER
  1
AC1024
  9
$DWGCODEPAGE
  3
ANSI_1252
  9
$EXTMAX
 10
100.9341290508
 20
142.7496968004
 30
0.0
  9
$EXTMIN
 10
0.0
 20
0.0
 30
0.0
  9
$LIMMIN
 10
0.0
 20
0.0
  9
$LIMMAX
 10
100.9341290508
 20
142.7496968004
  9
$VIEWCTR
 10
50.4670645254
 20
71.3748484002
  9
$VIEWSIZE
 40
142.7496968004
  9
$CLAYER
  8
0
  9
$LTSCALE
 40
9.3051654211
  9
$CELTYPE
  6
BYLAYER
  9
$DIMSCALE
 40
1.0
  9
$DIMASZ
 40
1.2015967744
  9
$DIMEXO
 40
1.0
  9
$DIMDLI
 40
6.4290233818
  9
$DIMEXE
 40
1.0
  9
$DIMCEN
 40
1.5226634325
  9
$DIMLFAC
 40
1.0
  9
$DIMBLK
  1
_FILLED
  9
$DIMALT
 70
0
  9
$DIMALTF
 40
0.0393700787
  9
$DIMTXT
 40
1.6822354842
  9
$DIMTOL
 70
1
  9
$DIMLIM
 70
0
  9
$DIMTFAC
 40
1.0
  9
$DIMTP
 40
0.01
  9
$DIMTM
 40
0.01
  9
$DIMGAP
 40
0.625
  9
$DIMDSEP
 70
46
  9
$AUNITS
 70
0
  9
$PDMODE
 70
3
  9
$PDSIZE
 40
0.3125
  9
$HANDSEED
  5
2FC
  9
$TILEMODE
 70
1
  9
$MEASUREMENT
 70
1
  9
$INSUNITS
 70
4
  0
ENDSEC
  0
SECTION
  2
CLASSES
  0
CLASS
  1
ACDBDICTIONARYWDFLT
  2
AcDbDictionaryWithDefault
  3
AutoCAD 2000
 90
0
 91
1
280
0
281
0
  0
CLASS
  1
ACDBPLACEHOLDER
  2
AcDbPlaceHolder
  3
AutoCAD 2000
 90
0
 91
1
280
0
281
0
  0
CLASS
  1
LAYOUT
  2
AcDbLayout
  3
AutoCAD 2000
 90
0
 91
0
280
0
281
0
  0
ENDSEC
  0
SECTION
  2
TABLES
  0
TABLE
  2
VPORT
  5
8
100
AcDbSymbolTable
 70
2
  0
VPORT
  5
1F4
100
AcDbSymbolTableRecord
100
AcDbViewportTableRecord
  2
*ACTIVE
 70
0
 10
0.0
 20
0.0
 11
1.0
 21
1.0
 12
50.4670645254
 22
71.3748484002
 13
0.0
 23
0.0
 14
1.0
 24
1.0
 15
0.0
 25
0.0
 16
0.0
 26
0.0
 36
1.0
 17
0.0
 27
0.0
 37
0.0
 40
142.7496968004
 41
0.7070707071
 42
50.0
 43
0.0
 44
0.0
 50
0.0
 51
0.0
 71
0
 72
100
 73
1
 74
1
 75
0
 76
0
 77
0
 78
0
  0
ENDTAB
  0
TABLE
  2
LTYPE
  5
5
100
AcDbSymbolTable
 70
6
  0
LTYPE
  5
14
100
AcDbSymbolTableRecord
100
AcDbLinetypeTableRecord
  2
BYBLOCK
 70
0
  3

 72
65
 73
0
 40
0.0
  0
LTYPE
  5
15
100
AcDbSymbolTableRecord
100
AcDbLinetypeTableRecord
  2
BYLAYER
 70
0
  3

 72
65
 73
0
 40
0.0
  0
LTYPE
  5
16
100
AcDbSymbolTableRecord
100
AcDbLinetypeTableRecord
  2
CONTINUOUS
 70
64
  3
Solid line
 72
65
 73
0
 40
0.0
  0
LTYPE
  5
1F5
100
AcDbSymbolTableRecord
100
AcDbLinetypeTableRecord
  2
CENTER
 70
64
  3
____ _ ____ _ ____ _ ____ _ ____ _ ____ _ ____
 72
65
 73
4
 40
0.6
 49
0.375
 74
0
 49
-0.075
 74
0
 49
0.075
 74
0
 49
-0.075
 74
0
  0
LTYPE
  5
1F6
100
AcDbSymbolTableRecord
100
AcDbLinetypeTableRecord
  2
HIDDEN
 70
64
  3
- - - - - - - - - - - - - - - - - - - -
 72
65
 73
2
 40
0.2
 49
0.1
 74
0
 49
-0.1
 74
0
  0
LTYPE
  5
1F7
100
AcDbSymbolTableRecord
100
AcDbLinetypeTableRecord
  2
PHANTOM
 70
64
  3
_____ _ _ _____ _ _ _____ _ _ _____
 72
65
 73
6
 40
0.8
 49
0.45
 74
0
 49
-0.05
 74
0
 49
0.1
 74
0
 49
-0.05
 74
0
 49
0.1
 74
0
 49
-0.05
 74
0
  0
LTYPE
  5
1F8
100
AcDbSymbolTableRecord
100
AcDbLinetypeTableRecord
  2
DOT
 70
64
  3
. . . . . . . . . . . . . . . . . . . .
 72
65
 73
2
 40
0.2
 49
0.1
 74
0
 49
-0.1
 74
0
  0
LTYPE
  5
1F9
100
AcDbSymbolTableRecord
100
AcDbLinetypeTableRecord
  2
DASHED
 70
64
  3
- - - - - - - - - - - - - - - - - - - -
 72
65
 73
2
 40
0.2
 49
0.1
 74
0
 49
-0.1
 74
0
  0
ENDTAB
  0
TABLE
  2
LAYER
  5
2
100
AcDbSymbolTable
 70
36
  0
LAYER
  5
10
100
AcDbSymbolTableRecord
100
AcDbLayerTableRecord
  2
0
 70
0
 62
7
  6
CONTINUOUS
370
-3
390
F
  0
LAYER
  5
1FA
100
AcDbSymbolTableRecord
100
AcDbLayerTableRecord
  2
DEFAULT_1
 70
0
 62
7
  6
CENTER
370
-3
390
F
  0
LAYER
  5
1FB
100
AcDbSymbolTableRecord
100
AcDbLayerTableRecord
  2
DEFAULT_2
 70
0
 62
8
  6
HIDDEN
370
-3
390
F
  0
LAYER
  5
1FC
100
AcDbSymbolTableRecord
100
AcDbLayerTableRecord
  2
DEFAULT_3
 70
0
 62
7
  6
PHANTOM
370
-3
390
F
  0
LAYER
  5
1FD
100
AcDbSymbolTableRecord
100
AcDbLayerTableRecord
  2
00_COMPONENTS
 70
0
 62
7
  6
CONTINUOUS
370
-3
390
F
  0
LAYER
  5
1FE
100
AcDbSymbolTableRecord
100
AcDbLayerTableRecord
  2
01_1_DEFAULT_DATUMS
 70
0
 62
7
  6
CONTINUOUS
370
-3
390
F
  0
LAYER
  5
1FF
100
AcDbSymbolTableRecord
100
AcDbLayerTableRecord
  2
01_PLANES
 70
0
 62
7
  6
CONTINUOUS
370
-3
390
F
  0
LAYER
  5
200
100
AcDbSymbolTableRecord
100
AcDbLayerTableRecord
  2
02_COORD_SYS
 70
0
 62
7
  6
CONTINUOUS
370
-3
390
F
  0
LAYER
  5
201
100
AcDbSymbolTableRecord
100
AcDbLayerTableRecord
  2
03_AXES
 70
0
 62
7
  6
CONTINUOUS
370
-3
390
F
  0
LAYER
  5
202
100
AcDbSymbolTableRecord
100
AcDbLayerTableRecord
  2
04_POINTS
 70
0
 62
7
  6
CONTINUOUS
370
-3
390
F
  0
LAYER
  5
203
100
AcDbSymbolTableRecord
100
AcDbLayerTableRecord
  2
05_CURVES
 70
0
 62
7
  6
CONTINUOUS
370
-3
390
F
  0
LAYER
  5
204
100
AcDbSymbolTableRecord
100
AcDbLayerTableRecord
  2
06_SURFS
 70
0
 62
7
  6
CONTINUOUS
370
-3
390
F
  0
LAYER
  5
205
100
AcDbSymbolTableRecord
100
AcDbLayerTableRecord
  2
07_COSMETICS
 70
0
 62
7
  6
CONTINUOUS
370
-3
390
F
  0
LAYER
  5
206
100
AcDbSymbolTableRecord
100
AcDbLayerTableRecord
  2
10_NOTES
 70
0
 62
7
  6
CONTINUOUS
370
-3
390
F
  0
LAYER
  5
207
100
AcDbSymbolTableRecord
100
AcDbLayerTableRecord
  2
11_NOTES_PUB
 70
0
 62
7
  6
CONTINUOUS
370
-3
390
F
  0
LAYER
  5
208
100
AcDbSymbolTableRecord
100
AcDbLayerTableRecord
  2
13_REF_GTOL
 70
0
 62
7
  6
CONTINUOUS
370
-3
390
F
  0
LAYER
  5
209
100
AcDbSymbolTableRecord
100
AcDbLayerTableRecord
  2
16_MISC
 70
0
 62
7
  6
CONTINUOUS
370
-3
390
F
  0
LAYER
  5
20A
100
AcDbSymbolTableRecord
100
AcDbLayerTableRecord
  2
17_NO_PRINT
 70
0
 62
7
  6
CONTINUOUS
370
-3
390
F
  0
LAYER
  5
20B
100
AcDbSymbolTableRecord
100
AcDbLayerTableRecord
  2
18_DATUM_CAMS_JOINTS
 70
0
 62
7
  6
CONTINUOUS
370
-3
390
F
  0
LAYER
  5
20C
100
AcDbSymbolTableRecord
100
AcDbLayerTableRecord
  2
19_DATUM_FUNCTIONAL
 70
0
 62
7
  6
CONTINUOUS
370
-3
390
F
  0
LAYER
  5
20D
100
AcDbSymbolTableRecord
100
AcDbLayerTableRecord
  2
20_DATUM_KINEMATIC_SCHEME
 70
0
 62
7
  6
CONTINUOUS
370
-3
390
F
  0
LAYER
  5
20E
100
AcDbSymbolTableRecord
100
AcDbLayerTableRecord
  2
SHELL1
 70
0
 62
7
  6
CONTINUOUS
370
-3
390
F
  0
ENDTAB
  0
TABLE
  2
STYLE
  5
3
100
AcDbSymbolTable
 70
1
  0
STYLE
  5
11
100
AcDbSymbolTableRecord
100
AcDbTextStyleTableRecord
  2
STANDARD
 70
0
 40
0.0
 41
0.8
 50
0.0
 71
0
 42
0.2
  3
txt
  4

  0
STYLE
  5
20F
100
AcDbSymbolTableRecord
100
AcDbTextStyleTableRecord
  2
TEXTSTYLE_1
 70
0
 40
0.0
 41
0.8
 50
0.0
 71
0
 42
0.2
  3
gdt
  4

  0
ENDTAB
  0
TABLE
  2
VIEW
  5
6
100
AcDbSymbolTable
 70
0
  0
ENDTAB
  0
TABLE
  2
UCS
  5
7
100
AcDbSymbolTable
 70
0
  0
ENDTAB
  0
TABLE
  2
APPID
  5
9
100
AcDbSymbolTable
 70
1
  0
APPID
  5
210
100
AcDbSymbolTableRecord
100
AcDbRegAppTableRecord
  2
ACAD
 70
0
  0
ENDTAB
  0
TABLE
  2
BLOCK_RECORD
  5
1
100
AcDbSymbolTable
 70
0
  0
BLOCK_RECORD
  5
211
100
AcDbSymbolTableRecord
100
AcDbBlockTableRecord
  2
*Model_Space
  0
BLOCK_RECORD
  5
212
100
AcDbSymbolTableRecord
100
AcDbBlockTableRecord
  2
*Paper_Space
  0
BLOCK_RECORD
  5
213
100
AcDbSymbolTableRecord
100
AcDbBlockTableRecord
  2
_FILLED
  0
ENDTAB
  0
TABLE
  2
DIMSTYLE
  5
A
100
AcDbSymbolTable
 70
1
100
AcDbDimStyleTable
 71
0
  0
DIMSTYLE
105
214
100
AcDbSymbolTableRecord
100
AcDbDimStyleTableRecord
  2
STANDARD
 70
0
  3

  4

 40
1.0
 41
1.2015967744
 42
1.0
 43
0.38
 44
1.0
 45
0.0
 46
0.0
 47
0.01
 48
0.01
140
1.6822354842
141
0.09
142
0.0
143
25.4
144
1.0
145
0.0
146
1.0
147
0.625
 71
1
 72
0
 73
0
 74
0
 75
0
 76
0
 77
1
 78
8
 79
2
170
0
171
1
172
0
173
0
174
0
175
0
176
0
177
0
178
0
270
2
179
2
271
2
272
2
273
2
274
2
275
0
280
0
281
0
282
0
283
1
284
8
285
0
286
0
287
3
288
0
340
11
278
46
341
213
342
213
343
213
344
213
  0
ENDTAB
  0
ENDSEC
  0
SECTION
  2
BLOCKS
  0
BLOCK
  5
20
100
AcDbEntity
  8
0
100
AcDbBlockBegin
  2
*Model_Space
 70
0
 10
0.0
 20
0.0
 30
0.0
  3
*Model_Space
  1

  0
ENDBLK
  5
21
100
AcDbEntity
  8
0
100
AcDbBlockEnd
  0
BLOCK
  5
1C
100
AcDbEntity
  8
0
100
AcDbBlockBegin
  2
*Paper_Space
 70
0
 10
0.0
 20
0.0
 30
0.0
  3
*Paper_Space
  1

  0
ENDBLK
  5
1D
100
AcDbEntity
  8
0
100
AcDbBlockEnd
  0
BLOCK
  5
215
100
AcDbEntity
  8
0
100
AcDbBlockBegin
  2
_FILLED
 70
64
 10
0.0
 20
0.0
  3
_FILLED
  1

  0
SOLID
  5
216
100
AcDbEntity
  8
0
  6
BYBLOCK
 62
0
100
AcDbTrace
 10
0.0
 20
0.0
 11
-1.0
 21
0.25
 12
-1.0
 22
-0.25
 13
-1.0
 23
-0.25
  0
ENDBLK
  5
217
100
AcDbEntity
  8
0
  6
BYBLOCK
 62
0
100
AcDbBlockEnd
  0
ENDSEC
  0
SECTION
  2
ENTITIES
  0
LINE
  5
218
100
AcDbEntity
  8
0
100
AcDbLine
 62
7
  6
CONTINUOUS
 10
11.7095202446
 20
85.246045186
 11
11.7095202446
 21
86.0245569734
  0
LINE
  5
219
100
AcDbEntity
  8
0
100
AcDbLine
 62
7
  6
CONTINUOUS
 10
12.830289159
 20
56.0242334817
 11
12.830289159
 21
81.4746138236
  0
LINE
  5
21A
100
AcDbEntity
  8
0
100
AcDbLine
 62
7
  6
CONTINUOUS
 10
14.3576461653
 20
80.5928137939
 11
14.3576461653
 21
55.1424334519
  0
LINE
  5
21B
100
AcDbEntity
  8
0
100
AcDbLine
 62
7
  6
CONTINUOUS
 10
15.4918481979
 20
84.3177087412
 11
15.4918481979
 21
84.1135831369
  0
LINE
  5
21C
100
AcDbEntity
  8
0
100
AcDbLine
 62
7
  6
CONTINUOUS
 10
29.298845218
 20
46.5162187652
 11
24.2359690256
 21
49.4393101113
  0
LINE
  5
21D
100
AcDbEntity
  8
0
100
AcDbLine
 62
7
  6
CONTINUOUS
 10
17.8931653514
 20
53.1011421357
 11
12.830289159
 21
56.0242334817
  0
LINE
  5
21E
100
AcDbEntity
  8
0
100
AcDbLine
 62
7
  6
CONTINUOUS
 10
35.6416488922
 20
42.8543867409
 11
40.7045250846
 21
39.9312953948
  0
LINE
  5
21F
100
AcDbEntity
  8
0
100
AcDbLine
 62
7
  6
CONTINUOUS
 10
47.0473287588
 20
36.2694633705
 11
52.1102049512
 21
33.3463720244
  0
LINE
  5
220
100
AcDbEntity
  8
0
100
AcDbLine
 62
7
  6
CONTINUOUS
 10
11.7095202446
 20
85.246045186
 11
12.830289159
 21
81.4746138236
  0
LINE
  5
221
100
AcDbEntity
  8
0
100
AcDbLine
 62
7
  6
CONTINUOUS
 10
11.7095202446
 20
86.0245569734
 11
19.2446586442
 21
90.3749451885
  0
LINE
  5
222
100
AcDbEntity
  8
0
100
AcDbLine
 62
7
  6
CONTINUOUS
 10
45.2712568639
 20
105.4013189814
 11
52.8063952635
 21
109.7517071964
  0
LINE
  5
223
100
AcDbEntity
  8
0
100
AcDbLine
 62
7
  6
CONTINUOUS
 10
15.4918481979
 20
84.3177087412
 11
21.4187925614
 21
87.7396112389
  0
LINE
  5
224
100
AcDbEntity
  8
0
100
AcDbLine
 62
7
  6
CONTINUOUS
 10
50.1894334899
 20
104.3502493717
 11
56.1163778535
 21
107.7721518694
  0
LINE
  5
225
100
AcDbEntity
  8
0
100
AcDbLine
 62
7
  6
CONTINUOUS
 10
22.8747147402
 20
74.7037136283
 11
22.8747147402
 21
63.2726797885
  0
LINE
  5
226
100
AcDbEntity
  8
0
100
AcDbLine
 62
7
  6
CONTINUOUS
 10
23.5741123563
 20
79.651516917
 11
23.5741123563
 21
79.4473913127
  0
LINE
  5
227
100
AcDbEntity
  8
0
100
AcDbLine
 62
7
  6
CONTINUOUS
 10
23.6101349968
 20
81.8100446333
 11
23.6101349968
 21
85.1713632269
  0
LINE
  5
228
100
AcDbEntity
  8
0
100
AcDbLine
 62
7
  6
CONTINUOUS
 10
24.2359690256
 20
49.4393101113
 11
24.2359690256
 21
74.8896904532
  0
LINE
  5
229
100
AcDbEntity
  8
0
100
AcDbLine
 62
7
  6
CONTINUOUS
 10
25.0526388361
 20
84.3385520877
 11
25.0526388361
 21
82.2351347455
  0
LINE
  5
22A
100
AcDbEntity
  8
0
100
AcDbLine
 62
7
  6
CONTINUOUS
 10
25.7633260319
 20
74.0078904235
 11
25.7633260319
 21
48.5575100815
  0
LINE
  5
22B
100
AcDbEntity
  8
0
100
AcDbLine
 62
7
  6
CONTINUOUS
 10
46.1755383624
 20
99.1178777481
 11
25.1385006832
 21
86.9722108809
  0
LINE
  5
22C
100
AcDbEntity
  8
0
100
AcDbLine
 62
7
  6
CONTINUOUS
 10
38.1344991913
 20
93.2461373602
 11
37.6001717275
 21
92.9376344348
  0
LINE
  5
22D
100
AcDbEntity
  8
0
100
AcDbLine
 62
7
  6
CONTINUOUS
 10
26.8975280645
 20
77.7327853708
 11
26.8975280645
 21
77.5286597665
  0
LINE
  5
22E
100
AcDbEntity
  8
0
100
AcDbLine
 62
7
  6
CONTINUOUS
 10
29.5010567198
 20
83.0734194148
 11
29.5010567198
 21
82.8692938105
  0
LINE
  5
22F
100
AcDbEntity
  8
0
100
AcDbLine
 62
7
  6
CONTINUOUS
 10
22.5584337004
 20
74.9171066041
 11
21.4451668751
 21
76.5009243751
  0
LINE
  5
230
100
AcDbEntity
  8
0
100
AcDbLine
 62
7
  6
CONTINUOUS
 10
64.1986420119
 20
103.1059600452
 11
58.2716976484
 21
99.6840575475
  0
LINE
  5
231
100
AcDbEntity
  8
0
100
AcDbLine
 62
7
  6
CONTINUOUS
 10
29.5010567198
 20
83.0734194148
 11
23.5741123563
 21
79.651516917
  0
LINE
  5
232
100
AcDbEntity
  8
0
100
AcDbLine
 62
7
  6
CONTINUOUS
 10
23.5741123563
 20
79.4473913127
 11
29.5010567198
 21
82.8692938105
  0
LINE
  5
233
100
AcDbEntity
  8
0
100
AcDbLine
 62
7
  6
CONTINUOUS
 10
58.2716976484
 20
99.4799319432
 11
64.1986420119
 21
102.901834441
  0
LINE
  5
234
100
AcDbEntity
  8
0
100
AcDbLine
 62
7
  6
CONTINUOUS
 10
22.8747147402
 20
63.2726797885
 11
24.2359690256
 21
62.4867770398
  0
LINE
  5
235
100
AcDbEntity
  8
0
100
AcDbLine
 62
7
  6
CONTINUOUS
 10
34.2803946068
 20
56.6877564181
 11
35.6416488922
 21
55.9018536694
  0
LINE
  5
236
100
AcDbEntity
  8
0
100
AcDbLine
 62
7
  6
CONTINUOUS
 10
45.6860744734
 20
50.1028330476
 11
47.0473287588
 21
49.316930299
  0
LINE
  5
237
100
AcDbEntity
  8
0
100
AcDbLine
 62
7
  6
CONTINUOUS
 10
34.2803946068
 20
68.1187902579
 11
34.2803946068
 21
56.6877564181
  0
LINE
  5
238
100
AcDbEntity
  8
0
100
AcDbLine
 62
7
  6
CONTINUOUS
 10
34.9797922229
 20
73.0665935466
 11
34.9797922229
 21
72.8624679423
  0
LINE
  5
239
100
AcDbEntity
  8
0
100
AcDbLine
 62
7
  6
CONTINUOUS
 10
35.0158148634
 20
75.2251212629
 11
35.0158148634
 21
78.5864398565
  0
LINE
  5
23A
100
AcDbEntity
  8
0
100
AcDbLine
 62
7
  6
CONTINUOUS
 10
35.6416488922
 20
42.8543867409
 11
35.6416488922
 21
68.3047670828
  0
LINE
  5
23B
100
AcDbEntity
  8
0
100
AcDbLine
 62
7
  6
CONTINUOUS
 10
36.4583187027
 20
77.7536287173
 11
36.4583187027
 21
75.6502113751
  0
LINE
  5
23C
100
AcDbEntity
  8
0
100
AcDbLine
 62
7
  6
CONTINUOUS
 10
36.6702451049
 20
87.9963174733
 11
36.6702451049
 21
91.6414700392
  0
LINE
  5
23D
100
AcDbEntity
  8
0
100
AcDbLine
 62
7
  6
CONTINUOUS
 10
26.8975280645
 20
77.7327853708
 11
32.824472428
 21
81.1546878685
  0
LINE
  5
23E
100
AcDbEntity
  8
0
100
AcDbLine
 62
7
  6
CONTINUOUS
 10
61.5951133566
 20
97.7653260012
 11
67.5220577201
 21
101.187228499
  0
LINE
  5
23F
100
AcDbEntity
  8
0
100
AcDbLine
 62
7
  6
CONTINUOUS
 10
22.9013819171
 20
74.7191098381
 11
22.8747147402
 21
74.7037136283
  0
LINE
  5
240
100
AcDbEntity
  8
0
100
AcDbLine
 62
7
  6
CONTINUOUS
 10
67.7089156002
 20
42.3522380588
 11
67.7796265727
 21
42.3114139834
  0
LINE
  5
241
100
AcDbEntity
  8
0
100
AcDbLine
 62
7
  6
CONTINUOUS
 10
68.4867362978
 20
43.5361780631
 11
67.7089156002
 21
43.9852428931
  0
LINE
  5
242
100
AcDbEntity
  8
0
100
AcDbLine
 62
7
  6
CONTINUOUS
 10
33.964113567
 20
68.3321832337
 11
32.8508467417
 21
69.9160010047
  0
LINE
  5
243
100
AcDbEntity
  8
0
100
AcDbLine
 62
7
  6
CONTINUOUS
 10
37.1690058985
 20
67.422967053
 11
37.1690058985
 21
41.9725867111
  0
LINE
  5
244
100
AcDbEntity
  8
0
100
AcDbLine
 62
7
  6
CONTINUOUS
 10
38.3032079311
 20
71.1478620004
 11
38.3032079311
 21
70.9437363961
  0
LINE
  5
245
100
AcDbEntity
  8
0
100
AcDbLine
 62
7
  6
CONTINUOUS
 10
49.540179058
 20
86.6612139898
 11
49.0058515942
 21
86.3527110644
  0
LINE
  5
246
100
AcDbEntity
  8
0
100
AcDbLine
 62
7
  6
CONTINUOUS
 10
70.537330949
 20
45.6182195086
 11
71.3151516467
 21
45.1691546786
  0
LINE
  5
247
100
AcDbEntity
  8
0
100
AcDbLine
 62
7
  6
CONTINUOUS
 10
47.0473287588
 20
60.7479641388
 11
45.6860744734
 21
61.5338668875
  0
LINE
  5
248
100
AcDbEntity
  8
0
100
AcDbLine
 62
7
  6
CONTINUOUS
 10
35.6416488922
 20
67.3328875092
 11
34.2803946068
 21
68.1187902579
  0
LINE
  5
249
100
AcDbEntity
  8
0
100
AcDbLine
 62
7
  6
CONTINUOUS
 10
24.2359690256
 20
73.9178108797
 11
22.8747147402
 21
74.7037136283
  0
LINE
  5
24A
100
AcDbEntity
  8
0
100
AcDbLine
 62
7
  6
CONTINUOUS
 10
22.5584337004
 20
74.9171066041
 11
24.2359690256
 21
73.948603043
  0
LINE
  5
24B
100
AcDbEntity
  8
0
100
AcDbLine
 62
7
  6
CONTINUOUS
 10
33.964113567
 20
68.3321832337
 11
35.6416488922
 21
67.3636796726
  0
LINE
  5
24C
100
AcDbEntity
  8
0
100
AcDbLine
 62
7
  6
CONTINUOUS
 10
45.3697934336
 20
61.7472598633
 11
47.0473287588
 21
60.7787563022
  0
LINE
  5
24D
100
AcDbEntity
  8
0
100
AcDbLine
 62
7
  6
CONTINUOUS
 10
47.0473287588
 20
61.7198437124
 11
37.1690058985
 21
67.422967053
  0
LINE
  5
24E
100
AcDbEntity
  8
0
100
AcDbLine
 62
7
  6
CONTINUOUS
 10
35.6416488922
 20
68.3047670828
 11
25.7633260319
 21
74.0078904235
  0
LINE
  5
24F
100
AcDbEntity
  8
0
100
AcDbLine
 62
7
  6
CONTINUOUS
 10
24.2359690256
 20
74.8896904532
 11
14.3576461653
 21
80.5928137939
  0
LINE
  5
250
100
AcDbEntity
  8
0
100
AcDbLine
 62
7
  6
CONTINUOUS
 10
40.9067365864
 20
76.4884960444
 11
40.9067365864
 21
76.2843704401
  0
LINE
  5
251
100
AcDbEntity
  8
0
100
AcDbLine
 62
7
  6
CONTINUOUS
 10
43.0202451049
 20
87.9963174733
 11
43.0202451049
 21
91.6414700392
  0
LINE
  5
252
100
AcDbEntity
  8
0
100
AcDbLine
 62
7
  6
CONTINUOUS
 10
45.2406769258
 20
104.6051519639
 11
45.2712568639
 21
105.4013189814
  0
LINE
  5
253
100
AcDbEntity
  8
0
100
AcDbLine
 62
7
  6
CONTINUOUS
 10
75.6043218785
 20
96.5210366748
 11
69.677377515
 21
93.0991341771
  0
LINE
  5
254
100
AcDbEntity
  8
0
100
AcDbLine
 62
7
  6
CONTINUOUS
 10
40.9067365864
 20
76.4884960444
 11
34.9797922229
 21
73.0665935466
  0
LINE
  5
255
100
AcDbEntity
  8
0
100
AcDbLine
 62
7
  6
CONTINUOUS
 10
34.9797922229
 20
72.8624679423
 11
40.9067365864
 21
76.2843704401
  0
LINE
  5
256
100
AcDbEntity
  8
0
100
AcDbLine
 62
7
  6
CONTINUOUS
 10
69.677377515
 20
92.8950085728
 11
75.6043218785
 21
96.3169110705
  0
LINE
  5
257
100
AcDbEntity
  8
0
100
AcDbLine
 62
7
  6
CONTINUOUS
 10
49.6954546795
 20
64.0938636406
 11
11.7095202446
 21
86.0245569734
  0
LINE
  5
258
100
AcDbEntity
  8
0
100
AcDbLine
 62
7
  6
CONTINUOUS
 10
15.4918481979
 20
84.1135831369
 11
23.5741123563
 21
79.4473913127
  0
LINE
  5
259
100
AcDbEntity
  8
0
100
AcDbLine
 62
7
  6
CONTINUOUS
 10
26.8975280645
 20
77.5286597665
 11
34.9797922229
 21
72.8624679423
  0
LINE
  5
25A
100
AcDbEntity
  8
0
100
AcDbLine
 62
7
  6
CONTINUOUS
 10
38.3032079311
 20
70.9437363961
 11
46.3854720895
 21
66.2775445719
  0
LINE
  5
25B
100
AcDbEntity
  8
0
100
AcDbLine
 62
7
  6
CONTINUOUS
 10
45.3697934336
 20
61.7472598633
 11
44.2565266083
 21
63.3310776343
  0
LINE
  5
25C
100
AcDbEntity
  8
0
100
AcDbLine
 62
7
  6
CONTINUOUS
 10
45.6860744734
 20
61.5338668875
 11
45.6860744734
 21
50.1028330476
  0
LINE
  5
25D
100
AcDbEntity
  8
0
100
AcDbLine
 62
7
  6
CONTINUOUS
 10
46.3854720895
 20
66.4816701762
 11
46.3854720895
 21
66.2775445719
  0
LINE
  5
25E
100
AcDbEntity
  8
0
100
AcDbLine
 62
7
  6
CONTINUOUS
 10
46.42149473
 20
68.6401978925
 11
46.42149473
 21
72.0015164861
  0
LINE
  5
25F
100
AcDbEntity
  8
0
100
AcDbLine
 62
7
  6
CONTINUOUS
 10
47.0473287588
 20
36.2694633705
 11
47.0473287588
 21
61.7198437124
  0
LINE
  5
260
100
AcDbEntity
  8
0
100
AcDbLine
 62
7
  6
CONTINUOUS
 10
47.8639985693
 20
71.1687053468
 11
47.8639985693
 21
69.0652880047
  0
LINE
  5
261
100
AcDbEntity
  8
0
100
AcDbLine
 62
7
  6
CONTINUOUS
 10
48.0759249715
 20
81.4113941029
 11
48.0759249715
 21
85.0565466688
  0
LINE
  5
262
100
AcDbEntity
  8
0
100
AcDbLine
 62
7
  6
CONTINUOUS
 10
46.1755383624
 20
99.1178777481
 11
46.2387206156
 21
100.762865583
  0
LINE
  5
263
100
AcDbEntity
  8
0
100
AcDbLine
 62
7
  6
CONTINUOUS
 10
38.3032079311
 20
71.1478620004
 11
44.2301522946
 21
74.5697644981
  0
LINE
  5
264
100
AcDbEntity
  8
0
100
AcDbLine
 62
7
  6
CONTINUOUS
 10
73.0007932232
 20
91.1804026308
 11
78.9277375867
 21
94.6023051286
  0
LINE
  5
265
100
AcDbEntity
  8
0
100
AcDbLine
 62
7
  6
CONTINUOUS
 10
34.3070617837
 20
68.1341864677
 11
34.2803946068
 21
68.1187902579
  0
LINE
  5
266
100
AcDbEntity
  8
0
100
AcDbLine
 62
7
  6
CONTINUOUS
 10
46.3854720895
 20
66.4816701762
 11
38.3032079311
 21
71.1478620004
  0
LINE
  5
267
100
AcDbEntity
  8
0
100
AcDbLine
 62
7
  6
CONTINUOUS
 10
34.9797922229
 20
73.0665935466
 11
26.8975280645
 21
77.7327853708
  0
LINE
  5
268
100
AcDbEntity
  8
0
100
AcDbLine
 62
7
  6
CONTINUOUS
 10
23.5741123563
 20
79.651516917
 11
15.4918481979
 21
84.3177087412
  0
LINE
  5
269
100
AcDbEntity
  8
0
100
AcDbLine
 62
7
  6
CONTINUOUS
 10
19.9402660816
 20
83.0525760683
 11
21.3827699209
 21
82.2197649291
  0
LINE
  5
26A
100
AcDbEntity
  8
0
100
AcDbLine
 62
7
  6
CONTINUOUS
 10
31.3459459482
 20
76.4676526979
 11
32.7884497875
 21
75.6348415587
  0
LINE
  5
26B
100
AcDbEntity
  8
0
100
AcDbLine
 62
7
  6
CONTINUOUS
 10
42.7516258149
 20
69.8827293275
 11
44.1941296542
 21
69.0499181882
  0
LINE
  5
26C
100
AcDbEntity
  8
0
100
AcDbLine
 62
7
  6
CONTINUOUS
 10
48.5746857652
 20
60.8380436826
 11
48.5746857652
 21
35.3876633407
  0
LINE
  5
26D
100
AcDbEntity
  8
0
100
AcDbLine
 62
7
  6
CONTINUOUS
 10
49.6954546795
 20
64.0938636406
 11
49.6954546795
 21
63.3153518532
  0
LINE
  5
26E
100
AcDbEntity
  8
0
100
AcDbLine
 62
7
  6
CONTINUOUS
 10
50.1894334899
 20
104.3502493717
 11
50.1894334899
 21
104.1461237674
  0
LINE
  5
26F
100
AcDbEntity
  8
0
100
AcDbLine
 62
7
  6
CONTINUOUS
 10
60.9458589246
 20
80.0762906193
 11
60.4115314608
 21
79.767787694
  0
LINE
  5
270
100
AcDbEntity
  8
0
100
AcDbLine
 62
7
  6
CONTINUOUS
 10
17.8931653514
 20
53.1011421357
 11
24.2359690256
 21
56.7631396852
  0
LINE
  5
271
100
AcDbEntity
  8
0
100
AcDbLine
 62
7
  6
CONTINUOUS
 10
47.8639985693
 20
71.1687053468
 11
46.42149473
 21
72.0015164861
  0
LINE
  5
272
100
AcDbEntity
  8
0
100
AcDbLine
 62
7
  6
CONTINUOUS
 10
36.4583187027
 20
77.7536287173
 11
35.0158148634
 21
78.5864398565
  0
LINE
  5
273
100
AcDbEntity
  8
0
100
AcDbLine
 62
7
  6
CONTINUOUS
 10
25.0526388361
 20
84.3385520877
 11
23.6101349968
 21
85.1713632269
  0
LINE
  5
274
100
AcDbEntity
  8
0
100
AcDbLine
 62
7
  6
CONTINUOUS
 10
21.4187925614
 20
87.7396112389
 11
29.5010567198
 21
83.0734194148
  0
LINE
  5
275
100
AcDbEntity
  8
0
100
AcDbLine
 62
7
  6
CONTINUOUS
 10
32.824472428
 20
81.1546878685
 11
40.9067365864
 21
76.4884960444
  0
LINE
  5
276
100
AcDbEntity
  8
0
100
AcDbLine
 62
7
  6
CONTINUOUS
 10
44.2301522946
 20
74.5697644981
 11
52.3124164531
 21
69.9035726739
  0
LINE
  5
277
100
AcDbEntity
  8
0
100
AcDbLine
 62
7
  6
CONTINUOUS
 10
19.2446586442
 20
90.3749451885
 11
57.2305930791
 21
68.4442518557
  0
LINE
  5
278
100
AcDbEntity
  8
0
100
AcDbLine
 62
7
  6
CONTINUOUS
 10
52.3124164531
 20
69.9035726739
 11
52.3124164531
 21
69.6994470697
  0
LINE
  5
279
100
AcDbEntity
  8
0
100
AcDbLine
 62
7
  6
CONTINUOUS
 10
54.4259249715
 20
81.4113941029
 11
54.4259249715
 21
85.0565466688
  0
LINE
  5
27A
100
AcDbEntity
  8
0
100
AcDbLine
 62
7
  6
CONTINUOUS
 10
48.5746857652
 20
60.8380436826
 11
49.6954546795
 21
63.3153518532
  0
LINE
  5
27B
100
AcDbEntity
  8
0
100
AcDbLine
 62
7
  6
CONTINUOUS
 10
87.0100017451
 20
89.9361133044
 11
81.0830573816
 21
86.5142108067
  0
LINE
  5
27C
100
AcDbEntity
  8
0
100
AcDbLine
 62
7
  6
CONTINUOUS
 10
52.3124164531
 20
69.9035726739
 11
46.3854720895
 21
66.4816701762
  0
LINE
  5
27D
100
AcDbEntity
  8
0
100
AcDbLine
 62
7
  6
CONTINUOUS
 10
46.3854720895
 20
66.2775445719
 11
52.3124164531
 21
69.6994470697
  0
LINE
  5
27E
100
AcDbEntity
  8
0
100
AcDbLine
 62
7
  6
CONTINUOUS
 10
81.0830573816
 20
86.3100852024
 11
87.0100017451
 21
89.7319877001
  0
LINE
  5
27F
100
AcDbEntity
  8
0
100
AcDbLine
 62
7
  6
CONTINUOUS
 10
45.2406769258
 20
104.6051519639
 11
46.2387206156
 21
100.762865583
  0
LINE
  5
280
100
AcDbEntity
  8
0
100
AcDbLine
 62
7
  6
CONTINUOUS
 10
56.3263115806
 20
63.7049104577
 11
56.2631293274
 21
65.2769421463
  0
LINE
  5
281
100
AcDbEntity
  8
0
100
AcDbLine
 62
7
  6
CONTINUOUS
 10
57.2611730172
 20
67.6833952984
 11
57.2305930791
 21
68.4442518557
  0
LINE
  5
282
100
AcDbEntity
  8
0
100
AcDbLine
 62
7
  6
CONTINUOUS
 10
58.2716976484
 20
99.6840575475
 11
58.2716976484
 21
99.4799319432
  0
LINE
  5
283
100
AcDbEntity
  8
0
100
AcDbLine
 62
7
  6
CONTINUOUS
 10
58.3077202888
 20
101.8425852638
 11
58.3077202888
 21
105.2039038574
  0
LINE
  5
284
100
AcDbEntity
  8
0
100
AcDbLine
 62
7
  6
CONTINUOUS
 10
57.2611730172
 20
67.6833952984
 11
56.2631293274
 21
65.2769421463
  0
LINE
  5
285
100
AcDbEntity
  8
0
100
AcDbLine
 62
7
  6
CONTINUOUS
 10
90.7923296984
 20
87.8210138636
 11
83.2571912988
 21
83.4706256485
  0
LINE
  5
286
100
AcDbEntity
  8
0
100
AcDbLine
 62
7
  6
CONTINUOUS
 10
57.2305930791
 20
68.4442518557
 11
49.6954546795
 21
64.0938636406
  0
LINE
  5
287
100
AcDbEntity
  8
0
100
AcDbLine
 62
7
  6
CONTINUOUS
 10
45.7127416503
 20
61.5492630973
 11
45.6860744734
 21
61.5338668875
  0
LINE
  5
288
100
AcDbEntity
  8
0
100
AcDbLine
 62
7
  6
CONTINUOUS
 10
90.7923296984
 20
87.0425020762
 11
83.2266113607
 21
82.6744586311
  0
LINE
  5
289
100
AcDbEntity
  8
0
100
AcDbLine
 62
7
  6
CONTINUOUS
 10
57.2611730172
 20
67.6833952984
 11
49.6954546795
 21
63.3153518532
  0
LINE
  5
28A
100
AcDbEntity
  8
0
100
AcDbLine
 62
7
  6
CONTINUOUS
 10
59.4816048381
 20
74.8264707325
 11
59.4816048381
 21
78.4716232984
  0
LINE
  5
28B
100
AcDbEntity
  8
0
100
AcDbLine
 62
7
  6
CONTINUOUS
 10
59.7502241281
 20
104.3710927181
 11
59.7502241281
 21
102.267675376
  0
LINE
  5
28C
100
AcDbEntity
  8
0
100
AcDbLine
 62
7
  6
CONTINUOUS
 10
61.5951133566
 20
97.7653260012
 11
61.5951133566
 21
97.561200397
  0
LINE
  5
28D
100
AcDbEntity
  8
0
100
AcDbLine
 62
7
  6
CONTINUOUS
 10
48.5746857652
 20
60.8380436826
 11
56.2631293274
 21
65.2769421463
  0
LINE
  5
28E
100
AcDbEntity
  8
0
100
AcDbLine
 62
7
  6
CONTINUOUS
 10
81.9831172218
 20
80.126295442
 11
89.671560784
 21
84.5651939056
  0
LINE
  5
28F
100
AcDbEntity
  8
0
100
AcDbLine
 62
7
  6
CONTINUOUS
 10
56.3263115806
 20
63.7049104577
 11
81.9199349686
 21
78.4813076071
  0
LINE
  5
290
100
AcDbEntity
  8
0
100
AcDbLine
 62
7
  6
CONTINUOUS
 10
29.298845218
 20
46.5162187652
 11
35.6416488922
 21
50.1782163148
  0
LINE
  5
291
100
AcDbEntity
  8
0
100
AcDbLine
 62
7
  6
CONTINUOUS
 10
64.1986420119
 20
103.1059600452
 11
64.1986420119
 21
102.901834441
  0
LINE
  5
292
100
AcDbEntity
  8
0
100
AcDbLine
 62
7
  6
CONTINUOUS
 10
65.8316048381
 20
74.8264707325
 11
65.8316048381
 21
78.4716232984
  0
LINE
  5
293
100
AcDbEntity
  8
0
100
AcDbLine
 62
7
  6
CONTINUOUS
 10
41.5560205795
 20
93.2461202929
 11
42.0903572763
 21
92.9376120368
  0
LINE
  5
294
100
AcDbEntity
  8
0
100
AcDbLine
 62
7
  6
CONTINUOUS
 10
52.9617004461
 20
86.6611969225
 11
53.4960371429
 21
86.3526886664
  0
LINE
  5
295
100
AcDbEntity
  8
0
100
AcDbLine
 62
7
  6
CONTINUOUS
 10
64.3673803128
 20
80.076273552
 11
64.9017170096
 21
79.767765296
  0
LINE
  5
296
100
AcDbEntity
  8
0
100
AcDbLine
 62
7
  6
CONTINUOUS
 10
67.7089156002
 20
43.9852428931
 11
67.7089156002
 21
42.3522380588
  0
LINE
  5
297
100
AcDbEntity
  8
0
100
AcDbLine
 62
7
  6
CONTINUOUS
 10
68.4867362978
 20
42.719675646
 11
68.4867362978
 21
43.5361780631
  0
LINE
  5
298
100
AcDbEntity
  8
0
100
AcDbLine
 62
7
  6
CONTINUOUS
 10
69.677377515
 20
93.0991341771
 11
69.677377515
 21
92.8950085728
  0
LINE
  5
299
100
AcDbEntity
  8
0
100
AcDbLine
 62
7
  6
CONTINUOUS
 10
69.7134001555
 20
95.2576618933
 11
69.7134001555
 21
98.6189804869
  0
LINE
  5
29A
100
AcDbEntity
  8
0
100
AcDbLine
 62
7
  6
CONTINUOUS
 10
71.1559039948
 20
97.7861693477
 11
71.1559039948
 21
95.6827520056
  0
LINE
  5
29B
100
AcDbEntity
  8
0
100
AcDbLine
 62
7
  6
CONTINUOUS
 10
71.3151516467
 20
45.1691546786
 11
71.3151516467
 21
44.3526522615
  0
LINE
  5
29C
100
AcDbEntity
  8
0
100
AcDbLine
 62
7
  6
CONTINUOUS
 10
73.0007932232
 20
91.1804026308
 11
73.0007932232
 21
90.9762770266
  0
LINE
  5
29D
100
AcDbEntity
  8
0
100
AcDbLine
 62
7
  6
CONTINUOUS
 10
40.7045250846
 20
39.9312953948
 11
47.0473287588
 21
43.5932929444
  0
LINE
  5
29E
100
AcDbEntity
  8
0
100
AcDbLine
 62
7
  6
CONTINUOUS
 10
81.9199349686
 20
78.4813076071
 11
46.1755383624
 21
99.1178777481
  0
LINE
  5
29F
100
AcDbEntity
  8
0
100
AcDbLine
 62
7
  6
CONTINUOUS
 10
75.6043218785
 20
96.5210366748
 11
75.6043218785
 21
96.3169110705
  0
LINE
  5
2A0
100
AcDbEntity
  8
0
100
AcDbLine
 62
7
  6
CONTINUOUS
 10
81.9831172218
 20
80.126295442
 11
83.2266113607
 21
82.6744586311
  0
LINE
  5
2A1
100
AcDbEntity
  8
0
100
AcDbLine
 62
7
  6
CONTINUOUS
 10
90.7923296984
 20
87.0425020762
 11
89.671560784
 21
84.5651939056
  0
LINE
  5
2A2
100
AcDbEntity
  8
0
100
AcDbLine
 62
7
  6
CONTINUOUS
 10
83.2571912988
 20
83.4706256485
 11
45.2712568639
 21
105.4013189814
  0
LINE
  5
2A3
100
AcDbEntity
  8
0
100
AcDbLine
 62
7
  6
CONTINUOUS
 10
50.1894334899
 20
104.1461237674
 11
58.2716976484
 21
99.4799319432
  0
LINE
  5
2A4
100
AcDbEntity
  8
0
100
AcDbLine
 62
7
  6
CONTINUOUS
 10
61.5951133566
 20
97.561200397
 11
69.677377515
 21
92.8950085728
  0
LINE
  5
2A5
100
AcDbEntity
  8
0
100
AcDbLine
 62
7
  6
CONTINUOUS
 10
73.0007932232
 20
90.9762770266
 11
81.0830573816
 21
86.3100852024
  0
LINE
  5
2A6
100
AcDbEntity
  8
0
100
AcDbLine
 62
7
  6
CONTINUOUS
 10
81.0830573816
 20
86.5142108067
 11
73.0007932232
 21
91.1804026308
  0
LINE
  5
2A7
100
AcDbEntity
  8
0
100
AcDbLine
 62
7
  6
CONTINUOUS
 10
69.677377515
 20
93.0991341771
 11
61.5951133566
 21
97.7653260012
  0
LINE
  5
2A8
100
AcDbEntity
  8
0
100
AcDbLine
 62
7
  6
CONTINUOUS
 10
58.2716976484
 20
99.6840575475
 11
50.1894334899
 21
104.3502493717
  0
LINE
  5
2A9
100
AcDbEntity
  8
0
100
AcDbLine
 62
7
  6
CONTINUOUS
 10
54.6378513737
 20
103.0851166988
 11
56.080355213
 21
102.2523055595
  0
LINE
  5
2AA
100
AcDbEntity
  8
0
100
AcDbLine
 62
7
  6
CONTINUOUS
 10
66.0435312403
 20
96.5001933284
 11
67.4860350796
 21
95.6673821891
  0
LINE
  5
2AB
100
AcDbEntity
  8
0
100
AcDbLine
 62
7
  6
CONTINUOUS
 10
77.4492111069
 20
89.9152699579
 11
78.8917149462
 21
89.0824588187
  0
LINE
  5
2AC
100
AcDbEntity
  8
0
100
AcDbLine
 62
7
  6
CONTINUOUS
 10
81.0830573816
 20
86.5142108067
 11
81.0830573816
 21
86.3100852024
  0
LINE
  5
2AD
100
AcDbEntity
  8
0
100
AcDbLine
 62
7
  6
CONTINUOUS
 10
81.1190800221
 20
88.6727385229
 11
81.1190800221
 21
92.0340571165
  0
LINE
  5
2AE
100
AcDbEntity
  8
0
100
AcDbLine
 62
7
  6
CONTINUOUS
 10
82.5615838614
 20
91.2012459773
 11
82.5615838614
 21
89.0978286352
  0
LINE
  5
2AF
100
AcDbEntity
  8
0
100
AcDbLine
 62
7
  6
CONTINUOUS
 10
81.9831172218
 20
80.126295442
 11
81.9199349686
 21
78.4813076071
  0
LINE
  5
2B0
100
AcDbEntity
  8
0
100
AcDbLine
 62
7
  6
CONTINUOUS
 10
83.2571912988
 20
83.4706256485
 11
83.2266113607
 21
82.6744586311
  0
LINE
  5
2B1
100
AcDbEntity
  8
0
100
AcDbLine
 62
7
  6
CONTINUOUS
 10
70.537330949
 20
45.6182195086
 11
67.7089156002
 21
43.9852428931
  0
LINE
  5
2B2
100
AcDbEntity
  8
0
100
AcDbLine
 62
7
  6
CONTINUOUS
 10
71.3151516467
 20
45.1691546786
 11
68.4867362978
 21
43.5361780631
  0
LINE
  5
2B3
100
AcDbEntity
  8
0
100
AcDbLine
 62
7
  6
CONTINUOUS
 10
82.5615838614
 20
91.2012459773
 11
81.1190800221
 21
92.0340571165
  0
LINE
  5
2B4
100
AcDbEntity
  8
0
100
AcDbLine
 62
7
  6
CONTINUOUS
 10
71.1559039948
 20
97.7861693477
 11
69.7134001555
 21
98.6189804869
  0
LINE
  5
2B5
100
AcDbEntity
  8
0
100
AcDbLine
 62
7
  6
CONTINUOUS
 10
59.7502241281
 20
104.3710927181
 11
58.3077202888
 21
105.2039038574
  0
LINE
  5
2B6
100
AcDbEntity
  8
0
100
AcDbLine
 62
7
  6
CONTINUOUS
 10
87.0100017451
 20
89.9361133044
 11
87.0100017451
 21
89.7319877001
  0
LINE
  5
2B7
100
AcDbEntity
  8
0
100
AcDbLine
 62
7
  6
CONTINUOUS
 10
52.1102049512
 20
33.3463720244
 11
67.7089156002
 21
42.3522380588
  0
LINE
  5
2B8
100
AcDbEntity
  8
0
100
AcDbLine
 62
7
  6
CONTINUOUS
 10
71.3151516467
 20
44.4342869829
 11
86.136041598
 21
52.9910807087
  0
LINE
  5
2B9
100
AcDbEntity
  8
0
100
AcDbLine
 62
7
  6
CONTINUOUS
 10
67.7796265727
 20
42.3114139834
 11
71.3151516467
 21
44.3526522615
  0
LINE
  5
2BA
100
AcDbEntity
  8
0
100
AcDbLine
 62
7
  6
CONTINUOUS
 10
56.1163778535
 20
107.7721518694
 11
64.1986420119
 21
103.1059600452
  0
LINE
  5
2BB
100
AcDbEntity
  8
0
100
AcDbLine
 62
7
  6
CONTINUOUS
 10
67.5220577201
 20
101.187228499
 11
75.6043218785
 21
96.5210366748
  0
LINE
  5
2BC
100
AcDbEntity
  8
0
100
AcDbLine
 62
7
  6
CONTINUOUS
 10
78.9277375867
 20
94.6023051286
 11
87.0100017451
 21
89.9361133044
  0
LINE
  5
2BD
100
AcDbEntity
  8
0
100
AcDbLine
 62
7
  6
CONTINUOUS
 10
90.7923296984
 20
87.8210138636
 11
52.8063952635
 21
109.7517071964
  0
LINE
  5
2BE
100
AcDbEntity
  8
0
100
AcDbLine
 62
7
  6
CONTINUOUS
 10
89.671560784
 20
59.1148135637
 11
89.671560784
 21
84.5651939056
  0
LINE
  5
2BF
100
AcDbEntity
  8
0
100
AcDbLine
 62
7
  6
CONTINUOUS
 10
90.7923296984
 20
87.0425020762
 11
90.7923296984
 21
87.8210138636
  0
LINE
  5
2C0
100
AcDbEntity
  8
0
100
AcDbLine
 62
7
  6
CONTINUOUS
 10
86.136041598
 20
52.9910807087
 11
89.671560784
 21
59.1148135637
  0
SPLINE
  5
2C1
100
AcDbEntity
  8
0
100
AcDbSpline
 62
7
  6
CONTINUOUS
 70
0
 71
3
 72
15
 73
11
 74
0
 42
0.0000001
 43
0.0000001
 44
0.0000000001
 40
0.0
 40
0.0
 40
0.0
 40
0.0
 40
0.1141493207
 40
0.2373151025
 40
0.3669570363
 40
0.4999800406
 40
0.6330133909
 40
0.7626474224
 40
0.8858771593
 40
1.0
 40
1.0
 40
1.0
 40
1.0
 10
64.3673703319
 20
80.0762677891
 30
0.0
 10
64.2502610613
 20
80.1438798903
 30
0.0
 10
63.994180478
 20
80.263125808
 30
0.0
 10
63.5771690199
 20
80.3898643909
 30
0.0
 10
63.1256902053
 20
80.4679058818
 30
0.0
 10
62.6566762371
 20
80.4942591625
 30
0.0
 10
62.1876763876
 20
80.4679050697
 30
0.0
 10
61.7361012901
 20
80.389935656
 30
0.0
 10
61.3190811013
 20
80.2631044232
 30
0.0
 10
61.0629407843
 20
80.1438874591
 30
0.0
 10
60.9458589246
 20
80.0762906193
 30
0.0
  0
SPLINE
  5
2C2
100
AcDbEntity
  8
0
100
AcDbSpline
 62
7
  6
CONTINUOUS
 70
0
 71
3
 72
12
 73
8
 74
0
 42
0.0000001
 43
0.0000001
 44
0.0000000001
 40
0.0
 40
0.0
 40
0.0
 40
0.0
 40
0.1081633894
 40
0.2183611664
 40
0.4513651525
 40
0.710421089
 40
1.0
 40
1.0
 40
1.0
 40
1.0
 10
65.8315926222
 20
78.4716232977
 30
0.0
 10
65.8315820217
 20
78.5317289406
 30
0.0
 10
65.8211267663
 20
78.6533195983
 30
0.0
 10
65.758005736
 20
78.8971022432
 30
0.0
 10
65.5958336046
 20
79.1959987513
 30
0.0
 10
65.2938371828
 20
79.5131973502
 30
0.0
 10
65.0410538313
 20
79.6872933147
 30
0.0
 10
64.9016966231
 20
79.7677535265
 30
0.0
  0
SPLINE
  5
2C3
100
AcDbEntity
  8
0
100
AcDbSpline
 62
7
  6
CONTINUOUS
 70
0
 71
3
 72
15
 73
11
 74
0
 42
0.0000001
 43
0.0000001
 44
0.0000000001
 40
0.0
 40
0.0
 40
0.0
 40
0.0
 40
0.1141493207
 40
0.2373151025
 40
0.3669570363
 40
0.4999800406
 40
0.6330133909
 40
0.7626474224
 40
0.8858771593
 40
1.0
 40
1.0
 40
1.0
 40
1.0
 10
52.9616904652
 20
86.6611911595
 30
0.0
 10
52.8445811947
 20
86.7288032607
 30
0.0
 10
52.5885006114
 20
86.8480491784
 30
0.0
 10
52.1714891533
 20
86.9747877613
 30
0.0
 10
51.7200103387
 20
87.0528292522
 30
0.0
 10
51.2509963705
 20
87.0791825329
 30
0.0
 10
50.781996521
 20
87.0528284402
 30
0.0
 10
50.3304214235
 20
86.9748590264
 30
0.0
 10
49.9134012347
 20
86.8480277936
 30
0.0
 10
49.6572609177
 20
86.7288108295
 30
0.0
 10
49.540179058
 20
86.6612139898
 30
0.0
  0
SPLINE
  5
2C4
100
AcDbEntity
  8
0
100
AcDbSpline
 62
7
  6
CONTINUOUS
 70
0
 71
3
 72
12
 73
8
 74
0
 42
0.0000001
 43
0.0000001
 44
0.0000000001
 40
0.0
 40
0.0
 40
0.0
 40
0.0
 40
0.1081633894
 40
0.2183611664
 40
0.4513651525
 40
0.710421089
 40
1.0
 40
1.0
 40
1.0
 40
1.0
 10
54.4259127556
 20
85.0565466681
 30
0.0
 10
54.4259021551
 20
85.116652311
 30
0.0
 10
54.4154468996
 20
85.2382429688
 30
0.0
 10
54.3523258694
 20
85.4820256136
 30
0.0
 10
54.190153738
 20
85.7809221218
 30
0.0
 10
53.8881573162
 20
86.0981207206
 30
0.0
 10
53.6353739647
 20
86.2722166851
 30
0.0
 10
53.4960167565
 20
86.3526768969
 30
0.0
  0
SPLINE
  5
2C5
100
AcDbEntity
  8
0
100
AcDbSpline
 62
7
  6
CONTINUOUS
 70
0
 71
3
 72
15
 73
11
 74
0
 42
0.0000001
 43
0.0000001
 44
0.0000000001
 40
0.0
 40
0.0
 40
0.0
 40
0.0
 40
0.1141493207
 40
0.2373151025
 40
0.3669570363
 40
0.4999800406
 40
0.6330133909
 40
0.7626474224
 40
0.8858771593
 40
1.0
 40
1.0
 40
1.0
 40
1.0
 10
41.5560105986
 20
93.2461145299
 30
0.0
 10
41.4389013281
 20
93.3137266312
 30
0.0
 10
41.1828207447
 20
93.4329725488
 30
0.0
 10
40.7658092867
 20
93.5597111317
 30
0.0
 10
40.3143304721
 20
93.6377526226
 30
0.0
 10
39.8453165038
 20
93.6641059033
 30
0.0
 10
39.3763166543
 20
93.6377518106
 30
0.0
 10
38.9247415569
 20
93.5597823968
 30
0.0
 10
38.507721368
 20
93.4329511641
 30
0.0
 10
38.2515810511
 20
93.3137341999
 30
0.0
 10
38.1344991913
 20
93.2461373602
 30
0.0
  0
SPLINE
  5
2C6
100
AcDbEntity
  8
0
100
AcDbSpline
 62
7
  6
CONTINUOUS
 70
0
 71
3
 72
12
 73
8
 74
0
 42
0.0000001
 43
0.0000001
 44
0.0000000001
 40
0.0
 40
0.0
 40
0.0
 40
0.0
 40
0.1081633894
 40
0.2183611664
 40
0.4513651525
 40
0.710421089
 40
1.0
 40
1.0
 40
1.0
 40
1.0
 10
43.020232889
 20
91.6414700385
 30
0.0
 10
43.0202222885
 20
91.7015756814
 30
0.0
 10
43.009767033
 20
91.8231663392
 30
0.0
 10
42.9466460028
 20
92.066948984
 30
0.0
 10
42.7844738713
 20
92.3658454922
 30
0.0
 10
42.4824774496
 20
92.6830440911
 30
0.0
 10
42.229694098
 20
92.8571400555
 30
0.0
 10
42.0903368899
 20
92.9376002673
 30
0.0
  0
SPLINE
  5
2C7
100
AcDbEntity
  8
0
100
AcDbSpline
 62
7
  6
CONTINUOUS
 70
0
 71
3
 72
18
 73
14
 74
0
 42
0.0000001
 43
0.0000001
 44
0.0000000001
 40
0.0
 40
0.0
 40
0.0
 40
0.0
 40
0.0428457286
 40
0.087461712
 40
0.1352799156
 40
0.1872310417
 40
0.2437209799
 40
0.3047249229
 40
0.4383572423
 40
0.5826626371
 40
0.7297849496
 40
0.8713380139
 40
1.0
 40
1.0
 40
1.0
 40
1.0
 10
25.8126896149
 20
83.2791585073
 30
0.0
 10
25.8126772554
 20
83.2052902718
 30
0.0
 10
25.7929614857
 20
83.0538549762
 30
0.0
 10
25.7060664341
 20
82.8352219256
 30
0.0
 10
25.5651893659
 20
82.6279093387
 30
0.0
 10
25.37416087
 20
82.4361217218
 30
0.0
 10
25.1374835448
 20
82.263148535
 30
0.0
 10
24.7562152309
 20
82.0558516752
 30
0.0
 10
24.1975301351
 20
81.8692514738
 30
0.0
 10
23.4685158108
 20
81.7668829044
 30
0.0
 10
22.7186594491
 20
81.7876052595
 30
0.0
 10
22.0098183543
 20
81.9294016031
 30
0.0
 10
21.5748726513
 20
82.108856875
 30
0.0
 10
21.3827699209
 20
82.2197649291
 30
0.0
  0
SPLINE
  5
2C8
100
AcDbEntity
  8
0
100
AcDbSpline
 62
7
  6
CONTINUOUS
 70
0
 71
3
 72
18
 73
14
 74
0
 42
0.0000001
 43
0.0000001
 44
0.0000000001
 40
0.0
 40
0.0
 40
0.0
 40
0.0
 40
0.0428457286
 40
0.087461712
 40
0.1352799156
 40
0.1872310417
 40
0.2437209799
 40
0.3047249229
 40
0.4383572423
 40
0.5826626371
 40
0.7297849496
 40
0.8713380139
 40
1.0
 40
1.0
 40
1.0
 40
1.0
 10
71.9159547736
 20
96.7267757674
 30
0.0
 10
71.9159424141
 20
96.6529075319
 30
0.0
 10
71.8962266444
 20
96.5014722363
 30
0.0
 10
71.8093315928
 20
96.2828391857
 30
0.0
 10
71.6684545246
 20
96.0755265987
 30
0.0
 10
71.4774260287
 20
95.8837389819
 30
0.0
 10
71.2407487035
 20
95.710765795
 30
0.0
 10
70.8594803896
 20
95.5034689352
 30
0.0
 10
70.3007952938
 20
95.3168687339
 30
0.0
 10
69.5717809695
 20
95.2145001645
 30
0.0
 10
68.8219246078
 20
95.2352225196
 30
0.0
 10
68.113083513
 20
95.3770188632
 30
0.0
 10
67.67813781
 20
95.5564741351
 30
0.0
 10
67.4860350796
 20
95.6673821891
 30
0.0
  0
SPLINE
  5
2C9
100
AcDbEntity
  8
0
100
AcDbSpline
 62
7
  6
CONTINUOUS
 70
0
 71
3
 72
18
 73
14
 74
0
 42
0.0000001
 43
0.0000001
 44
0.0000000001
 40
0.0
 40
0.0
 40
0.0
 40
0.0
 40
0.0428457286
 40
0.087461712
 40
0.1352799156
 40
0.1872310417
 40
0.2437209799
 40
0.3047249229
 40
0.4383572423
 40
0.5826626371
 40
0.7297849496
 40
0.8713380139
 40
1.0
 40
1.0
 40
1.0
 40
1.0
 10
37.2183694815
 20
76.6942351369
 30
0.0
 10
37.2183571221
 20
76.6203669014
 30
0.0
 10
37.1986413523
 20
76.4689316058
 30
0.0
 10
37.1117463007
 20
76.2502985552
 30
0.0
 10
36.9708692325
 20
76.0429859683
 30
0.0
 10
36.7798407366
 20
75.8511983514
 30
0.0
 10
36.5431634114
 20
75.6782251645
 30
0.0
 10
36.1618950975
 20
75.4709283048
 30
0.0
 10
35.6032100017
 20
75.2843281034
 30
0.0
 10
34.8741956775
 20
75.181959534
 30
0.0
 10
34.1243393158
 20
75.2026818891
 30
0.0
 10
33.4154982209
 20
75.3444782327
 30
0.0
 10
32.9805525179
 20
75.5239335046
 30
0.0
 10
32.7884497875
 20
75.6348415587
 30
0.0
  0
SPLINE
  5
2CA
100
AcDbEntity
  8
0
100
AcDbSpline
 62
7
  6
CONTINUOUS
 70
0
 71
3
 72
18
 73
14
 74
0
 42
0.0000001
 43
0.0000001
 44
0.0000000001
 40
0.0
 40
0.0
 40
0.0
 40
0.0
 40
0.0428457286
 40
0.087461712
 40
0.1352799156
 40
0.1872310417
 40
0.2437209799
 40
0.3047249229
 40
0.4383572423
 40
0.5826626371
 40
0.7297849496
 40
0.8713380139
 40
1.0
 40
1.0
 40
1.0
 40
1.0
 10
48.6240493481
 20
70.1093117665
 30
0.0
 10
48.6240369887
 20
70.035443531
 30
0.0
 10
48.6043212189
 20
69.8840082354
 30
0.0
 10
48.5174261673
 20
69.6653751848
 30
0.0
 10
48.3765490992
 20
69.4580625979
 30
0.0
 10
48.1855206032
 20
69.266274981
 30
0.0
 10
47.948843278
 20
69.0933017941
 30
0.0
 10
47.5675749642
 20
68.8860049344
 30
0.0
 10
47.0088898683
 20
68.699404733
 30
0.0
 10
46.2798755441
 20
68.5970361636
 30
0.0
 10
45.5300191824
 20
68.6177585187
 30
0.0
 10
44.8211780875
 20
68.7595548623
 30
0.0
 10
44.3862323845
 20
68.9390101342
 30
0.0
 10
44.1941296542
 20
69.0499181882
 30
0.0
  0
SPLINE
  5
2CB
100
AcDbEntity
  8
0
100
AcDbSpline
 62
7
  6
CONTINUOUS
 70
0
 71
3
 72
11
 73
7
 74
0
 42
0.0000001
 43
0.0000001
 44
0.0000000001
 40
0.0
 40
0.0
 40
0.0
 40
0.0
 40
0.289749704
 40
0.5490840992
 40
0.7822247259
 40
1.0
 40
1.0
 40
1.0
 40
1.0
 10
54.6378513737
 20
103.0851166988
 30
0.0
 10
54.5239663345
 20
103.1508667694
 30
0.0
 10
54.3173675336
 20
103.2931292696
 30
0.0
 10
54.0704904679
 20
103.5526317929
 30
0.0
 10
53.9143325213
 20
103.8396556941
 30
0.0
 10
53.8777840578
 20
104.0456733712
 30
0.0
 10
53.8778005949
 20
104.1445102791
 30
0.0
  0
SPLINE
  5
2CC
100
AcDbEntity
  8
0
100
AcDbSpline
 62
7
  6
CONTINUOUS
 70
0
 71
3
 72
11
 73
7
 74
0
 42
0.0000001
 43
0.0000001
 44
0.0000000001
 40
0.0
 40
0.0
 40
0.0
 40
0.0
 40
0.289749704
 40
0.5490840992
 40
0.7822247259
 40
1.0
 40
1.0
 40
1.0
 40
1.0
 10
77.4492111069
 20
89.9152699579
 30
0.0
 10
77.3353260677
 20
89.9810200285
 30
0.0
 10
77.1287272669
 20
90.1232825288
 30
0.0
 10
76.8818502011
 20
90.382785052
 30
0.0
 10
76.7256922545
 20
90.6698089533
 30
0.0
 10
76.689143791
 20
90.8758266304
 30
0.0
 10
76.6891603281
 20
90.9746635383
 30
0.0
  0
SPLINE
  5
2CD
100
AcDbEntity
  8
0
100
AcDbSpline
 62
7
  6
CONTINUOUS
 70
0
 71
3
 72
18
 73
14
 74
0
 42
0.0000001
 43
0.0000001
 44
0.0000000001
 40
0.0
 40
0.0
 40
0.0
 40
0.0
 40
0.0428457286
 40
0.087461712
 40
0.1352799156
 40
0.1872310417
 40
0.2437209799
 40
0.3047249229
 40
0.4383572423
 40
0.5826626371
 40
0.7297849496
 40
0.8713380139
 40
1.0
 40
1.0
 40
1.0
 40
1.0
 10
83.3216346402
 20
90.141852397
 30
0.0
 10
83.3216222808
 20
90.0679841615
 30
0.0
 10
83.301906511
 20
89.9165488659
 30
0.0
 10
83.2150114594
 20
89.6979158152
 30
0.0
 10
83.0741343912
 20
89.4906032283
 30
0.0
 10
82.8831058953
 20
89.2988156114
 30
0.0
 10
82.6464285701
 20
89.1258424246
 30
0.0
 10
82.2651602562
 20
88.9185455648
 30
0.0
 10
81.7064751604
 20
88.7319453635
 30
0.0
 10
80.9774608362
 20
88.6295767941
 30
0.0
 10
80.2276044745
 20
88.6502991492
 30
0.0
 10
79.5187633796
 20
88.7920954928
 30
0.0
 10
79.0838176766
 20
88.9715507647
 30
0.0
 10
78.8917149462
 20
89.0824588187
 30
0.0
  0
SPLINE
  5
2CE
100
AcDbEntity
  8
0
100
AcDbSpline
 62
7
  6
CONTINUOUS
 70
0
 71
3
 72
18
 73
14
 74
0
 42
0.0000001
 43
0.0000001
 44
0.0000000001
 40
0.0
 40
0.0
 40
0.0
 40
0.0
 40
0.0428457286
 40
0.087461712
 40
0.1352799156
 40
0.1872310417
 40
0.2437209799
 40
0.3047249229
 40
0.4383572423
 40
0.5826626371
 40
0.7297849496
 40
0.8713380139
 40
1.0
 40
1.0
 40
1.0
 40
1.0
 10
60.510274907
 20
103.3116991378
 30
0.0
 10
60.5102625475
 20
103.2378309023
 30
0.0
 10
60.4905467778
 20
103.0863956067
 30
0.0
 10
60.4036517262
 20
102.8677625561
 30
0.0
 10
60.262774658
 20
102.6604499692
 30
0.0
 10
60.0717461621
 20
102.4686623523
 30
0.0
 10
59.8350688369
 20
102.2956891654
 30
0.0
 10
59.453800523
 20
102.0883923057
 30
0.0
 10
58.8951154272
 20
101.9017921043
 30
0.0
 10
58.1661011029
 20
101.7994235349
 30
0.0
 10
57.4162447412
 20
101.82014589
 30
0.0
 10
56.7074036464
 20
101.9619422336
 30
0.0
 10
56.2724579434
 20
102.1413975055
 30
0.0
 10
56.080355213
 20
102.2523055595
 30
0.0
  0
SPLINE
  5
2CF
100
AcDbEntity
  8
0
100
AcDbSpline
 62
7
  6
CONTINUOUS
 70
0
 71
3
 72
11
 73
7
 74
0
 42
0.0000001
 43
0.0000001
 44
0.0000000001
 40
0.0
 40
0.0
 40
0.0
 40
0.0
 40
0.289749704
 40
0.5490840992
 40
0.7822247259
 40
1.0
 40
1.0
 40
1.0
 40
1.0
 10
42.7516258149
 20
69.8827293275
 30
0.0
 10
42.6377407756
 20
69.9484793981
 30
0.0
 10
42.4311419748
 20
70.0907418983
 30
0.0
 10
42.184264909
 20
70.3502444216
 30
0.0
 10
42.0281069624
 20
70.6372683228
 30
0.0
 10
41.9915584989
 20
70.8432859999
 30
0.0
 10
41.9915750361
 20
70.9421229078
 30
0.0
  0
SPLINE
  5
2D0
100
AcDbEntity
  8
0
100
AcDbSpline
 62
7
  6
CONTINUOUS
 70
0
 71
3
 72
11
 73
7
 74
0
 42
0.0000001
 43
0.0000001
 44
0.0000000001
 40
0.0
 40
0.0
 40
0.0
 40
0.0
 40
0.289749704
 40
0.5490840992
 40
0.7822247259
 40
1.0
 40
1.0
 40
1.0
 40
1.0
 10
31.3459459482
 20
76.4676526979
 30
0.0
 10
31.232060909
 20
76.5334027685
 30
0.0
 10
31.0254621082
 20
76.6756652687
 30
0.0
 10
30.7785850424
 20
76.935167792
 30
0.0
 10
30.6224270958
 20
77.2221916932
 30
0.0
 10
30.5858786323
 20
77.4282093704
 30
0.0
 10
30.5858951694
 20
77.5270462782
 30
0.0
  0
SPLINE
  5
2D1
100
AcDbEntity
  8
0
100
AcDbSpline
 62
7
  6
CONTINUOUS
 70
0
 71
3
 72
12
 73
8
 74
0
 42
0.0000001
 43
0.0000001
 44
0.0000000001
 40
0.0
 40
0.0
 40
0.0
 40
0.0
 40
0.2895257386
 40
0.5486594331
 40
0.7816253273
 40
0.8918354141
 40
1.0
 40
1.0
 40
1.0
 40
1.0
 10
60.4115314608
 20
79.767787694
 30
0.0
 10
60.272196404
 20
79.6873430416
 30
0.0
 10
60.019433242
 20
79.5132004665
 30
0.0
 10
59.7173603802
 20
79.1960547392
 30
0.0
 10
59.555279876
 20
78.8970799325
 30
0.0
 10
59.4920662688
 20
78.6533361908
 30
0.0
 10
59.4816064532
 20
78.5317305723
 30
0.0
 10
59.481617054
 20
78.4716232991
 30
0.0
  0
SPLINE
  5
2D2
100
AcDbEntity
  8
0
100
AcDbSpline
 62
7
  6
CONTINUOUS
 70
0
 71
3
 72
12
 73
8
 74
0
 42
0.0000001
 43
0.0000001
 44
0.0000000001
 40
0.0
 40
0.0
 40
0.0
 40
0.0
 40
0.2895257386
 40
0.5486594331
 40
0.7816253273
 40
0.8918354141
 40
1.0
 40
1.0
 40
1.0
 40
1.0
 10
49.0058515942
 20
86.3527110644
 30
0.0
 10
48.8665165374
 20
86.272266412
 30
0.0
 10
48.6137533754
 20
86.0981238369
 30
0.0
 10
48.3116805136
 20
85.7809781097
 30
0.0
 10
48.1496000093
 20
85.4820033029
 30
0.0
 10
48.0863864021
 20
85.2382595612
 30
0.0
 10
48.0759265866
 20
85.1166539427
 30
0.0
 10
48.0759371874
 20
85.0565466695
 30
0.0
  0
SPLINE
  5
2D3
100
AcDbEntity
  8
0
100
AcDbSpline
 62
7
  6
CONTINUOUS
 70
0
 71
3
 72
12
 73
8
 74
0
 42
0.0000001
 43
0.0000001
 44
0.0000000001
 40
0.0
 40
0.0
 40
0.0
 40
0.0
 40
0.2895257386
 40
0.5486594331
 40
0.7816253273
 40
0.8918354141
 40
1.0
 40
1.0
 40
1.0
 40
1.0
 10
37.6001717275
 20
92.9376344348
 30
0.0
 10
37.4608366707
 20
92.8571897825
 30
0.0
 10
37.2080735088
 20
92.6830472073
 30
0.0
 10
36.906000647
 20
92.3659014801
 30
0.0
 10
36.7439201427
 20
92.0669266733
 30
0.0
 10
36.6807065355
 20
91.8231829316
 30
0.0
 10
36.67024672
 20
91.7015773131
 30
0.0
 10
36.6702573208
 20
91.6414700399
 30
0.0
  0
SPLINE
  5
2D4
100
AcDbEntity
  8
0
100
AcDbSpline
 62
7
  6
CONTINUOUS
 70
0
 71
3
 72
11
 73
7
 74
0
 42
0.0000001
 43
0.0000001
 44
0.0000000001
 40
0.0
 40
0.0
 40
0.0
 40
0.0
 40
0.289749704
 40
0.5490840992
 40
0.7822247259
 40
1.0
 40
1.0
 40
1.0
 40
1.0
 10
19.9402660816
 20
83.0525760683
 30
0.0
 10
19.8263810424
 20
83.1183261389
 30
0.0
 10
19.6197822415
 20
83.2605886391
 30
0.0
 10
19.3729051758
 20
83.5200911624
 30
0.0
 10
19.2167472292
 20
83.8071150637
 30
0.0
 10
19.1801987657
 20
84.0131327408
 30
0.0
 10
19.1802153028
 20
84.1119696486
 30
0.0
  0
SPLINE
  5
2D5
100
AcDbEntity
  8
0
100
AcDbSpline
 62
7
  6
CONTINUOUS
 70
0
 71
3
 72
11
 73
7
 74
0
 42
0.0000001
 43
0.0000001
 44
0.0000000001
 40
0.0
 40
0.0
 40
0.0
 40
0.0
 40
0.289749704
 40
0.5490840992
 40
0.7822247259
 40
1.0
 40
1.0
 40
1.0
 40
1.0
 10
66.0435312403
 20
96.5001933284
 30
0.0
 10
65.9296462011
 20
96.565943399
 30
0.0
 10
65.7230474002
 20
96.7082058992
 30
0.0
 10
65.4761703345
 20
96.9677084225
 30
0.0
 10
65.3200123879
 20
97.2547323237
 30
0.0
 10
65.2834639244
 20
97.4607500008
 30
0.0
 10
65.2834804615
 20
97.5595869087
 30
0.0
  0
SPLINE
  5
2D6
100
AcDbEntity
  8
0
100
AcDbSpline
 62
7
  6
CONTINUOUS
 70
0
 71
3
 72
18
 73
14
 74
0
 42
0.0000001
 43
0.0000001
 44
0.0000000001
 40
0.0
 40
0.0
 40
0.0
 40
0.0
 40
0.0428457286
 40
0.087461712
 40
0.1352799156
 40
0.1872310417
 40
0.2437209799
 40
0.3047249229
 40
0.4383572423
 40
0.5826626371
 40
0.7297849496
 40
0.8713380139
 40
1.0
 40
1.0
 40
1.0
 40
1.0
 10
76.6891603281
 20
90.9746635383
 30
0.0
 10
76.6891726876
 20
91.0485317738
 30
0.0
 10
76.7088884573
 20
91.1999670694
 30
0.0
 10
76.7957835089
 20
91.41860012
 30
0.0
 10
76.9366605771
 20
91.6259127069
 30
0.0
 10
77.127689073
 20
91.8177003238
 30
0.0
 10
77.3643663982
 20
91.9906735107
 30
0.0
 10
77.7456347121
 20
92.1979703704
 30
0.0
 10
78.3043198079
 20
92.3845705718
 30
0.0
 10
79.0333341322
 20
92.4869391412
 30
0.0
 10
79.7831904939
 20
92.4662167861
 30
0.0
 10
80.4920315887
 20
92.3244204425
 30
0.0
 10
80.9269772917
 20
92.1449651706
 30
0.0
 10
81.1190800221
 20
92.0340571165
 30
0.0
  0
SPLINE
  5
2D7
100
AcDbEntity
  8
0
100
AcDbSpline
 62
7
  6
CONTINUOUS
 70
0
 71
3
 72
18
 73
14
 74
0
 42
0.0000001
 43
0.0000001
 44
0.0000000001
 40
0.0
 40
0.0
 40
0.0
 40
0.0
 40
0.0428457286
 40
0.087461712
 40
0.1352799156
 40
0.1872310417
 40
0.2437209799
 40
0.3047249229
 40
0.4383572423
 40
0.5826626371
 40
0.7297849496
 40
0.8713380139
 40
1.0
 40
1.0
 40
1.0
 40
1.0
 10
53.8778005949
 20
104.1445102791
 30
0.0
 10
53.8778129543
 20
104.2183785146
 30
0.0
 10
53.8975287241
 20
104.3698138102
 30
0.0
 10
53.9844237757
 20
104.5884468608
 30
0.0
 10
54.1253008439
 20
104.7957594478
 30
0.0
 10
54.3163293398
 20
104.9875470646
 30
0.0
 10
54.553006665
 20
105.1605202515
 30
0.0
 10
54.9342749788
 20
105.3678171112
 30
0.0
 10
55.4929600747
 20
105.5544173126
 30
0.0
 10
56.2219743989
 20
105.656785882
 30
0.0
 10
56.9718307606
 20
105.6360635269
 30
0.0
 10
57.6806718555
 20
105.4942671833
 30
0.0
 10
58.1156175585
 20
105.3148119114
 30
0.0
 10
58.3077202888
 20
105.2039038574
 30
0.0
  0
SPLINE
  5
2D8
100
AcDbEntity
  8
0
100
AcDbSpline
 62
7
  6
CONTINUOUS
 70
0
 71
3
 72
11
 73
7
 74
0
 42
0.0000001
 43
0.0000001
 44
0.0000000001
 40
0.0
 40
0.0
 40
0.0
 40
0.0
 40
0.289749704
 40
0.5490840992
 40
0.7822247259
 40
1.0
 40
1.0
 40
1.0
 40
1.0
 10
47.8639985693
 20
71.1687053468
 30
0.0
 10
47.9778836085
 20
71.1029552762
 30
0.0
 10
48.1844824094
 20
70.960692776
 30
0.0
 10
48.4313594751
 20
70.7011902527
 30
0.0
 10
48.5875174217
 20
70.4141663515
 30
0.0
 10
48.6240658852
 20
70.2081486744
 30
0.0
 10
48.6240493481
 20
70.1093117665
 30
0.0
  0
SPLINE
  5
2D9
100
AcDbEntity
  8
0
100
AcDbSpline
 62
7
  6
CONTINUOUS
 70
0
 71
3
 72
20
 73
16
 74
0
 42
0.0000001
 43
0.0000001
 44
0.0000000001
 40
0.0
 40
0.0
 40
0.0
 40
0.0
 40
0.0428320236
 40
0.0874328745
 40
0.1352341512
 40
0.1871668419
 40
0.243636826
 40
0.3046198626
 40
0.3697471154
 40
0.4383835933
 40
0.5826379248
 40
0.7297025141
 40
0.8711936541
 40
0.9376097275
 40
1.0
 40
1.0
 40
1.0
 40
1.0
 10
36.6702573208
 20
91.6414700399
 30
0.0
 10
36.6702732613
 20
91.5510860068
 30
0.0
 10
36.6943949795
 20
91.3657938003
 30
0.0
 10
36.8007197631
 20
91.0982831751
 30
0.0
 10
36.9730937458
 20
90.844630408
 30
0.0
 10
37.2068324225
 20
90.6099707714
 30
0.0
 10
37.4964181734
 20
90.3983579076
 30
0.0
 10
37.8357182904
 20
90.21379066
 30
0.0
 10
38.2176758105
 20
90.0599454331
 30
0.0
 10
38.7821935659
 20
89.8972737664
 30
0.0
 10
39.5387943114
 20
89.7911896635
 30
0.0
 10
40.4555500135
 20
89.8165010478
 30
0.0
 10
41.1947492173
 20
89.9643251352
 30
0.0
 10
41.7317911639
 20
90.1589851529
 30
0.0
 10
41.9763010406
 20
90.279478036
 30
0.0
 10
42.0903184822
 20
90.3453056436
 30
0.0
  0
SPLINE
  5
2DA
100
AcDbEntity
  8
0
100
AcDbSpline
 62
7
  6
CONTINUOUS
 70
0
 71
3
 72
11
 73
7
 74
0
 42
0.0000001
 43
0.0000001
 44
0.0000000001
 40
0.0
 40
0.0
 40
0.0
 40
0.0
 40
0.289749704
 40
0.5490840992
 40
0.7822247259
 40
1.0
 40
1.0
 40
1.0
 40
1.0
 10
36.4583187027
 20
77.7536287173
 30
0.0
 10
36.5722037419
 20
77.6878786467
 30
0.0
 10
36.7788025428
 20
77.5456161464
 30
0.0
 10
37.0256796085
 20
77.2861136231
 30
0.0
 10
37.1818375551
 20
76.9990897219
 30
0.0
 10
37.2183860186
 20
76.7930720448
 30
0.0
 10
37.2183694815
 20
76.6942351369
 30
0.0
  0
SPLINE
  5
2DB
100
AcDbEntity
  8
0
100
AcDbSpline
 62
7
  6
CONTINUOUS
 70
0
 71
3
 72
18
 73
14
 74
0
 42
0.0000001
 43
0.0000001
 44
0.0000000001
 40
0.0
 40
0.0
 40
0.0
 40
0.0
 40
0.0428457286
 40
0.087461712
 40
0.1352799156
 40
0.1872310417
 40
0.2437209799
 40
0.3047249229
 40
0.4383572423
 40
0.5826626371
 40
0.7297849496
 40
0.8713380139
 40
1.0
 40
1.0
 40
1.0
 40
1.0
 10
30.5858951694
 20
77.5270462782
 30
0.0
 10
30.5859075289
 20
77.6009145137
 30
0.0
 10
30.6056232986
 20
77.7523498093
 30
0.0
 10
30.6925183502
 20
77.9709828599
 30
0.0
 10
30.8333954184
 20
78.1782954469
 30
0.0
 10
31.0244239143
 20
78.3700830637
 30
0.0
 10
31.2611012395
 20
78.5430562506
 30
0.0
 10
31.6423695534
 20
78.7503531104
 30
0.0
 10
32.2010546492
 20
78.9369533117
 30
0.0
 10
32.9300689735
 20
79.0393218811
 30
0.0
 10
33.6799253352
 20
79.018599526
 30
0.0
 10
34.38876643
 20
78.8768031824
 30
0.0
 10
34.823712133
 20
78.6973479105
 30
0.0
 10
35.0158148634
 20
78.5864398565
 30
0.0
  0
SPLINE
  5
2DC
100
AcDbEntity
  8
0
100
AcDbSpline
 62
7
  6
CONTINUOUS
 70
0
 71
3
 72
18
 73
14
 74
0
 42
0.0000001
 43
0.0000001
 44
0.0000000001
 40
0.0
 40
0.0
 40
0.0
 40
0.0
 40
0.0428457286
 40
0.087461712
 40
0.1352799156
 40
0.1872310417
 40
0.2437209799
 40
0.3047249229
 40
0.4383572423
 40
0.5826626371
 40
0.7297849496
 40
0.8713380139
 40
1.0
 40
1.0
 40
1.0
 40
1.0
 10
41.9915750361
 20
70.9421229078
 30
0.0
 10
41.9915873955
 20
71.0159911433
 30
0.0
 10
42.0113031652
 20
71.1674264389
 30
0.0
 10
42.0981982168
 20
71.3860594895
 30
0.0
 10
42.239075285
 20
71.5933720765
 30
0.0
 10
42.430103781
 20
71.7851596933
 30
0.0
 10
42.6667811062
 20
71.9581328802
 30
0.0
 10
43.04804942
 20
72.1654297399
 30
0.0
 10
43.6067345158
 20
72.3520299413
 30
0.0
 10
44.3357488401
 20
72.4543985107
 30
0.0
 10
45.0856052018
 20
72.4336761556
 30
0.0
 10
45.7944462966
 20
72.291879812
 30
0.0
 10
46.2293919996
 20
72.1124245401
 30
0.0
 10
46.42149473
 20
72.0015164861
 30
0.0
  0
SPLINE
  5
2DD
100
AcDbEntity
  8
0
100
AcDbSpline
 62
7
  6
CONTINUOUS
 70
0
 71
3
 72
12
 73
8
 74
0
 42
0.0000001
 43
0.0000001
 44
0.0000000001
 40
0.0
 40
0.0
 40
0.0
 40
0.0
 40
0.1081625501
 40
0.2183724126
 40
0.4513398985
 40
0.7104787974
 40
1.0
 40
1.0
 40
1.0
 40
1.0
 10
43.0202260707
 20
87.9963174744
 30
0.0
 10
43.0202367332
 20
87.9362115317
 30
0.0
 10
43.0097693963
 20
87.8146084162
 30
0.0
 10
42.9465673115
 20
87.5708636888
 30
0.0
 10
42.7844847998
 20
87.2718850881
 30
0.0
 10
42.4824128327
 20
86.95473966
 30
0.0
 10
42.2296508945
 20
86.7805962033
 30
0.0
 10
42.0903184822
 20
86.7001530777
 30
0.0
  0
SPLINE
  5
2DE
100
AcDbEntity
  8
0
100
AcDbSpline
 62
7
  6
CONTINUOUS
 70
0
 71
3
 72
12
 73
8
 74
0
 42
0.0000001
 43
0.0000001
 44
0.0000000001
 40
0.0
 40
0.0
 40
0.0
 40
0.0
 40
0.1081625501
 40
0.2183724126
 40
0.4513398985
 40
0.7104787974
 40
1.0
 40
1.0
 40
1.0
 40
1.0
 10
65.8315858039
 20
74.8264707336
 30
0.0
 10
65.8315964665
 20
74.7663647909
 30
0.0
 10
65.8211291295
 20
74.6447616754
 30
0.0
 10
65.7579270447
 20
74.401016948
 30
0.0
 10
65.595844533
 20
74.1020383473
 30
0.0
 10
65.2937725659
 20
73.7848929191
 30
0.0
 10
65.0410106277
 20
73.6107494624
 30
0.0
 10
64.9016782155
 20
73.5303063369
 30
0.0
  0
SPLINE
  5
2DF
100
AcDbEntity
  8
0
100
AcDbSpline
 62
7
  6
CONTINUOUS
 70
0
 71
3
 72
18
 73
14
 74
0
 42
0.0000001
 43
0.0000001
 44
0.0000000001
 40
0.0
 40
0.0
 40
0.0
 40
0.0
 40
0.0428457286
 40
0.087461712
 40
0.1352799156
 40
0.1872310417
 40
0.2437209799
 40
0.3047249229
 40
0.4383572423
 40
0.5826626371
 40
0.7297849496
 40
0.8713380139
 40
1.0
 40
1.0
 40
1.0
 40
1.0
 10
19.1802153028
 20
84.1119696486
 30
0.0
 10
19.1802276622
 20
84.1858378841
 30
0.0
 10
19.199943432
 20
84.3372731797
 30
0.0
 10
19.2868384836
 20
84.5559062304
 30
0.0
 10
19.4277155518
 20
84.7632188173
 30
0.0
 10
19.6187440477
 20
84.9550064342
 30
0.0
 10
19.8554213729
 20
85.127979621
 30
0.0
 10
20.2366896868
 20
85.3352764808
 30
0.0
 10
20.7953747826
 20
85.5218766821
 30
0.0
 10
21.5243891068
 20
85.6242452515
 30
0.0
 10
22.2742454686
 20
85.6035228964
 30
0.0
 10
22.9830865634
 20
85.4617265528
 30
0.0
 10
23.4180322664
 20
85.2822712809
 30
0.0
 10
23.6101349968
 20
85.1713632269
 30
0.0
  0
SPLINE
  5
2E0
100
AcDbEntity
  8
0
100
AcDbSpline
 62
7
  6
CONTINUOUS
 70
0
 71
3
 72
15
 73
11
 74
0
 42
0.0000001
 43
0.0000001
 44
0.0000000001
 40
0.0
 40
0.0
 40
0.0
 40
0.0
 40
0.1512758739
 40
0.2904592843
 40
0.417939026
 40
0.5360414547
 40
0.6485225672
 40
0.7601535444
 40
0.8759259012
 40
1.0
 40
1.0
 40
1.0
 40
1.0
 10
64.3673507517
 20
78.1009360805
 30
0.0
 10
64.4505674967
 20
78.1489810038
 30
0.0
 10
64.604800586
 20
78.2515187362
 30
0.0
 10
64.8018597854
 20
78.431186139
 30
0.0
 10
64.9502918846
 20
78.6274259872
 30
0.0
 10
65.0457701068
 20
78.836160547
 30
0.0
 10
65.0847953378
 20
79.0525420743
 30
0.0
 10
65.0650613076
 20
79.2701251966
 30
0.0
 10
64.9879465773
 20
79.4819720125
 30
0.0
 10
64.9037393151
 20
79.610528147
 30
0.0
 10
64.8546460301
 20
79.6721815279
 30
0.0
  0
SPLINE
  5
2E1
100
AcDbEntity
  8
0
100
AcDbSpline
 62
7
  6
CONTINUOUS
 70
0
 71
3
 72
9
 73
5
 74
0
 42
0.0000001
 43
0.0000001
 44
0.0000000001
 40
0.0
 40
0.0
 40
0.0
 40
0.0
 40
0.231952598
 40
1.0
 40
1.0
 40
1.0
 40
1.0
 10
64.8546460301
 20
79.6721815279
 30
0.0
 10
64.8240534987
 20
79.7106008962
 30
0.0
 10
64.682489429
 20
79.8685436749
 30
0.0
 10
64.5082035795
 20
79.9949588394
 30
0.0
 10
64.3673703319
 20
80.0762677891
 30
0.0
  0
SPLINE
  5
2E2
100
AcDbEntity
  8
0
100
AcDbSpline
 62
7
  6
CONTINUOUS
 70
0
 71
3
 72
9
 73
5
 74
0
 42
0.0000001
 43
0.0000001
 44
0.0000000001
 40
0.0
 40
0.0
 40
0.0
 40
0.0
 40
0.2688989293
 40
1.0
 40
1.0
 40
1.0
 40
1.0
 10
60.9458589246
 20
80.0762906193
 30
0.0
 10
60.8965711742
 20
80.0478344933
 30
0.0
 10
60.7175209739
 20
79.9352581589
 30
0.0
 10
60.5549791906
 20
79.7932883935
 30
0.0
 10
60.458575842
 20
79.6722506225
 30
0.0
  0
SPLINE
  5
2E3
100
AcDbEntity
  8
0
100
AcDbSpline
 62
7
  6
CONTINUOUS
 70
0
 71
3
 72
21
 73
17
 74
0
 42
0.0000001
 43
0.0000001
 44
0.0000000001
 40
0.0
 40
0.0
 40
0.0
 40
0.0
 40
0.0493333143
 40
0.0951211992
 40
0.1396574163
 40
0.1855747818
 40
0.2351446965
 40
0.2897962412
 40
0.35008044
 40
0.4158232481
 40
0.4862982649
 40
0.5604025661
 40
0.7137241983
 40
0.8639183671
 40
0.9343705905
 40
1.0
 40
1.0
 40
1.0
 40
1.0
 10
60.458575842
 20
79.6722506225
 30
0.0
 10
60.4026713862
 20
79.6020606258
 30
0.0
 10
60.3086573482
 20
79.4544042743
 30
0.0
 10
60.233394888
 20
79.2081531013
 30
0.0
 10
60.2353405659
 20
78.9563816381
 30
0.0
 10
60.314514723
 20
78.7105902954
 30
0.0
 10
60.4655133277
 20
78.4798156543
 30
0.0
 10
60.681456748
 20
78.2698899458
 30
0.0
 10
60.9553415438
 20
78.0856628955
 30
0.0
 10
61.2791893745
 20
77.931837635
 30
0.0
 10
61.6436221328
 20
77.8124819816
 30
0.0
 10
62.1752092381
 20
77.7027467695
 30
0.0
 10
62.8660653829
 20
77.670008651
 30
0.0
 10
63.5442457208
 20
77.7707667619
 30
0.0
 10
64.039752431
 20
77.9341405688
 30
0.0
 10
64.2639699604
 20
78.0412495091
 30
0.0
 10
64.3673507517
 20
78.1009360805
 30
0.0
  0
SPLINE
  5
2E4
100
AcDbEntity
  8
0
100
AcDbSpline
 62
7
  6
CONTINUOUS
 70
0
 71
3
 72
12
 73
8
 74
0
 42
0.0000001
 43
0.0000001
 44
0.0000000001
 40
0.0
 40
0.0
 40
0.0
 40
0.0
 40
0.2895257386
 40
0.5486594331
 40
0.7816253273
 40
0.8918354141
 40
1.0
 40
1.0
 40
1.0
 40
1.0
 10
64.9016782155
 20
77.1754589028
 30
0.0
 10
65.0410132723
 20
77.2559035552
 30
0.0
 10
65.2937764342
 20
77.4300461303
 30
0.0
 10
65.595849296
 20
77.7471918575
 30
0.0
 10
65.7579298003
 20
78.0461666643
 30
0.0
 10
65.8211434075
 20
78.289910406
 30
0.0
 10
65.831603223
 20
78.4115160245
 30
0.0
 10
65.8315926222
 20
78.4716232977
 30
0.0
  0
SPLINE
  5
2E5
100
AcDbEntity
  8
0
100
AcDbSpline
 62
7
  6
CONTINUOUS
 70
0
 71
3
 72
15
 73
11
 74
0
 42
0.0000001
 43
0.0000001
 44
0.0000000001
 40
0.0
 40
0.0
 40
0.0
 40
0.0
 40
0.1512758739
 40
0.2904592843
 40
0.417939026
 40
0.5360414547
 40
0.6485225672
 40
0.7601535444
 40
0.8759259012
 40
1.0
 40
1.0
 40
1.0
 40
1.0
 10
52.961670885
 20
84.6858594509
 30
0.0
 10
53.04488763
 20
84.7339043742
 30
0.0
 10
53.1991207193
 20
84.8364421066
 30
0.0
 10
53.3961799188
 20
85.0161095094
 30
0.0
 10
53.544612018
 20
85.2123493576
 30
0.0
 10
53.6400902402
 20
85.4210839174
 30
0.0
 10
53.6791154712
 20
85.6374654447
 30
0.0
 10
53.659381441
 20
85.855048567
 30
0.0
 10
53.5822667107
 20
86.0668953829
 30
0.0
 10
53.4980594485
 20
86.1954515174
 30
0.0
 10
53.4489661635
 20
86.2571048983
 30
0.0
  0
SPLINE
  5
2E6
100
AcDbEntity
  8
0
100
AcDbSpline
 62
7
  6
CONTINUOUS
 70
0
 71
3
 72
9
 73
5
 74
0
 42
0.0000001
 43
0.0000001
 44
0.0000000001
 40
0.0
 40
0.0
 40
0.0
 40
0.0
 40
0.231952598
 40
1.0
 40
1.0
 40
1.0
 40
1.0
 10
53.4489661635
 20
86.2571048983
 30
0.0
 10
53.4183736321
 20
86.2955242666
 30
0.0
 10
53.2768095623
 20
86.4534670453
 30
0.0
 10
53.1025237129
 20
86.5798822098
 30
0.0
 10
52.9616904652
 20
86.6611911595
 30
0.0
  0
SPLINE
  5
2E7
100
AcDbEntity
  8
0
100
AcDbSpline
 62
7
  6
CONTINUOUS
 70
0
 71
3
 72
9
 73
5
 74
0
 42
0.0000001
 43
0.0000001
 44
0.0000000001
 40
0.0
 40
0.0
 40
0.0
 40
0.0
 40
0.2688989293
 40
1.0
 40
1.0
 40
1.0
 40
1.0
 10
49.540179058
 20
86.6612139898
 30
0.0
 10
49.4908913076
 20
86.6327578637
 30
0.0
 10
49.3118411073
 20
86.5201815293
 30
0.0
 10
49.149299324
 20
86.378211764
 30
0.0
 10
49.0528959754
 20
86.2571739929
 30
0.0
  0
SPLINE
  5
2E8
100
AcDbEntity
  8
0
100
AcDbSpline
 62
7
  6
CONTINUOUS
 70
0
 71
3
 72
21
 73
17
 74
0
 42
0.0000001
 43
0.0000001
 44
0.0000000001
 40
0.0
 40
0.0
 40
0.0
 40
0.0
 40
0.0493333143
 40
0.0951211992
 40
0.1396574163
 40
0.1855747818
 40
0.2351446965
 40
0.2897962412
 40
0.35008044
 40
0.4158232481
 40
0.4862982649
 40
0.5604025661
 40
0.7137241983
 40
0.8639183671
 40
0.9343705905
 40
1.0
 40
1.0
 40
1.0
 40
1.0
 10
49.0528959754
 20
86.2571739929
 30
0.0
 10
48.9969915196
 20
86.1869839962
 30
0.0
 10
48.9029774816
 20
86.0393276447
 30
0.0
 10
48.8277150214
 20
85.7930764717
 30
0.0
 10
48.8296606993
 20
85.5413050085
 30
0.0
 10
48.9088348564
 20
85.2955136658
 30
0.0
 10
49.059833461
 20
85.0647390247
 30
0.0
 10
49.2757768814
 20
84.8548133162
 30
0.0
 10
49.5496616772
 20
84.6705862659
 30
0.0
 10
49.8735095078
 20
84.5167610055
 30
0.0
 10
50.2379422662
 20
84.397405352
 30
0.0
 10
50.7695293714
 20
84.2876701399
 30
0.0
 10
51.4603855162
 20
84.2549320214
 30
0.0
 10
52.1385658542
 20
84.3556901323
 30
0.0
 10
52.6340725644
 20
84.5190639392
 30
0.0
 10
52.8582900938
 20
84.6261728795
 30
0.0
 10
52.961670885
 20
84.6858594509
 30
0.0
  0
SPLINE
  5
2E9
100
AcDbEntity
  8
0
100
AcDbSpline
 62
7
  6
CONTINUOUS
 70
0
 71
3
 72
12
 73
8
 74
0
 42
0.0000001
 43
0.0000001
 44
0.0000000001
 40
0.0
 40
0.0
 40
0.0
 40
0.0
 40
0.2895257386
 40
0.5486594331
 40
0.7816253273
 40
0.8918354141
 40
1.0
 40
1.0
 40
1.0
 40
1.0
 10
53.4959983488
 20
83.7603822732
 30
0.0
 10
53.6353334057
 20
83.8408269256
 30
0.0
 10
53.8880965676
 20
84.0149695007
 30
0.0
 10
54.1901694294
 20
84.332115228
 30
0.0
 10
54.3522499337
 20
84.6310900347
 30
0.0
 10
54.4154635409
 20
84.8748337764
 30
0.0
 10
54.4259233564
 20
84.9964393949
 30
0.0
 10
54.4259127556
 20
85.0565466681
 30
0.0
  0
SPLINE
  5
2EA
100
AcDbEntity
  8
0
100
AcDbSpline
 62
7
  6
CONTINUOUS
 70
0
 71
3
 72
15
 73
11
 74
0
 42
0.0000001
 43
0.0000001
 44
0.0000000001
 40
0.0
 40
0.0
 40
0.0
 40
0.0
 40
0.1512758739
 40
0.2904592843
 40
0.417939026
 40
0.5360414547
 40
0.6485225672
 40
0.7601535444
 40
0.8759259012
 40
1.0
 40
1.0
 40
1.0
 40
1.0
 10
41.5559910184
 20
91.2707828213
 30
0.0
 10
41.6392077634
 20
91.3188277446
 30
0.0
 10
41.7934408527
 20
91.421365477
 30
0.0
 10
41.9905000522
 20
91.6010328798
 30
0.0
 10
42.1389321514
 20
91.797272728
 30
0.0
 10
42.2344103735
 20
92.0060072879
 30
0.0
 10
42.2734356045
 20
92.2223888151
 30
0.0
 10
42.2537015744
 20
92.4399719374
 30
0.0
 10
42.1765868441
 20
92.6518187534
 30
0.0
 10
42.0923795818
 20
92.7803748878
 30
0.0
 10
42.0432862969
 20
92.8420282687
 30
0.0
  0
SPLINE
  5
2EB
100
AcDbEntity
  8
0
100
AcDbSpline
 62
7
  6
CONTINUOUS
 70
0
 71
3
 72
9
 73
5
 74
0
 42
0.0000001
 43
0.0000001
 44
0.0000000001
 40
0.0
 40
0.0
 40
0.0
 40
0.0
 40
0.231952598
 40
1.0
 40
1.0
 40
1.0
 40
1.0
 10
42.0432862969
 20
92.8420282687
 30
0.0
 10
42.0126937655
 20
92.880447637
 30
0.0
 10
41.8711296957
 20
93.0383904157
 30
0.0
 10
41.6968438463
 20
93.1648055802
 30
0.0
 10
41.5560105986
 20
93.2461145299
 30
0.0
  0
SPLINE
  5
2EC
100
AcDbEntity
  8
0
100
AcDbSpline
 62
7
  6
CONTINUOUS
 70
0
 71
3
 72
9
 73
5
 74
0
 42
0.0000001
 43
0.0000001
 44
0.0000000001
 40
0.0
 40
0.0
 40
0.0
 40
0.0
 40
0.2688989293
 40
1.0
 40
1.0
 40
1.0
 40
1.0
 10
38.1344991913
 20
93.2461373602
 30
0.0
 10
38.085211441
 20
93.2176812341
 30
0.0
 10
37.9061612407
 20
93.1051048997
 30
0.0
 10
37.7436194574
 20
92.9631351344
 30
0.0
 10
37.6472161087
 20
92.8420973633
 30
0.0
  0
SPLINE
  5
2ED
100
AcDbEntity
  8
0
100
AcDbSpline
 62
7
  6
CONTINUOUS
 70
0
 71
3
 72
21
 73
17
 74
0
 42
0.0000001
 43
0.0000001
 44
0.0000000001
 40
0.0
 40
0.0
 40
0.0
 40
0.0
 40
0.0493333143
 40
0.0951211992
 40
0.1396574163
 40
0.1855747818
 40
0.2351446965
 40
0.2897962412
 40
0.35008044
 40
0.4158232481
 40
0.4862982649
 40
0.5604025661
 40
0.7137241983
 40
0.8639183671
 40
0.9343705905
 40
1.0
 40
1.0
 40
1.0
 40
1.0
 10
37.6472161087
 20
92.8420973633
 30
0.0
 10
37.591311653
 20
92.7719073666
 30
0.0
 10
37.497297615
 20
92.6242510151
 30
0.0
 10
37.4220351547
 20
92.3779998421
 30
0.0
 10
37.4239808327
 20
92.1262283789
 30
0.0
 10
37.5031549898
 20
91.8804370362
 30
0.0
 10
37.6541535944
 20
91.6496623951
 30
0.0
 10
37.8700970148
 20
91.4397366866
 30
0.0
 10
38.1439818106
 20
91.2555096363
 30
0.0
 10
38.4678296412
 20
91.1016843759
 30
0.0
 10
38.8322623995
 20
90.9823287224
 30
0.0
 10
39.3638495048
 20
90.8725935103
 30
0.0
 10
40.0547056496
 20
90.8398553918
 30
0.0
 10
40.7328859876
 20
90.9406135027
 30
0.0
 10
41.2283926978
 20
91.1039873096
 30
0.0
 10
41.4526102272
 20
91.2110962499
 30
0.0
 10
41.5559910184
 20
91.2707828213
 30
0.0
  0
SPLINE
  5
2EE
100
AcDbEntity
  8
0
100
AcDbSpline
 62
7
  6
CONTINUOUS
 70
0
 71
3
 72
12
 73
8
 74
0
 42
0.0000001
 43
0.0000001
 44
0.0000000001
 40
0.0
 40
0.0
 40
0.0
 40
0.0
 40
0.2895257386
 40
0.5486594331
 40
0.7816253273
 40
0.8918354141
 40
1.0
 40
1.0
 40
1.0
 40
1.0
 10
42.0903184822
 20
90.3453056436
 30
0.0
 10
42.229653539
 20
90.425750296
 30
0.0
 10
42.482416701
 20
90.5998928711
 30
0.0
 10
42.7844895628
 20
90.9170385984
 30
0.0
 10
42.946570067
 20
91.2160134052
 30
0.0
 10
43.0097836743
 20
91.4597571468
 30
0.0
 10
43.0202434898
 20
91.5813627654
 30
0.0
 10
43.020232889
 20
91.6414700385
 30
0.0
  0
SPLINE
  5
2EF
100
AcDbEntity
  8
0
100
AcDbSpline
 62
7
  6
CONTINUOUS
 70
0
 71
3
 72
11
 73
7
 74
0
 42
0.0000001
 43
0.0000001
 44
0.0000000001
 40
0.0
 40
0.0
 40
0.0
 40
0.0
 40
0.289749704
 40
0.5490840992
 40
0.7822247259
 40
1.0
 40
1.0
 40
1.0
 40
1.0
 10
59.7502241281
 20
104.3710927181
 30
0.0
 10
59.8641091674
 20
104.3053426475
 30
0.0
 10
60.0707079682
 20
104.1630801473
 30
0.0
 10
60.317585034
 20
103.903577624
 30
0.0
 10
60.4737429806
 20
103.6165537228
 30
0.0
 10
60.5102914441
 20
103.4105360457
 30
0.0
 10
60.510274907
 20
103.3116991378
 30
0.0
  0
SPLINE
  5
2F0
100
AcDbEntity
  8
0
100
AcDbSpline
 62
7
  6
CONTINUOUS
 70
0
 71
3
 72
20
 73
16
 74
0
 42
0.0000001
 43
0.0000001
 44
0.0000000001
 40
0.0
 40
0.0
 40
0.0
 40
0.0
 40
0.0623912505
 40
0.1288087817
 40
0.2703023578
 40
0.4173648387
 40
0.5616180623
 40
0.6302547768
 40
0.6953816705
 40
0.7563641317
 40
0.8128333332
 40
0.8647657797
 40
0.9125671828
 40
0.9571679578
 40
1.0
 40
1.0
 40
1.0
 40
1.0
 10
64.9016782155
 20
73.5303063369
 30
0.0
 10
64.7876592623
 20
73.4644778565
 30
0.0
 10
64.5431448552
 20
73.3439839629
 30
0.0
 10
64.0060940797
 20
73.1493219955
 30
0.0
 10
63.2668914972
 20
73.0015043267
 30
0.0
 10
62.3501398063
 20
72.9761945868
 30
0.0
 10
61.5935478669
 20
73.0822826324
 30
0.0
 10
61.0290342468
 20
73.2449544521
 30
0.0
 10
60.6470804275
 20
73.3988017953
 30
0.0
 10
60.3077829233
 20
73.5833645684
 30
0.0
 10
60.0182032685
 20
73.794978464
 30
0.0
 10
59.7844641892
 20
74.0296334926
 30
0.0
 10
59.6120907193
 20
74.2832859196
 30
0.0
 10
59.5057686471
 20
74.5507961098
 30
0.0
 10
59.4816399061
 20
74.7360868777
 30
0.0
 10
59.4816238724
 20
74.8264707314
 30
0.0
  0
SPLINE
  5
2F1
100
AcDbEntity
  8
0
100
AcDbSpline
 62
7
  6
CONTINUOUS
 70
0
 71
3
 72
20
 73
16
 74
0
 42
0.0000001
 43
0.0000001
 44
0.0000000001
 40
0.0
 40
0.0
 40
0.0
 40
0.0
 40
0.0623912505
 40
0.1288087817
 40
0.2703023578
 40
0.4173648387
 40
0.5616180623
 40
0.6302547768
 40
0.6953816705
 40
0.7563641317
 40
0.8128333332
 40
0.8647657797
 40
0.9125671828
 40
0.9571679578
 40
1.0
 40
1.0
 40
1.0
 40
1.0
 10
53.4959983488
 20
80.1152297073
 30
0.0
 10
53.3819793957
 20
80.0494012269
 30
0.0
 10
53.1374649886
 20
79.9289073333
 30
0.0
 10
52.6004142131
 20
79.7342453659
 30
0.0
 10
51.8612116306
 20
79.5864276971
 30
0.0
 10
50.9444599397
 20
79.5611179572
 30
0.0
 10
50.1878680002
 20
79.6672060028
 30
0.0
 10
49.6233543802
 20
79.8298778225
 30
0.0
 10
49.2414005609
 20
79.9837251657
 30
0.0
 10
48.9021030567
 20
80.1682879389
 30
0.0
 10
48.6125234019
 20
80.3799018344
 30
0.0
 10
48.3787843225
 20
80.614556863
 30
0.0
 10
48.2064108526
 20
80.86820929
 30
0.0
 10
48.1000887805
 20
81.1357194802
 30
0.0
 10
48.0759600395
 20
81.3210102481
 30
0.0
 10
48.0759440057
 20
81.4113941018
 30
0.0
  0
SPLINE
  5
2F2
100
AcDbEntity
  8
0
100
AcDbSpline
 62
7
  6
CONTINUOUS
 70
0
 71
3
 72
20
 73
16
 74
0
 42
0.0000001
 43
0.0000001
 44
0.0000000001
 40
0.0
 40
0.0
 40
0.0
 40
0.0
 40
0.0623912505
 40
0.1288087817
 40
0.2703023578
 40
0.4173648387
 40
0.5616180623
 40
0.6302547768
 40
0.6953816705
 40
0.7563641317
 40
0.8128333332
 40
0.8647657797
 40
0.9125671828
 40
0.9571679578
 40
1.0
 40
1.0
 40
1.0
 40
1.0
 10
42.0903184822
 20
86.7001530777
 30
0.0
 10
41.9762995291
 20
86.6343245974
 30
0.0
 10
41.731785122
 20
86.5138307037
 30
0.0
 10
41.1947343465
 20
86.3191687363
 30
0.0
 10
40.4555317639
 20
86.1713510675
 30
0.0
 10
39.5387800731
 20
86.1460413276
 30
0.0
 10
38.7821881336
 20
86.2521293732
 30
0.0
 10
38.2176745136
 20
86.4148011929
 30
0.0
 10
37.8357206943
 20
86.5686485362
 30
0.0
 10
37.49642319
 20
86.7532113093
 30
0.0
 10
37.2068435353
 20
86.9648252048
 30
0.0
 10
36.9731044559
 20
87.1994802334
 30
0.0
 10
36.800730986
 20
87.4531326604
 30
0.0
 10
36.6944089139
 20
87.7206428506
 30
0.0
 10
36.6702801729
 20
87.9059336185
 30
0.0
 10
36.6702641391
 20
87.9963174722
 30
0.0
  0
SPLINE
  5
2F3
100
AcDbEntity
  8
0
100
AcDbSpline
 62
7
  6
CONTINUOUS
 70
0
 71
3
 72
20
 73
16
 74
0
 42
0.0000001
 43
0.0000001
 44
0.0000000001
 40
0.0
 40
0.0
 40
0.0
 40
0.0
 40
0.0428320236
 40
0.0874328745
 40
0.1352341512
 40
0.1871668419
 40
0.243636826
 40
0.3046198626
 40
0.3697471154
 40
0.4383835933
 40
0.5826379248
 40
0.7297025141
 40
0.8711936541
 40
0.9376097275
 40
1.0
 40
1.0
 40
1.0
 40
1.0
 10
48.0759371874
 20
85.0565466695
 30
0.0
 10
48.0759531279
 20
84.9661626364
 30
0.0
 10
48.1000748461
 20
84.7808704299
 30
0.0
 10
48.2063996297
 20
84.5133598047
 30
0.0
 10
48.3787736124
 20
84.2597070376
 30
0.0
 10
48.6125122891
 20
84.025047401
 30
0.0
 10
48.90209804
 20
83.8134345371
 30
0.0
 10
49.241398157
 20
83.6288672895
 30
0.0
 10
49.6233556771
 20
83.4750220627
 30
0.0
 10
50.1878734325
 20
83.312350396
 30
0.0
 10
50.9444741781
 20
83.2062662931
 30
0.0
 10
51.8612298801
 20
83.2315776774
 30
0.0
 10
52.6004290839
 20
83.3794017648
 30
0.0
 10
53.1374710305
 20
83.5740617824
 30
0.0
 10
53.3819809072
 20
83.6945546655
 30
0.0
 10
53.4959983488
 20
83.7603822732
 30
0.0
  0
SPLINE
  5
2F4
100
AcDbEntity
  8
0
100
AcDbSpline
 62
7
  6
CONTINUOUS
 70
0
 71
3
 72
11
 73
7
 74
0
 42
0.0000001
 43
0.0000001
 44
0.0000000001
 40
0.0
 40
0.0
 40
0.0
 40
0.0
 40
0.289749704
 40
0.5490840992
 40
0.7822247259
 40
1.0
 40
1.0
 40
1.0
 40
1.0
 10
25.0526388361
 20
84.3385520877
 30
0.0
 10
25.1665238753
 20
84.2728020171
 30
0.0
 10
25.3731226761
 20
84.1305395168
 30
0.0
 10
25.6199997419
 20
83.8710369936
 30
0.0
 10
25.7761576885
 20
83.5840130923
 30
0.0
 10
25.812706152
 20
83.3779954152
 30
0.0
 10
25.8126896149
 20
83.2791585073
 30
0.0
  0
SPLINE
  5
2F5
100
AcDbEntity
  8
0
100
AcDbSpline
 62
7
  6
CONTINUOUS
 70
0
 71
3
 72
11
 73
7
 74
0
 42
0.0000001
 43
0.0000001
 44
0.0000000001
 40
0.0
 40
0.0
 40
0.0
 40
0.0
 40
0.289749704
 40
0.5490840992
 40
0.7822247259
 40
1.0
 40
1.0
 40
1.0
 40
1.0
 10
82.5615838614
 20
91.2012459773
 30
0.0
 10
82.6754689006
 20
91.1354959067
 30
0.0
 10
82.8820677015
 20
90.9932334065
 30
0.0
 10
83.1289447672
 20
90.7337308832
 30
0.0
 10
83.2851027138
 20
90.446706982
 30
0.0
 10
83.3216511773
 20
90.2406893048
 30
0.0
 10
83.3216346402
 20
90.141852397
 30
0.0
  0
SPLINE
  5
2F6
100
AcDbEntity
  8
0
100
AcDbSpline
 62
7
  6
CONTINUOUS
 70
0
 71
3
 72
12
 73
8
 74
0
 42
0.0000001
 43
0.0000001
 44
0.0000000001
 40
0.0
 40
0.0
 40
0.0
 40
0.0
 40
0.1081625501
 40
0.2183724126
 40
0.4513398985
 40
0.7104787974
 40
1.0
 40
1.0
 40
1.0
 40
1.0
 10
54.4259059373
 20
81.411394104
 30
0.0
 10
54.4259165999
 20
81.3512881613
 30
0.0
 10
54.4154492629
 20
81.2296850458
 30
0.0
 10
54.3522471781
 20
80.9859403184
 30
0.0
 10
54.1901646664
 20
80.6869617177
 30
0.0
 10
53.8880926993
 20
80.3698162895
 30
0.0
 10
53.6353307611
 20
80.1956728328
 30
0.0
 10
53.4959983488
 20
80.1152297073
 30
0.0
  0
SPLINE
  5
2F7
100
AcDbEntity
  8
0
100
AcDbSpline
 62
7
  6
CONTINUOUS
 70
0
 71
3
 72
20
 73
16
 74
0
 42
0.0000001
 43
0.0000001
 44
0.0000000001
 40
0.0
 40
0.0
 40
0.0
 40
0.0
 40
0.0428320236
 40
0.0874328745
 40
0.1352341512
 40
0.1871668419
 40
0.243636826
 40
0.3046198626
 40
0.3697471154
 40
0.4383835933
 40
0.5826379248
 40
0.7297025141
 40
0.8711936541
 40
0.9376097275
 40
1.0
 40
1.0
 40
1.0
 40
1.0
 10
59.481617054
 20
78.4716232991
 30
0.0
 10
59.4816329946
 20
78.381239266
 30
0.0
 10
59.5057547128
 20
78.1959470594
 30
0.0
 10
59.6120794964
 20
77.9284364343
 30
0.0
 10
59.7844534791
 20
77.6747836672
 30
0.0
 10
60.0181921557
 20
77.4401240306
 30
0.0
 10
60.3077779066
 20
77.2285111667
 30
0.0
 10
60.6470780236
 20
77.0439439191
 30
0.0
 10
61.0290355437
 20
76.8900986923
 30
0.0
 10
61.5935532991
 20
76.7274270255
 30
0.0
 10
62.3501540447
 20
76.6213429227
 30
0.0
 10
63.2669097467
 20
76.646654307
 30
0.0
 10
64.0061089505
 20
76.7944783943
 30
0.0
 10
64.5431508971
 20
76.989138412
 30
0.0
 10
64.7876607739
 20
77.1096312951
 30
0.0
 10
64.9016782155
 20
77.1754589028
 30
0.0
  0
SPLINE
  5
2F8
100
AcDbEntity
  8
0
100
AcDbSpline
 62
7
  6
CONTINUOUS
 70
0
 71
3
 72
11
 73
7
 74
0
 42
0.0000001
 43
0.0000001
 44
0.0000000001
 40
0.0
 40
0.0
 40
0.0
 40
0.0
 40
0.289749704
 40
0.5490840992
 40
0.7822247259
 40
1.0
 40
1.0
 40
1.0
 40
1.0
 10
71.1559039948
 20
97.7861693477
 30
0.0
 10
71.269789034
 20
97.7204192771
 30
0.0
 10
71.4763878349
 20
97.5781567769
 30
0.0
 10
71.7232649006
 20
97.3186542536
 30
0.0
 10
71.8794228472
 20
97.0316303524
 30
0.0
 10
71.9159713107
 20
96.8256126752
 30
0.0
 10
71.9159547736
 20
96.7267757674
 30
0.0
  0
SPLINE
  5
2F9
100
AcDbEntity
  8
0
100
AcDbSpline
 62
7
  6
CONTINUOUS
 70
0
 71
3
 72
18
 73
14
 74
0
 42
0.0000001
 43
0.0000001
 44
0.0000000001
 40
0.0
 40
0.0
 40
0.0
 40
0.0
 40
0.0428457286
 40
0.087461712
 40
0.1352799156
 40
0.1872310417
 40
0.2437209799
 40
0.3047249229
 40
0.4383572423
 40
0.5826626371
 40
0.7297849496
 40
0.8713380139
 40
1.0
 40
1.0
 40
1.0
 40
1.0
 10
65.2834804615
 20
97.5595869087
 30
0.0
 10
65.283492821
 20
97.6334551442
 30
0.0
 10
65.3032085907
 20
97.7848904398
 30
0.0
 10
65.3901036423
 20
98.0035234904
 30
0.0
 10
65.5309807105
 20
98.2108360773
 30
0.0
 10
65.7220092064
 20
98.4026236942
 30
0.0
 10
65.9586865316
 20
98.5755968811
 30
0.0
 10
66.3399548455
 20
98.7828937408
 30
0.0
 10
66.8986399413
 20
98.9694939422
 30
0.0
 10
67.6276542655
 20
99.0718625116
 30
0.0
 10
68.3775106273
 20
99.0511401565
 30
0.0
 10
69.0863517221
 20
98.9093438129
 30
0.0
 10
69.5212974251
 20
98.729888541
 30
0.0
 10
69.7134001555
 20
98.6189804869
 30
0.0
  0
ENDSEC
  0
SECTION
  2
OBJECTS
  0
DICTIONARY
  5
C
100
AcDbDictionary
280
0
281
1
  3
ACAD_GROUP
350
D
  3
ACAD_MLINESTYLE
350
17
  3
ACAD_LAYOUT
350
1A
  3
ACAD_PLOTSETTINGS
350
19
  3
ACAD_PLOTSTYLENAME
350
E
  0
DICTIONARY
  5
D
102
{ACAD_REACTORS
330
C
102
}
100
AcDbDictionary
280
0
281
1
  0
ACDBDICTIONARYWDFLT
  5
E
102
{ACAD_REACTORS
330
C
102
}
100
AcDbDictionary
281
1
  3
Normal
350
F
100
AcDbDictionaryWithDefault
340
F
  0
DICTIONARY
  5
17
102
{ACAD_REACTORS
330
C
102
}
100
AcDbDictionary
280
0
281
1
  3
Standard
350
18
  0
DICTIONARY
  5
19
102
{ACAD_REACTORS
330
C
102
}
100
AcDbDictionary
281
1
  0
DICTIONARY
  5
1A
102
{ACAD_REACTORS
330
C
102
}
100
AcDbDictionary
281
1
  3
Model
350
2FA
  3
Layout1
350
2FB
  0
ACDBPLACEHOLDER
  5
F
102
{ACAD_REACTORS
330
E
102
}
  0
MLINESTYLE
  5
18
102
{ACAD_REACTORS
330
17
102
}
100
AcDbMlineStyle
  2
STANDARD
 70
0
  3

 62
256
 51
90.0
 52
90.0
 71
2
 49
0.5
 62
256
  6
BYLAYER
 49
-0.5
 62
256
  6
BYLAYER
  0
LAYOUT
  5
2FA
102
{ACAD_REACTORS
330
1A
102
}
100
AcDbPlotSettings
  1

  2
none_device
  4

  6

 40
0.0
 41
0.0
 42
0.0
 43
0.0
 44
210.0
 45
297.0
 46
0.0
 47
0.0
 48
0.0
 49
0.0
140
0.0
141
0.0
142
1.0
143
1.0
 70
1024
 72
1
 73
0
 74
0
  7

 75
0
147
1.0
148
0.0
149
0.0
100
AcDbLayout
  1
Model
 70
0
 71
0
 10
0.0
 20
0.0
 11
210.0
 21
297.0
 12
0.0
 22
0.0
 32
0.0
 14
0.0
 24
0.0
 34
0.0
 15
0.0
 25
0.0
 35
0.0
146
0.0
 13
0.0
 23
0.0
 33
0.0
 16
1.0
 26
0.0
 36
0.0
 17
0.0
 27
1.0
 37
0.0
 76
0
330
211
345
0
346
0
  0
LAYOUT
  5
2FB
102
{ACAD_REACTORS
330
1A
102
}
100
AcDbPlotSettings
  1

  2
none_device
  4

  6

 40
0.0
 41
0.0
 42
0.0
 43
0.0
 44
210.0
 45
297.0
 46
0.0
 47
0.0
 48
0.0
 49
0.0
140
0.0
141
0.0
142
1.0
143
1.0
 70
0
 72
1
 73
0
 74
0
  7

 75
0
147
1.0
148
0.0
149
0.0
100
AcDbLayout
  1
Layout1
 70
0
 71
1
 10
0.0
 20
0.0
 11
210.0
 21
297.0
 12
0.0
 22
0.0
 32
0.0
 14
0.0
 24
0.0
 34
0.0
 15
0.0
 25
0.0
 35
0.0
146
0.0
 13
0.0
 23
0.0
 33
0.0
 16
1.0
 26
0.0
 36
0.0
 17
0.0
 27
1.0
 37
0.0
 76
0
330
212
345
0
346
0
  0
ENDSEC
  0
EOF
