999
DXF file: C:\Users\sesa63760\OneDrive - Schneider Electric\Documents\7-Dev\_Creo\CAD\MCADUE0000133\drw0001_5.dxf
999
Pro/ENGINEER 2019471 by Parametric Technology Corporation
  0
SECTION
  2
HEADER
  9
$ACADVER
  1
AC1024
  9
$DWGCODEPAGE
  3
ANSI_1252
  9
$EXTMAX
 10
61.291630906
 20
86.6838779956
 30
0.0
  9
$EXTMIN
 10
0.0
 20
0.0
 30
0.0
  9
$LIMMIN
 10
0.0
 20
0.0
  9
$LIMMAX
 10
61.291630906
 20
86.6838779956
  9
$VIEWCTR
 10
30.645815453
 20
43.3419389978
  9
$VIEWSIZE
 40
86.6838779956
  9
$CLAYER
  8
0
  9
$LTSCALE
 40
5.6505046397
  9
$CELTYPE
  6
BYLAYER
  9
$DIMSCALE
 40
1.0
  9
$DIMASZ
 40
0.7296622727
  9
$DIMEXO
 40
1.0
  9
$DIMDLI
 40
3.9039850238
  9
$DIMEXE
 40
1.0
  9
$DIMCEN
 40
0.924628032
  9
$DIMLFAC
 40
1.0
  9
$DIMBLK
  1
_FILLED
  9
$DIMALT
 70
0
  9
$DIMALTF
 40
0.0393700787
  9
$DIMTXT
 40
1.0215271818
  9
$DIMTOL
 70
1
  9
$DIMLIM
 70
0
  9
$DIMTFAC
 40
1.0
  9
$DIMTP
 40
0.01
  9
$DIMTM
 40
0.01
  9
$DIMGAP
 40
0.625
  9
$DIMDSEP
 70
46
  9
$AUNITS
 70
0
  9
$PDMODE
 70
3
  9
$PDSIZE
 40
0.3125
  9
$HANDSEED
  5
29C
  9
$TILEMODE
 70
1
  9
$MEASUREMENT
 70
1
  9
$INSUNITS
 70
4
  0
ENDSEC
  0
SECTION
  2
CLASSES
  0
CLASS
  1
ACDBDICTIONARYWDFLT
  2
AcDbDictionaryWithDefault
  3
AutoCAD 2000
 90
0
 91
1
280
0
281
0
  0
CLASS
  1
ACDBPLACEHOLDER
  2
AcDbPlaceHolder
  3
AutoCAD 2000
 90
0
 91
1
280
0
281
0
  0
CLASS
  1
LAYOUT
  2
AcDbLayout
  3
AutoCAD 2000
 90
0
 91
0
280
0
281
0
  0
ENDSEC
  0
SECTION
  2
TABLES
  0
TABLE
  2
VPORT
  5
8
100
AcDbSymbolTable
 70
2
  0
VPORT
  5
1F4
100
AcDbSymbolTableRecord
100
AcDbViewportTableRecord
  2
*ACTIVE
 70
0
 10
0.0
 20
0.0
 11
1.0
 21
1.0
 12
30.645815453
 22
43.3419389978
 13
0.0
 23
0.0
 14
1.0
 24
1.0
 15
0.0
 25
0.0
 16
0.0
 26
0.0
 36
1.0
 17
0.0
 27
0.0
 37
0.0
 40
86.6838779956
 41
0.7070707071
 42
50.0
 43
0.0
 44
0.0
 50
0.0
 51
0.0
 71
0
 72
100
 73
1
 74
1
 75
0
 76
0
 77
0
 78
0
  0
ENDTAB
  0
TABLE
  2
LTYPE
  5
5
100
AcDbSymbolTable
 70
6
  0
LTYPE
  5
14
100
AcDbSymbolTableRecord
100
AcDbLinetypeTableRecord
  2
BYBLOCK
 70
0
  3

 72
65
 73
0
 40
0.0
  0
LTYPE
  5
15
100
AcDbSymbolTableRecord
100
AcDbLinetypeTableRecord
  2
BYLAYER
 70
0
  3

 72
65
 73
0
 40
0.0
  0
LTYPE
  5
16
100
AcDbSymbolTableRecord
100
AcDbLinetypeTableRecord
  2
CONTINUOUS
 70
64
  3
Solid line
 72
65
 73
0
 40
0.0
  0
LTYPE
  5
1F5
100
AcDbSymbolTableRecord
100
AcDbLinetypeTableRecord
  2
CENTER
 70
64
  3
____ _ ____ _ ____ _ ____ _ ____ _ ____ _ ____
 72
65
 73
4
 40
0.6
 49
0.375
 74
0
 49
-0.075
 74
0
 49
0.075
 74
0
 49
-0.075
 74
0
  0
LTYPE
  5
1F6
100
AcDbSymbolTableRecord
100
AcDbLinetypeTableRecord
  2
HIDDEN
 70
64
  3
- - - - - - - - - - - - - - - - - - - -
 72
65
 73
2
 40
0.2
 49
0.1
 74
0
 49
-0.1
 74
0
  0
LTYPE
  5
1F7
100
AcDbSymbolTableRecord
100
AcDbLinetypeTableRecord
  2
PHANTOM
 70
64
  3
_____ _ _ _____ _ _ _____ _ _ _____
 72
65
 73
6
 40
0.8
 49
0.45
 74
0
 49
-0.05
 74
0
 49
0.1
 74
0
 49
-0.05
 74
0
 49
0.1
 74
0
 49
-0.05
 74
0
  0
LTYPE
  5
1F8
100
AcDbSymbolTableRecord
100
AcDbLinetypeTableRecord
  2
DOT
 70
64
  3
. . . . . . . . . . . . . . . . . . . .
 72
65
 73
2
 40
0.2
 49
0.1
 74
0
 49
-0.1
 74
0
  0
LTYPE
  5
1F9
100
AcDbSymbolTableRecord
100
AcDbLinetypeTableRecord
  2
DASHED
 70
64
  3
- - - - - - - - - - - - - - - - - - - -
 72
65
 73
2
 40
0.2
 49
0.1
 74
0
 49
-0.1
 74
0
  0
ENDTAB
  0
TABLE
  2
LAYER
  5
2
100
AcDbSymbolTable
 70
36
  0
LAYER
  5
10
100
AcDbSymbolTableRecord
100
AcDbLayerTableRecord
  2
0
 70
0
 62
7
  6
CONTINUOUS
370
-3
390
F
  0
LAYER
  5
1FA
100
AcDbSymbolTableRecord
100
AcDbLayerTableRecord
  2
DEFAULT_1
 70
0
 62
7
  6
CENTER
370
-3
390
F
  0
LAYER
  5
1FB
100
AcDbSymbolTableRecord
100
AcDbLayerTableRecord
  2
DEFAULT_2
 70
0
 62
8
  6
HIDDEN
370
-3
390
F
  0
LAYER
  5
1FC
100
AcDbSymbolTableRecord
100
AcDbLayerTableRecord
  2
DEFAULT_3
 70
0
 62
7
  6
PHANTOM
370
-3
390
F
  0
LAYER
  5
1FD
100
AcDbSymbolTableRecord
100
AcDbLayerTableRecord
  2
00_COMPONENTS
 70
0
 62
7
  6
CONTINUOUS
370
-3
390
F
  0
LAYER
  5
1FE
100
AcDbSymbolTableRecord
100
AcDbLayerTableRecord
  2
00_COMPONENTS_1
 70
0
 62
7
  6
CONTINUOUS
370
-3
390
F
  0
LAYER
  5
1FF
100
AcDbSymbolTableRecord
100
AcDbLayerTableRecord
  2
00_COMPONENTS_2
 70
0
 62
7
  6
CONTINUOUS
370
-3
390
F
  0
LAYER
  5
200
100
AcDbSymbolTableRecord
100
AcDbLayerTableRecord
  2
00_COMPONENTS_5
 70
0
 62
7
  6
CONTINUOUS
370
-3
390
F
  0
LAYER
  5
201
100
AcDbSymbolTableRecord
100
AcDbLayerTableRecord
  2
01_1_DEFAULT_DATUMS
 70
0
 62
7
  6
CONTINUOUS
370
-3
390
F
  0
LAYER
  5
202
100
AcDbSymbolTableRecord
100
AcDbLayerTableRecord
  2
01_PLANES
 70
0
 62
7
  6
CONTINUOUS
370
-3
390
F
  0
LAYER
  5
203
100
AcDbSymbolTableRecord
100
AcDbLayerTableRecord
  2
02_COORD_SYS
 70
0
 62
7
  6
CONTINUOUS
370
-3
390
F
  0
LAYER
  5
204
100
AcDbSymbolTableRecord
100
AcDbLayerTableRecord
  2
03_AXES
 70
0
 62
7
  6
CONTINUOUS
370
-3
390
F
  0
LAYER
  5
205
100
AcDbSymbolTableRecord
100
AcDbLayerTableRecord
  2
04_POINTS
 70
0
 62
7
  6
CONTINUOUS
370
-3
390
F
  0
LAYER
  5
206
100
AcDbSymbolTableRecord
100
AcDbLayerTableRecord
  2
05_CURVES
 70
0
 62
7
  6
CONTINUOUS
370
-3
390
F
  0
LAYER
  5
207
100
AcDbSymbolTableRecord
100
AcDbLayerTableRecord
  2
06_SURFS
 70
0
 62
7
  6
CONTINUOUS
370
-3
390
F
  0
LAYER
  5
208
100
AcDbSymbolTableRecord
100
AcDbLayerTableRecord
  2
07_COSMETICS
 70
0
 62
7
  6
CONTINUOUS
370
-3
390
F
  0
LAYER
  5
209
100
AcDbSymbolTableRecord
100
AcDbLayerTableRecord
  2
10_NOTES
 70
0
 62
7
  6
CONTINUOUS
370
-3
390
F
  0
LAYER
  5
20A
100
AcDbSymbolTableRecord
100
AcDbLayerTableRecord
  2
11_NOTES_PUB
 70
0
 62
7
  6
CONTINUOUS
370
-3
390
F
  0
LAYER
  5
20B
100
AcDbSymbolTableRecord
100
AcDbLayerTableRecord
  2
13_REF_GTOL
 70
0
 62
7
  6
CONTINUOUS
370
-3
390
F
  0
LAYER
  5
20C
100
AcDbSymbolTableRecord
100
AcDbLayerTableRecord
  2
16_MISC
 70
0
 62
7
  6
CONTINUOUS
370
-3
390
F
  0
LAYER
  5
20D
100
AcDbSymbolTableRecord
100
AcDbLayerTableRecord
  2
17_NO_PRINT
 70
0
 62
7
  6
CONTINUOUS
370
-3
390
F
  0
LAYER
  5
20E
100
AcDbSymbolTableRecord
100
AcDbLayerTableRecord
  2
18_DATUM_CAMS_JOINTS
 70
0
 62
7
  6
CONTINUOUS
370
-3
390
F
  0
LAYER
  5
20F
100
AcDbSymbolTableRecord
100
AcDbLayerTableRecord
  2
19_DATUM_FUNCTIONAL
 70
0
 62
7
  6
CONTINUOUS
370
-3
390
F
  0
LAYER
  5
210
100
AcDbSymbolTableRecord
100
AcDbLayerTableRecord
  2
20_DATUM_KINEMATIC_SCHEME
 70
0
 62
7
  6
CONTINUOUS
370
-3
390
F
  0
ENDTAB
  0
TABLE
  2
STYLE
  5
3
100
AcDbSymbolTable
 70
1
  0
STYLE
  5
11
100
AcDbSymbolTableRecord
100
AcDbTextStyleTableRecord
  2
STANDARD
 70
0
 40
0.0
 41
0.8
 50
0.0
 71
0
 42
0.2
  3
txt
  4

  0
STYLE
  5
211
100
AcDbSymbolTableRecord
100
AcDbTextStyleTableRecord
  2
TEXTSTYLE_1
 70
0
 40
0.0
 41
0.8
 50
0.0
 71
0
 42
0.2
  3
gdt
  4

  0
ENDTAB
  0
TABLE
  2
VIEW
  5
6
100
AcDbSymbolTable
 70
0
  0
ENDTAB
  0
TABLE
  2
UCS
  5
7
100
AcDbSymbolTable
 70
0
  0
ENDTAB
  0
TABLE
  2
APPID
  5
9
100
AcDbSymbolTable
 70
1
  0
APPID
  5
212
100
AcDbSymbolTableRecord
100
AcDbRegAppTableRecord
  2
ACAD
 70
0
  0
ENDTAB
  0
TABLE
  2
BLOCK_RECORD
  5
1
100
AcDbSymbolTable
 70
0
  0
BLOCK_RECORD
  5
213
100
AcDbSymbolTableRecord
100
AcDbBlockTableRecord
  2
*Model_Space
  0
BLOCK_RECORD
  5
214
100
AcDbSymbolTableRecord
100
AcDbBlockTableRecord
  2
*Paper_Space
  0
BLOCK_RECORD
  5
215
100
AcDbSymbolTableRecord
100
AcDbBlockTableRecord
  2
_FILLED
  0
ENDTAB
  0
TABLE
  2
DIMSTYLE
  5
A
100
AcDbSymbolTable
 70
1
100
AcDbDimStyleTable
 71
0
  0
DIMSTYLE
105
216
100
AcDbSymbolTableRecord
100
AcDbDimStyleTableRecord
  2
STANDARD
 70
0
  3

  4

 40
1.0
 41
0.7296622727
 42
1.0
 43
0.38
 44
1.0
 45
0.0
 46
0.0
 47
0.01
 48
0.01
140
1.0215271818
141
0.09
142
0.0
143
25.4
144
1.0
145
0.0
146
1.0
147
0.625
 71
1
 72
0
 73
0
 74
0
 75
0
 76
0
 77
1
 78
8
 79
2
170
0
171
1
172
0
173
0
174
0
175
0
176
0
177
0
178
0
270
2
179
2
271
2
272
2
273
2
274
2
275
0
280
0
281
0
282
0
283
1
284
8
285
0
286
0
287
3
288
0
340
11
278
46
341
215
342
215
343
215
344
215
  0
ENDTAB
  0
ENDSEC
  0
SECTION
  2
BLOCKS
  0
BLOCK
  5
20
100
AcDbEntity
  8
0
100
AcDbBlockBegin
  2
*Model_Space
 70
0
 10
0.0
 20
0.0
 30
0.0
  3
*Model_Space
  1

  0
ENDBLK
  5
21
100
AcDbEntity
  8
0
100
AcDbBlockEnd
  0
BLOCK
  5
1C
100
AcDbEntity
  8
0
100
AcDbBlockBegin
  2
*Paper_Space
 70
0
 10
0.0
 20
0.0
 30
0.0
  3
*Paper_Space
  1

  0
ENDBLK
  5
1D
100
AcDbEntity
  8
0
100
AcDbBlockEnd
  0
BLOCK
  5
217
100
AcDbEntity
  8
0
100
AcDbBlockBegin
  2
_FILLED
 70
64
 10
0.0
 20
0.0
  3
_FILLED
  1

  0
SOLID
  5
218
100
AcDbEntity
  8
0
  6
BYBLOCK
 62
0
100
AcDbTrace
 10
0.0
 20
0.0
 11
-1.0
 21
0.25
 12
-1.0
 22
-0.25
 13
-1.0
 23
-0.25
  0
ENDBLK
  5
219
100
AcDbEntity
  8
0
  6
BYBLOCK
 62
0
100
AcDbBlockEnd
  0
ENDSEC
  0
SECTION
  2
ENTITIES
  0
LINE
  5
21A
100
AcDbEntity
  8
00_COMPONENTS_5
100
AcDbLine
 62
7
  6
CONTINUOUS
 10
7.1446171959
 20
50.4480392157
 11
7.1446171959
 21
36.4480392157
  0
LINE
  5
21B
100
AcDbEntity
  8
00_COMPONENTS_5
100
AcDbLine
 62
7
  6
CONTINUOUS
 10
7.8446171959
 20
35.4941000143
 11
7.8446171959
 21
35.7243646485
  0
LINE
  5
21C
100
AcDbEntity
  8
00_COMPONENTS_5
100
AcDbLine
 62
7
  6
CONTINUOUS
 10
7.8446171959
 20
51.1717137829
 11
7.8446171959
 21
51.4019784171
  0
LINE
  5
21D
100
AcDbEntity
  8
00_COMPONENTS_5
100
AcDbLine
 62
7
  6
CONTINUOUS
 10
8.1446171959
 20
51.2191395239
 11
8.1446171959
 21
35.6769389075
  0
LINE
  5
21E
100
AcDbEntity
  8
00_COMPONENTS_5
100
AcDbLine
 62
7
  6
CONTINUOUS
 10
8.6446171959
 20
35.6769389075
 11
8.6446171959
 21
51.2191395239
  0
LINE
  5
21F
100
AcDbEntity
  8
00_COMPONENTS_2
100
AcDbLine
 62
7
  6
CONTINUOUS
 10
9.3602851864
 20
35.1821398331
 11
9.357945233
 21
39.099184046
  0
LINE
  5
220
100
AcDbEntity
  8
00_COMPONENTS_2
100
AcDbLine
 62
7
  6
CONTINUOUS
 10
9.3576835836
 20
41.6750247796
 11
9.3585294103
 21
37.0514103123
  0
LINE
  5
221
100
AcDbEntity
  8
00_COMPONENTS_2
100
AcDbLine
 62
7
  6
CONTINUOUS
 10
9.3587258729
 20
49.3701183084
 11
9.3576835836
 21
41.6750247796
  0
LINE
  5
222
100
AcDbEntity
  8
00_COMPONENTS_2
100
AcDbLine
 62
7
  6
CONTINUOUS
 10
9.3609571646
 20
51.7141894017
 11
9.357945233
 21
39.099184046
  0
LINE
  5
223
100
AcDbEntity
  8
00_COMPONENTS_2
100
AcDbLine
 62
7
  6
CONTINUOUS
 10
9.3604790272
 20
51.6057353277
 11
9.3587258729
 21
49.3701183084
  0
LINE
  5
224
100
AcDbEntity
  8
00_COMPONENTS_2
100
AcDbLine
 62
7
  6
CONTINUOUS
 10
12.6445972784
 20
52.9480392157
 11
12.6445973356
 21
33.9480392157
  0
LINE
  5
225
100
AcDbEntity
  8
00_COMPONENTS
100
AcDbLine
 62
7
  6
CONTINUOUS
 10
52.2146171959
 20
23.4480392157
 11
51.3446171959
 21
23.4480392157
  0
LWPOLYLINE
  5
226
100
AcDbEntity
  8
00_COMPONENTS_2
100
AcDbPolyline
 62
7
  6
CONTINUOUS
 90
4
 70
0
 10
12.6445752362
 20
52.9480861451
 10
11.5554284259
 20
52.5370379472
 10
10.406488879
 20
52.1053207115
 10
9.3609210542
 20
51.7142867635
  0
LWPOLYLINE
  5
227
100
AcDbEntity
  8
00_COMPONENTS_2
100
AcDbPolyline
 62
7
  6
CONTINUOUS
 90
4
 70
0
 10
9.3602482751
 20
35.1820426786
 10
10.4064888081
 20
34.7907577152
 10
11.5554283551
 20
34.3590404829
 10
12.6445752419
 20
33.9479922869
  0
LINE
  5
228
100
AcDbEntity
  8
00_COMPONENTS_2
100
AcDbLine
 62
7
  6
CONTINUOUS
 10
46.4446171959
 20
30.5480392157
 11
36.9446171959
 21
30.5480392157
  0
LINE
  5
229
100
AcDbEntity
  8
00_COMPONENTS_2
100
AcDbLine
 62
7
  6
CONTINUOUS
 10
33.9446171959
 20
30.5480392157
 11
31.9446171959
 21
30.5480392157
  0
LINE
  5
22A
100
AcDbEntity
  8
00_COMPONENTS
100
AcDbLine
 62
7
  6
CONTINUOUS
 10
49.3446171959
 20
31.8480392157
 11
51.3446171959
 21
31.8480392157
  0
LINE
  5
22B
100
AcDbEntity
  8
00_COMPONENTS
100
AcDbLine
 62
7
  6
CONTINUOUS
 10
36.9446171959
 20
33.5980392157
 11
33.9446171959
 21
33.5980392157
  0
LINE
  5
22C
100
AcDbEntity
  8
00_COMPONENTS
100
AcDbLine
 62
7
  6
CONTINUOUS
 10
40.5415074605
 20
33.5980392157
 11
43.3872844187
 21
33.5980392157
  0
LINE
  5
22D
100
AcDbEntity
  8
00_COMPONENTS
100
AcDbLine
 62
7
  6
CONTINUOUS
 10
47.9446171959
 20
33.5980392157
 11
49.344617196
 21
33.5980392157
  0
LINE
  5
22E
100
AcDbEntity
  8
00_COMPONENTS_2
100
AcDbLine
 62
7
  6
CONTINUOUS
 10
29.9446171959
 20
33.9480392157
 11
12.6445973356
 21
33.9480392157
  0
LINE
  5
22F
100
AcDbEntity
  8
00_COMPONENTS_5
100
AcDbLine
 62
7
  6
CONTINUOUS
 10
8.6446171959
 20
35.6769389075
 11
8.1446171959
 21
35.6769389075
  0
LINE
  5
230
100
AcDbEntity
  8
00_COMPONENTS_2
100
AcDbLine
 62
7
  6
CONTINUOUS
 10
33.9446171959
 20
37.4480392102
 11
36.9446171959
 21
37.4480391607
  0
LINE
  5
231
100
AcDbEntity
  8
00_COMPONENTS
100
AcDbLine
 62
7
  6
CONTINUOUS
 10
49.3446171959
 20
37.569263833
 11
51.3446171959
 21
37.569263833
  0
LINE
  5
232
100
AcDbEntity
  8
00_COMPONENTS
100
AcDbLine
 62
7
  6
CONTINUOUS
 10
46.4654437866
 20
43.7605938589
 11
46.8446171959
 21
43.8266106443
  0
LINE
  5
233
100
AcDbEntity
  8
00_COMPONENTS
100
AcDbLine
 62
7
  6
CONTINUOUS
 10
47.1116973202
 20
40.0480392157
 11
49.3446171959
 21
40.0480392157
  0
LINE
  5
234
100
AcDbEntity
  8
00_COMPONENTS_2
100
AcDbLine
 62
7
  6
CONTINUOUS
 10
29.9446171959
 20
33.9480392157
 11
29.9446171959
 21
52.9480392157
  0
LINE
  5
235
100
AcDbEntity
  8
00_COMPONENTS_2
100
AcDbLine
 62
7
  6
CONTINUOUS
 10
30.9446171959
 20
55.3478808595
 11
30.9446171959
 21
31.5481975718
  0
LINE
  5
236
100
AcDbEntity
  8
00_COMPONENTS_2
100
AcDbLine
 62
7
  6
CONTINUOUS
 10
31.9446171959
 20
56.3480392157
 11
31.9446171959
 21
30.5480392157
  0
LINE
  5
237
100
AcDbEntity
  8
00_COMPONENTS
100
AcDbLine
 62
7
  6
CONTINUOUS
 10
46.465443606
 20
43.135484604
 11
46.8446171959
 21
43.0694677871
  0
LINE
  5
238
100
AcDbEntity
  8
00_COMPONENTS_2
100
AcDbLine
 62
7
  6
CONTINUOUS
 10
33.9446171959
 20
30.5481696772
 11
33.9446171959
 21
37.4480392157
  0
LINE
  5
239
100
AcDbEntity
  8
00_COMPONENTS_2
100
AcDbLine
 62
7
  6
CONTINUOUS
 10
33.9446171959
 20
49.4480392157
 11
33.9446171959
 21
56.3479087542
  0
LINE
  5
23A
100
AcDbEntity
  8
00_COMPONENTS_1
100
AcDbLine
 62
7
  6
CONTINUOUS
 10
35.6446171959
 20
48.3480360539
 11
35.6446171959
 21
47.9699438135
  0
LINE
  5
23B
100
AcDbEntity
  8
00_COMPONENTS
100
AcDbLine
 62
7
  6
CONTINUOUS
 10
35.8446171959
 20
53.2980392157
 11
35.8446171959
 21
48.018842227
  0
LINE
  5
23C
100
AcDbEntity
  8
00_COMPONENTS
100
AcDbLine
 62
7
  6
CONTINUOUS
 10
47.1116971013
 20
46.8480392157
 11
49.3446171959
 21
46.8480392157
  0
LINE
  5
23D
100
AcDbEntity
  8
00_COMPONENTS_2
100
AcDbLine
 62
7
  6
CONTINUOUS
 10
36.9446171959
 20
56.3479087542
 11
36.9446171959
 21
49.4480390709
  0
LINE
  5
23E
100
AcDbEntity
  8
00_COMPONENTS_2
100
AcDbLine
 62
7
  6
CONTINUOUS
 10
36.9446171959
 20
37.4480391171
 11
36.9446171959
 21
30.5481696772
  0
LINE
  5
23F
100
AcDbEntity
  8
00_COMPONENTS_1
100
AcDbLine
 62
7
  6
CONTINUOUS
 10
35.8446171959
 20
48.3480392157
 11
35.6446171959
 21
48.3480392157
  0
LINE
  5
240
100
AcDbEntity
  8
00_COMPONENTS
100
AcDbLine
 62
7
  6
CONTINUOUS
 10
51.3446171959
 20
49.3268145984
 11
49.3446171959
 21
49.3268145984
  0
LINE
  5
241
100
AcDbEntity
  8
00_COMPONENTS_5
100
AcDbLine
 62
7
  6
CONTINUOUS
 10
8.1446171959
 20
51.2191395239
 11
8.6446171959
 21
51.2191395239
  0
LINE
  5
242
100
AcDbEntity
  8
00_COMPONENTS_2
100
AcDbLine
 62
7
  6
CONTINUOUS
 10
40.4446171959
 20
32.0283194293
 11
40.4446171959
 21
54.8677590021
  0
LINE
  5
243
100
AcDbEntity
  8
00_COMPONENTS
100
AcDbLine
 62
7
  6
CONTINUOUS
 10
40.8846171962
 20
53.298039216
 11
40.8846171962
 21
47.487841191
  0
LINE
  5
244
100
AcDbEntity
  8
00_COMPONENTS
100
AcDbLine
 62
7
  6
CONTINUOUS
 10
40.8846171962
 20
39.4082372404
 11
40.8846171962
 21
33.5980392153
  0
LINE
  5
245
100
AcDbEntity
  8
00_COMPONENTS
100
AcDbLine
 62
7
  6
CONTINUOUS
 10
41.5896171962
 20
53.2980392153
 11
41.5896171962
 21
48.972756403
  0
LINE
  5
246
100
AcDbEntity
  8
00_COMPONENTS
100
AcDbLine
 62
7
  6
CONTINUOUS
 10
41.5896171962
 20
37.9233220284
 11
41.5896171962
 21
33.598039216
  0
LINE
  5
247
100
AcDbEntity
  8
00_COMPONENTS
100
AcDbLine
 62
7
  6
CONTINUOUS
 10
46.4859948928
 20
42.8270589346
 11
46.8446171959
 21
43.0694677871
  0
LINE
  5
248
100
AcDbEntity
  8
00_COMPONENTS_2
100
AcDbLine
 62
7
  6
CONTINUOUS
 10
29.9446171959
 20
52.9480392157
 11
12.6445972784
 21
52.9480392157
  0
LINE
  5
249
100
AcDbEntity
  8
00_COMPONENTS
100
AcDbLine
 62
7
  6
CONTINUOUS
 10
33.9446171959
 20
53.2980392157
 11
36.9446171959
 21
53.2980392157
  0
LINE
  5
24A
100
AcDbEntity
  8
00_COMPONENTS
100
AcDbLine
 62
7
  6
CONTINUOUS
 10
40.5433803255
 20
53.2980392157
 11
43.3904736839
 21
53.2980392157
  0
LINE
  5
24B
100
AcDbEntity
  8
00_COMPONENTS
100
AcDbLine
 62
7
  6
CONTINUOUS
 10
47.9446171959
 20
53.2980392157
 11
49.344617196
 21
53.2980392157
  0
LINE
  5
24C
100
AcDbEntity
  8
00_COMPONENTS
100
AcDbLine
 62
7
  6
CONTINUOUS
 10
46.4859952322
 20
44.0690192674
 11
46.8446171959
 21
43.8266106443
  0
LINE
  5
24D
100
AcDbEntity
  8
00_COMPONENTS
100
AcDbLine
 62
7
  6
CONTINUOUS
 10
42.2946171962
 20
53.2980392161
 11
42.2946171962
 21
47.4878411909
  0
LINE
  5
24E
100
AcDbEntity
  8
00_COMPONENTS
100
AcDbLine
 62
7
  6
CONTINUOUS
 10
42.2946171962
 20
39.4082372405
 11
42.2946171962
 21
33.5980392153
  0
LINE
  5
24F
100
AcDbEntity
  8
00_COMPONENTS
100
AcDbLine
 62
7
  6
CONTINUOUS
 10
42.9996171963
 20
53.2980392153
 11
42.9996171963
 21
49.2026336448
  0
LINE
  5
250
100
AcDbEntity
  8
00_COMPONENTS
100
AcDbLine
 62
7
  6
CONTINUOUS
 10
42.9996171963
 20
37.6934447866
 11
42.9996171963
 21
33.5980392161
  0
LINE
  5
251
100
AcDbEntity
  8
00_COMPONENTS_2
100
AcDbLine
 62
7
  6
CONTINUOUS
 10
43.4446171959
 20
54.8677590021
 11
43.4446171959
 21
32.0283194293
  0
LINE
  5
252
100
AcDbEntity
  8
00_COMPONENTS
100
AcDbLine
 62
7
  6
CONTINUOUS
 10
51.3446171959
 20
55.0480392157
 11
49.3446171959
 21
55.0480392157
  0
LINE
  5
253
100
AcDbEntity
  8
00_COMPONENTS_2
100
AcDbLine
 62
7
  6
CONTINUOUS
 10
46.4446171959
 20
30.5480392157
 11
46.4446171959
 21
56.3480392157
  0
LINE
  5
254
100
AcDbEntity
  8
00_COMPONENTS_2
100
AcDbLine
 62
7
  6
CONTINUOUS
 10
46.4446171959
 20
56.3480392157
 11
36.9446171959
 21
56.3480392157
  0
LINE
  5
255
100
AcDbEntity
  8
00_COMPONENTS_2
100
AcDbLine
 62
7
  6
CONTINUOUS
 10
33.9446171959
 20
56.3480392157
 11
31.9446171959
 21
56.3480392157
  0
LINE
  5
256
100
AcDbEntity
  8
00_COMPONENTS
100
AcDbLine
 62
7
  6
CONTINUOUS
 10
46.8446171959
 20
40.8230093216
 11
46.8446171959
 21
46.0730699966
  0
LINE
  5
257
100
AcDbEntity
  8
00_COMPONENTS
100
AcDbLine
 62
7
  6
CONTINUOUS
 10
47.9346171963
 20
48.8819221156
 11
47.9346171963
 21
47.487841191
  0
LINE
  5
258
100
AcDbEntity
  8
00_COMPONENTS
100
AcDbLine
 62
7
  6
CONTINUOUS
 10
47.9346171963
 20
39.4082372404
 11
47.9346171963
 21
38.0143010801
  0
LINE
  5
259
100
AcDbEntity
  8
00_COMPONENTS_2
100
AcDbLine
 62
7
  6
CONTINUOUS
 10
47.9446171959
 20
32.7107806666
 11
47.9446171959
 21
37.8802748415
  0
LINE
  5
25A
100
AcDbEntity
  8
00_COMPONENTS_2
100
AcDbLine
 62
7
  6
CONTINUOUS
 10
47.9446171959
 20
49.0158035578
 11
47.9446171959
 21
54.1852977569
  0
LINE
  5
25B
100
AcDbEntity
  8
00_COMPONENTS
100
AcDbLine
 62
7
  6
CONTINUOUS
 10
47.7320396029
 20
38.8633828872
 11
47.7253859209
 21
38.8454870895
  0
LINE
  5
25C
100
AcDbEntity
  8
00_COMPONENTS
100
AcDbLine
 62
7
  6
CONTINUOUS
 10
47.7323414279
 20
38.863264988
 11
47.7099445257
 21
38.8062200382
  0
LINE
  5
25D
100
AcDbEntity
  8
00_COMPONENTS
100
AcDbLine
 62
7
  6
CONTINUOUS
 10
47.7253859209
 20
38.8454870895
 11
47.7093323769
 21
38.8064615991
  0
LINE
  5
25E
100
AcDbEntity
  8
00_COMPONENTS
100
AcDbLine
 62
7
  6
CONTINUOUS
 10
47.7093316985
 20
48.0895942726
 11
47.7256057734
 21
48.0500293714
  0
LINE
  5
25F
100
AcDbEntity
  8
00_COMPONENTS
100
AcDbLine
 62
7
  6
CONTINUOUS
 10
47.7099518113
 20
48.0898389757
 11
47.7323415737
 21
48.032812191
  0
LINE
  5
260
100
AcDbEntity
  8
00_COMPONENTS
100
AcDbLine
 62
7
  6
CONTINUOUS
 10
47.7256057734
 20
48.0500293714
 11
47.7320492618
 21
48.0326980075
  0
LINE
  5
261
100
AcDbEntity
  8
00_COMPONENTS
100
AcDbLine
 62
7
  6
CONTINUOUS
 10
48.6396171962
 20
53.2980392153
 11
48.6396171962
 21
48.972756403
  0
LINE
  5
262
100
AcDbEntity
  8
00_COMPONENTS
100
AcDbLine
 62
7
  6
CONTINUOUS
 10
48.6396171962
 20
37.9233220284
 11
48.6396171962
 21
33.598039216
  0
LINE
  5
263
100
AcDbEntity
  8
00_COMPONENTS
100
AcDbLine
 62
7
  6
CONTINUOUS
 10
49.3446171959
 20
55.0480392157
 11
49.3446171959
 21
46.8480392157
  0
LINE
  5
264
100
AcDbEntity
  8
00_COMPONENTS
100
AcDbLine
 62
7
  6
CONTINUOUS
 10
49.3446171959
 20
40.0480392157
 11
49.3446171959
 21
31.8480392157
  0
LINE
  5
265
100
AcDbEntity
  8
00_COMPONENTS
100
AcDbLine
 62
7
  6
CONTINUOUS
 10
51.3446171959
 20
23.4480392157
 11
51.3446171959
 21
63.4480392157
  0
LINE
  5
266
100
AcDbEntity
  8
00_COMPONENTS
100
AcDbLine
 62
7
  6
CONTINUOUS
 10
51.3446171959
 20
63.4480392157
 11
52.2146171959
 21
63.4480392157
  0
LINE
  5
267
100
AcDbEntity
  8
00_COMPONENTS
100
AcDbLine
 62
7
  6
CONTINUOUS
 10
55.8446171959
 20
55.1980392157
 11
55.8446171959
 21
31.6980392158
  0
LINE
  5
268
100
AcDbEntity
  8
00_COMPONENTS
100
AcDbLine
 62
7
  6
CONTINUOUS
 10
55.7750872466
 20
31.2466464441
 11
53.6450872466
 21
24.4966464442
  0
LINE
  5
269
100
AcDbEntity
  8
00_COMPONENTS
100
AcDbLine
 62
7
  6
CONTINUOUS
 10
53.6450872466
 20
62.3994319872
 11
55.7750872466
 21
55.6494319872
  0
ARC
  5
26A
100
AcDbEntity
  8
00_COMPONENTS
100
AcDbCircle
 62
7
  6
CONTINUOUS
 10
24.8180039189
 20
40.6924467811
 40
20.074718972
100
AcDbArc
 50
21.8832929621
 51
25.0826749995
  0
ARC
  5
26B
100
AcDbEntity
  8
00_COMPONENTS
100
AcDbCircle
 62
7
  6
CONTINUOUS
 10
24.8180512712
 20
46.203618806
 40
20.0746706402
100
AcDbArc
 50
334.9173009093
 51
338.1166452413
  0
ARC
  5
26C
100
AcDbEntity
  8
00_COMPONENTS
100
AcDbCircle
 62
7
  6
CONTINUOUS
 10
32.0332531067
 20
45.0002751837
 40
16.8559861254
100
AcDbArc
 50
338.6487226314
 51
340.624739595
  0
ARC
  5
26D
100
AcDbEntity
  8
00_COMPONENTS
100
AcDbCircle
 62
7
  6
CONTINUOUS
 10
32.0335161498
 20
41.8958909775
 40
16.8557088748
100
AcDbArc
 50
19.3752757157
 51
21.3513210206
  0
ARC
  5
26E
100
AcDbEntity
  8
00_COMPONENTS
100
AcDbCircle
 62
7
  6
CONTINUOUS
 10
26.1083087152
 20
41.3603840993
 40
15.9964065568
100
AcDbArc
 50
22.5228652439
 51
26.3333587426
  0
ARC
  5
26F
100
AcDbEntity
  8
00_COMPONENTS
100
AcDbCircle
 62
7
  6
CONTINUOUS
 10
26.1083276823
 20
45.5356883451
 40
15.9963867431
100
AcDbArc
 50
333.6665119522
 51
337.4771285415
  0
ARC
  5
270
100
AcDbEntity
  8
00_COMPONENTS_2
100
AcDbCircle
 62
7
  6
CONTINUOUS
 10
55.5279505293
 20
43.4480392157
 40
9.0833333333
100
AcDbArc
 50
149.8440930089
 51
210.1559069912
  0
ARC
  5
271
100
AcDbEntity
  8
00_COMPONENTS_2
100
AcDbCircle
 62
7
  6
CONTINUOUS
 10
45.9446171959
 20
49.0158035785
 40
2.0
100
AcDbArc
 50
329.8440930094
 51
360.0
  0
ARC
  5
272
100
AcDbEntity
  8
00_COMPONENTS_2
100
AcDbCircle
 62
7
  6
CONTINUOUS
 10
45.9446171959
 20
37.8802748529
 40
2.0
100
AcDbArc
 50
0.0
 51
30.1559069902
  0
ARC
  5
273
100
AcDbEntity
  8
00_COMPONENTS
100
AcDbCircle
 62
7
  6
CONTINUOUS
 10
54.3446171959
 20
55.1980392157
 40
1.5
100
AcDbArc
 50
0.0
 51
17.5133803757
  0
ARC
  5
274
100
AcDbEntity
  8
00_COMPONENTS
100
AcDbCircle
 62
7
  6
CONTINUOUS
 10
52.2146171959
 20
24.9480392157
 40
1.5
100
AcDbArc
 50
270.0
 51
342.4866196245
  0
ARC
  5
275
100
AcDbEntity
  8
00_COMPONENTS
100
AcDbCircle
 62
7
  6
CONTINUOUS
 10
54.3446171959
 20
31.6980392157
 40
1.5
100
AcDbArc
 50
342.4866196241
 51
359.9999999133
  0
ARC
  5
276
100
AcDbEntity
  8
00_COMPONENTS
100
AcDbCircle
 62
7
  6
CONTINUOUS
 10
52.2146171959
 20
61.9480392157
 40
1.5
100
AcDbArc
 50
17.5133803757
 51
90.0
  0
ARC
  5
277
100
AcDbEntity
  8
00_COMPONENTS_2
100
AcDbCircle
 62
7
  6
CONTINUOUS
 10
35.4446171959
 20
49.4480392157
 40
1.5
100
AcDbArc
 50
179.9999999997
 51
359.9999944154
  0
ARC
  5
278
100
AcDbEntity
  8
00_COMPONENTS_2
100
AcDbCircle
 62
7
  6
CONTINUOUS
 10
9.7446163081
 20
36.2128131935
 40
1.0999990862
100
AcDbArc
 50
180.0077772232
 51
249.5498577792
  0
ARC
  5
279
100
AcDbEntity
  8
00_COMPONENTS_2
100
AcDbCircle
 62
7
  6
CONTINUOUS
 10
9.7446162886
 20
50.6832663258
 40
1.0999990862
100
AcDbArc
 50
110.4127832766
 51
179.9922229308
  0
ARC
  5
27A
100
AcDbEntity
  8
00_COMPONENTS_5
100
AcDbCircle
 62
7
  6
CONTINUOUS
 10
8.1446171959
 20
36.4480392157
 40
1.0
100
AcDbArc
 50
180.0
 51
252.5423968763
  0
ARC
  5
27B
100
AcDbEntity
  8
00_COMPONENTS_5
100
AcDbCircle
 62
7
  6
CONTINUOUS
 10
8.1446171959
 20
50.4480392157
 40
1.0
100
AcDbArc
 50
107.4576031237
 51
180.0
  0
ARC
  5
27C
100
AcDbEntity
  8
00_COMPONENTS_2
100
AcDbCircle
 62
7
  6
CONTINUOUS
 10
31.9446171959
 20
31.5480392157
 40
1.0
100
AcDbArc
 50
180.0
 51
270.0
  0
ARC
  5
27D
100
AcDbEntity
  8
00_COMPONENTS_2
100
AcDbCircle
 62
7
  6
CONTINUOUS
 10
31.9446171959
 20
55.3480392157
 40
1.0
100
AcDbArc
 50
90.0
 51
180.0
  0
ARC
  5
27E
100
AcDbEntity
  8
00_COMPONENTS_2
100
AcDbCircle
 62
7
  6
CONTINUOUS
 10
29.9446171959
 20
32.9480392157
 40
1.0
100
AcDbArc
 50
0.0000035667
 51
90.0
  0
ARC
  5
27F
100
AcDbEntity
  8
00_COMPONENTS_2
100
AcDbCircle
 62
7
  6
CONTINUOUS
 10
29.9446171959
 20
53.9480392157
 40
1.0
100
AcDbArc
 50
270.0
 51
359.9999964333
  0
SPLINE
  5
280
100
AcDbEntity
  8
00_COMPONENTS_5
100
AcDbSpline
 62
7
  6
CONTINUOUS
 70
0
 71
3
 72
11
 73
7
 74
0
 42
0.0000001
 43
0.0000001
 44
0.0000000001
 40
0.0
 40
0.0
 40
0.0
 40
0.0
 40
0.2499844281
 40
0.5000008891
 40
0.7500183337
 40
1.0
 40
1.0
 40
1.0
 40
1.0
 10
7.8446171959
 20
35.7243646485
 30
0.0
 10
7.8687817738
 20
35.7165386804
 30
0.0
 10
7.9178230077
 20
35.7030153927
 30
0.0
 10
7.9926812949
 20
35.6884024879
 30
0.0
 10
8.0683962578
 20
35.6792201417
 30
0.0
 10
8.1192172285
 20
35.6769389075
 30
0.0
 10
8.1446171959
 20
35.6769389075
 30
0.0
  0
SPLINE
  5
281
100
AcDbEntity
  8
00_COMPONENTS_5
100
AcDbSpline
 62
7
  6
CONTINUOUS
 70
0
 71
3
 72
11
 73
7
 74
0
 42
0.0000001
 43
0.0000001
 44
0.0000000001
 40
0.0
 40
0.0
 40
0.0
 40
0.0
 40
0.249981664
 40
0.4999991052
 40
0.7500155696
 40
1.0
 40
1.0
 40
1.0
 40
1.0
 10
8.1446171959
 20
51.2191395239
 30
0.0
 10
8.1192172288
 20
51.2191395239
 30
0.0
 10
8.068396259
 20
51.2168582818
 30
0.0
 10
7.9926812958
 20
51.2076759438
 30
0.0
 10
7.9178230066
 20
51.1930630456
 30
0.0
 10
7.868781774
 20
51.179539751
 30
0.0
 10
7.8446171959
 20
51.1717137829
 30
0.0
  0
SPLINE
  5
282
100
AcDbEntity
  8
00_COMPONENTS
100
AcDbSpline
 62
7
  6
CONTINUOUS
 70
0
 71
3
 72
9
 73
5
 74
0
 42
0.0000001
 43
0.0000001
 44
0.0000000001
 40
0.0
 40
0.0
 40
0.0
 40
0.0
 40
0.2500332193
 40
1.0
 40
1.0
 40
1.0
 40
1.0
 10
42.2946171959
 20
39.4082372403
 30
0.0
 10
42.242269584
 20
39.281598407
 30
0.0
 10
42.0257648393
 20
38.7780676256
 30
0.0
 10
41.7828433209
 20
38.2860930221
 30
0.0
 10
41.5896171959
 20
37.9233220285
 30
0.0
  0
SPLINE
  5
283
100
AcDbEntity
  8
00_COMPONENTS
100
AcDbSpline
 62
7
  6
CONTINUOUS
 70
0
 71
3
 72
9
 73
5
 74
0
 42
0.0000001
 43
0.0000001
 44
0.0000000001
 40
0.0
 40
0.0
 40
0.0
 40
0.0
 40
0.2500332302
 40
1.0
 40
1.0
 40
1.0
 40
1.0
 10
49.344617196
 20
39.4082464578
 30
0.0
 10
49.2922693655
 20
39.2816069497
 30
0.0
 10
49.0757693963
 20
38.7780710731
 30
0.0
 10
48.8328443069
 20
38.2860948734
 30
0.0
 10
48.6396171959
 20
37.9233220285
 30
0.0
  0
SPLINE
  5
284
100
AcDbEntity
  8
00_COMPONENTS
100
AcDbSpline
 62
7
  6
CONTINUOUS
 70
0
 71
3
 72
9
 73
5
 74
0
 42
0.0000001
 43
0.0000001
 44
0.0000000001
 40
0.0
 40
0.0
 40
0.0
 40
0.0
 40
0.7499671087
 40
1.0
 40
1.0
 40
1.0
 40
1.0
 10
48.6396171959
 20
48.9727564029
 30
0.0
 10
48.446391086
 20
48.6099854374
 30
0.0
 10
48.2035107686
 20
48.1179923652
 30
0.0
 10
47.9869647122
 20
47.614479793
 30
0.0
 10
47.934617196
 20
47.4878411911
 30
0.0
  0
SPLINE
  5
285
100
AcDbEntity
  8
00_COMPONENTS
100
AcDbSpline
 62
7
  6
CONTINUOUS
 70
0
 71
3
 72
9
 73
5
 74
0
 42
0.0000001
 43
0.0000001
 44
0.0000000001
 40
0.0
 40
0.0
 40
0.0
 40
0.0
 40
0.2500329224
 40
1.0
 40
1.0
 40
1.0
 40
1.0
 10
47.934617196
 20
39.4082372403
 30
0.0
 10
47.9869647184
 20
39.2815986234
 30
0.0
 10
48.2035112426
 20
38.7780862574
 30
0.0
 10
48.4463910951
 20
38.2860929768
 30
0.0
 10
48.6396171959
 20
37.9233220285
 30
0.0
  0
SPLINE
  5
286
100
AcDbEntity
  8
00_COMPONENTS
100
AcDbSpline
 62
7
  6
CONTINUOUS
 70
0
 71
3
 72
9
 73
5
 74
0
 42
0.0000001
 43
0.0000001
 44
0.0000000001
 40
0.0
 40
0.0
 40
0.0
 40
0.0
 40
0.7499671087
 40
1.0
 40
1.0
 40
1.0
 40
1.0
 10
41.5896171959
 20
48.9727564029
 30
0.0
 10
41.396391086
 20
48.6099854374
 30
0.0
 10
41.1535107686
 20
48.1179923652
 30
0.0
 10
40.9369647122
 20
47.614479793
 30
0.0
 10
40.8846171959
 20
47.4878411911
 30
0.0
  0
SPLINE
  5
287
100
AcDbEntity
  8
00_COMPONENTS
100
AcDbSpline
 62
7
  6
CONTINUOUS
 70
0
 71
3
 72
9
 73
5
 74
0
 42
0.0000001
 43
0.0000001
 44
0.0000000001
 40
0.0
 40
0.0
 40
0.0
 40
0.0
 40
0.7499661924
 40
1.0
 40
1.0
 40
1.0
 40
1.0
 10
42.9996171959
 20
49.2026336446
 30
0.0
 10
42.803499718
 20
48.7825521501
 30
0.0
 10
42.5592261064
 20
48.2139053533
 30
0.0
 10
42.345856599
 20
47.6336640505
 30
0.0
 10
42.2946171959
 20
47.4878411911
 30
0.0
  0
SPLINE
  5
288
100
AcDbEntity
  8
00_COMPONENTS
100
AcDbSpline
 62
7
  6
CONTINUOUS
 70
0
 71
3
 72
9
 73
5
 74
0
 42
0.0000001
 43
0.0000001
 44
0.0000000001
 40
0.0
 40
0.0
 40
0.0
 40
0.0
 40
0.2500338171
 40
1.0
 40
1.0
 40
1.0
 40
1.0
 10
42.2946171959
 20
39.4082372403
 30
0.0
 10
42.3458566009
 20
39.2624143756
 30
0.0
 10
42.5592262798
 20
38.6821731377
 30
0.0
 10
42.8034997208
 20
38.1135262751
 30
0.0
 10
42.9996171959
 20
37.6934447867
 30
0.0
  0
SPLINE
  5
289
100
AcDbEntity
  8
00_COMPONENTS
100
AcDbSpline
 62
7
  6
CONTINUOUS
 70
0
 71
3
 72
9
 73
5
 74
0
 42
0.0000001
 43
0.0000001
 44
0.0000000001
 40
0.0
 40
0.0
 40
0.0
 40
0.0
 40
0.7499667891
 40
1.0
 40
1.0
 40
1.0
 40
1.0
 10
48.6396171959
 20
48.9727564029
 30
0.0
 10
48.8328434801
 20
48.6099851103
 30
0.0
 10
49.0757653117
 20
48.1180101374
 30
0.0
 10
49.2922695531
 20
47.6144786571
 30
0.0
 10
49.344617196
 20
47.4878397211
 30
0.0
  0
SPLINE
  5
28A
100
AcDbEntity
  8
00_COMPONENTS
100
AcDbSpline
 62
7
  6
CONTINUOUS
 70
0
 71
3
 72
9
 73
5
 74
0
 42
0.0000001
 43
0.0000001
 44
0.0000000001
 40
0.0
 40
0.0
 40
0.0
 40
0.0
 40
0.2500329224
 40
1.0
 40
1.0
 40
1.0
 40
1.0
 10
40.8846171959
 20
39.4082372403
 30
0.0
 10
40.9369647184
 20
39.2815986234
 30
0.0
 10
41.1535112427
 20
38.7780862574
 30
0.0
 10
41.3963910951
 20
38.2860929768
 30
0.0
 10
41.5896171959
 20
37.9233220285
 30
0.0
  0
SPLINE
  5
28B
100
AcDbEntity
  8
00_COMPONENTS
100
AcDbSpline
 62
7
  6
CONTINUOUS
 70
0
 71
3
 72
9
 73
5
 74
0
 42
0.0000001
 43
0.0000001
 44
0.0000000001
 40
0.0
 40
0.0
 40
0.0
 40
0.0
 40
0.7499667907
 40
1.0
 40
1.0
 40
1.0
 40
1.0
 10
41.5896171959
 20
48.9727564029
 30
0.0
 10
41.7828433228
 20
48.6099854056
 30
0.0
 10
42.0257645794
 20
48.1180106848
 30
0.0
 10
42.2422695863
 20
47.6144800189
 30
0.0
 10
42.2946171959
 20
47.4878411911
 30
0.0
  0
SPLINE
  5
28C
100
AcDbEntity
  8
00_COMPONENTS_2
100
AcDbSpline
 62
7
  6
CONTINUOUS
 70
0
 71
3
 72
17
 73
13
 74
0
 42
0.0000001
 43
0.0000001
 44
0.0000000001
 40
0.0
 40
0.0
 40
0.0
 40
0.0
 40
0.1675345343
 40
0.3279632659
 40
0.475431129
 40
0.6064743592
 40
0.7205788778
 40
0.8203422494
 40
0.866569986
 40
0.9113883611
 40
0.9556168348
 40
1.0
 40
1.0
 40
1.0
 40
1.0
 10
41.9446171959
 20
33.0620912388
 30
0.0
 10
41.8401749118
 20
33.0636294057
 30
0.0
 10
41.6357245449
 20
33.0757975406
 30
0.0
 10
41.3423240822
 20
33.121237486
 30
0.0
 10
41.0774505673
 20
33.1926902915
 30
0.0
 10
40.8511959908
 20
33.2887515482
 30
0.0
 10
40.6703287607
 20
33.4077327766
 30
0.0
 10
40.5581754317
 20
33.5277982407
 30
0.0
 10
40.4980046671
 20
33.6309069503
 30
0.0
 10
40.4669110345
 20
33.7096737074
 30
0.0
 10
40.4485538335
 20
33.7911316323
 30
0.0
 10
40.4446171959
 20
33.846472636
 30
0.0
 10
40.4446171959
 20
33.8741444343
 30
0.0
  0
SPLINE
  5
28D
100
AcDbEntity
  8
00_COMPONENTS_2
100
AcDbSpline
 62
7
  6
CONTINUOUS
 70
0
 71
3
 72
17
 73
13
 74
0
 42
0.0000001
 43
0.0000001
 44
0.0000000001
 40
0.0
 40
0.0
 40
0.0
 40
0.0
 40
0.1682933635
 40
0.3294188557
 40
0.4773478561
 40
0.6084347458
 40
0.7221158602
 40
0.8211665365
 40
0.8670465801
 40
0.9115867311
 40
0.9556482652
 40
1.0
 40
1.0
 40
1.0
 40
1.0
 10
41.9446171959
 20
53.8339871925
 30
0.0
 10
42.0485755051
 20
53.8355182316
 30
0.0
 10
42.2523270138
 20
53.8294405598
 30
0.0
 10
42.545440814
 20
53.7929250035
 30
0.0
 10
42.8105728049
 20
53.7295778864
 30
0.0
 10
43.0373632946
 20
53.6405429774
 30
0.0
 10
43.2187999932
 20
53.5272228298
 30
0.0
 10
43.3312997389
 20
53.4106484632
 30
0.0
 10
43.3914406124
 20
53.3097197662
 30
0.0
 10
43.4224591092
 20
53.2322659639
 30
0.0
 10
43.4407248145
 20
53.1518605506
 30
0.0
 10
43.4446171959
 20
53.0971444019
 30
0.0
 10
43.4446171959
 20
53.0697444423
 30
0.0
  0
SPLINE
  5
28E
100
AcDbEntity
  8
00_COMPONENTS_2
100
AcDbSpline
 62
7
  6
CONTINUOUS
 70
0
 71
3
 72
13
 73
9
 74
0
 42
0.0000001
 43
0.0000001
 44
0.0000000001
 40
0.0
 40
0.0
 40
0.0
 40
0.0
 40
0.2838390866
 40
0.5518769936
 40
0.6776554818
 40
0.7958002546
 40
0.9040980964
 40
1.0
 40
1.0
 40
1.0
 40
1.0
 10
47.6739405042
 20
54.9938784386
 30
0.0
 10
47.7154782463
 20
54.9238629707
 30
0.0
 10
47.7885423981
 20
54.7830290766
 30
0.0
 10
47.8595595816
 20
54.6017050407
 30
0.0
 10
47.9018170833
 20
54.4610102209
 30
0.0
 10
47.9251811212
 20
54.362650464
 30
0.0
 10
47.9403034433
 20
54.2713707732
 30
0.0
 10
47.9446171959
 20
54.2128040111
 30
0.0
 10
47.9446171959
 20
54.1852977522
 30
0.0
  0
SPLINE
  5
28F
100
AcDbEntity
  8
00_COMPONENTS_2
100
AcDbSpline
 62
7
  6
CONTINUOUS
 70
0
 71
3
 72
11
 73
7
 74
0
 42
0.0000001
 43
0.0000001
 44
0.0000000001
 40
0.0
 40
0.0
 40
0.0
 40
0.0
 40
0.4485380738
 40
0.7600695045
 40
0.9409527613
 40
1.0
 40
1.0
 40
1.0
 40
1.0
 10
47.6739405042
 20
54.9938784386
 30
0.0
 10
47.5335318058
 20
55.2305494813
 30
0.0
 10
47.2596284143
 20
55.6116576444
 30
0.0
 10
46.854979013
 20
56.0254317502
 30
0.0
 10
46.593300746
 20
56.2405914485
 30
0.0
 10
46.4742354294
 20
56.3271794638
 30
0.0
 10
46.4446171959
 20
56.3480392157
 30
0.0
  0
SPLINE
  5
290
100
AcDbEntity
  8
00_COMPONENTS_2
100
AcDbSpline
 62
7
  6
CONTINUOUS
 70
0
 71
3
 72
13
 73
9
 74
0
 42
0.0000001
 43
0.0000001
 44
0.0000000001
 40
0.0
 40
0.0
 40
0.0
 40
0.0
 40
0.0959019796
 40
0.2041999085
 40
0.3223446981
 40
0.4481232512
 40
0.7161610877
 40
1.0
 40
1.0
 40
1.0
 40
1.0
 10
47.9446171959
 20
32.7107806651
 30
0.0
 10
47.9446171959
 20
32.6832743848
 30
0.0
 10
47.9403034266
 20
32.6247075778
 30
0.0
 10
47.9251811069
 20
32.5334278362
 30
0.0
 10
47.9018170476
 20
32.4350680353
 30
0.0
 10
47.8595595126
 20
32.2943732247
 30
0.0
 10
47.788542354
 20
32.1130492385
 30
0.0
 10
47.7154782202
 20
31.9722154167
 30
0.0
 10
47.6739405042
 20
31.9021999927
 30
0.0
  0
SPLINE
  5
291
100
AcDbEntity
  8
00_COMPONENTS_2
100
AcDbSpline
 62
7
  6
CONTINUOUS
 70
0
 71
3
 72
11
 73
7
 74
0
 42
0.0000001
 43
0.0000001
 44
0.0000000001
 40
0.0
 40
0.0
 40
0.0
 40
0.0
 40
0.4485380724
 40
0.7600695034
 40
0.9409527608
 40
1.0
 40
1.0
 40
1.0
 40
1.0
 10
47.6739405042
 20
31.9021999927
 30
0.0
 10
47.5335318063
 20
31.6655289509
 30
0.0
 10
47.2596284154
 20
31.2844207881
 30
0.0
 10
46.8549790143
 20
30.8706466826
 30
0.0
 10
46.5933007466
 20
30.6554869838
 30
0.0
 10
46.4742354297
 20
30.5688989679
 30
0.0
 10
46.4446171959
 20
30.5480392157
 30
0.0
  0
SPLINE
  5
292
100
AcDbEntity
  8
00_COMPONENTS_2
100
AcDbSpline
 62
7
  6
CONTINUOUS
 70
0
 71
3
 72
15
 73
11
 74
0
 42
0.0000001
 43
0.0000001
 44
0.0000000001
 40
0.0
 40
0.0
 40
0.0
 40
0.0
 40
0.1676460993
 40
0.3281890317
 40
0.4757357446
 40
0.6068485533
 40
0.7210027325
 40
0.8208309445
 40
0.9116530882
 40
1.0
 40
1.0
 40
1.0
 40
1.0
 10
41.9446171959
 20
53.8339871925
 30
0.0
 10
41.8401631444
 20
53.8324488524
 30
0.0
 10
41.635687792
 20
53.8201996249
 30
0.0
 10
41.342272408
 20
53.7747315165
 30
0.0
 10
41.0773694791
 20
53.7033102178
 30
0.0
 10
40.8511581007
 20
53.6072223304
 30
0.0
 10
40.6702614265
 20
53.4881833428
 30
0.0
 10
40.5389929665
 20
53.3477734919
 30
0.0
 10
40.4608205431
 20
53.1894957915
 30
0.0
 10
40.4446171959
 20
53.0769856425
 30
0.0
 10
40.4446171959
 20
53.0219339971
 30
0.0
  0
SPLINE
  5
293
100
AcDbEntity
  8
00_COMPONENTS_2
100
AcDbSpline
 62
7
  6
CONTINUOUS
 70
0
 71
3
 72
17
 73
13
 74
0
 42
0.0000001
 43
0.0000001
 44
0.0000000001
 40
0.0
 40
0.0
 40
0.0
 40
0.0
 40
0.1683179092
 40
0.3294755924
 40
0.4774105764
 40
0.608496691
 40
0.7221747742
 40
0.8212426683
 40
0.8671177603
 40
0.9116334033
 40
0.9556633249
 40
1.0
 40
1.0
 40
1.0
 40
1.0
 10
41.9446171959
 20
33.0620912388
 30
0.0
 10
42.0485856787
 20
33.0605600499
 30
0.0
 10
42.2523577537
 20
33.0667404756
 30
0.0
 10
42.5455046332
 20
33.1031942265
 30
0.0
 10
42.8106218473
 20
33.166646332
 30
0.0
 10
43.0374198557
 20
33.2556198614
 30
0.0
 10
43.2188562038
 20
33.368956896
 30
0.0
 10
43.3312932063
 20
33.4855859718
 30
0.0
 10
43.391427706
 20
33.5864994692
 30
0.0
 10
43.4224562226
 20
33.6639037984
 30
0.0
 10
43.440727455
 20
33.7442595957
 30
0.0
 10
43.4446171959
 20
33.7989446474
 30
0.0
 10
43.4446171959
 20
33.8263339891
 30
0.0
  0
SPLINE
  5
294
100
AcDbEntity
  8
00_COMPONENTS_2
100
AcDbSpline
 62
7
  6
CONTINUOUS
 70
0
 71
3
 72
19
 73
15
 74
0
 42
0.0000001
 43
0.0000001
 44
0.0000000001
 40
0.0
 40
0.0
 40
0.0
 40
0.0
 40
0.1721310927
 40
0.2559820424
 40
0.3371798692
 40
0.4888599575
 40
0.6229657121
 40
0.7378124466
 40
0.7884630515
 40
0.8351647504
 40
0.8786864729
 40
0.9199739491
 40
0.9600666444
 40
1.0
 40
1.0
 40
1.0
 40
1.0
 10
41.9446171959
 20
31.3583742079
 30
0.0
 10
42.0470265787
 20
31.3583742079
 30
0.0
 10
42.1994189062
 20
31.3641093749
 30
0.0
 10
42.3991059665
 20
31.383790176
 30
0.0
 10
42.5856951089
 20
31.4104130286
 30
0.0
 10
42.7996368183
 20
31.4561492345
 30
0.0
 10
43.0258249559
 20
31.5333110762
 30
0.0
 10
43.1842950793
 20
31.6176765385
 30
0.0
 10
43.2839759185
 20
31.6956509596
 30
0.0
 10
43.3427565486
 20
31.7557942964
 30
0.0
 10
43.3885347
 20
31.8196649831
 30
0.0
 10
43.4211052611
 20
31.8868948772
 30
0.0
 10
43.4404488152
 20
31.9568308584
 30
0.0
 10
43.4446171959
 20
32.0045610818
 30
0.0
 10
43.4446171959
 20
32.0283194293
 30
0.0
  0
SPLINE
  5
295
100
AcDbEntity
  8
00_COMPONENTS_2
100
AcDbSpline
 62
7
  6
CONTINUOUS
 70
0
 71
3
 72
18
 73
14
 74
0
 42
0.0000001
 43
0.0000001
 44
0.0000000001
 40
0.0
 40
0.0
 40
0.0
 40
0.0
 40
0.1721942369
 40
0.2560839262
 40
0.3373114555
 40
0.4890272843
 40
0.6231520207
 40
0.7380271914
 40
0.8352054196
 40
0.8787419599
 40
0.9200176171
 40
0.9600793865
 40
1.0
 40
1.0
 40
1.0
 40
1.0
 10
41.9446171959
 20
55.5377042235
 30
0.0
 10
42.0470382448
 20
55.5377042235
 30
0.0
 10
42.1994515902
 20
55.5319096269
 30
0.0
 10
42.3991623414
 20
55.512209544
 30
0.0
 10
42.5857707234
 20
55.4855894336
 30
0.0
 10
42.7996840137
 20
55.439894354
 30
0.0
 10
43.0259450332
 20
55.3625923175
 30
0.0
 10
43.2087124061
 20
55.2654346671
 30
0.0
 10
43.3252560615
 20
55.1646604475
 30
0.0
 10
43.3885346438
 20
55.07626778
 30
0.0
 10
43.4211041217
 20
55.0090783722
 30
0.0
 10
43.4404535999
 20
54.9391967126
 30
0.0
 10
43.4446171959
 20
54.8915037637
 30
0.0
 10
43.4446171959
 20
54.8677590021
 30
0.0
  0
SPLINE
  5
296
100
AcDbEntity
  8
00_COMPONENTS_2
100
AcDbSpline
 62
7
  6
CONTINUOUS
 70
0
 71
3
 72
19
 73
15
 74
0
 42
0.0000001
 43
0.0000001
 44
0.0000000001
 40
0.0
 40
0.0
 40
0.0
 40
0.0
 40
0.1721310927
 40
0.2559820424
 40
0.3371798692
 40
0.4888599575
 40
0.6229657121
 40
0.7378124466
 40
0.7884630515
 40
0.8351647504
 40
0.8786864729
 40
0.9199739491
 40
0.9600666444
 40
1.0
 40
1.0
 40
1.0
 40
1.0
 10
41.9446171959
 20
55.5377042235
 30
0.0
 10
41.8422078131
 20
55.5377042235
 30
0.0
 10
41.6898154856
 20
55.5319690565
 30
0.0
 10
41.4901284253
 20
55.5122882554
 30
0.0
 10
41.3035392829
 20
55.4856654028
 30
0.0
 10
41.0895975735
 20
55.4399291968
 30
0.0
 10
40.863409436
 20
55.3627673551
 30
0.0
 10
40.7049393126
 20
55.2784018929
 30
0.0
 10
40.6052584733
 20
55.2004274718
 30
0.0
 10
40.5464778433
 20
55.1402841349
 30
0.0
 10
40.5006996918
 20
55.0764134483
 30
0.0
 10
40.4681291308
 20
55.0091835542
 30
0.0
 10
40.4487855767
 20
54.939247573
 30
0.0
 10
40.4446171959
 20
54.8915173495
 30
0.0
 10
40.4446171959
 20
54.8677590021
 30
0.0
  0
SPLINE
  5
297
100
AcDbEntity
  8
00_COMPONENTS_2
100
AcDbSpline
 62
7
  6
CONTINUOUS
 70
0
 71
3
 72
18
 73
14
 74
0
 42
0.0000001
 43
0.0000001
 44
0.0000000001
 40
0.0
 40
0.0
 40
0.0
 40
0.0
 40
0.1721942369
 40
0.2560839262
 40
0.3373114555
 40
0.4890272843
 40
0.6231520207
 40
0.7380271914
 40
0.8352054196
 40
0.8787419599
 40
0.9200176171
 40
0.9600793865
 40
1.0
 40
1.0
 40
1.0
 40
1.0
 10
41.9446171959
 20
31.3583742079
 30
0.0
 10
41.842196147
 20
31.3583742079
 30
0.0
 10
41.6897828017
 20
31.3641688044
 30
0.0
 10
41.4900720505
 20
31.3838688874
 30
0.0
 10
41.3034636684
 20
31.4104889978
 30
0.0
 10
41.0895503781
 20
31.4561840774
 30
0.0
 10
40.8632893586
 20
31.5334861138
 30
0.0
 10
40.6805219857
 20
31.6306437642
 30
0.0
 10
40.5639783303
 20
31.7314179839
 30
0.0
 10
40.500699748
 20
31.8198106514
 30
0.0
 10
40.4681302702
 20
31.8870000592
 30
0.0
 10
40.448780792
 20
31.9568817187
 30
0.0
 10
40.4446171959
 20
32.0045746677
 30
0.0
 10
40.4446171959
 20
32.0283194293
 30
0.0
  0
ELLIPSE
  5
298
100
AcDbEntity
  8
00_COMPONENTS
100
AcDbEllipse
 62
7
  6
CONTINUOUS
 10
62.7746694986
 20
62.4480392157
 30
0.0
 11
11.4300523028
 21
-0.0
 31
0.0
 40
0.0874886635
 41
2.5512328805
 42
3.1415923974
  0
ELLIPSE
  5
299
100
AcDbEntity
  8
00_COMPONENTS
100
AcDbEllipse
 62
7
  6
CONTINUOUS
 10
62.7746694986
 20
24.4480392157
 30
0.0
 11
11.4300523028
 21
-0.0
 31
0.0
 40
0.0874886635
 41
-3.1415926533
 42
-2.5512328805
  0
ENDSEC
  0
SECTION
  2
OBJECTS
  0
DICTIONARY
  5
C
100
AcDbDictionary
280
0
281
1
  3
ACAD_GROUP
350
D
  3
ACAD_MLINESTYLE
350
17
  3
ACAD_LAYOUT
350
1A
  3
ACAD_PLOTSETTINGS
350
19
  3
ACAD_PLOTSTYLENAME
350
E
  0
DICTIONARY
  5
D
102
{ACAD_REACTORS
330
C
102
}
100
AcDbDictionary
280
0
281
1
  0
ACDBDICTIONARYWDFLT
  5
E
102
{ACAD_REACTORS
330
C
102
}
100
AcDbDictionary
281
1
  3
Normal
350
F
100
AcDbDictionaryWithDefault
340
F
  0
DICTIONARY
  5
17
102
{ACAD_REACTORS
330
C
102
}
100
AcDbDictionary
280
0
281
1
  3
Standard
350
18
  0
DICTIONARY
  5
19
102
{ACAD_REACTORS
330
C
102
}
100
AcDbDictionary
281
1
  0
DICTIONARY
  5
1A
102
{ACAD_REACTORS
330
C
102
}
100
AcDbDictionary
281
1
  3
Model
350
29A
  3
Layout1
350
29B
  0
ACDBPLACEHOLDER
  5
F
102
{ACAD_REACTORS
330
E
102
}
  0
MLINESTYLE
  5
18
102
{ACAD_REACTORS
330
17
102
}
100
AcDbMlineStyle
  2
STANDARD
 70
0
  3

 62
256
 51
90.0
 52
90.0
 71
2
 49
0.5
 62
256
  6
BYLAYER
 49
-0.5
 62
256
  6
BYLAYER
  0
LAYOUT
  5
29A
102
{ACAD_REACTORS
330
1A
102
}
100
AcDbPlotSettings
  1

  2
none_device
  4

  6

 40
0.0
 41
0.0
 42
0.0
 43
0.0
 44
210.0
 45
297.0
 46
0.0
 47
0.0
 48
0.0
 49
0.0
140
0.0
141
0.0
142
1.0
143
1.0
 70
1024
 72
1
 73
0
 74
0
  7

 75
0
147
1.0
148
0.0
149
0.0
100
AcDbLayout
  1
Model
 70
0
 71
0
 10
0.0
 20
0.0
 11
210.0
 21
297.0
 12
0.0
 22
0.0
 32
0.0
 14
0.0
 24
0.0
 34
0.0
 15
0.0
 25
0.0
 35
0.0
146
0.0
 13
0.0
 23
0.0
 33
0.0
 16
1.0
 26
0.0
 36
0.0
 17
0.0
 27
1.0
 37
0.0
 76
0
330
213
345
0
346
0
  0
LAYOUT
  5
29B
102
{ACAD_REACTORS
330
1A
102
}
100
AcDbPlotSettings
  1

  2
none_device
  4

  6

 40
0.0
 41
0.0
 42
0.0
 43
0.0
 44
210.0
 45
297.0
 46
0.0
 47
0.0
 48
0.0
 49
0.0
140
0.0
141
0.0
142
1.0
143
1.0
 70
0
 72
1
 73
0
 74
0
  7

 75
0
147
1.0
148
0.0
149
0.0
100
AcDbLayout
  1
Layout1
 70
0
 71
1
 10
0.0
 20
0.0
 11
210.0
 21
297.0
 12
0.0
 22
0.0
 32
0.0
 14
0.0
 24
0.0
 34
0.0
 15
0.0
 25
0.0
 35
0.0
146
0.0
 13
0.0
 23
0.0
 33
0.0
 16
1.0
 26
0.0
 36
0.0
 17
0.0
 27
1.0
 37
0.0
 76
0
330
214
345
0
346
0
  0
ENDSEC
  0
EOF
