999
DXF file: C:\Users\sesa63760\Dev\_Creo\CAD\MCADPP0003464_3D-CAD\drw0001_1.dxf
999
Pro/ENGINEER 2019471 by Parametric Technology Corporation
  0
SECTION
  2
HEADER
  9
$ACADVER
  1
AC1024
  9
$DWGCODEPAGE
  3
ANSI_1252
  9
$EXTMAX
 10
89.3461336547
 20
126.3609604545
 30
0.0
  9
$EXTMIN
 10
0.0
 20
0.0
 30
0.0
  9
$LIMMIN
 10
0.0
 20
0.0
  9
$LIMMAX
 10
89.3461336547
 20
126.3609604545
  9
$VIEWCTR
 10
44.6730668274
 20
63.1804802273
  9
$VIEWSIZE
 40
126.3609604545
  9
$CLAYER
  8
0
  9
$LTSCALE
 40
8.2368626074
  9
$CELTYPE
  6
BYLAYER
  9
$DIMSCALE
 40
1.0
  9
$DIMASZ
 40
1.0636444483
  9
$DIMEXO
 40
1.0
  9
$DIMDLI
 40
5.690923256
  9
$DIMEXE
 40
1.0
  9
$DIMCEN
 40
1.3478502448
  9
$DIMLFAC
 40
1.0
  9
$DIMBLK
  1
_FILLED
  9
$DIMALT
 70
0
  9
$DIMALTF
 40
0.0393700787
  9
$DIMTXT
 40
1.4891022276
  9
$DIMTOL
 70
1
  9
$DIMLIM
 70
0
  9
$DIMTFAC
 40
1.0
  9
$DIMTP
 40
0.01
  9
$DIMTM
 40
0.01
  9
$DIMGAP
 40
0.625
  9
$DIMDSEP
 70
46
  9
$AUNITS
 70
0
  9
$PDMODE
 70
3
  9
$PDSIZE
 40
0.3125
  9
$HANDSEED
  5
31C
  9
$TILEMODE
 70
1
  9
$MEASUREMENT
 70
1
  9
$INSUNITS
 70
4
  0
ENDSEC
  0
SECTION
  2
CLASSES
  0
CLASS
  1
ACDBDICTIONARYWDFLT
  2
AcDbDictionaryWithDefault
  3
AutoCAD 2000
 90
0
 91
1
280
0
281
0
  0
CLASS
  1
ACDBPLACEHOLDER
  2
AcDbPlaceHolder
  3
AutoCAD 2000
 90
0
 91
1
280
0
281
0
  0
CLASS
  1
LAYOUT
  2
AcDbLayout
  3
AutoCAD 2000
 90
0
 91
0
280
0
281
0
  0
ENDSEC
  0
SECTION
  2
TABLES
  0
TABLE
  2
VPORT
  5
8
100
AcDbSymbolTable
 70
2
  0
VPORT
  5
1F4
100
AcDbSymbolTableRecord
100
AcDbViewportTableRecord
  2
*ACTIVE
 70
0
 10
0.0
 20
0.0
 11
1.0
 21
1.0
 12
44.6730668274
 22
63.1804802273
 13
0.0
 23
0.0
 14
1.0
 24
1.0
 15
0.0
 25
0.0
 16
0.0
 26
0.0
 36
1.0
 17
0.0
 27
0.0
 37
0.0
 40
126.3609604545
 41
0.7070707071
 42
50.0
 43
0.0
 44
0.0
 50
0.0
 51
0.0
 71
0
 72
100
 73
1
 74
1
 75
0
 76
0
 77
0
 78
0
  0
ENDTAB
  0
TABLE
  2
LTYPE
  5
5
100
AcDbSymbolTable
 70
6
  0
LTYPE
  5
14
100
AcDbSymbolTableRecord
100
AcDbLinetypeTableRecord
  2
BYBLOCK
 70
0
  3

 72
65
 73
0
 40
0.0
  0
LTYPE
  5
15
100
AcDbSymbolTableRecord
100
AcDbLinetypeTableRecord
  2
BYLAYER
 70
0
  3

 72
65
 73
0
 40
0.0
  0
LTYPE
  5
16
100
AcDbSymbolTableRecord
100
AcDbLinetypeTableRecord
  2
CONTINUOUS
 70
64
  3
Solid line
 72
65
 73
0
 40
0.0
  0
LTYPE
  5
1F5
100
AcDbSymbolTableRecord
100
AcDbLinetypeTableRecord
  2
CENTER
 70
64
  3
____ _ ____ _ ____ _ ____ _ ____ _ ____ _ ____
 72
65
 73
4
 40
0.6
 49
0.375
 74
0
 49
-0.075
 74
0
 49
0.075
 74
0
 49
-0.075
 74
0
  0
LTYPE
  5
1F6
100
AcDbSymbolTableRecord
100
AcDbLinetypeTableRecord
  2
HIDDEN
 70
64
  3
- - - - - - - - - - - - - - - - - - - -
 72
65
 73
2
 40
0.2
 49
0.1
 74
0
 49
-0.1
 74
0
  0
LTYPE
  5
1F7
100
AcDbSymbolTableRecord
100
AcDbLinetypeTableRecord
  2
PHANTOM
 70
64
  3
_____ _ _ _____ _ _ _____ _ _ _____
 72
65
 73
6
 40
0.8
 49
0.45
 74
0
 49
-0.05
 74
0
 49
0.1
 74
0
 49
-0.05
 74
0
 49
0.1
 74
0
 49
-0.05
 74
0
  0
LTYPE
  5
1F8
100
AcDbSymbolTableRecord
100
AcDbLinetypeTableRecord
  2
DOT
 70
64
  3
. . . . . . . . . . . . . . . . . . . .
 72
65
 73
2
 40
0.2
 49
0.1
 74
0
 49
-0.1
 74
0
  0
LTYPE
  5
1F9
100
AcDbSymbolTableRecord
100
AcDbLinetypeTableRecord
  2
DASHED
 70
64
  3
- - - - - - - - - - - - - - - - - - - -
 72
65
 73
2
 40
0.2
 49
0.1
 74
0
 49
-0.1
 74
0
  0
ENDTAB
  0
TABLE
  2
LAYER
  5
2
100
AcDbSymbolTable
 70
36
  0
LAYER
  5
10
100
AcDbSymbolTableRecord
100
AcDbLayerTableRecord
  2
0
 70
0
 62
7
  6
CONTINUOUS
370
-3
390
F
  0
LAYER
  5
1FA
100
AcDbSymbolTableRecord
100
AcDbLayerTableRecord
  2
DEFAULT_1
 70
0
 62
7
  6
CENTER
370
-3
390
F
  0
LAYER
  5
1FB
100
AcDbSymbolTableRecord
100
AcDbLayerTableRecord
  2
DEFAULT_2
 70
0
 62
8
  6
HIDDEN
370
-3
390
F
  0
LAYER
  5
1FC
100
AcDbSymbolTableRecord
100
AcDbLayerTableRecord
  2
DEFAULT_3
 70
0
 62
7
  6
PHANTOM
370
-3
390
F
  0
LAYER
  5
1FD
100
AcDbSymbolTableRecord
100
AcDbLayerTableRecord
  2
00_COMPONENTS
 70
0
 62
7
  6
CONTINUOUS
370
-3
390
F
  0
LAYER
  5
1FE
100
AcDbSymbolTableRecord
100
AcDbLayerTableRecord
  2
01_1_DEFAULT_DATUMS
 70
0
 62
7
  6
CONTINUOUS
370
-3
390
F
  0
LAYER
  5
1FF
100
AcDbSymbolTableRecord
100
AcDbLayerTableRecord
  2
01_PLANES
 70
0
 62
7
  6
CONTINUOUS
370
-3
390
F
  0
LAYER
  5
200
100
AcDbSymbolTableRecord
100
AcDbLayerTableRecord
  2
02_COORD_SYS
 70
0
 62
7
  6
CONTINUOUS
370
-3
390
F
  0
LAYER
  5
201
100
AcDbSymbolTableRecord
100
AcDbLayerTableRecord
  2
03_AXES
 70
0
 62
7
  6
CONTINUOUS
370
-3
390
F
  0
LAYER
  5
202
100
AcDbSymbolTableRecord
100
AcDbLayerTableRecord
  2
03_AXES_1
 70
0
 62
7
  6
CONTINUOUS
370
-3
390
F
  0
LAYER
  5
203
100
AcDbSymbolTableRecord
100
AcDbLayerTableRecord
  2
04_POINTS
 70
0
 62
7
  6
CONTINUOUS
370
-3
390
F
  0
LAYER
  5
204
100
AcDbSymbolTableRecord
100
AcDbLayerTableRecord
  2
05_CURVES
 70
0
 62
7
  6
CONTINUOUS
370
-3
390
F
  0
LAYER
  5
205
100
AcDbSymbolTableRecord
100
AcDbLayerTableRecord
  2
06_SURFS
 70
0
 62
7
  6
CONTINUOUS
370
-3
390
F
  0
LAYER
  5
206
100
AcDbSymbolTableRecord
100
AcDbLayerTableRecord
  2
07_COSMETICS
 70
0
 62
7
  6
CONTINUOUS
370
-3
390
F
  0
LAYER
  5
207
100
AcDbSymbolTableRecord
100
AcDbLayerTableRecord
  2
0_COMPONENTS
 70
0
 62
7
  6
CONTINUOUS
370
-3
390
F
  0
LAYER
  5
208
100
AcDbSymbolTableRecord
100
AcDbLayerTableRecord
  2
10_NOTES
 70
0
 62
7
  6
CONTINUOUS
370
-3
390
F
  0
LAYER
  5
209
100
AcDbSymbolTableRecord
100
AcDbLayerTableRecord
  2
11_NOTES_PUB
 70
0
 62
7
  6
CONTINUOUS
370
-3
390
F
  0
LAYER
  5
20A
100
AcDbSymbolTableRecord
100
AcDbLayerTableRecord
  2
13_REF_GTOL
 70
0
 62
7
  6
CONTINUOUS
370
-3
390
F
  0
LAYER
  5
20B
100
AcDbSymbolTableRecord
100
AcDbLayerTableRecord
  2
13_REF_GTOL_1
 70
0
 62
7
  6
CONTINUOUS
370
-3
390
F
  0
LAYER
  5
20C
100
AcDbSymbolTableRecord
100
AcDbLayerTableRecord
  2
16_MISC
 70
0
 62
7
  6
CONTINUOUS
370
-3
390
F
  0
LAYER
  5
20D
100
AcDbSymbolTableRecord
100
AcDbLayerTableRecord
  2
17_NO_PRINT
 70
0
 62
7
  6
CONTINUOUS
370
-3
390
F
  0
LAYER
  5
20E
100
AcDbSymbolTableRecord
100
AcDbLayerTableRecord
  2
18_DATUM_CAMS_JOINTS
 70
0
 62
7
  6
CONTINUOUS
370
-3
390
F
  0
LAYER
  5
20F
100
AcDbSymbolTableRecord
100
AcDbLayerTableRecord
  2
19_DATUM_FUNCTIONAL
 70
0
 62
7
  6
CONTINUOUS
370
-3
390
F
  0
LAYER
  5
210
100
AcDbSymbolTableRecord
100
AcDbLayerTableRecord
  2
20_DATUM_KINEMATIC_SCHEME
 70
0
 62
7
  6
CONTINUOUS
370
-3
390
F
  0
LAYER
  5
211
100
AcDbSymbolTableRecord
100
AcDbLayerTableRecord
  2
INTFCLR_37
 70
0
 62
7
  6
CONTINUOUS
370
-3
390
F
  0
LAYER
  5
212
100
AcDbSymbolTableRecord
100
AcDbLayerTableRecord
  2
INTFCLR_5721
 70
0
 62
7
  6
CONTINUOUS
370
-3
390
F
  0
LAYER
  5
213
100
AcDbSymbolTableRecord
100
AcDbLayerTableRecord
  2
INTF_BLANK
 70
0
 62
7
  6
CONTINUOUS
370
-3
390
F
  0
ENDTAB
  0
TABLE
  2
STYLE
  5
3
100
AcDbSymbolTable
 70
1
  0
STYLE
  5
11
100
AcDbSymbolTableRecord
100
AcDbTextStyleTableRecord
  2
STANDARD
 70
0
 40
0.0
 41
0.8
 50
0.0
 71
0
 42
0.2
  3
txt
  4

  0
STYLE
  5
214
100
AcDbSymbolTableRecord
100
AcDbTextStyleTableRecord
  2
TEXTSTYLE_1
 70
0
 40
0.0
 41
0.8
 50
0.0
 71
0
 42
0.2
  3
gdt
  4

  0
ENDTAB
  0
TABLE
  2
VIEW
  5
6
100
AcDbSymbolTable
 70
0
  0
ENDTAB
  0
TABLE
  2
UCS
  5
7
100
AcDbSymbolTable
 70
0
  0
ENDTAB
  0
TABLE
  2
APPID
  5
9
100
AcDbSymbolTable
 70
1
  0
APPID
  5
215
100
AcDbSymbolTableRecord
100
AcDbRegAppTableRecord
  2
ACAD
 70
0
  0
ENDTAB
  0
TABLE
  2
BLOCK_RECORD
  5
1
100
AcDbSymbolTable
 70
0
  0
BLOCK_RECORD
  5
216
100
AcDbSymbolTableRecord
100
AcDbBlockTableRecord
  2
*Model_Space
  0
BLOCK_RECORD
  5
217
100
AcDbSymbolTableRecord
100
AcDbBlockTableRecord
  2
*Paper_Space
  0
BLOCK_RECORD
  5
218
100
AcDbSymbolTableRecord
100
AcDbBlockTableRecord
  2
_FILLED
  0
ENDTAB
  0
TABLE
  2
DIMSTYLE
  5
A
100
AcDbSymbolTable
 70
1
100
AcDbDimStyleTable
 71
0
  0
DIMSTYLE
105
219
100
AcDbSymbolTableRecord
100
AcDbDimStyleTableRecord
  2
STANDARD
 70
0
  3

  4

 40
1.0
 41
1.0636444483
 42
1.0
 43
0.38
 44
1.0
 45
0.0
 46
0.0
 47
0.01
 48
0.01
140
1.4891022276
141
0.09
142
0.0
143
25.4
144
1.0
145
0.0
146
1.0
147
0.625
 71
1
 72
0
 73
0
 74
0
 75
0
 76
0
 77
1
 78
8
 79
2
170
0
171
1
172
0
173
0
174
0
175
0
176
0
177
0
178
0
270
2
179
2
271
2
272
2
273
2
274
2
275
0
280
0
281
0
282
0
283
1
284
8
285
0
286
0
287
3
288
0
340
11
278
46
341
218
342
218
343
218
344
218
  0
ENDTAB
  0
ENDSEC
  0
SECTION
  2
BLOCKS
  0
BLOCK
  5
20
100
AcDbEntity
  8
0
100
AcDbBlockBegin
  2
*Model_Space
 70
0
 10
0.0
 20
0.0
 30
0.0
  3
*Model_Space
  1

  0
ENDBLK
  5
21
100
AcDbEntity
  8
0
100
AcDbBlockEnd
  0
BLOCK
  5
1C
100
AcDbEntity
  8
0
100
AcDbBlockBegin
  2
*Paper_Space
 70
0
 10
0.0
 20
0.0
 30
0.0
  3
*Paper_Space
  1

  0
ENDBLK
  5
1D
100
AcDbEntity
  8
0
100
AcDbBlockEnd
  0
BLOCK
  5
21A
100
AcDbEntity
  8
0
100
AcDbBlockBegin
  2
_FILLED
 70
64
 10
0.0
 20
0.0
  3
_FILLED
  1

  0
SOLID
  5
21B
100
AcDbEntity
  8
0
  6
BYBLOCK
 62
0
100
AcDbTrace
 10
0.0
 20
0.0
 11
-1.0
 21
0.25
 12
-1.0
 22
-0.25
 13
-1.0
 23
-0.25
  0
ENDBLK
  5
21C
100
AcDbEntity
  8
0
  6
BYBLOCK
 62
0
100
AcDbBlockEnd
  0
ENDSEC
  0
SECTION
  2
ENTITIES
  0
LINE
  5
21D
100
AcDbEntity
  8
00_COMPONENTS
100
AcDbLine
 62
7
  6
CONTINUOUS
 10
10.3651794556
 20
57.594682558
 11
10.3651794556
 21
64.1267018951
  0
LINE
  5
21E
100
AcDbEntity
  8
0_COMPONENTS
100
AcDbLine
 62
7
  6
CONTINUOUS
 10
12.7735245822
 20
61.0383582708
 11
12.7735245822
 21
59.3999645205
  0
LINE
  5
21F
100
AcDbEntity
  8
0_COMPONENTS
100
AcDbLine
 62
7
  6
CONTINUOUS
 10
14.8928738504
 20
59.8147790813
 11
14.8928738504
 21
58.1763853311
  0
LINE
  5
220
100
AcDbEntity
  8
00_COMPONENTS
100
AcDbLine
 62
7
  6
CONTINUOUS
 10
38.5637956985
 20
40.2999346883
 11
10.9865164178
 21
56.2213241146
  0
LINE
  5
221
100
AcDbEntity
  8
00_COMPONENTS
100
AcDbLine
 62
7
  6
CONTINUOUS
 10
10.3651794556
 20
57.594682558
 11
37.9424587364
 21
41.6732931317
  0
LINE
  5
222
100
AcDbEntity
  8
00_COMPONENTS
100
AcDbLine
 62
7
  6
CONTINUOUS
 10
39.3566573574
 20
42.4897657583
 11
40.063770248
 21
42.0815231762
  0
LINE
  5
223
100
AcDbEntity
  8
00_COMPONENTS
100
AcDbLine
 62
7
  6
CONTINUOUS
 10
12.1936110572
 20
65.8587620861
 11
10.7794033828
 21
65.0422737783
  0
LINE
  5
224
100
AcDbEntity
  8
00_COMPONENTS
100
AcDbLine
 62
7
  6
CONTINUOUS
 10
51.7914259412
 20
88.7204347029
 11
53.2056336156
 21
89.5369230106
  0
LINE
  5
225
100
AcDbEntity
  8
00_COMPONENTS
100
AcDbLine
 62
7
  6
CONTINUOUS
 10
54.2056291388
 20
89.4378744526
 11
52.7914214643
 21
88.6213861448
  0
LINE
  5
226
100
AcDbEntity
  8
00_COMPONENTS
100
AcDbLine
 62
7
  6
CONTINUOUS
 10
13.1936065804
 20
65.759713528
 11
11.7793989059
 21
64.9432252203
  0
LINE
  5
227
100
AcDbEntity
  8
0_COMPONENTS
100
AcDbLine
 62
7
  6
CONTINUOUS
 10
14.8928738504
 20
58.1763853311
 11
12.7735245822
 21
59.3999645205
  0
LINE
  5
228
100
AcDbEntity
  8
0_COMPONENTS
100
AcDbLine
 62
7
  6
CONTINUOUS
 10
14.8928738504
 20
59.8147790813
 11
12.7735245822
 21
61.0383582708
  0
LINE
  5
229
100
AcDbEntity
  8
0_COMPONENTS
100
AcDbLine
 62
7
  6
CONTINUOUS
 10
55.5786984495
 20
37.0732584732
 11
54.159812075
 21
37.8924343713
  0
LINE
  5
22A
100
AcDbEntity
  8
0_COMPONENTS
100
AcDbLine
 62
7
  6
CONTINUOUS
 10
54.0019924866
 20
38.2412674159
 11
55.4208788611
 21
37.4220915179
  0
LINE
  5
22B
100
AcDbEntity
  8
00_COMPONENTS
100
AcDbLine
 62
7
  6
CONTINUOUS
 10
28.4629452151
 20
55.2127109315
 11
37.0119308252
 21
46.6841139013
  0
LINE
  5
22C
100
AcDbEntity
  8
0_COMPONENTS
100
AcDbLine
 62
7
  6
CONTINUOUS
 10
14.5938748706
 20
64.9512865428
 11
50.9484137761
 21
85.9404640776
  0
LINE
  5
22D
100
AcDbEntity
  8
0_COMPONENTS
100
AcDbLine
 62
7
  6
CONTINUOUS
 10
12.7735245822
 20
61.0383582708
 11
13.4054297237
 21
61.4031866966
  0
LINE
  5
22E
100
AcDbEntity
  8
0_COMPONENTS
100
AcDbLine
 62
7
  6
CONTINUOUS
 10
53.4269747847
 20
84.5094985849
 11
54.4174522821
 21
85.0813476211
  0
LINE
  5
22F
100
AcDbEntity
  8
0_COMPONENTS
100
AcDbLine
 62
7
  6
CONTINUOUS
 10
38.986986605
 20
47.94710638
 11
36.5932972119
 21
49.3290723312
  0
LINE
  5
230
100
AcDbEntity
  8
00_COMPONENTS
100
AcDbLine
 62
7
  6
CONTINUOUS
 10
27.979253676
 20
55.5904462961
 11
11.7793989059
 21
64.9432252203
  0
LINE
  5
231
100
AcDbEntity
  8
0_COMPONENTS
100
AcDbLine
 62
40
  6
CONTINUOUS
 10
37.8700477389
 20
50.665819771
 11
38.0384283492
 21
50.5686073795
  0
LINE
  5
232
100
AcDbEntity
  8
00_COMPONENTS
100
AcDbLine
 62
7
  6
CONTINUOUS
 10
38.4261384996
 20
47.500602209
 11
29.8771528895
 21
56.0291992393
  0
LINE
  5
233
100
AcDbEntity
  8
0_COMPONENTS
100
AcDbLine
 62
40
  6
CONTINUOUS
 10
32.8301301329
 20
57.3378849153
 11
32.8581163921
 21
57.6449044055
  0
LINE
  5
234
100
AcDbEntity
  8
0_COMPONENTS
100
AcDbLine
 62
40
  6
CONTINUOUS
 10
41.1824623985
 20
75.1174234226
 11
40.5089455654
 21
74.7285706188
  0
LINE
  5
235
100
AcDbEntity
  8
0_COMPONENTS
100
AcDbLine
 62
40
  6
CONTINUOUS
 10
35.1208151822
 20
71.6177506608
 11
35.7943309448
 21
72.0066028465
  0
LINE
  5
236
100
AcDbEntity
  8
0_COMPONENTS
100
AcDbLine
 62
7
  6
CONTINUOUS
 10
56.0496173306
 20
83.5764941703
 11
55.5463240529
 21
83.2859193954
  0
LINE
  5
237
100
AcDbEntity
  8
0_COMPONENTS
100
AcDbLine
 62
7
  6
CONTINUOUS
 10
15.0375947722
 20
59.8983332458
 11
14.8928738504
 21
59.8147790813
  0
LINE
  5
238
100
AcDbEntity
  8
0_COMPONENTS
100
AcDbLine
 62
40
  6
CONTINUOUS
 10
42.0804930341
 20
74.5989569227
 11
41.659545281
 21
74.3559240749
  0
LINE
  5
239
100
AcDbEntity
  8
0_COMPONENTS
100
AcDbLine
 62
40
  6
CONTINUOUS
 10
38.3564787276
 20
50.5578069712
 11
38.8241999445
 21
50.6334179279
  0
LINE
  5
23A
100
AcDbEntity
  8
0_COMPONENTS
100
AcDbLine
 62
40
  6
CONTINUOUS
 10
38.0384283492
 20
50.5686073795
 11
38.3564787276
 21
50.5578069712
  0
LINE
  5
23B
100
AcDbEntity
  8
0_COMPONENTS
100
AcDbLine
 62
40
  6
CONTINUOUS
 10
39.6660913783
 20
51.70275986
 11
39.3480405985
 21
51.7135606547
  0
LINE
  5
23C
100
AcDbEntity
  8
00_COMPONENTS
100
AcDbLine
 62
7
  6
CONTINUOUS
 10
29.3934613505
 20
56.4069346038
 11
13.1936065804
 21
65.759713528
  0
LINE
  5
23D
100
AcDbEntity
  8
0_COMPONENTS
100
AcDbLine
 62
40
  6
CONTINUOUS
 10
39.8344719887
 20
51.6055474686
 11
39.6660913783
 21
51.7027598601
  0
LINE
  5
23E
100
AcDbEntity
  8
0_COMPONENTS
100
AcDbLine
 62
40
  6
CONTINUOUS
 10
33.571839202
 20
55.2937837352
 11
32.5642502703
 21
55.8755023159
  0
LINE
  5
23F
100
AcDbEntity
  8
0_COMPONENTS
100
AcDbLine
 62
40
  6
CONTINUOUS
 10
25.511127748
 20
59.9475323811
 11
24.8813846657
 21
60.3111064941
  0
LINE
  5
240
100
AcDbEntity
  8
0_COMPONENTS
100
AcDbLine
 62
40
  6
CONTINUOUS
 10
28.9117403927
 20
57.9842321711
 11
29.541483475
 21
57.6206580582
  0
LINE
  5
241
100
AcDbEntity
  8
0_COMPONENTS
100
AcDbLine
 62
7
  6
CONTINUOUS
 10
53.2835690058
 20
44.2763527605
 11
48.6403980498
 21
46.957028117
  0
LINE
  5
242
100
AcDbEntity
  8
0_COMPONENTS
100
AcDbLine
 62
40
  6
CONTINUOUS
 10
27.9601239294
 20
59.1799897033
 11
27.2044322306
 21
59.6162786389
  0
LINE
  5
243
100
AcDbEntity
  8
0_COMPONENTS
100
AcDbLine
 62
40
  6
CONTINUOUS
 10
37.8513374318
 20
50.8494438366
 11
37.8700477388
 21
50.665819771
  0
LINE
  5
244
100
AcDbEntity
  8
0_COMPONENTS
100
AcDbLine
 62
40
  6
CONTINUOUS
 10
36.2901221551
 20
71.428727886
 11
36.25270657
 21
71.0614797295
  0
LINE
  5
245
100
AcDbEntity
  8
0_COMPONENTS
100
AcDbLine
 62
40
  6
CONTINUOUS
 10
37.3378220654
 20
70.8238517449
 11
37.3565293227
 21
71.0074755141
  0
LINE
  5
246
100
AcDbEntity
  8
0_COMPONENTS
100
AcDbLine
 62
40
  6
CONTINUOUS
 10
28.0720689663
 20
60.408067664
 11
25.793464447
 21
58.4853467652
  0
LINE
  5
247
100
AcDbEntity
  8
0_COMPONENTS
100
AcDbLine
 62
7
  6
CONTINUOUS
 10
15.1867231756
 20
58.3460383054
 11
14.8928738504
 21
58.1763853311
  0
LINE
  5
248
100
AcDbEntity
  8
0_COMPONENTS
100
AcDbLine
 62
40
  6
CONTINUOUS
 10
44.4097434609
 20
74.9068030944
 11
43.5678479547
 21
74.4207373987
  0
LINE
  5
249
100
AcDbEntity
  8
0_COMPONENTS
100
AcDbLine
 62
40
  6
CONTINUOUS
 10
40.3686456735
 20
72.5736881258
 11
39.5267501674
 21
72.0876224301
  0
LINE
  5
24A
100
AcDbEntity
  8
0_COMPONENTS
100
AcDbLine
 62
40
  6
CONTINUOUS
 10
37.1694423218
 20
70.7266382349
 11
37.3378220654
 21
70.8238517449
  0
LINE
  5
24B
100
AcDbEntity
  8
0_COMPONENTS
100
AcDbLine
 62
40
  6
CONTINUOUS
 10
42.3050046954
 20
73.6916388551
 11
42.9785215286
 21
74.0804916589
  0
LINE
  5
24C
100
AcDbEntity
  8
00_COMPONENTS
100
AcDbLine
 62
7
  6
CONTINUOUS
 10
41.2924839119
 20
71.2165716899
 11
53.3132491445
 21
78.1567223057
  0
LINE
  5
24D
100
AcDbEntity
  8
0_COMPONENTS
100
AcDbLine
 62
40
  6
CONTINUOUS
 10
39.3480405985
 20
51.7135606547
 11
38.8803193816
 21
51.637949698
  0
LINE
  5
24E
100
AcDbEntity
  8
0_COMPONENTS
100
AcDbLine
 62
40
  6
CONTINUOUS
 10
32.8581163921
 20
57.6449044055
 11
32.6062191592
 21
57.7903340507
  0
LINE
  5
24F
100
AcDbEntity
  8
0_COMPONENTS
100
AcDbLine
 62
7
  6
CONTINUOUS
 10
53.2835690058
 20
45.9147465108
 11
48.6403980498
 21
48.5954218672
  0
LINE
  5
250
100
AcDbEntity
  8
0_COMPONENTS
100
AcDbLine
 62
7
  6
CONTINUOUS
 10
40.711135211
 20
56.3462907771
 11
36.4724366746
 21
58.793449156
  0
LINE
  5
251
100
AcDbEntity
  8
0_COMPONENTS
100
AcDbLine
 62
40
  6
CONTINUOUS
 10
39.8531818943
 20
51.4219237893
 11
39.8344719887
 21
51.6055474686
  0
LINE
  5
252
100
AcDbEntity
  8
00_COMPONENTS
100
AcDbLine
 62
7
  6
CONTINUOUS
 10
37.9424587364
 20
41.6732931317
 11
37.9424587364
 21
44.6123629225
  0
LINE
  5
253
100
AcDbEntity
  8
0_COMPONENTS
100
AcDbLine
 62
7
  6
CONTINUOUS
 10
38.986986605
 20
46.7398719025
 11
38.986986605
 21
47.94710638
  0
LINE
  5
254
100
AcDbEntity
  8
00_COMPONENTS
100
AcDbLine
 62
7
  6
CONTINUOUS
 10
39.3566664108
 20
42.4897814395
 11
39.3566664108
 21
45.4288512303
  0
LINE
  5
255
100
AcDbEntity
  8
0_COMPONENTS
100
AcDbLine
 62
40
  6
CONTINUOUS
 10
32.6761952572
 20
57.1035802477
 11
32.8301301329
 21
57.3378849153
  0
LINE
  5
256
100
AcDbEntity
  8
00_COMPONENTS
100
AcDbLine
 62
7
  6
CONTINUOUS
 10
42.6757992741
 20
70.757453057
 11
54.6965645067
 21
77.6976036727
  0
LINE
  5
257
100
AcDbEntity
  8
0_COMPONENTS
100
AcDbLine
 62
40
  6
CONTINUOUS
 10
24.3859869306
 20
59.2979359049
 11
27.190428651
 21
60.9170714222
  0
LINE
  5
258
100
AcDbEntity
  8
00_COMPONENTS
100
AcDbLine
 62
7
  6
CONTINUOUS
 10
37.3718717012
 20
62.1740972719
 11
38.089765421
 21
57.8597050931
  0
LINE
  5
259
100
AcDbEntity
  8
00_COMPONENTS
100
AcDbLine
 62
7
  6
CONTINUOUS
 10
38.7551870634
 20
61.7149786389
 11
39.5355793751
 21
57.0249829014
  0
LINE
  5
25A
100
AcDbEntity
  8
0_COMPONENTS
100
AcDbLine
 62
7
  6
CONTINUOUS
 10
41.8606685637
 20
47.9471132875
 11
41.8606685637
 21
46.3087195373
  0
LINE
  5
25B
100
AcDbEntity
  8
00_COMPONENTS
100
AcDbLine
 62
7
  6
CONTINUOUS
 10
55.1229120045
 20
75.1353437458
 11
43.1021467719
 21
68.19519313
  0
LINE
  5
25C
100
AcDbEntity
  8
0_COMPONENTS
100
AcDbLine
 62
40
  6
CONTINUOUS
 10
27.4143606747
 20
57.5560173167
 11
27.9741275089
 21
57.87919692
  0
LINE
  5
25D
100
AcDbEntity
  8
0_COMPONENTS
100
AcDbLine
 62
40
  6
CONTINUOUS
 10
31.220784378
 20
58.5901970992
 11
28.4163426576
 21
56.9710615819
  0
LINE
  5
25E
100
AcDbEntity
  8
0_COMPONENTS
100
AcDbLine
 62
40
  6
CONTINUOUS
 10
32.0744384341
 20
57.7741738509
 11
31.6686063254
 21
57.6852988285
  0
LINE
  5
25F
100
AcDbEntity
  8
0_COMPONENTS
100
AcDbLine
 62
40
  6
CONTINUOUS
 10
32.6062191592
 20
57.7903340507
 11
32.0744384341
 21
57.7741738509
  0
LINE
  5
260
100
AcDbEntity
  8
0_COMPONENTS
100
AcDbLine
 62
40
  6
CONTINUOUS
 10
28.3799597426
 20
57.9680720147
 11
28.9117403927
 21
57.9842321711
  0
LINE
  5
261
100
AcDbEntity
  8
00_COMPONENTS
100
AcDbLine
 62
7
  6
CONTINUOUS
 10
38.7551870634
 20
61.7149786389
 11
37.3718717012
 21
62.1740972719
  0
LINE
  5
262
100
AcDbEntity
  8
00_COMPONENTS
100
AcDbLine
 62
7
  6
CONTINUOUS
 10
42.9243657138
 20
61.409300935
 11
44.307681076
 21
60.9501823021
  0
LINE
  5
263
100
AcDbEntity
  8
0_COMPONENTS
100
AcDbLine
 62
40
  6
CONTINUOUS
 10
36.2527065701
 20
71.0614797295
 11
36.3181886493
 21
70.9264624063
  0
LINE
  5
264
100
AcDbEntity
  8
0_COMPONENTS
100
AcDbLine
 62
40
  6
CONTINUOUS
 10
36.1591579966
 20
71.6987625325
 11
36.2901221551
 21
71.428727886
  0
LINE
  5
265
100
AcDbEntity
  8
0_COMPONENTS
100
AcDbLine
 62
40
  6
CONTINUOUS
 10
37.3565293227
 20
71.0074755141
 11
37.2910472434
 21
71.1424928374
  0
LINE
  5
266
100
AcDbEntity
  8
0_COMPONENTS
100
AcDbLine
 62
7
  6
CONTINUOUS
 10
42.983555114
 20
46.9570145196
 11
42.983555114
 21
48.5954082698
  0
LINE
  5
267
100
AcDbEntity
  8
0_COMPONENTS
100
AcDbLine
 62
40
  6
CONTINUOUS
 10
37.982297428
 20
51.1194795762
 11
37.8513374318
 21
50.8494438366
  0
LINE
  5
268
100
AcDbEntity
  8
0_COMPONENTS
100
AcDbLine
 62
40
  6
CONTINUOUS
 10
39.7222218981
 20
51.1518880496
 11
39.8531818943
 21
51.4219237893
  0
LINE
  5
269
100
AcDbEntity
  8
00_COMPONENTS
100
AcDbLine
 62
7
  6
CONTINUOUS
 10
27.979253676
 20
55.5904462961
 11
29.3934613505
 21
56.4069346038
  0
LINE
  5
26A
100
AcDbEntity
  8
00_COMPONENTS
100
AcDbLine
 62
7
  6
CONTINUOUS
 10
68.9912762344
 20
79.2686072206
 11
70.4054839089
 21
80.0850955284
  0
LINE
  5
26B
100
AcDbEntity
  8
0_COMPONENTS
100
AcDbLine
 62
40
  6
CONTINUOUS
 10
31.6686063254
 20
57.6852988285
 11
29.4222545417
 21
56.388374763
  0
LINE
  5
26C
100
AcDbEntity
  8
00_COMPONENTS
100
AcDbLine
 62
7
  6
CONTINUOUS
 10
70.889175448
 20
79.7073601638
 11
69.4749677735
 21
78.8908718561
  0
LINE
  5
26D
100
AcDbEntity
  8
00_COMPONENTS
100
AcDbLine
 62
7
  6
CONTINUOUS
 10
29.8771528896
 20
56.0291992393
 11
28.4629452151
 21
55.2127109315
  0
LINE
  5
26E
100
AcDbEntity
  8
0_COMPONENTS
100
AcDbLine
 62
7
  6
CONTINUOUS
 10
36.4724366746
 20
58.793449156
 11
37.8062578724
 21
59.5635265869
  0
LINE
  5
26F
100
AcDbEntity
  8
0_COMPONENTS
100
AcDbLine
 62
7
  6
CONTINUOUS
 10
41.3462126909
 20
61.6073082545
 11
56.7129901093
 21
70.4792683752
  0
LINE
  5
270
100
AcDbEntity
  8
0_COMPONENTS
100
AcDbLine
 62
40
  6
CONTINUOUS
 10
30.9597721245
 20
54.9491619561
 11
34.2435511733
 21
56.8450413569
  0
LINE
  5
271
100
AcDbEntity
  8
0_COMPONENTS
100
AcDbLine
 62
40
  6
CONTINUOUS
 10
26.0012762095
 20
58.3653693024
 11
29.331555131
 21
59.6809194381
  0
LINE
  5
272
100
AcDbEntity
  8
0_COMPONENTS
100
AcDbLine
 62
40
  6
CONTINUOUS
 10
27.9741275089
 20
57.87919692
 11
28.3799597426
 21
57.9680720147
  0
LINE
  5
273
100
AcDbEntity
  8
0_COMPONENTS
100
AcDbLine
 62
40
  6
CONTINUOUS
 10
74.5467814049
 20
68.3413427986
 11
75.0145028895
 21
68.4169532918
  0
LINE
  5
274
100
AcDbEntity
  8
0_COMPONENTS
100
AcDbLine
 62
7
  6
CONTINUOUS
 10
48.6403980498
 20
48.5954218672
 11
48.6403980498
 21
46.957028117
  0
LINE
  5
275
100
AcDbEntity
  8
0_COMPONENTS
100
AcDbLine
 62
40
  6
CONTINUOUS
 10
38.0664763829
 20
52.6262771155
 11
36.9439546495
 21
51.2004877696
  0
LINE
  5
276
100
AcDbEntity
  8
00_COMPONENTS
100
AcDbLine
 62
7
  6
CONTINUOUS
 10
54.9451309464
 20
68.3494515508
 11
42.9243657138
 21
61.409300935
  0
LINE
  5
277
100
AcDbEntity
  8
0_COMPONENTS
100
AcDbLine
 62
7
  6
CONTINUOUS
 10
37.8913475682
 20
57.9742591022
 11
38.0549840204
 21
58.068734088
  0
LINE
  5
278
100
AcDbEntity
  8
0_COMPONENTS
100
AcDbLine
 62
40
  6
CONTINUOUS
 10
31.892538299
 20
54.3242446941
 11
35.251140105
 21
56.2633227762
  0
LINE
  5
279
100
AcDbEntity
  8
00_COMPONENTS
100
AcDbLine
 62
7
  6
CONTINUOUS
 10
56.3284463086
 20
67.8903329179
 11
44.307681076
 21
60.9501823021
  0
LINE
  5
27A
100
AcDbEntity
  8
0_COMPONENTS
100
AcDbLine
 62
40
  6
CONTINUOUS
 10
72.3765369768
 20
70.9768846389
 11
71.8433342898
 21
70.7662546535
  0
LINE
  5
27B
100
AcDbEntity
  8
0_COMPONENTS
100
AcDbLine
 62
40
  6
CONTINUOUS
 10
74.8461115979
 20
70.0695701136
 11
72.5449282684
 21
69.3242678171
  0
LINE
  5
27C
100
AcDbEntity
  8
0_COMPONENTS
100
AcDbLine
 62
40
  6
CONTINUOUS
 10
75.538346086
 20
69.4970981045
 11
75.0706256719
 21
69.4214869933
  0
LINE
  5
27D
100
AcDbEntity
  8
0_COMPONENTS
100
AcDbLine
 62
40
  6
CONTINUOUS
 10
71.8526937803
 20
69.8967398261
 11
72.3204141944
 21
69.9723509373
  0
LINE
  5
27E
100
AcDbEntity
  8
0_COMPONENTS
100
AcDbLine
 62
40
  6
CONTINUOUS
 10
72.8442579261
 20
71.0524954411
 11
72.3765369768
 21
70.9768846389
  0
LINE
  5
27F
100
AcDbEntity
  8
0_COMPONENTS
100
AcDbLine
 62
40
  6
CONTINUOUS
 10
36.3181886493
 20
70.9264624063
 11
36.6175314808
 21
70.7536406517
  0
LINE
  5
280
100
AcDbEntity
  8
0_COMPONENTS
100
AcDbLine
 62
40
  6
CONTINUOUS
 10
35.7943309448
 20
72.0066028465
 11
36.1591579966
 21
71.6987625325
  0
LINE
  5
281
100
AcDbEntity
  8
0_COMPONENTS
100
AcDbLine
 62
40
  6
CONTINUOUS
 10
39.8354298027
 20
74.3397184331
 11
40.9579720997
 21
72.9139338656
  0
LINE
  5
282
100
AcDbEntity
  8
00_COMPONENTS
100
AcDbLine
 62
7
  6
CONTINUOUS
 10
51.377202014
 20
87.8048628196
 11
51.377202014
 21
85.6929086735
  0
LINE
  5
283
100
AcDbEntity
  8
0_COMPONENTS
100
AcDbLine
 62
40
  6
CONTINUOUS
 10
38.3471183003
 20
51.4273206397
 11
37.982297428
 21
51.1194795762
  0
LINE
  5
284
100
AcDbEntity
  8
0_COMPONENTS
100
AcDbLine
 62
40
  6
CONTINUOUS
 10
39.3574008919
 20
50.8440469089
 11
39.7222218981
 21
51.1518880497
  0
LINE
  5
285
100
AcDbEntity
  8
00_COMPONENTS
100
AcDbLine
 62
7
  6
CONTINUOUS
 10
61.6604157533
 20
68.4508434398
 11
61.9141030444
 21
68.5973089913
  0
LINE
  5
286
100
AcDbEntity
  8
0_COMPONENTS
100
AcDbLine
 62
7
  6
CONTINUOUS
 10
63.3412864172
 20
69.4117366776
 11
40.711135211
 21
56.3462907771
  0
LINE
  5
287
100
AcDbEntity
  8
0_COMPONENTS
100
AcDbLine
 62
40
  6
CONTINUOUS
 10
69.0931276296
 20
71.3171207607
 11
70.8891696633
 21
72.3540599226
  0
LINE
  5
288
100
AcDbEntity
  8
0_COMPONENTS
100
AcDbLine
 62
40
  6
CONTINUOUS
 10
36.2704327434
 20
51.5893370265
 11
38.0664763829
 21
52.6262771155
  0
LINE
  5
289
100
AcDbEntity
  8
0_COMPONENTS
100
AcDbLine
 62
40
  6
CONTINUOUS
 10
72.3204141943
 20
69.9723509373
 11
72.8536168814
 21
70.1829809227
  0
LINE
  5
28A
100
AcDbEntity
  8
0_COMPONENTS
100
AcDbLine
 62
40
  6
CONTINUOUS
 10
75.0706256719
 20
69.4214869933
 11
74.5374219144
 21
69.210857626
  0
LINE
  5
28B
100
AcDbEntity
  8
0_COMPONENTS
100
AcDbLine
 62
40
  6
CONTINUOUS
 10
75.0145028895
 20
68.4169532918
 11
75.5477055765
 21
68.6275832771
  0
LINE
  5
28C
100
AcDbEntity
  8
0_COMPONENTS
100
AcDbLine
 62
40
  6
CONTINUOUS
 10
74.2287333014
 20
68.3521445204
 11
74.5467814049
 21
68.3413427986
  0
LINE
  5
28D
100
AcDbEntity
  8
0_COMPONENTS
100
AcDbLine
 62
40
  6
CONTINUOUS
 10
36.6175314808
 20
70.7536406517
 11
36.8513922331
 21
70.7158362203
  0
LINE
  5
28E
100
AcDbEntity
  8
00_COMPONENTS
100
AcDbLine
 62
7
  6
CONTINUOUS
 10
41.2924839119
 20
71.2165716899
 11
42.6757992741
 21
70.7574530569
  0
LINE
  5
28F
100
AcDbEntity
  8
0_COMPONENTS
100
AcDbLine
 62
40
  6
CONTINUOUS
 10
39.9476979204
 20
72.330655278
 11
38.1516387904
 21
73.3675870417
  0
LINE
  5
290
100
AcDbEntity
  8
0_COMPONENTS
100
AcDbLine
 62
7
  6
CONTINUOUS
 10
54.0019924866
 20
43.0320136982
 11
54.0019924866
 21
38.2405961923
  0
LINE
  5
291
100
AcDbEntity
  8
0_COMPONENTS
100
AcDbLine
 62
40
  6
CONTINUOUS
 10
36.9439546495
 20
51.2004877696
 11
38.739998289
 21
52.2374278587
  0
LINE
  5
292
100
AcDbEntity
  8
0_COMPONENTS
100
AcDbLine
 62
40
  6
CONTINUOUS
 10
70.4401719771
 20
70.5394219379
 11
72.2362140108
 21
71.5763610999
  0
LINE
  5
293
100
AcDbEntity
  8
0_COMPONENTS
100
AcDbLine
 62
40
  6
CONTINUOUS
 10
38.8803193816
 20
51.637949698
 11
38.3471183003
 21
51.4273206397
  0
LINE
  5
294
100
AcDbEntity
  8
0_COMPONENTS
100
AcDbLine
 62
40
  6
CONTINUOUS
 10
36.8513922331
 20
70.7158362203
 11
37.1694423218
 21
70.7266382349
  0
LINE
  5
295
100
AcDbEntity
  8
0_COMPONENTS
100
AcDbLine
 62
40
  6
CONTINUOUS
 10
75.8563941895
 20
69.4862963828
 11
75.538346086
 21
69.4970981045
  0
LINE
  5
296
100
AcDbEntity
  8
0_COMPONENTS
100
AcDbLine
 62
40
  6
CONTINUOUS
 10
71.5346451415
 20
69.9075418569
 11
71.8526937803
 21
69.8967398261
  0
LINE
  5
297
100
AcDbEntity
  8
0_COMPONENTS
100
AcDbLine
 62
40
  6
CONTINUOUS
 10
73.1623065649
 20
71.0416934103
 11
72.8442579261
 21
71.0524954411
  0
LINE
  5
298
100
AcDbEntity
  8
0_COMPONENTS
100
AcDbLine
 62
40
  6
CONTINUOUS
 10
41.6314889328
 20
73.3027866694
 11
39.1619129696
 21
73.9508656293
  0
LINE
  5
299
100
AcDbEntity
  8
00_COMPONENTS
100
AcDbLine
 62
7
  6
CONTINUOUS
 10
56.3284463086
 20
67.8903329179
 11
54.9451309464
 21
68.3494515508
  0
LINE
  5
29A
100
AcDbEntity
  8
0_COMPONENTS
100
AcDbLine
 62
7
  6
CONTINUOUS
 10
66.4212311403
 20
58.8611293604
 11
71.0644020964
 21
56.180454004
  0
LINE
  5
29B
100
AcDbEntity
  8
0_COMPONENTS
100
AcDbLine
 62
40
  6
CONTINUOUS
 10
42.9785215286
 20
74.0804916589
 11
41.1824623985
 21
75.1174234226
  0
LINE
  5
29C
100
AcDbEntity
  8
0_COMPONENTS
100
AcDbLine
 62
40
  6
CONTINUOUS
 10
43.9887957078
 20
74.6637702465
 11
42.1927365777
 21
75.7007020102
  0
LINE
  5
29D
100
AcDbEntity
  8
0_COMPONENTS
100
AcDbLine
 62
7
  6
CONTINUOUS
 10
55.4208788611
 20
42.2128378001
 11
55.4208788611
 21
37.4220915179
  0
LINE
  5
29E
100
AcDbEntity
  8
0_COMPONENTS
100
AcDbLine
 62
40
  6
CONTINUOUS
 10
71.8433342898
 20
70.7662546535
 11
71.4785116779
 21
70.4584125857
  0
LINE
  5
29F
100
AcDbEntity
  8
0_COMPONENTS
100
AcDbLine
 62
40
  6
CONTINUOUS
 10
40.6483264715
 20
49.0618160842
 11
42.444370111
 21
50.0987561733
  0
LINE
  5
2A0
100
AcDbEntity
  8
00_COMPONENTS
100
AcDbLine
 62
7
  6
CONTINUOUS
 10
37.0119308252
 20
46.6841139013
 11
38.4261384996
 21
47.500602209
  0
LINE
  5
2A1
100
AcDbEntity
  8
00_COMPONENTS
100
AcDbLine
 62
7
  6
CONTINUOUS
 10
78.0239533836
 20
70.3622748258
 11
79.438161058
 21
71.1787631336
  0
LINE
  5
2A2
100
AcDbEntity
  8
0_COMPONENTS
100
AcDbLine
 62
7
  6
CONTINUOUS
 10
77.8713456815
 20
68.7377633117
 11
66.4212075887
 21
62.1270624621
  0
LINE
  5
2A3
100
AcDbEntity
  8
0_COMPONENTS
100
AcDbLine
 62
7
  6
CONTINUOUS
 10
42.983555114
 20
48.5954082698
 11
41.8606685637
 21
47.9471132875
  0
LINE
  5
2A4
100
AcDbEntity
  8
0_COMPONENTS
100
AcDbLine
 62
40
  6
CONTINUOUS
 10
38.8241999445
 20
50.6334179279
 11
39.3574008919
 21
50.8440469089
  0
LINE
  5
2A5
100
AcDbEntity
  8
0_COMPONENTS
100
AcDbLine
 62
40
  6
CONTINUOUS
 10
41.3498964113
 20
50.7306365633
 11
39.0487114761
 21
49.9853333397
  0
LINE
  5
2A6
100
AcDbEntity
  8
0_COMPONENTS
100
AcDbLine
 62
40
  6
CONTINUOUS
 10
72.8536168814
 20
70.1829809227
 11
73.2184394933
 21
70.4908229905
  0
LINE
  5
2A7
100
AcDbEntity
  8
0_COMPONENTS
100
AcDbLine
 62
40
  6
CONTINUOUS
 10
74.5374219144
 20
69.210857626
 11
74.172600373
 21
68.9030149401
  0
LINE
  5
2A8
100
AcDbEntity
  8
00_COMPONENTS
100
AcDbLine
 62
7
  6
CONTINUOUS
 10
80.3686889692
 20
69.1070121548
 11
78.9544812948
 21
68.2905238471
  0
LINE
  5
2A9
100
AcDbEntity
  8
00_COMPONENTS
100
AcDbLine
 62
7
  6
CONTINUOUS
 10
39.3566664108
 20
45.4288512303
 11
37.9424587364
 21
44.6123629225
  0
LINE
  5
2AA
100
AcDbEntity
  8
0_COMPONENTS
100
AcDbLine
 62
7
  6
CONTINUOUS
 10
77.8713456815
 20
67.0993695615
 11
66.4212075887
 21
60.4886687119
  0
LINE
  5
2AB
100
AcDbEntity
  8
0_COMPONENTS
100
AcDbLine
 62
7
  6
CONTINUOUS
 10
42.983555114
 20
46.9570145196
 11
41.8606685637
 21
46.3087195373
  0
LINE
  5
2AC
100
AcDbEntity
  8
0_COMPONENTS
100
AcDbLine
 62
7
  6
CONTINUOUS
 10
61.7872561507
 20
68.6705424227
 11
61.9223755236
 21
68.5925329812
  0
LINE
  5
2AD
100
AcDbEntity
  8
0_COMPONENTS
100
AcDbLine
 62
7
  6
CONTINUOUS
 10
61.3049001777
 20
70.5874182238
 11
63.3412864172
 21
69.4117366776
  0
LINE
  5
2AE
100
AcDbEntity
  8
0_COMPONENTS
100
AcDbLine
 62
40
  6
CONTINUOUS
 10
75.5477055765
 20
68.6275832772
 11
75.9125281884
 21
68.935425345
  0
LINE
  5
2AF
100
AcDbEntity
  8
00_COMPONENTS
100
AcDbLine
 62
7
  6
CONTINUOUS
 10
78.2473774576
 20
64.1267074853
 11
67.7741639224
 21
58.0800309253
  0
LINE
  5
2B0
100
AcDbEntity
  8
00_COMPONENTS
100
AcDbLine
 62
7
  6
CONTINUOUS
 10
48.56694896
 20
46.9908063901
 11
40.063770248
 21
42.0815231762
  0
LINE
  5
2B1
100
AcDbEntity
  8
00_COMPONENTS
100
AcDbLine
 62
7
  6
CONTINUOUS
 10
78.2473774576
 20
62.493702651
 11
69.1884078112
 21
57.263535307
  0
LINE
  5
2B2
100
AcDbEntity
  8
00_COMPONENTS
100
AcDbLine
 62
7
  6
CONTINUOUS
 10
49.988663827
 20
46.1786241174
 11
40.063770248
 21
40.448518342
  0
LINE
  5
2B3
100
AcDbEntity
  8
00_COMPONENTS
100
AcDbLine
 62
7
  6
CONTINUOUS
 10
54.6965645067
 20
77.6976036728
 11
53.3132491445
 21
78.1567223057
  0
LINE
  5
2B4
100
AcDbEntity
  8
00_COMPONENTS
100
AcDbLine
 62
7
  6
CONTINUOUS
 10
78.2473774576
 20
64.1267074853
 11
75.4849223254
 21
65.7215756187
  0
LINE
  5
2B5
100
AcDbEntity
  8
00_COMPONENTS
100
AcDbLine
 62
7
  6
CONTINUOUS
 10
60.6754060171
 20
74.370547409
 11
61.6604157533
 21
68.4508434398
  0
LINE
  5
2B6
100
AcDbEntity
  8
0_COMPONENTS
100
AcDbLine
 62
40
  6
CONTINUOUS
 10
71.4785116778
 20
70.4584125857
 11
71.3475519493
 21
70.1883770005
  0
LINE
  5
2B7
100
AcDbEntity
  8
0_COMPONENTS
100
AcDbLine
 62
7
  6
CONTINUOUS
 10
53.2835690058
 20
45.9147465108
 11
71.0644020964
 21
56.180454004
  0
LINE
  5
2B8
100
AcDbEntity
  8
00_COMPONENTS
100
AcDbLine
 62
7
  6
CONTINUOUS
 10
57.9306852254
 20
78.1564780148
 11
56.5473698631
 21
78.6155966477
  0
LINE
  5
2B9
100
AcDbEntity
  8
00_COMPONENTS
100
AcDbLine
 62
7
  6
CONTINUOUS
 10
76.899148107
 20
66.5380743806
 11
78.9544812948
 21
65.3514540563
  0
LINE
  5
2BA
100
AcDbEntity
  8
0_COMPONENTS
100
AcDbLine
 62
40
  6
CONTINUOUS
 10
68.4196057234
 20
71.7059700176
 11
69.0931276296
 21
71.3171207607
  0
LINE
  5
2BB
100
AcDbEntity
  8
0_COMPONENTS
100
AcDbLine
 62
40
  6
CONTINUOUS
 10
69.7666495357
 20
70.9282715038
 11
70.4401719771
 21
70.5394219379
  0
LINE
  5
2BC
100
AcDbEntity
  8
0_COMPONENTS
100
AcDbLine
 62
40
  6
CONTINUOUS
 10
71.3662645312
 20
70.0047542484
 11
71.5346451415
 21
69.9075418569
  0
LINE
  5
2BD
100
AcDbEntity
  8
0_COMPONENTS
100
AcDbLine
 62
40
  6
CONTINUOUS
 10
74.0603521558
 20
68.4493572209
 11
74.2287333014
 21
68.3521445204
  0
LINE
  5
2BE
100
AcDbEntity
  8
0_COMPONENTS
100
AcDbLine
 62
40
  6
CONTINUOUS
 10
71.338192994
 20
71.0578915189
 11
70.9172417357
 21
71.3009223431
  0
LINE
  5
2BF
100
AcDbEntity
  8
0_COMPONENTS
100
AcDbLine
 62
40
  6
CONTINUOUS
 10
69.9911486464
 20
71.8355903417
 11
69.5701973882
 21
72.0786211659
  0
LINE
  5
2C0
100
AcDbEntity
  8
0_COMPONENTS
100
AcDbLine
 62
40
  6
CONTINUOUS
 10
76.0247753351
 20
69.3890836823
 11
75.8563941895
 21
69.4862963828
  0
LINE
  5
2C1
100
AcDbEntity
  8
0_COMPONENTS
100
AcDbLine
 62
40
  6
CONTINUOUS
 10
73.3306871752
 20
70.9444810188
 11
73.1623065649
 21
71.0416934103
  0
LINE
  5
2C2
100
AcDbEntity
  8
0_COMPONENTS
100
AcDbLine
 62
7
  6
CONTINUOUS
 10
66.4212075887
 20
62.1270624621
 11
66.4212075887
 21
60.4886687119
  0
LINE
  5
2C3
100
AcDbEntity
  8
0_COMPONENTS
100
AcDbLine
 62
40
  6
CONTINUOUS
 10
73.2184394933
 20
70.4908229905
 11
73.3493997572
 21
70.7608582666
  0
LINE
  5
2C4
100
AcDbEntity
  8
0_COMPONENTS
100
AcDbLine
 62
40
  6
CONTINUOUS
 10
74.172600373
 20
68.9030149401
 11
74.0416401091
 21
68.632979664
  0
LINE
  5
2C5
100
AcDbEntity
  8
0_COMPONENTS
100
AcDbLine
 62
7
  6
CONTINUOUS
 10
73.2017119517
 20
52.4785452934
 11
55.4208788611
 21
42.2128378001
  0
LINE
  5
2C6
100
AcDbEntity
  8
0_COMPONENTS
100
AcDbLine
 62
7
  6
CONTINUOUS
 10
50.9484137761
 20
85.9404640776
 11
53.4269747847
 21
84.5094985849
  0
LINE
  5
2C7
100
AcDbEntity
  8
0_COMPONENTS
100
AcDbLine
 62
7
  6
CONTINUOUS
 10
55.5463240529
 20
83.2859193954
 11
77.8713337172
 21
70.3968606456
  0
LINE
  5
2C8
100
AcDbEntity
  8
0_COMPONENTS
100
AcDbLine
 62
40
  6
CONTINUOUS
 10
71.3475519493
 20
70.1883770005
 11
71.3662645312
 21
70.0047542484
  0
LINE
  5
2C9
100
AcDbEntity
  8
0_COMPONENTS
100
AcDbLine
 62
40
  6
CONTINUOUS
 10
75.9125281884
 20
68.935425345
 11
76.0434873817
 21
69.2054612391
  0
LINE
  5
2CA
100
AcDbEntity
  8
0_COMPONENTS
100
AcDbLine
 62
7
  6
CONTINUOUS
 10
62.6050538472
 20
44.2659431026
 11
56.1766646677
 21
37.2889417561
  0
LINE
  5
2CB
100
AcDbEntity
  8
0_COMPONENTS
100
AcDbLine
 62
7
  6
CONTINUOUS
 10
62.6050538472
 20
44.2659431026
 11
72.6628988277
 21
50.0728079472
  0
LINE
  5
2CC
100
AcDbEntity
  8
00_COMPONENTS
100
AcDbLine
 62
7
  6
CONTINUOUS
 10
68.9912762344
 20
79.2686072206
 11
52.7914214643
 21
88.6213861448
  0
LINE
  5
2CD
100
AcDbEntity
  8
0_COMPONENTS
100
AcDbLine
 62
40
  6
CONTINUOUS
 10
73.3493997572
 20
70.7608582666
 11
73.3306871752
 21
70.9444810188
  0
LINE
  5
2CE
100
AcDbEntity
  8
0_COMPONENTS
100
AcDbLine
 62
40
  6
CONTINUOUS
 10
74.0416401091
 20
68.632979664
 11
74.0603521558
 21
68.4493572209
  0
LINE
  5
2CF
100
AcDbEntity
  8
00_COMPONENTS
100
AcDbLine
 62
7
420
3604575
  6
CONTINUOUS
 10
72.9440721827
 20
63.8470005768
 11
72.9440721827
 21
64.2546238615
  0
LINE
  5
2D0
100
AcDbEntity
  8
0_COMPONENTS
100
AcDbLine
 62
7
  6
CONTINUOUS
 10
73.2017119517
 20
51.0060648343
 11
73.2017119517
 21
52.4785452934
  0
LINE
  5
2D1
100
AcDbEntity
  8
00_COMPONENTS
100
AcDbLine
 62
7
  6
CONTINUOUS
 10
70.4054839089
 20
80.0850955284
 11
54.2056291388
 21
89.4378744526
  0
LINE
  5
2D2
100
AcDbEntity
  8
00_COMPONENTS
100
AcDbLine
 62
7
  6
CONTINUOUS
 10
69.4749677735
 20
78.8908718561
 11
78.0239533836
 21
70.3622748258
  0
LINE
  5
2D3
100
AcDbEntity
  8
0_COMPONENTS
100
AcDbLine
 62
40
  6
CONTINUOUS
 10
76.0434873817
 20
69.2054612391
 11
76.0247753351
 21
69.3890836823
  0
LINE
  5
2D4
100
AcDbEntity
  8
00_COMPONENTS
100
AcDbLine
 62
7
  6
CONTINUOUS
 10
79.438161058
 20
71.1787631335
 11
70.8891754479
 21
79.7073601638
  0
LINE
  5
2D5
100
AcDbEntity
  8
0_COMPONENTS
100
AcDbLine
 62
7
  6
CONTINUOUS
 10
77.8713456815
 20
67.0993695615
 11
77.8713456815
 21
68.7377633117
  0
LINE
  5
2D6
100
AcDbEntity
  8
0_COMPONENTS
100
AcDbLine
 62
7
  6
CONTINUOUS
 10
78.46649872
 20
69.5673085249
 11
78.46649872
 21
67.9289147747
  0
LINE
  5
2D7
100
AcDbEntity
  8
00_COMPONENTS
100
AcDbLine
 62
7
  6
CONTINUOUS
 10
78.9544812948
 20
68.2905238471
 11
78.9544812948
 21
65.3514540563
  0
LINE
  5
2D8
100
AcDbEntity
  8
00_COMPONENTS
100
AcDbLine
 62
7
  6
CONTINUOUS
 10
80.3686889692
 20
69.1070121548
 11
80.3686889692
 21
66.167942364
  0
ARC
  5
2D9
100
AcDbEntity
  8
00_COMPONENTS
100
AcDbCircle
 62
7
  6
CONTINUOUS
 10
75.5485270421
 20
67.9571738452
 40
3.454522858
100
AcDbArc
 50
29.1373230431
 51
33.6029121461
  0
ARC
  5
2DA
100
AcDbEntity
  8
00_COMPONENTS
100
AcDbCircle
 62
7
  6
CONTINUOUS
 10
75.5914877466
 20
67.9855250886
 40
3.4030506482
100
AcDbArc
 50
33.6056456372
 51
34.9660105634
  0
SPLINE
  5
2DB
100
AcDbEntity
  8
0_COMPONENTS
100
AcDbSpline
 62
7
  6
CONTINUOUS
 70
0
 71
3
 72
15
 73
11
 74
0
 42
0.0000001
 43
0.0000001
 44
0.0000000001
 40
0.0
 40
0.0
 40
0.0
 40
0.0
 40
0.1141464977
 40
0.2373352781
 40
0.3669759338
 40
0.4999994786
 40
0.633023096
 40
0.7626639634
 40
0.8858530776
 40
1.0
 40
1.0
 40
1.0
 40
1.0
 10
42.983555114
 20
46.9570145196
 30
0.0
 10
43.1771686267
 20
47.068796666
 30
0.0
 10
43.6005951031
 20
47.2659424283
 30
0.0
 10
44.2900682252
 20
47.4755453946
 30
0.0
 10
45.0365678532
 20
47.6044863529
 30
0.0
 10
45.811971812
 20
47.6480439395
 30
0.0
 10
46.5873763906
 20
47.6044900331
 30
0.0
 10
47.3338778499
 20
47.4755526193
 30
0.0
 10
48.0233539403
 20
47.2659529306
 30
0.0
 10
48.4467830107
 20
47.0688092831
 30
0.0
 10
48.6403980498
 20
46.957028117
 30
0.0
  0
SPLINE
  5
2DC
100
AcDbEntity
  8
0_COMPONENTS
100
AcDbSpline
 62
7
  6
CONTINUOUS
 70
0
 71
3
 72
11
 73
7
 74
0
 42
0.0000001
 43
0.0000001
 44
0.0000000001
 40
0.0
 40
0.0
 40
0.0
 40
0.0
 40
0.2897048043
 40
0.5490913404
 40
0.7822177947
 40
1.0
 40
1.0
 40
1.0
 40
1.0
 10
77.8713456815
 20
67.0993695615
 30
0.0
 10
77.9605070219
 20
67.1508465781
 30
0.0
 10
78.1222681693
 20
67.2622626655
 30
0.0
 10
78.3155952777
 20
67.4654406476
 30
0.0
 10
78.4378876684
 20
67.6902047221
 30
0.0
 10
78.4664885949
 20
67.8515199353
 30
0.0
 10
78.4664885806
 20
67.9289147747
 30
0.0
  0
SPLINE
  5
2DD
100
AcDbEntity
  8
0_COMPONENTS
100
AcDbSpline
 62
7
  6
CONTINUOUS
 70
0
 71
3
 72
14
 73
10
 74
0
 42
0.0000001
 43
0.0000001
 44
0.0000000001
 40
0.0
 40
0.0
 40
0.0
 40
0.0
 40
0.244071862
 40
0.3744979153
 40
0.5068578432
 40
0.6382473155
 40
0.7658343171
 40
0.8871764508
 40
1.0
 40
1.0
 40
1.0
 40
1.0
 10
39.1707879469
 20
46.2147516942
 30
0.0
 10
39.3766955039
 20
46.1216501126
 30
0.0
 10
39.7142506594
 20
46.0242798559
 30
0.0
 10
40.1803777042
 20
45.96719569
 30
0.0
 10
40.5460527422
 20
45.9608815039
 30
0.0
 10
40.907645084
 20
45.9923277833
 30
0.0
 10
41.2538841594
 20
46.0604892009
 30
0.0
 10
41.5734629928
 20
46.1632829709
 30
0.0
 10
41.7702039973
 20
46.2564901073
 30
0.0
 10
41.8606685637
 20
46.3087195373
 30
0.0
  0
SPLINE
  5
2DE
100
AcDbEntity
  8
0_COMPONENTS
100
AcDbSpline
 62
7
  6
CONTINUOUS
 70
0
 71
3
 72
11
 73
7
 74
0
 42
0.0000001
 43
0.0000001
 44
0.0000000001
 40
0.0
 40
0.0
 40
0.0
 40
0.0
 40
0.2897052857
 40
0.5490919933
 40
0.7822182543
 40
1.0
 40
1.0
 40
1.0
 40
1.0
 10
77.8713337172
 20
70.3968606456
 30
0.0
 10
77.9604967255
 20
70.3453835233
 30
0.0
 10
78.122260943
 20
70.2339670109
 30
0.0
 10
78.3155919791
 20
70.0307875229
 30
0.0
 10
78.4378870038
 20
69.806021271
 30
0.0
 10
78.4664886023
 20
69.6447041978
 30
0.0
 10
78.4664885806
 20
69.5673085249
 30
0.0
  0
SPLINE
  5
2DF
100
AcDbEntity
  8
0_COMPONENTS
100
AcDbSpline
 62
7
  6
CONTINUOUS
 70
0
 71
3
 72
15
 73
11
 74
0
 42
0.0000001
 43
0.0000001
 44
0.0000000001
 40
0.0
 40
0.0
 40
0.0
 40
0.0
 40
0.1141474765
 40
0.2373368178
 40
0.3669776594
 40
0.5000010819
 40
0.633024354
 40
0.7626647561
 40
0.8858534048
 40
1.0
 40
1.0
 40
1.0
 40
1.0
 10
73.2017119517
 20
52.4785452934
 30
0.0
 10
73.2017119517
 20
52.6474845049
 30
0.0
 10
73.1707460437
 20
52.99907024
 30
0.0
 10
73.0474122019
 20
53.5294677657
 30
0.0
 10
72.8497449861
 20
54.0667060967
 30
0.0
 10
72.5852800096
 20
54.59059779
 30
0.0
 10
72.2638070086
 20
55.0815749589
 30
0.0
 10
71.8973774696
 20
55.5213755828
 30
0.0
 10
71.4997064583
 20
55.8933800403
 30
0.0
 10
71.2107074432
 20
56.0959864836
 30
0.0
 10
71.0644020964
 20
56.180454004
 30
0.0
  0
SPLINE
  5
2E0
100
AcDbEntity
  8
0_COMPONENTS
100
AcDbSpline
 62
7
  6
CONTINUOUS
 70
0
 71
3
 72
11
 73
7
 74
0
 42
0.0000001
 43
0.0000001
 44
0.0000000001
 40
0.0
 40
0.0
 40
0.0
 40
0.0
 40
0.289447038
 40
0.5490524983
 40
0.7822338871
 40
1.0
 40
1.0
 40
1.0
 40
1.0
 10
54.0019924866
 20
38.2405961923
 30
0.0
 10
54.0019924866
 20
38.202086197
 30
0.0
 10
54.0079522062
 20
38.1287942407
 30
0.0
 10
54.0377015079
 20
38.0281036648
 30
0.0
 10
54.0877492976
 20
37.9463747573
 30
0.0
 10
54.1347329111
 20
37.9069424198
 30
0.0
 10
54.1598292673
 20
37.8924644286
 30
0.0
  0
SPLINE
  5
2E1
100
AcDbEntity
  8
0_COMPONENTS
100
AcDbSpline
 62
7
  6
CONTINUOUS
 70
0
 71
3
 72
13
 73
9
 74
0
 42
0.0000001
 43
0.0000001
 44
0.0000000001
 40
0.0
 40
0.0
 40
0.0
 40
0.0
 40
0.1141767831
 40
0.2375713001
 40
0.500001251
 40
0.7624305195
 40
0.8858241805
 40
1.0
 40
1.0
 40
1.0
 40
1.0
 10
54.0019924866
 20
43.0320136982
 30
0.0
 10
54.0019924866
 20
43.0887633624
 30
0.0
 10
53.9915329579
 20
43.206955826
 30
0.0
 10
53.9351651358
 20
43.449607998
 30
0.0
 10
53.8038261388
 20
43.7471652164
 30
0.0
 10
53.6118024872
 20
44.009685474
 30
0.0
 10
53.4298432934
 20
44.1798255545
 30
0.0
 10
53.3327155199
 20
44.2479786493
 30
0.0
 10
53.2835690058
 20
44.2763527605
 30
0.0
  0
SPLINE
  5
2E2
100
AcDbEntity
  8
0_COMPONENTS
100
AcDbSpline
 62
7
  6
CONTINUOUS
 70
0
 71
3
 72
11
 73
7
 74
0
 42
0.0000001
 43
0.0000001
 44
0.0000000001
 40
0.0
 40
0.0
 40
0.0
 40
0.0
 40
0.2372542275
 40
0.5000017852
 40
0.7627483734
 40
1.0
 40
1.0
 40
1.0
 40
1.0
 10
73.2017119517
 20
51.0060648343
 30
0.0
 10
73.2017119517
 20
50.9177292641
 30
0.0
 10
73.1685924539
 20
50.7314407361
 30
0.0
 10
73.053069909
 20
50.4697113522
 30
0.0
 10
72.8841686089
 20
50.2388011465
 30
0.0
 10
72.7393989511
 20
50.1169750504
 30
0.0
 10
72.6628988277
 20
50.0728079472
 30
0.0
  0
SPLINE
  5
2E3
100
AcDbEntity
  8
0_COMPONENTS
100
AcDbSpline
 62
7
  6
CONTINUOUS
 70
0
 71
3
 72
13
 73
9
 74
0
 42
0.0000001
 43
0.0000001
 44
0.0000000001
 40
0.0
 40
0.0
 40
0.0
 40
0.0
 40
0.3054454816
 40
0.573601923
 40
0.6921784912
 40
0.801177375
 40
0.9026701253
 40
1.0
 40
1.0
 40
1.0
 40
1.0
 10
56.1766646677
 20
37.2889417561
 30
0.0
 10
56.1296764313
 20
37.2379434454
 30
0.0
 10
56.032673233
 20
37.1497248112
 30
0.0
 10
55.8938951264
 20
37.0715483873
 30
0.0
 10
55.784938022
 20
37.041284834
 30
0.0
 10
55.7099621796
 20
37.0350437941
 30
0.0
 10
55.6401175227
 20
37.0447636915
 30
0.0
 10
55.597855709
 20
37.0622467152
 30
0.0
 10
55.5787156427
 20
37.0732885329
 30
0.0
  0
SPLINE
  5
2E4
100
AcDbEntity
  8
0_COMPONENTS
100
AcDbSpline
 62
7
  6
CONTINUOUS
 70
0
 71
3
 72
10
 73
6
 74
0
 42
0.0000001
 43
0.0000001
 44
0.0000000001
 40
0.0
 40
0.0
 40
0.0
 40
0.0
 40
0.228537479
 40
0.5977088821
 40
1.0
 40
1.0
 40
1.0
 40
1.0
 10
65.5234080636
 20
59.69535822
 30
0.0
 10
65.5749052378
 20
59.7715336737
 30
0.0
 10
65.7241983585
 20
59.9611131311
 30
0.0
 10
66.0216973372
 20
60.2350103169
 30
0.0
 10
66.2810352459
 20
60.4077406552
 30
0.0
 10
66.4212075887
 20
60.4886687119
 30
0.0
  0
SPLINE
  5
2E5
100
AcDbEntity
  8
0_COMPONENTS
100
AcDbSpline
 62
7
  6
CONTINUOUS
 70
0
 71
3
 72
13
 73
9
 74
0
 42
0.0000001
 43
0.0000001
 44
0.0000000001
 40
0.0
 40
0.0
 40
0.0
 40
0.0
 40
0.1080933872
 40
0.2182315081
 40
0.3322546464
 40
0.4516825566
 40
0.7106203807
 40
1.0
 40
1.0
 40
1.0
 40
1.0
 10
65.2496782354
 20
60.49410271
 30
0.0
 10
65.2496782364
 20
60.4183792258
 30
0.0
 10
65.2627893885
 20
60.2651862198
 30
0.0
 10
65.3215577516
 20
60.0389460204
 30
0.0
 10
65.4184041966
 20
59.8175535752
 30
0.0
 10
65.6017003823
 20
59.5241024747
 30
0.0
 10
65.927294994
 20
59.1815850557
 30
0.0
 10
66.2456683435
 20
58.9624882954
 30
0.0
 10
66.4212311403
 20
58.8611293604
 30
0.0
  0
SPLINE
  5
2E6
100
AcDbEntity
  8
0_COMPONENTS
100
AcDbSpline
 62
7
  6
CONTINUOUS
 70
0
 71
3
 72
11
 73
7
 74
0
 42
0.0000001
 43
0.0000001
 44
0.0000000001
 40
0.0
 40
0.0
 40
0.0
 40
0.0
 40
0.2177821605
 40
0.4509085882
 40
0.7102951949
 40
1.0
 40
1.0
 40
1.0
 40
1.0
 10
78.4664885806
 20
69.5673085249
 30
0.0
 10
78.4664885589
 20
69.4899137018
 30
0.0
 10
78.4378877025
 20
69.3285985145
 30
0.0
 10
78.3155953029
 20
69.1038344297
 30
0.0
 10
78.1222681708
 20
68.9006564571
 30
0.0
 10
77.9605070219
 20
68.7892403283
 30
0.0
 10
77.8713456815
 20
68.7377633117
 30
0.0
  0
SPLINE
  5
2E7
100
AcDbEntity
  8
0_COMPONENTS
100
AcDbSpline
 62
7
  6
CONTINUOUS
 70
0
 71
3
 72
15
 73
11
 74
0
 42
0.0000001
 43
0.0000001
 44
0.0000000001
 40
0.0
 40
0.0
 40
0.0
 40
0.0
 40
0.1141231812
 40
0.2373468278
 40
0.366971913
 40
0.4999994099
 40
0.6330269884
 40
0.76265231
 40
0.885876356
 40
1.0
 40
1.0
 40
1.0
 40
1.0
 10
41.8606685637
 20
47.9471132875
 30
0.0
 10
41.7623330228
 20
47.8903395754
 30
0.0
 10
41.5472099826
 20
47.7902133424
 30
0.0
 10
41.1969751301
 20
47.68369416
 30
0.0
 10
40.8177263178
 20
47.6182074821
 30
0.0
 10
40.4238302055
 20
47.596059589
 30
0.0
 10
40.0299337516
 20
47.6182055675
 30
0.0
 10
39.6506839019
 20
47.6836904176
 30
0.0
 10
39.3004474211
 20
47.7902079768
 30
0.0
 10
39.0853229541
 20
47.8903331468
 30
0.0
 10
38.986986605
 20
47.94710638
 30
0.0
  0
SPLINE
  5
2E8
100
AcDbEntity
  8
0_COMPONENTS
100
AcDbSpline
 62
7
  6
CONTINUOUS
 70
0
 71
3
 72
11
 73
7
 74
0
 42
0.0000001
 43
0.0000001
 44
0.0000000001
 40
0.0
 40
0.0
 40
0.0
 40
0.0
 40
0.2177659923
 40
0.4509473825
 40
0.710553036
 40
1.0
 40
1.0
 40
1.0
 40
1.0
 10
55.5787156427
 20
37.0732885329
 30
0.0
 10
55.5536192936
 20
37.087766503
 30
0.0
 10
55.5066357203
 20
37.1271988602
 30
0.0
 10
55.4565878695
 20
37.208927735
 30
0.0
 10
55.4268386195
 20
37.309618347
 30
0.0
 10
55.4208788611
 20
37.3829103094
 30
0.0
 10
55.4208788611
 20
37.421420294
 30
0.0
  0
SPLINE
  5
2E9
100
AcDbEntity
  8
0_COMPONENTS
100
AcDbSpline
 62
7
  6
CONTINUOUS
 70
0
 71
3
 72
15
 73
11
 74
0
 42
0.0000001
 43
0.0000001
 44
0.0000000001
 40
0.0
 40
0.0
 40
0.0
 40
0.0
 40
0.1141465952
 40
0.2373352439
 40
0.366975646
 40
0.4999989181
 40
0.6330223406
 40
0.7626631822
 40
0.8858525235
 40
1.0
 40
1.0
 40
1.0
 40
1.0
 10
53.2835690058
 20
45.9147465108
 30
0.0
 10
53.4298743526
 20
45.8302789903
 30
0.0
 10
53.7188733677
 20
45.6276725471
 30
0.0
 10
54.116544379
 20
45.2556680895
 30
0.0
 10
54.482973918
 20
44.8158674656
 30
0.0
 10
54.804446919
 20
44.3248902967
 30
0.0
 10
55.0689118955
 20
43.8009986035
 30
0.0
 10
55.2665791114
 20
43.2637602725
 30
0.0
 10
55.3899129532
 20
42.7333627468
 30
0.0
 10
55.4208788611
 20
42.3817770117
 30
0.0
 10
55.4208788611
 20
42.2128378001
 30
0.0
  0
SPLINE
  5
2EA
100
AcDbEntity
  8
0_COMPONENTS
100
AcDbSpline
 62
7
  6
CONTINUOUS
 70
0
 71
3
 72
13
 73
9
 74
0
 42
0.0000001
 43
0.0000001
 44
0.0000000001
 40
0.0
 40
0.0
 40
0.0
 40
0.0
 40
0.2893791468
 40
0.548316804
 40
0.6677447649
 40
0.7817680404
 40
0.8919063684
 40
1.0
 40
1.0
 40
1.0
 40
1.0
 10
66.4212075887
 20
62.1270624621
 30
0.0
 10
66.2456480749
 20
62.0257037346
 30
0.0
 10
65.9272807622
 20
61.8066078074
 30
0.0
 10
65.6016928825
 20
61.4640930435
 30
0.0
 10
65.4184005898
 20
61.1706447754
 30
0.0
 10
65.3215562095
 20
60.9492545447
 30
0.0
 10
65.2627891021
 20
60.7230167285
 30
0.0
 10
65.2496782345
 20
60.5698253881
 30
0.0
 10
65.2496782354
 20
60.49410271
 30
0.0
  0
SPLINE
  5
2EB
100
AcDbEntity
  8
0_COMPONENTS
100
AcDbSpline
 62
7
  6
CONTINUOUS
 70
0
 71
3
 72
15
 73
11
 74
0
 42
0.0000001
 43
0.0000001
 44
0.0000000001
 40
0.0
 40
0.0
 40
0.0
 40
0.0
 40
0.1141469224
 40
0.2373360366
 40
0.366976904
 40
0.5000005214
 40
0.6330240662
 40
0.7626647219
 40
0.8858535023
 40
1.0
 40
1.0
 40
1.0
 40
1.0
 10
48.6403980498
 20
48.5954218672
 30
0.0
 10
48.4467830107
 20
48.7072030333
 30
0.0
 10
48.0233539403
 20
48.9043466808
 30
0.0
 10
47.3338778499
 20
49.1139463695
 30
0.0
 10
46.5873763906
 20
49.2428837833
 30
0.0
 10
45.811971812
 20
49.2864376897
 30
0.0
 10
45.0365678532
 20
49.2428801031
 30
0.0
 10
44.2900682252
 20
49.1139391448
 30
0.0
 10
43.6005951031
 20
48.9043361785
 30
0.0
 10
43.1771686267
 20
48.7071904162
 30
0.0
 10
42.983555114
 20
48.5954082698
 30
0.0
  0
SPLINE
  5
2EC
100
AcDbEntity
  8
00_COMPONENTS
100
AcDbSpline
 62
7
  6
CONTINUOUS
 70
0
 71
3
 72
12
 73
8
 74
0
 42
0.0000001
 43
0.0000001
 44
0.0000000001
 40
0.0
 40
0.0
 40
0.0
 40
0.0
 40
0.2895557227
 40
0.5486525747
 40
0.7816316463
 40
0.8918387372
 40
1.0
 40
1.0
 40
1.0
 40
1.0
 10
40.063770248
 20
40.448518342
 30
0.0
 10
39.9321015822
 20
40.3724998561
 30
0.0
 10
39.6701954889
 20
40.2479233044
 30
0.0
 10
39.2679538098
 20
40.1506091272
 30
0.0
 10
38.9467510197
 20
40.1592196712
 30
0.0
 10
38.717422295
 20
40.2226371054
 30
0.0
 10
38.6129907227
 20
40.2715580315
 30
0.0
 10
38.5638067246
 20
40.2999537863
 30
0.0
  0
SPLINE
  5
2ED
100
AcDbEntity
  8
00_COMPONENTS
100
AcDbSpline
 62
7
  6
CONTINUOUS
 70
0
 71
3
 72
11
 73
7
 74
0
 42
0.0000001
 43
0.0000001
 44
0.0000000001
 40
0.0
 40
0.0
 40
0.0
 40
0.0
 40
0.2897042895
 40
0.5490907647
 40
0.7822174449
 40
1.0
 40
1.0
 40
1.0
 40
1.0
 10
39.3566664108
 20
42.4897814395
 30
0.0
 10
39.3566664108
 20
42.4391130664
 30
0.0
 10
39.364348439
 20
42.3427526609
 30
0.0
 10
39.4033731499
 20
42.2103586493
 30
0.0
 10
39.46907784
 20
42.1029287105
 30
0.0
 10
39.5307945693
 20
42.0510440209
 30
0.0
 10
39.5637812264
 20
42.0319996131
 30
0.0
  0
SPLINE
  5
2EE
100
AcDbEntity
  8
00_COMPONENTS
100
AcDbSpline
 62
7
  6
CONTINUOUS
 70
0
 71
3
 72
9
 73
5
 74
0
 42
0.0000001
 43
0.0000001
 44
0.0000000001
 40
0.0
 40
0.0
 40
0.0
 40
0.0
 40
0.5034516895
 40
1.0
 40
1.0
 40
1.0
 40
1.0
 10
72.4521208791
 20
63.9850518392
 30
0.0
 10
72.6432806533
 20
64.0207162783
 30
0.0
 10
73.0317816657
 20
64.048429029
 30
0.0
 10
73.4180098039
 20
63.9961191726
 30
0.0
 10
73.6035788033
 20
63.9476604384
 30
0.0
  0
SPLINE
  5
2EF
100
AcDbEntity
  8
00_COMPONENTS
100
AcDbSpline
 62
7
  6
CONTINUOUS
 70
0
 71
3
 72
11
 73
7
 74
0
 42
0.0000001
 43
0.0000001
 44
0.0000000001
 40
0.0
 40
0.0
 40
0.0
 40
0.0
 40
0.2897031353
 40
0.5490914015
 40
0.7822201129
 40
1.0
 40
1.0
 40
1.0
 40
1.0
 10
74.075447743
 20
64.0858732118
 30
0.0
 10
74.1456532755
 20
64.1264061529
 30
0.0
 10
74.2730245378
 20
64.2141353672
 30
0.0
 10
74.4252538379
 20
64.3741162402
 30
0.0
 10
74.5215471035
 20
64.5510985407
 30
0.0
 10
74.5440621152
 20
64.6781181162
 30
0.0
 10
74.5440667283
 20
64.7390584221
 30
0.0
  0
SPLINE
  5
2F0
100
AcDbEntity
  8
00_COMPONENTS
100
AcDbSpline
 62
7
  6
CONTINUOUS
 70
0
 71
3
 72
15
 73
11
 74
0
 42
0.0000001
 43
0.0000001
 44
0.0000000001
 40
0.0
 40
0.0
 40
0.0
 40
0.0
 40
0.1141475829
 40
0.2373370756
 40
0.3669780685
 40
0.5000016033
 40
0.6330249151
 40
0.7626652568
 40
0.8858537231
 40
1.0
 40
1.0
 40
1.0
 40
1.0
 10
80.3686889692
 20
66.167942364
 30
0.0
 10
80.3686889692
 20
66.0002662561
 30
0.0
 10
80.3379548339
 20
65.6513091673
 30
0.0
 10
80.2155441985
 20
65.1248769283
 30
0.0
 10
80.0193566079
 20
64.5916546575
 30
0.0
 10
79.756871266
 20
64.0716788958
 30
0.0
 10
79.4378046288
 20
63.584371272
 30
0.0
 10
79.0741179756
 20
63.1478573195
 30
0.0
 10
78.6794237111
 20
62.7786324561
 30
0.0
 10
78.3925877819
 20
62.5775393705
 30
0.0
 10
78.2473774576
 20
62.493702651
 30
0.0
  0
SPLINE
  5
2F1
100
AcDbEntity
  8
00_COMPONENTS
100
AcDbSpline
 62
7
  6
CONTINUOUS
 70
0
 71
3
 72
11
 73
7
 74
0
 42
0.0000001
 43
0.0000001
 44
0.0000000001
 40
0.0
 40
0.0
 40
0.0
 40
0.0
 40
0.2897033281
 40
0.5490895198
 40
0.7822165953
 40
1.0
 40
1.0
 40
1.0
 40
1.0
 10
51.377202014
 20
87.8048628196
 30
0.0
 10
51.377202014
 20
87.9061991084
 30
0.0
 10
51.3925660863
 20
88.0989192524
 30
0.0
 10
51.4706154325
 20
88.3637066311
 30
0.0
 10
51.6020246102
 20
88.5785666147
 30
0.0
 10
51.7254577148
 20
88.6823366625
 30
0.0
 10
51.791430931
 20
88.7204260601
 30
0.0
  0
SPLINE
  5
2F2
100
AcDbEntity
  8
00_COMPONENTS
100
AcDbSpline
 62
7
  6
CONTINUOUS
 70
0
 71
3
 72
17
 73
13
 74
0
 42
0.0000001
 43
0.0000001
 44
0.0000000001
 40
0.0
 40
0.0
 40
0.0
 40
0.0
 40
0.1384942603
 40
0.2846193686
 40
0.4316527516
 40
0.5727086546
 40
0.701809817
 40
0.815095067
 40
0.8657261852
 40
0.9127844527
 40
0.9571272707
 40
1.0
 40
1.0
 40
1.0
 40
1.0
 10
56.2942546198
 20
82.8656664506
 30
0.0
 10
56.2661741735
 20
83.0302671082
 30
0.0
 10
56.1749307192
 20
83.3632563955
 30
0.0
 10
55.9580950812
 20
83.838452705
 30
0.0
 10
55.6702813547
 20
84.2782247087
 30
0.0
 10
55.3308304228
 20
84.6526127763
 30
0.0
 10
54.9626209536
 20
84.9364790098
 30
0.0
 10
54.6381278476
 20
85.0874819259
 30
0.0
 10
54.3878783011
 20
85.138789444
 30
0.0
 10
54.2156230546
 20
85.1431262365
 30
0.0
 10
54.0551601317
 20
85.1139818005
 30
0.0
 10
53.9575215279
 20
85.0720484654
 30
0.0
 10
53.9127597332
 20
85.0461972374
 30
0.0
  0
SPLINE
  5
2F3
100
AcDbEntity
  8
00_COMPONENTS
100
AcDbSpline
 62
7
  6
CONTINUOUS
 70
0
 71
3
 72
11
 73
7
 74
0
 42
0.0000001
 43
0.0000001
 44
0.0000000001
 40
0.0
 40
0.0
 40
0.0
 40
0.0
 40
0.289702329
 40
0.5490881649
 40
0.7822156415
 40
1.0
 40
1.0
 40
1.0
 40
1.0
 10
54.2056291388
 20
89.4378744526
 30
0.0
 10
54.1178714906
 20
89.4885402082
 30
0.0
 10
53.9432932305
 20
89.571590509
 30
0.0
 10
53.674962971
 20
89.6363874591
 30
0.0
 10
53.4231906872
 20
89.6300126306
 30
0.0
 10
53.2716103294
 20
89.5750029449
 30
0.0
 10
53.2056386055
 20
89.5369143679
 30
0.0
  0
SPLINE
  5
2F4
100
AcDbEntity
  8
00_COMPONENTS
100
AcDbSpline
 62
7
  6
CONTINUOUS
 70
0
 71
3
 72
12
 73
8
 74
0
 42
0.0000001
 43
0.0000001
 44
0.0000000001
 40
0.0
 40
0.0
 40
0.0
 40
0.0
 40
0.111266763
 40
0.2299181226
 40
0.4828011964
 40
0.7448240575
 40
1.0
 40
1.0
 40
1.0
 40
1.0
 10
80.3686889692
 20
69.1070121548
 30
0.0
 10
80.3686889692
 20
69.193122012
 30
0.0
 10
80.3565235943
 20
69.3711883958
 30
0.0
 10
80.2888495681
 20
69.7392499566
 30
0.0
 10
80.125818989
 20
70.2051902462
 30
0.0
 10
79.8330083023
 20
70.7272038961
 30
0.0
 10
79.5779684137
 20
71.0392892061
 30
0.0
 10
79.438161058
 20
71.1787631335
 30
0.0
  0
SPLINE
  5
2F5
100
AcDbEntity
  8
00_COMPONENTS
100
AcDbSpline
 62
7
  6
CONTINUOUS
 70
0
 71
3
 72
9
 73
5
 74
0
 42
0.0000001
 43
0.0000001
 44
0.0000000001
 40
0.0
 40
0.0
 40
0.0
 40
0.0
 40
0.2629047771
 40
1.0
 40
1.0
 40
1.0
 40
1.0
 10
70.8891754479
 20
79.7073601638
 30
0.0
 10
70.8510423156
 20
79.745402352
 30
0.0
 10
70.7019902958
 20
79.8859218199
 30
0.0
 10
70.5362688704
 20
80.0095885038
 30
0.0
 10
70.4054839089
 20
80.0850955284
 30
0.0
  0
SPLINE
  5
2F6
100
AcDbEntity
  8
00_COMPONENTS
100
AcDbSpline
 62
7
  6
CONTINUOUS
 70
0
 71
3
 72
11
 73
7
 74
0
 42
0.0000001
 43
0.0000001
 44
0.0000000001
 40
0.0
 40
0.0
 40
0.0
 40
0.0
 40
0.2346318862
 40
0.476071555
 40
0.7300603514
 40
1.0
 40
1.0
 40
1.0
 40
1.0
 10
57.0171805454
 20
75.404106513
 30
0.0
 10
56.871055867
 20
75.4526156342
 30
0.0
 10
56.5613750455
 20
75.5151001589
 30
0.0
 10
56.0787052532
 20
75.4977456388
 30
0.0
 10
55.5889548687
 20
75.3719819572
 30
0.0
 10
55.2763157642
 20
75.2239109191
 30
0.0
 10
55.1229120045
 20
75.1353437458
 30
0.0
  0
SPLINE
  5
2F7
100
AcDbEntity
  8
00_COMPONENTS
100
AcDbSpline
 62
7
  6
CONTINUOUS
 70
0
 71
3
 72
18
 73
14
 74
0
 42
0.0000001
 43
0.0000001
 44
0.0000000001
 40
0.0
 40
0.0
 40
0.0
 40
0.0
 40
0.0504274996
 40
0.1033673104
 40
0.1591852978
 40
0.2179937852
 40
0.3437475299
 40
0.4779443698
 40
0.6158324384
 40
0.7519571824
 40
0.817804097
 40
0.8813752856
 40
1.0
 40
1.0
 40
1.0
 40
1.0
 10
56.3251214524
 20
75.4627199964
 30
0.0
 10
56.4280904481
 20
75.3721922388
 30
0.0
 10
56.6219477769
 20
75.1662828318
 30
0.0
 10
56.8621090294
 20
74.804132183
 30
0.0
 10
57.0540896592
 20
74.3891636463
 30
0.0
 10
57.2455474553
 20
73.7625221681
 30
0.0
 10
57.3402616649
 20
72.8926782767
 30
0.0
 10
57.2330743657
 20
71.8097079702
 30
0.0
 10
56.9168257973
 20
70.7392575161
 30
0.0
 10
56.4925871537
 20
69.9113897862
 30
0.0
 10
56.0693385096
 20
69.3248408926
 30
0.0
 10
55.6182178464
 20
68.8227200256
 30
0.0
 10
55.2244454998
 20
68.5107129208
 30
0.0
 10
54.9451309464
 20
68.3494515508
 30
0.0
  0
SPLINE
  5
2F8
100
AcDbEntity
  8
00_COMPONENTS
100
AcDbSpline
 62
7
  6
CONTINUOUS
 70
0
 71
3
 72
12
 73
8
 74
0
 42
0.0000001
 43
0.0000001
 44
0.0000000001
 40
0.0
 40
0.0
 40
0.0
 40
0.0
 40
0.2895571842
 40
0.5486545569
 40
0.7816330299
 40
0.8918394861
 40
1.0
 40
1.0
 40
1.0
 40
1.0
 10
10.3651794556
 20
57.594682558
 30
0.0
 10
10.3651794556
 20
57.4426381086
 30
0.0
 10
10.3882464188
 20
57.1535199129
 30
0.0
 10
10.5050954643
 20
56.7564947598
 30
0.0
 10
10.673161582
 20
56.4826202352
 30
0.0
 10
10.8427549926
 20
56.3157204641
 30
0.0
 10
10.9373418357
 20
56.2497398969
 30
0.0
 10
10.9865274438
 20
56.2213432126
 30
0.0
  0
SPLINE
  5
2F9
100
AcDbEntity
  8
00_COMPONENTS
100
AcDbSpline
 62
7
  6
CONTINUOUS
 70
0
 71
3
 72
12
 73
8
 74
0
 42
0.0000001
 43
0.0000001
 44
0.0000000001
 40
0.0
 40
0.0
 40
0.0
 40
0.0
 40
0.111266763
 40
0.2299181226
 40
0.4828011964
 40
0.7448240575
 40
1.0
 40
1.0
 40
1.0
 40
1.0
 10
39.3566664108
 20
45.4288512303
 30
0.0
 10
39.3566664108
 20
45.5149610875
 30
0.0
 10
39.3445010359
 20
45.6930274713
 30
0.0
 10
39.2768270097
 20
46.0610890321
 30
0.0
 10
39.1137964306
 20
46.5270293217
 30
0.0
 10
38.8209857439
 20
47.0490429715
 30
0.0
 10
38.5659458553
 20
47.3611282815
 30
0.0
 10
38.4261384996
 20
47.500602209
 30
0.0
  0
SPLINE
  5
2FA
100
AcDbEntity
  8
00_COMPONENTS
100
AcDbSpline
 62
7
  6
CONTINUOUS
 70
0
 71
3
 72
9
 73
5
 74
0
 42
0.0000001
 43
0.0000001
 44
0.0000000001
 40
0.0
 40
0.0
 40
0.0
 40
0.0
 40
0.2629047771
 40
1.0
 40
1.0
 40
1.0
 40
1.0
 10
29.8771528895
 20
56.0291992393
 30
0.0
 10
29.8390197572
 20
56.0672414275
 30
0.0
 10
29.6899677374
 20
56.2077608953
 30
0.0
 10
29.524246312
 20
56.3314275793
 30
0.0
 10
29.3934613505
 20
56.4069346038
 30
0.0
  0
SPLINE
  5
2FB
100
AcDbEntity
  8
00_COMPONENTS
100
AcDbSpline
 62
7
  6
CONTINUOUS
 70
0
 71
3
 72
11
 73
7
 74
0
 42
0.0000001
 43
0.0000001
 44
0.0000000001
 40
0.0
 40
0.0
 40
0.0
 40
0.0
 40
0.289702329
 40
0.5490881649
 40
0.7822156415
 40
1.0
 40
1.0
 40
1.0
 40
1.0
 10
13.1936065804
 20
65.759713528
 30
0.0
 10
13.1058489322
 20
65.8103792836
 30
0.0
 10
12.9312706721
 20
65.8934295845
 30
0.0
 10
12.6629404126
 20
65.9582265346
 30
0.0
 10
12.4111681288
 20
65.951851706
 30
0.0
 10
12.259587771
 20
65.8968420203
 30
0.0
 10
12.1936160471
 20
65.8587534434
 30
0.0
  0
SPLINE
  5
2FC
100
AcDbEntity
  8
00_COMPONENTS
100
AcDbSpline
 62
7
  6
CONTINUOUS
 70
0
 71
3
 72
11
 73
7
 74
0
 42
0.0000001
 43
0.0000001
 44
0.0000000001
 40
0.0
 40
0.0
 40
0.0
 40
0.0
 40
0.2897033281
 40
0.5490895198
 40
0.7822165953
 40
1.0
 40
1.0
 40
1.0
 40
1.0
 10
10.3651794556
 20
64.1267018951
 30
0.0
 10
10.3651794556
 20
64.2280381839
 30
0.0
 10
10.3805435279
 20
64.4207583279
 30
0.0
 10
10.4585928741
 20
64.6855457065
 30
0.0
 10
10.5900020518
 20
64.9004056901
 30
0.0
 10
10.7134351564
 20
65.004175738
 30
0.0
 10
10.7794083726
 20
65.0422651356
 30
0.0
  0
SPLINE
  5
2FD
100
AcDbEntity
  8
00_COMPONENTS
100
AcDbSpline
 62
7
  6
CONTINUOUS
 70
0
 71
3
 72
19
 73
15
 74
0
 42
0.0000001
 43
0.0000001
 44
0.0000000001
 40
0.0
 40
0.0
 40
0.0
 40
0.0
 40
0.062391684
 40
0.1288324836
 40
0.2703533745
 40
0.4174431196
 40
0.5617172598
 40
0.6953244085
 40
0.7563177584
 40
0.812797985
 40
0.8647366222
 40
0.9125504304
 40
0.9571578829
 40
1.0
 40
1.0
 40
1.0
 40
1.0
 10
15.3149475317
 20
58.819509362
 30
0.0
 10
15.3149475317
 20
58.9024288073
 30
0.0
 10
15.303650028
 20
59.0737671159
 30
0.0
 10
15.2407292973
 20
59.4280673295
 30
0.0
 10
15.0885465235
 20
59.8778577119
 30
0.0
 10
14.8135204468
 20
60.3860946511
 30
0.0
 10
14.4642361419
 20
60.8332874277
 30
0.0
 10
14.1243967984
 20
61.1342576198
 30
0.0
 10
13.8391221896
 20
61.3088841728
 30
0.0
 10
13.6324621508
 20
61.4002091535
 30
0.0
 10
13.4308273612
 20
61.4537610269
 30
0.0
 10
13.2381618446
 20
61.4679855299
 30
0.0
 10
13.0587521376
 20
61.4416420753
 30
0.0
 10
12.9500429339
 20
61.3965118114
 30
0.0
 10
12.9007371748
 20
61.3680363128
 30
0.0
  0
SPLINE
  5
2FE
100
AcDbEntity
  8
00_COMPONENTS
100
AcDbSpline
 62
7
  6
CONTINUOUS
 70
0
 71
3
 72
12
 73
8
 74
0
 42
0.0000001
 43
0.0000001
 44
0.0000000001
 40
0.0
 40
0.0
 40
0.0
 40
0.0
 40
0.1170300432
 40
0.234943942
 40
0.476306631
 40
0.7301296129
 40
1.0
 40
1.0
 40
1.0
 40
1.0
 10
56.547365285
 20
78.615582792
 30
0.0
 10
56.4228716047
 20
78.6568946951
 30
0.0
 10
56.167674378
 20
78.7248784695
 30
0.0
 10
55.638126014
 20
78.8001828036
 30
0.0
 10
54.9448897202
 20
78.7755073759
 30
0.0
 10
54.1090112657
 20
78.5607957675
 30
0.0
 10
53.5752006503
 20
78.3079591753
 30
0.0
 10
53.3132491446
 20
78.1567223057
 30
0.0
  0
SPLINE
  5
2FF
100
AcDbEntity
  8
00_COMPONENTS
100
AcDbSpline
 62
7
  6
CONTINUOUS
 70
0
 71
3
 72
14
 73
10
 74
0
 42
0.0000001
 43
0.0000001
 44
0.0000000001
 40
0.0
 40
0.0
 40
0.0
 40
0.0
 40
0.1117439085
 40
0.2251058209
 40
0.3415556898
 40
0.4622999231
 40
0.588199776
 40
0.7197730559
 40
1.0
 40
1.0
 40
1.0
 40
1.0
 10
57.9306806485
 20
78.1564641631
 30
0.0
 10
58.1042549674
 20
78.0988653726
 30
0.0
 10
58.4447990692
 20
77.9530855155
 30
0.0
 10
58.9174254078
 20
77.6502412341
 30
0.0
 10
59.3473217139
 20
77.2668493785
 30
0.0
 10
59.7287745771
 20
76.808611007
 30
0.0
 10
60.0572528605
 20
76.2817892604
 30
0.0
 10
60.4266577664
 20
75.4812013376
 30
0.0
 10
60.6001283792
 20
74.8229503802
 30
0.0
 10
60.6754060171
 20
74.370547409
 30
0.0
  0
SPLINE
  5
300
100
AcDbEntity
  8
00_COMPONENTS
100
AcDbSpline
 62
7
  6
CONTINUOUS
 70
0
 71
3
 72
15
 73
11
 74
0
 42
0.0000001
 43
0.0000001
 44
0.0000000001
 40
0.0
 40
0.0
 40
0.0
 40
0.0
 40
0.2307602731
 40
0.2931531361
 40
0.3568988405
 40
0.4872231355
 40
0.6193069408
 40
0.750471731
 40
0.8781145048
 40
1.0
 40
1.0
 40
1.0
 40
1.0
 10
41.2924839118
 20
71.2165716898
 30
0.0
 10
40.6005927001
 20
70.8171104969
 30
0.0
 10
39.824949395
 20
70.1184110444
 30
0.0
 10
39.0715925137
 20
69.1401787931
 30
0.0
 10
38.5823837361
 20
68.3979468729
 30
0.0
 10
38.0633937725
 20
67.390858319
 30
0.0
 10
37.6058112175
 20
66.1031761808
 30
0.0
 10
37.3257998835
 20
64.774804652
 30
0.0
 10
37.2338234161
 20
63.4558279284
 30
0.0
 10
37.3026077043
 20
62.5903595103
 30
0.0
 10
37.3718717012
 20
62.1740972719
 30
0.0
  0
SPLINE
  5
301
100
AcDbEntity
  8
00_COMPONENTS
100
AcDbSpline
 62
7
  6
CONTINUOUS
 70
0
 71
3
 72
9
 73
5
 74
0
 42
0.0000001
 43
0.0000001
 44
0.0000000001
 40
0.0
 40
0.0
 40
0.0
 40
0.0
 40
0.5182056557
 40
1.0
 40
1.0
 40
1.0
 40
1.0
 10
42.9243657138
 20
61.409300935
 30
0.0
 10
42.7380256057
 20
61.3017180656
 30
0.0
 10
42.3564829481
 20
61.1287606496
 30
0.0
 10
41.9429869042
 20
61.0518114929
 30
0.0
 10
41.7431223244
 20
61.0432426272
 30
0.0
  0
SPLINE
  5
302
100
AcDbEntity
  8
00_COMPONENTS
100
AcDbSpline
 62
7
  6
CONTINUOUS
 70
0
 71
3
 72
11
 73
7
 74
0
 42
0.0000001
 43
0.0000001
 44
0.0000000001
 40
0.0
 40
0.0
 40
0.0
 40
0.0
 40
0.256838229
 40
0.5188051155
 40
0.7708950729
 40
1.0
 40
1.0
 40
1.0
 40
1.0
 10
72.3280733958
 20
63.886535075
 30
0.0
 10
72.4774627384
 20
63.8505541751
 30
0.0
 10
72.7866753848
 20
63.8067179453
 30
0.0
 10
73.2497965478
 20
63.8191468746
 30
0.0
 10
73.6879302987
 20
63.9065081259
 30
0.0
 10
73.9567423095
 20
64.0173390069
 30
0.0
 10
74.075447743
 20
64.0858732118
 30
0.0
  0
SPLINE
  5
303
100
AcDbEntity
  8
00_COMPONENTS
100
AcDbSpline
 62
7
  6
CONTINUOUS
 70
0
 71
3
 72
20
 73
16
 74
0
 42
0.0000001
 43
0.0000001
 44
0.0000000001
 40
0.0
 40
0.0
 40
0.0
 40
0.0
 40
0.1225033106
 40
0.1885822491
 40
0.2570756604
 40
0.3979599246
 40
0.5384433326
 40
0.6064542973
 40
0.6719092119
 40
0.7342610917
 40
0.7931974504
 40
0.848705884
 40
0.901132967
 40
0.9512072174
 40
1.0
 40
1.0
 40
1.0
 40
1.0
 10
43.1021467719
 20
68.19519313
 30
0.0
 10
42.7853209888
 20
68.0122747707
 30
0.0
 10
42.342978995
 20
67.6478713554
 30
0.0
 10
41.8501393794
 20
67.0582159054
 30
0.0
 10
41.3989718129
 20
66.3681298653
 30
0.0
 10
40.976564189
 20
65.4034343513
 30
0.0
 10
40.7629188543
 20
64.3733643584
 30
0.0
 10
40.7332294667
 20
63.5541905789
 30
0.0
 10
40.7820001267
 20
62.9698913127
 30
0.0
 10
40.9005746086
 20
62.4231844298
 30
0.0
 10
41.0865943029
 20
61.9268372457
 30
0.0
 10
41.3362914002
 20
61.492690672
 30
0.0
 10
41.6446346602
 20
61.1314789785
 30
0.0
 10
42.0046515568
 20
60.853004818
 30
0.0
 10
42.2751210346
 20
60.7273282701
 30
0.0
 10
42.4134125351
 20
60.6814195349
 30
0.0
  0
SPLINE
  5
304
100
AcDbEntity
  8
00_COMPONENTS
100
AcDbSpline
 62
7
  6
CONTINUOUS
 70
0
 71
3
 72
9
 73
5
 74
0
 42
0.0000001
 43
0.0000001
 44
0.0000000001
 40
0.0
 40
0.0
 40
0.0
 40
0.0
 40
0.2484634921
 40
1.0
 40
1.0
 40
1.0
 40
1.0
 10
14.9007189879
 20
57.9039454294
 30
0.0
 10
14.9134569804
 20
57.9113019876
 30
0.0
 10
14.9637332244
 20
57.9426030668
 30
0.0
 10
15.009777537
 20
57.980627208
 30
0.0
 10
15.0412780383
 20
58.0120492255
 30
0.0
  0
SPLINE
  5
305
100
AcDbEntity
  8
00_COMPONENTS
100
AcDbSpline
 62
7
  6
CONTINUOUS
 70
0
 71
3
 72
11
 73
7
 74
0
 42
0.0000001
 43
0.0000001
 44
0.0000000001
 40
0.0
 40
0.0
 40
0.0
 40
0.0
 40
0.2196446186
 40
0.4568409159
 40
0.7166119634
 40
1.0
 40
1.0
 40
1.0
 40
1.0
 10
15.0412780383
 20
58.0120492255
 30
0.0
 10
15.086538001
 20
58.0571964224
 30
0.0
 10
15.1681440138
 20
58.1642340943
 30
0.0
 10
15.2535785509
 20
58.3561171344
 30
0.0
 10
15.3045716591
 20
58.57862864
 30
0.0
 10
15.3149475317
 20
58.7370292751
 30
0.0
 10
15.3149475317
 20
58.819509362
 30
0.0
  0
SPLINE
  5
306
100
AcDbEntity
  8
00_COMPONENTS
100
AcDbSpline
 62
7
  6
CONTINUOUS
 70
0
 71
3
 72
12
 73
8
 74
0
 42
0.0000001
 43
0.0000001
 44
0.0000000001
 40
0.0
 40
0.0
 40
0.0
 40
0.0
 40
0.255176035
 40
0.5171989222
 40
0.7700819633
 40
0.8887332653
 40
1.0
 40
1.0
 40
1.0
 40
1.0
 10
37.0119308252
 20
46.6841139013
 30
0.0
 10
37.1517382316
 20
46.5446399232
 30
0.0
 10
37.4067781675
 20
46.2325545308
 30
0.0
 10
37.6995888572
 20
45.7105408028
 30
0.0
 10
37.8626193664
 20
45.2446005454
 30
0.0
 10
37.9302933902
 20
44.8765390768
 30
0.0
 10
37.9424587364
 20
44.6984727578
 30
0.0
 10
37.9424587364
 20
44.6123629225
 30
0.0
  0
SPLINE
  5
307
100
AcDbEntity
  8
00_COMPONENTS
100
AcDbSpline
 62
7
  6
CONTINUOUS
 70
0
 71
3
 72
13
 73
9
 74
0
 42
0.0000001
 43
0.0000001
 44
0.0000000001
 40
0.0
 40
0.0
 40
0.0
 40
0.0
 40
0.1142247162
 40
0.2375579183
 40
0.4999983243
 40
0.7624396433
 40
0.8857739388
 40
1.0
 40
1.0
 40
1.0
 40
1.0
 10
78.2473774576
 20
64.1267074853
 30
0.0
 10
78.2957708989
 20
64.1546472849
 30
0.0
 10
78.3913909049
 20
64.2216913325
 30
0.0
 10
78.5704202562
 20
64.3892224393
 30
0.0
 10
78.7595054838
 20
64.6475248495
 30
0.0
 10
78.8886580217
 20
64.9404297652
 30
0.0
 10
78.9442293009
 20
65.1792410062
 30
0.0
 10
78.9544812948
 20
65.2955735489
 30
0.0
 10
78.9544812948
 20
65.3514540563
 30
0.0
  0
SPLINE
  5
308
100
AcDbEntity
  8
00_COMPONENTS
100
AcDbSpline
 62
7
  6
CONTINUOUS
 70
0
 71
3
 72
10
 73
6
 74
0
 42
0.0000001
 43
0.0000001
 44
0.0000000001
 40
0.0
 40
0.0
 40
0.0
 40
0.0
 40
0.2305717756
 40
0.476348419
 40
1.0
 40
1.0
 40
1.0
 40
1.0
 10
12.4865086311
 20
60.4524723801
 30
0.0
 10
12.4865086311
 20
60.3677240665
 30
0.0
 10
12.4983156157
 20
60.1925020309
 30
0.0
 10
12.5639002672
 20
59.8303500365
 30
0.0
 10
12.6569152869
 20
59.5608746983
 30
0.0
 10
12.7348329276
 20
59.3848795999
 30
0.0
  0
SPLINE
  5
309
100
AcDbEntity
  8
00_COMPONENTS
100
AcDbSpline
 62
7
  6
CONTINUOUS
 70
0
 71
3
 72
16
 73
12
 74
0
 42
0.0000001
 43
0.0000001
 44
0.0000000001
 40
0.0
 40
0.0
 40
0.0
 40
0.0
 40
0.1515000357
 40
0.3022059135
 40
0.4474054427
 40
0.5829335436
 40
0.7057458122
 40
0.814605209
 40
0.9109466797
 40
0.955987104
 40
1.0
 40
1.0
 40
1.0
 40
1.0
 10
12.7348329276
 20
59.3848795999
 30
0.0
 10
12.7937991096
 20
59.2516907749
 30
0.0
 10
12.9287256415
 20
58.993329886
 30
0.0
 10
13.1745477306
 20
58.639003562
 30
0.0
 10
13.4541419451
 20
58.3308418573
 30
0.0
 10
13.7547112361
 20
58.0830615493
 30
0.0
 10
14.0631869013
 20
57.9070227829
 30
0.0
 10
14.3666208301
 20
57.8110612663
 30
0.0
 10
14.611635886
 20
57.8043039073
 30
0.0
 10
14.7855925676
 20
57.8470549763
 30
0.0
 10
14.8640753308
 20
57.88278266
 30
0.0
 10
14.9007189879
 20
57.9039454294
 30
0.0
  0
SPLINE
  5
30A
100
AcDbEntity
  8
00_COMPONENTS
100
AcDbSpline
 62
7
  6
CONTINUOUS
 70
0
 71
3
 72
9
 73
5
 74
0
 42
0.0000001
 43
0.0000001
 44
0.0000000001
 40
0.0
 40
0.0
 40
0.0
 40
0.0
 40
0.2367350848
 40
1.0
 40
1.0
 40
1.0
 40
1.0
 10
68.9912762344
 20
79.2686072206
 30
0.0
 10
69.0332854649
 20
79.2443537288
 30
0.0
 10
69.2067656521
 20
79.1350556491
 30
0.0
 10
69.3642474898
 20
79.0013280817
 30
0.0
 10
69.4749677735
 20
78.8908718561
 30
0.0
  0
SPLINE
  5
30B
100
AcDbEntity
  8
00_COMPONENTS
100
AcDbSpline
 62
7
  6
CONTINUOUS
 70
0
 71
3
 72
9
 73
5
 74
0
 42
0.0000001
 43
0.0000001
 44
0.0000000001
 40
0.0
 40
0.0
 40
0.0
 40
0.0
 40
0.244131676
 40
1.0
 40
1.0
 40
1.0
 40
1.0
 10
78.0239533836
 20
70.3622748258
 30
0.0
 10
78.0559938176
 20
70.3303108054
 30
0.0
 10
78.1840875691
 20
70.1962497366
 30
0.0
 10
78.2999534997
 20
70.0506105062
 30
0.0
 10
78.380261078
 20
69.9357807181
 30
0.0
  0
SPLINE
  5
30C
100
AcDbEntity
  8
00_COMPONENTS
100
AcDbSpline
 62
7
  6
CONTINUOUS
 70
0
 71
3
 72
11
 73
7
 74
0
 42
0.0000001
 43
0.0000001
 44
0.0000000001
 40
0.0
 40
0.0
 40
0.0
 40
0.0
 40
0.266241928
 40
0.5252890239
 40
0.7715160876
 40
1.0
 40
1.0
 40
1.0
 40
1.0
 10
78.5658981132
 20
69.6391964359
 30
0.0
 10
78.6271375085
 20
69.5293504831
 30
0.0
 10
78.7362810646
 20
69.3058648374
 30
0.0
 10
78.8589958346
 20
68.9618592066
 30
0.0
 10
78.9353617342
 20
68.6228846383
 30
0.0
 10
78.9544812948
 20
68.398451555
 30
0.0
 10
78.9544812948
 20
68.2905238471
 30
0.0
  0
SPLINE
  5
30D
100
AcDbEntity
  8
00_COMPONENTS
100
AcDbSpline
 62
7
  6
CONTINUOUS
 70
0
 71
3
 72
11
 73
7
 74
0
 42
0.0000001
 43
0.0000001
 44
0.0000000001
 40
0.0
 40
0.0
 40
0.0
 40
0.0
 40
0.2346318862
 40
0.476071555
 40
0.7300603514
 40
1.0
 40
1.0
 40
1.0
 40
1.0
 10
42.4134125351
 20
60.6814195349
 30
0.0
 10
42.5595372135
 20
60.6329104137
 30
0.0
 10
42.869218035
 20
60.570425889
 30
0.0
 10
43.3518878273
 20
60.5877804091
 30
0.0
 10
43.8416382117
 20
60.7135440907
 30
0.0
 10
44.1542773163
 20
60.8616151288
 30
0.0
 10
44.307681076
 20
60.9501823021
 30
0.0
  0
SPLINE
  5
30E
100
AcDbEntity
  8
00_COMPONENTS
100
AcDbSpline
 62
7
  6
CONTINUOUS
 70
0
 71
3
 72
9
 73
5
 74
0
 42
0.0000001
 43
0.0000001
 44
0.0000000001
 40
0.0
 40
0.0
 40
0.0
 40
0.0
 40
0.4827515898
 40
1.0
 40
1.0
 40
1.0
 40
1.0
 10
74.5440667283
 20
64.7390584221
 30
0.0
 10
74.5440713665
 20
64.8003312133
 30
0.0
 10
74.5213440159
 20
64.9280461177
 30
0.0
 10
74.4593743916
 20
65.0411254126
 30
0.0
 10
74.4209536419
 20
65.0943601283
 30
0.0
  0
SPLINE
  5
30F
100
AcDbEntity
  8
00_COMPONENTS
100
AcDbSpline
 62
7
  6
CONTINUOUS
 70
0
 71
3
 72
12
 73
8
 74
0
 42
0.0000001
 43
0.0000001
 44
0.0000000001
 40
0.0
 40
0.0
 40
0.0
 40
0.0
 40
0.2698703846
 40
0.52369336
 40
0.7650560533
 40
0.8829699538
 40
1.0
 40
1.0
 40
1.0
 40
1.0
 10
54.6965645067
 20
77.6976036727
 30
0.0
 10
54.9585160101
 20
77.848840541
 30
0.0
 10
55.4923266142
 20
78.1016771363
 30
0.0
 10
56.3282050641
 20
78.316388736
 30
0.0
 10
57.021441359
 20
78.3410641867
 30
0.0
 10
57.5509897306
 20
78.2657598331
 30
0.0
 10
57.8061869649
 20
78.1977760672
 30
0.0
 10
57.9306806485
 20
78.1564641631
 30
0.0
  0
SPLINE
  5
310
100
AcDbEntity
  8
00_COMPONENTS
100
AcDbSpline
 62
7
  6
CONTINUOUS
 70
0
 71
3
 72
15
 73
11
 74
0
 42
0.0000001
 43
0.0000001
 44
0.0000000001
 40
0.0
 40
0.0
 40
0.0
 40
0.0
 40
0.1218854874
 40
0.2495282546
 40
0.3806930409
 40
0.5127768451
 40
0.6431011418
 40
0.706846848
 40
0.7692397134
 40
1.0
 40
1.0
 40
1.0
 40
1.0
 10
38.7551870634
 20
61.714978639
 30
0.0
 10
38.6859230709
 20
62.131240851
 30
0.0
 10
38.6171387809
 20
62.9967092182
 30
0.0
 10
38.7091152288
 20
64.315685879
 30
0.0
 10
38.989126531
 20
65.6440573729
 30
0.0
 10
39.4467090592
 20
66.9317395074
 30
0.0
 10
39.9656990016
 20
67.9388280823
 30
0.0
 10
40.4549077862
 20
68.6810600215
 30
0.0
 10
41.2082646737
 20
69.6592923448
 30
0.0
 10
41.9839080218
 20
70.3579918406
 30
0.0
 10
42.6757992741
 20
70.757453057
 30
0.0
  0
SPLINE
  5
311
100
AcDbEntity
  8
00_COMPONENTS
100
AcDbSpline
 62
7
  6
CONTINUOUS
 70
0
 71
3
 72
20
 73
16
 74
0
 42
0.0000001
 43
0.0000001
 44
0.0000000001
 40
0.0
 40
0.0
 40
0.0
 40
0.0
 40
0.1225033106
 40
0.1885822491
 40
0.2570756604
 40
0.3979599246
 40
0.5384433326
 40
0.6064542973
 40
0.6719092119
 40
0.7342610917
 40
0.7931974504
 40
0.848705884
 40
0.901132967
 40
0.9512072174
 40
1.0
 40
1.0
 40
1.0
 40
1.0
 10
56.3284463086
 20
67.8903329179
 30
0.0
 10
56.6452720917
 20
68.0732512772
 30
0.0
 10
57.0876140855
 20
68.4376546925
 30
0.0
 10
57.5804537011
 20
69.0273101425
 30
0.0
 10
58.0316212676
 20
69.7173961827
 30
0.0
 10
58.4540288915
 20
70.6820916966
 30
0.0
 10
58.6676742262
 20
71.7121616895
 30
0.0
 10
58.6973636138
 20
72.531335469
 30
0.0
 10
58.6485929538
 20
73.1156347353
 30
0.0
 10
58.5300184719
 20
73.6623416181
 30
0.0
 10
58.3439987776
 20
74.1586888022
 30
0.0
 10
58.0943016803
 20
74.5928353759
 30
0.0
 10
57.7859584203
 20
74.9540470694
 30
0.0
 10
57.4259415237
 20
75.23252123
 30
0.0
 10
57.1554720459
 20
75.3581977779
 30
0.0
 10
57.0171805454
 20
75.404106513
 30
0.0
  0
SPLINE
  5
312
100
AcDbEntity
  8
00_COMPONENTS
100
AcDbSpline
 62
7
  6
CONTINUOUS
 70
0
 71
3
 72
11
 73
7
 74
0
 42
0.0000001
 43
0.0000001
 44
0.0000000001
 40
0.0
 40
0.0
 40
0.0
 40
0.0
 40
0.2177839237
 40
0.4509111717
 40
0.7102971901
 40
1.0
 40
1.0
 40
1.0
 40
1.0
 10
39.5637812264
 20
42.0319996131
 30
0.0
 10
39.596766784
 20
42.01295584
 30
0.0
 10
39.6725561722
 20
41.9854519176
 30
0.0
 10
39.7984407952
 20
41.9822656191
 30
0.0
 10
39.9326041493
 20
42.0146648665
 30
0.0
 10
40.0198920467
 20
42.0561902361
 30
0.0
 10
40.063770248
 20
42.0815231762
 30
0.0
  0
SPLINE
  5
313
100
AcDbEntity
  8
00_COMPONENTS
100
AcDbSpline
 62
7
  6
CONTINUOUS
 70
0
 71
3
 72
12
 73
8
 74
0
 42
0.0000001
 43
0.0000001
 44
0.0000000001
 40
0.0
 40
0.0
 40
0.0
 40
0.0
 40
0.1081605139
 40
0.2183669701
 40
0.4513454431
 40
0.7104428158
 40
1.0
 40
1.0
 40
1.0
 40
1.0
 10
38.5638067246
 20
40.2999537863
 30
0.0
 10
38.5146211164
 20
40.3283504706
 30
0.0
 10
38.4200342734
 20
40.3943310378
 30
0.0
 10
38.2504408627
 20
40.5612308089
 30
0.0
 10
38.0823747451
 20
40.8351053335
 30
0.0
 10
37.9655256996
 20
41.2321304866
 30
0.0
 10
37.9424587364
 20
41.5212486823
 30
0.0
 10
37.9424587364
 20
41.6732931317
 30
0.0
  0
SPLINE
  5
314
100
AcDbEntity
  8
00_COMPONENTS
100
AcDbSpline
 62
7
  6
CONTINUOUS
 70
0
 71
3
 72
9
 73
5
 74
0
 42
0.0000001
 43
0.0000001
 44
0.0000000001
 40
0.0
 40
0.0
 40
0.0
 40
0.0
 40
0.4922023134
 40
1.0
 40
1.0
 40
1.0
 40
1.0
 10
12.9007371748
 20
61.3680363128
 30
0.0
 10
12.8577263697
 20
61.3431963317
 30
0.0
 10
12.7758353503
 20
61.2826278933
 30
0.0
 10
12.7090309195
 20
61.2059222215
 30
0.0
 10
12.6792610703
 20
61.1642147035
 30
0.0
  0
SPLINE
  5
315
100
AcDbEntity
  8
00_COMPONENTS
100
AcDbSpline
 62
7
  6
CONTINUOUS
 70
0
 71
3
 72
10
 73
6
 74
0
 42
0.0000001
 43
0.0000001
 44
0.0000000001
 40
0.0
 40
0.0
 40
0.0
 40
0.0
 40
0.4620187838
 40
0.721452452
 40
1.0
 40
1.0
 40
1.0
 40
1.0
 10
12.6792610703
 20
61.1642147035
 30
0.0
 10
12.6124286881
 20
61.0705826277
 30
0.0
 10
12.5396352658
 20
60.9009867576
 30
0.0
 10
12.4939992892
 20
60.6560659948
 30
0.0
 10
12.4865086311
 20
60.5218273533
 30
0.0
 10
12.4865086311
 20
60.4524723801
 30
0.0
  0
SPLINE
  5
316
100
AcDbEntity
  8
00_COMPONENTS
100
AcDbSpline
 62
7
  6
CONTINUOUS
 70
0
 71
3
 72
9
 73
5
 74
0
 42
0.0000001
 43
0.0000001
 44
0.0000000001
 40
0.0
 40
0.0
 40
0.0
 40
0.0
 40
0.2367350848
 40
1.0
 40
1.0
 40
1.0
 40
1.0
 10
27.979253676
 20
55.5904462961
 30
0.0
 10
28.0212629065
 20
55.5661928042
 30
0.0
 10
28.1947430937
 20
55.4568947245
 30
0.0
 10
28.3522249314
 20
55.3231671571
 30
0.0
 10
28.4629452151
 20
55.2127109315
 30
0.0
  0
SPLINE
  5
317
100
AcDbEntity
  8
00_COMPONENTS
100
AcDbSpline
 62
7
  6
CONTINUOUS
 70
0
 71
3
 72
11
 73
7
 74
0
 42
0.0000001
 43
0.0000001
 44
0.0000000001
 40
0.0
 40
0.0
 40
0.0
 40
0.0
 40
0.2177843137
 40
0.4509117637
 40
0.7102976701
 40
1.0
 40
1.0
 40
1.0
 40
1.0
 10
51.791430931
 20
88.7204260601
 30
0.0
 10
51.8574026589
 20
88.7585145985
 30
0.0
 10
52.00898296
 20
88.8135243312
 30
0.0
 10
52.260755257
 20
88.8198991572
 30
0.0
 10
52.5290855201
 20
88.7551021822
 30
0.0
 10
52.7036638162
 20
88.6720519004
 30
0.0
 10
52.7914214643
 20
88.6213861448
 30
0.0
  0
SPLINE
  5
318
100
AcDbEntity
  8
00_COMPONENTS
100
AcDbSpline
 62
7
  6
CONTINUOUS
 70
0
 71
3
 72
11
 73
7
 74
0
 42
0.0000001
 43
0.0000001
 44
0.0000000001
 40
0.0
 40
0.0
 40
0.0
 40
0.0
 40
0.2177843137
 40
0.4509117637
 40
0.7102976701
 40
1.0
 40
1.0
 40
1.0
 40
1.0
 10
10.7794083726
 20
65.0422651356
 30
0.0
 10
10.8453801004
 20
65.0803536739
 30
0.0
 10
10.9969604016
 20
65.1353634066
 30
0.0
 10
11.2487326986
 20
65.1417382326
 30
0.0
 10
11.5170629617
 20
65.0769412577
 30
0.0
 10
11.6916412578
 20
64.9938909758
 30
0.0
 10
11.7793989059
 20
64.9432252203
 30
0.0
  0
SPLINE
  5
319
100
AcDbEntity
  8
00_COMPONENTS
100
AcDbSpline
 62
7
  6
CONTINUOUS
 70
0
 71
3
 72
10
 73
6
 74
0
 42
0.0000001
 43
0.0000001
 44
0.0000000001
 40
0.0
 40
0.0
 40
0.0
 40
0.0
 40
0.2386607858
 40
0.4822884919
 40
1.0
 40
1.0
 40
1.0
 40
1.0
 10
53.9127597332
 20
85.0461972374
 30
0.0
 10
53.8782090591
 20
85.0262432261
 30
0.0
 10
53.811906023
 20
84.9794456508
 30
0.0
 10
53.6937967458
 20
84.8602159001
 30
0.0
 10
53.6286053175
 20
84.7478391775
 30
0.0
 10
53.5951266677
 20
84.6680265623
 30
0.0
  0
ENDSEC
  0
SECTION
  2
OBJECTS
  0
DICTIONARY
  5
C
100
AcDbDictionary
280
0
281
1
  3
ACAD_GROUP
350
D
  3
ACAD_MLINESTYLE
350
17
  3
ACAD_LAYOUT
350
1A
  3
ACAD_PLOTSETTINGS
350
19
  3
ACAD_PLOTSTYLENAME
350
E
  0
DICTIONARY
  5
D
102
{ACAD_REACTORS
330
C
102
}
100
AcDbDictionary
280
0
281
1
  0
ACDBDICTIONARYWDFLT
  5
E
102
{ACAD_REACTORS
330
C
102
}
100
AcDbDictionary
281
1
  3
Normal
350
F
100
AcDbDictionaryWithDefault
340
F
  0
DICTIONARY
  5
17
102
{ACAD_REACTORS
330
C
102
}
100
AcDbDictionary
280
0
281
1
  3
Standard
350
18
  0
DICTIONARY
  5
19
102
{ACAD_REACTORS
330
C
102
}
100
AcDbDictionary
281
1
  0
DICTIONARY
  5
1A
102
{ACAD_REACTORS
330
C
102
}
100
AcDbDictionary
281
1
  3
Model
350
31A
  3
Layout1
350
31B
  0
ACDBPLACEHOLDER
  5
F
102
{ACAD_REACTORS
330
E
102
}
  0
MLINESTYLE
  5
18
102
{ACAD_REACTORS
330
17
102
}
100
AcDbMlineStyle
  2
STANDARD
 70
0
  3

 62
256
 51
90.0
 52
90.0
 71
2
 49
0.5
 62
256
  6
BYLAYER
 49
-0.5
 62
256
  6
BYLAYER
  0
LAYOUT
  5
31A
102
{ACAD_REACTORS
330
1A
102
}
100
AcDbPlotSettings
  1

  2
none_device
  4

  6

 40
0.0
 41
0.0
 42
0.0
 43
0.0
 44
210.0
 45
297.0
 46
0.0
 47
0.0
 48
0.0
 49
0.0
140
0.0
141
0.0
142
1.0
143
1.0
 70
1024
 72
1
 73
0
 74
0
  7

 75
0
147
1.0
148
0.0
149
0.0
100
AcDbLayout
  1
Model
 70
0
 71
0
 10
0.0
 20
0.0
 11
210.0
 21
297.0
 12
0.0
 22
0.0
 32
0.0
 14
0.0
 24
0.0
 34
0.0
 15
0.0
 25
0.0
 35
0.0
146
0.0
 13
0.0
 23
0.0
 33
0.0
 16
1.0
 26
0.0
 36
0.0
 17
0.0
 27
1.0
 37
0.0
 76
0
330
216
345
0
346
0
  0
LAYOUT
  5
31B
102
{ACAD_REACTORS
330
1A
102
}
100
AcDbPlotSettings
  1

  2
none_device
  4

  6

 40
0.0
 41
0.0
 42
0.0
 43
0.0
 44
210.0
 45
297.0
 46
0.0
 47
0.0
 48
0.0
 49
0.0
140
0.0
141
0.0
142
1.0
143
1.0
 70
0
 72
1
 73
0
 74
0
  7

 75
0
147
1.0
148
0.0
149
0.0
100
AcDbLayout
  1
Layout1
 70
0
 71
1
 10
0.0
 20
0.0
 11
210.0
 21
297.0
 12
0.0
 22
0.0
 32
0.0
 14
0.0
 24
0.0
 34
0.0
 15
0.0
 25
0.0
 35
0.0
146
0.0
 13
0.0
 23
0.0
 33
0.0
 16
1.0
 26
0.0
 36
0.0
 17
0.0
 27
1.0
 37
0.0
 76
0
330
217
345
0
346
0
  0
ENDSEC
  0
EOF
