999
DXF file: Y:\001_SCHNEIDER_PARIS\78_2020_429_Grey Project M580\TRAVAIL LUCAS SANTANA G2P2\CAD3D\2D views\BMXCPS3522_2D-Views\BMXCPS3522_2D-TRIM.dxf
999
Pro/ENGINEER 2018260 by Parametric Technology Corporation
  0
SECTION
  2
HEADER
  9
$ACADVER
  1
AC1027
  9
$DWGCODEPAGE
  3
ANSI_1252
  9
$EXTMAX
 10
558.8
 20
431.8
 30
0.0
  9
$EXTMIN
 10
0.0
 20
0.0
 30
0.0
  9
$LIMMIN
 10
0.0
 20
0.0
  9
$LIMMAX
 10
558.8
 20
431.8
  9
$VIEWCTR
 10
279.4
 20
215.9
  9
$VIEWSIZE
 40
431.8
  9
$CLAYER
  8
0
  9
$LTSCALE
 40
30.734
  9
$CELTYPE
  6
BYLAYER
  9
$DIMSCALE
 40
1.0
  9
$DIMASZ
 40
3.5
  9
$DIMEXO
 40
1.0
  9
$DIMDLI
 40
21.2344
  9
$DIMEXE
 40
3.0
  9
$DIMCEN
 40
5.0292
  9
$DIMLFAC
 40
1.0
  9
$DIMBLK
  1
_FILLED
  9
$DIMALT
 70
0
  9
$DIMALTF
 40
0.0393700787
  9
$DIMTXT
 40
4.0
  9
$DIMTOL
 70
1
  9
$DIMLIM
 70
0
  9
$DIMTFAC
 40
1.0
  9
$DIMTP
 40
0.0001
  9
$DIMTM
 40
0.0001
  9
$DIMGAP
 40
0.625
  9
$DIMDSEP
 70
46
  9
$AUNITS
 70
0
  9
$PDMODE
 70
0
  9
$PDSIZE
 40
0.01
  9
$HANDSEED
  5
3A8
  9
$TILEMODE
 70
1
  9
$MEASUREMENT
 70
1
  9
$INSUNITS
 70
4
  0
ENDSEC
  0
SECTION
  2
CLASSES
  0
CLASS
  1
ACDBDICTIONARYWDFLT
  2
AcDbDictionaryWithDefault
  3
AutoCAD 2000
 90
0
 91
1
280
0
281
0
  0
CLASS
  1
ACDBPLACEHOLDER
  2
AcDbPlaceHolder
  3
AutoCAD 2000
 90
0
 91
1
280
0
281
0
  0
CLASS
  1
LAYOUT
  2
AcDbLayout
  3
AutoCAD 2000
 90
0
 91
0
280
0
281
0
  0
ENDSEC
  0
SECTION
  2
TABLES
  0
TABLE
  2
VPORT
  5
8
100
AcDbSymbolTable
 70
2
  0
VPORT
  5
1F4
100
AcDbSymbolTableRecord
100
AcDbViewportTableRecord
  2
*ACTIVE
 70
0
 10
0.0
 20
0.0
 11
1.0
 21
1.0
 12
279.4
 22
215.9
 13
0.0
 23
0.0
 14
1.0
 24
1.0
 15
0.0
 25
0.0
 16
0.0
 26
0.0
 36
1.0
 17
0.0
 27
0.0
 37
0.0
 40
431.8
 41
1.2941176471
 42
50.0
 43
0.0
 44
0.0
 50
0.0
 51
0.0
 71
0
 72
100
 73
1
 74
1
 75
0
 76
0
 77
0
 78
0
  0
ENDTAB
  0
TABLE
  2
LTYPE
  5
5
100
AcDbSymbolTable
 70
6
  0
LTYPE
  5
14
100
AcDbSymbolTableRecord
100
AcDbLinetypeTableRecord
  2
BYBLOCK
 70
0
  3

 72
65
 73
0
 40
0.0
  0
LTYPE
  5
15
100
AcDbSymbolTableRecord
100
AcDbLinetypeTableRecord
  2
BYLAYER
 70
0
  3

 72
65
 73
0
 40
0.0
  0
LTYPE
  5
16
100
AcDbSymbolTableRecord
100
AcDbLinetypeTableRecord
  2
CONTINUOUS
 70
64
  3
Solid line
 72
65
 73
0
 40
0.0
  0
LTYPE
  5
1F5
100
AcDbSymbolTableRecord
100
AcDbLinetypeTableRecord
  2
CENTER
 70
64
  3
____ _ ____ _ ____ _ ____ _ ____ _ ____ _ ____
 72
65
 73
4
 40
0.6
 49
0.375
 74
0
 49
-0.075
 74
0
 49
0.075
 74
0
 49
-0.075
 74
0
  0
LTYPE
  5
1F6
100
AcDbSymbolTableRecord
100
AcDbLinetypeTableRecord
  2
HIDDEN
 70
64
  3
- - - - - - - - - - - - - - - - - - - -
 72
65
 73
2
 40
0.2
 49
0.1
 74
0
 49
-0.1
 74
0
  0
LTYPE
  5
1F7
100
AcDbSymbolTableRecord
100
AcDbLinetypeTableRecord
  2
PHANTOM
 70
64
  3
_____ _ _ _____ _ _ _____ _ _ _____
 72
65
 73
6
 40
0.8
 49
0.45
 74
0
 49
-0.05
 74
0
 49
0.1
 74
0
 49
-0.05
 74
0
 49
0.1
 74
0
 49
-0.05
 74
0
  0
LTYPE
  5
1F8
100
AcDbSymbolTableRecord
100
AcDbLinetypeTableRecord
  2
DOT
 70
64
  3
. . . . . . . . . . . . . . . . . . . .
 72
65
 73
2
 40
0.2
 49
0.1
 74
0
 49
-0.1
 74
0
  0
LTYPE
  5
1F9
100
AcDbSymbolTableRecord
100
AcDbLinetypeTableRecord
  2
DASHED
 70
64
  3
- - - - - - - - - - - - - - - - - - - -
 72
65
 73
2
 40
0.2
 49
0.1
 74
0
 49
-0.1
 74
0
  0
ENDTAB
  0
TABLE
  2
LAYER
  5
2
100
AcDbSymbolTable
 70
36
  0
LAYER
  5
10
100
AcDbSymbolTableRecord
100
AcDbLayerTableRecord
  2
0
 70
0
 62
7
  6
CONTINUOUS
370
-3
390
F
  0
LAYER
  5
1FA
100
AcDbSymbolTableRecord
100
AcDbLayerTableRecord
  2
DEFAULT_1
 70
0
 62
7
  6
CENTER
370
-3
390
F
  0
LAYER
  5
1FB
100
AcDbSymbolTableRecord
100
AcDbLayerTableRecord
  2
DEFAULT_2
 70
0
 62
8
  6
HIDDEN
370
-3
390
F
  0
LAYER
  5
1FC
100
AcDbSymbolTableRecord
100
AcDbLayerTableRecord
  2
DEFAULT_3
 70
0
 62
7
  6
PHANTOM
370
-3
390
F
  0
LAYER
  5
1FD
100
AcDbSymbolTableRecord
100
AcDbLayerTableRecord
  2
01_ALL_DTM_PLN
 70
0
 62
7
  6
CONTINUOUS
370
-3
390
F
  0
LAYER
  5
1FE
100
AcDbSymbolTableRecord
100
AcDbLayerTableRecord
  2
01__ASM_ALL_DTM_PLN
 70
0
 62
7
  6
CONTINUOUS
370
-3
390
F
  0
LAYER
  5
1FF
100
AcDbSymbolTableRecord
100
AcDbLayerTableRecord
  2
01__ASM_DEF_DTM_PLN
 70
0
 62
7
  6
CONTINUOUS
370
-3
390
F
  0
LAYER
  5
200
100
AcDbSymbolTableRecord
100
AcDbLayerTableRecord
  2
01___PRT_ALL_DTM_PLN
 70
0
 62
7
  6
CONTINUOUS
370
-3
390
F
  0
LAYER
  5
201
100
AcDbSymbolTableRecord
100
AcDbLayerTableRecord
  2
01___PRT_DEF_DTM_PLN
 70
0
 62
7
  6
CONTINUOUS
370
-3
390
F
  0
LAYER
  5
202
100
AcDbSymbolTableRecord
100
AcDbLayerTableRecord
  2
02_ALL_AXES
 70
0
 62
7
  6
CONTINUOUS
370
-3
390
F
  0
LAYER
  5
203
100
AcDbSymbolTableRecord
100
AcDbLayerTableRecord
  2
02__ASM_ALL_AXES
 70
0
 62
7
  6
CONTINUOUS
370
-3
390
F
  0
LAYER
  5
204
100
AcDbSymbolTableRecord
100
AcDbLayerTableRecord
  2
02___PRT_ALL_AXES
 70
0
 62
7
  6
CONTINUOUS
370
-3
390
F
  0
LAYER
  5
205
100
AcDbSymbolTableRecord
100
AcDbLayerTableRecord
  2
03_ALL_CURVES
 70
0
 62
7
  6
CONTINUOUS
370
-3
390
F
  0
LAYER
  5
206
100
AcDbSymbolTableRecord
100
AcDbLayerTableRecord
  2
03__ASM_ALL_CURVES
 70
0
 62
7
  6
CONTINUOUS
370
-3
390
F
  0
LAYER
  5
207
100
AcDbSymbolTableRecord
100
AcDbLayerTableRecord
  2
03___PRT_ALL_CURVES
 70
0
 62
7
  6
CONTINUOUS
370
-3
390
F
  0
LAYER
  5
208
100
AcDbSymbolTableRecord
100
AcDbLayerTableRecord
  2
04_ALL_DTM_PNT
 70
0
 62
7
  6
CONTINUOUS
370
-3
390
F
  0
LAYER
  5
209
100
AcDbSymbolTableRecord
100
AcDbLayerTableRecord
  2
04__ASM_ALL_DTM_PNT
 70
0
 62
7
  6
CONTINUOUS
370
-3
390
F
  0
LAYER
  5
20A
100
AcDbSymbolTableRecord
100
AcDbLayerTableRecord
  2
04___PRT_ALL_DTM_PNT
 70
0
 62
7
  6
CONTINUOUS
370
-3
390
F
  0
LAYER
  5
20B
100
AcDbSymbolTableRecord
100
AcDbLayerTableRecord
  2
05_ALL_DTM_CSYS
 70
0
 62
7
  6
CONTINUOUS
370
-3
390
F
  0
LAYER
  5
20C
100
AcDbSymbolTableRecord
100
AcDbLayerTableRecord
  2
05__ASM_ALL_DTM_CSYS
 70
0
 62
7
  6
CONTINUOUS
370
-3
390
F
  0
LAYER
  5
20D
100
AcDbSymbolTableRecord
100
AcDbLayerTableRecord
  2
05__ASM_DEF_DTM_CSYS
 70
0
 62
7
  6
CONTINUOUS
370
-3
390
F
  0
LAYER
  5
20E
100
AcDbSymbolTableRecord
100
AcDbLayerTableRecord
  2
05___PRT_ALL_DTM_CSYS
 70
0
 62
7
  6
CONTINUOUS
370
-3
390
F
  0
LAYER
  5
20F
100
AcDbSymbolTableRecord
100
AcDbLayerTableRecord
  2
05___PRT_DEF_DTM_CSYS
 70
0
 62
7
  6
CONTINUOUS
370
-3
390
F
  0
LAYER
  5
210
100
AcDbSymbolTableRecord
100
AcDbLayerTableRecord
  2
06_ALL_SURFS
 70
0
 62
7
  6
CONTINUOUS
370
-3
390
F
  0
LAYER
  5
211
100
AcDbSymbolTableRecord
100
AcDbLayerTableRecord
  2
06__ASM_ALL_SURFS
 70
0
 62
7
  6
CONTINUOUS
370
-3
390
F
  0
LAYER
  5
212
100
AcDbSymbolTableRecord
100
AcDbLayerTableRecord
  2
06___PRT_ALL_SURFS
 70
0
 62
7
  6
CONTINUOUS
370
-3
390
F
  0
LAYER
  5
213
100
AcDbSymbolTableRecord
100
AcDbLayerTableRecord
  2
07__ASM_ALL_SKELETONS
 70
0
 62
7
  6
CONTINUOUS
370
-3
390
F
  0
ENDTAB
  0
TABLE
  2
STYLE
  5
3
100
AcDbSymbolTable
 70
1
  0
STYLE
  5
11
100
AcDbSymbolTableRecord
100
AcDbTextStyleTableRecord
  2
STANDARD
 70
0
 40
0.0
 41
0.6
 50
0.0
 71
0
 42
0.2
  3
txt
  4

  0
STYLE
  5
214
100
AcDbSymbolTableRecord
100
AcDbTextStyleTableRecord
  2
TEXTSTYLE_1
 70
0
 40
0.0
 41
0.8
 50
0.0
 71
0
 42
0.2
  3
gdt
  4

  0
ENDTAB
  0
TABLE
  2
VIEW
  5
6
100
AcDbSymbolTable
 70
0
  0
ENDTAB
  0
TABLE
  2
UCS
  5
7
100
AcDbSymbolTable
 70
0
  0
ENDTAB
  0
TABLE
  2
APPID
  5
9
100
AcDbSymbolTable
 70
1
  0
APPID
  5
215
100
AcDbSymbolTableRecord
100
AcDbRegAppTableRecord
  2
ACAD
 70
0
  0
ENDTAB
  0
TABLE
  2
BLOCK_RECORD
  5
1
100
AcDbSymbolTable
 70
0
  0
BLOCK_RECORD
  5
216
100
AcDbSymbolTableRecord
100
AcDbBlockTableRecord
  2
*Model_Space
  0
BLOCK_RECORD
  5
217
100
AcDbSymbolTableRecord
100
AcDbBlockTableRecord
  2
*Paper_Space
  0
BLOCK_RECORD
  5
218
100
AcDbSymbolTableRecord
100
AcDbBlockTableRecord
  2
_FILLED
  0
ENDTAB
  0
TABLE
  2
DIMSTYLE
  5
A
100
AcDbSymbolTable
 70
1
100
AcDbDimStyleTable
 71
0
  0
DIMSTYLE
105
219
100
AcDbSymbolTableRecord
100
AcDbDimStyleTableRecord
  2
STANDARD
 70
0
  3

  4

 40
1.0
 41
3.5
 42
1.0
 43
0.38
 44
3.0
 45
0.0
 46
0.0
 47
0.0001
 48
0.0001
140
4.0
141
0.09
142
0.0
143
25.4
144
1.0
145
0.0
146
1.0
147
0.625
 71
1.0
 72
0.0
 73
0
 74
0
 75
0
 76
0
 77
1
 78
8
 79
2
170
0
171
3
172
0
173
0
174
0
175
0
176
0
177
0
178
0
270
2
179
4
271
4
272
4
273
2
274
2
275
0
280
0
281
0
282
0
283
1
284
8
285
0
286
0
287
3
288
0
340
11
278
46
341
218
342
218
343
218
344
218
  0
ENDTAB
  0
ENDSEC
  0
SECTION
  2
BLOCKS
  0
BLOCK
  5
20
100
AcDbEntity
  8
0
100
AcDbBlockBegin
  2
*Model_Space
 70
0
 10
0.0
 20
0.0
 30
0.0
  3
*Model_Space
  1

  0
ENDBLK
  5
21
100
AcDbEntity
  8
0
100
AcDbBlockEnd
  0
BLOCK
  5
1C
100
AcDbEntity
  8
0
100
AcDbBlockBegin
  2
*Paper_Space
 70
0
 10
0.0
 20
0.0
 30
0.0
  3
*Paper_Space
  1

  0
ENDBLK
  5
1D
100
AcDbEntity
  8
0
100
AcDbBlockEnd
  0
BLOCK
  5
21A
100
AcDbEntity
  8
0
100
AcDbBlockBegin
  2
_FILLED
 70
64
 10
0.0
 20
0.0
  3
_FILLED
  1

  0
SOLID
  5
21B
100
AcDbEntity
  8
0
  6
BYBLOCK
 62
0
100
AcDbTrace
 10
0.0
 20
0.0
 11
-1.0
 21
0.2857142857
 12
-1.0
 22
-0.2857142857
 13
-1.0
 23
-0.2857142857
  0
ENDBLK
  5
21C
100
AcDbEntity
  8
0
  6
BYBLOCK
 62
0
100
AcDbBlockEnd
  0
ENDSEC
  0
SECTION
  2
ENTITIES
  0
LINE
  5
21D
100
AcDbEntity
  8
0
100
AcDbLine
 62
7
  6
CONTINUOUS
 10
-38.1462645264
 20
317.5342981343
 11
-37.6586737699
 21
317.7123463008
  0
LINE
  5
21E
100
AcDbEntity
  8
0
100
AcDbLine
 62
7
  6
CONTINUOUS
 10
-12.745204449
 20
324.3552456355
 11
-12.7551315469
 21
324.3517576403
  0
LINE
  5
21F
100
AcDbEntity
  8
0
100
AcDbLine
 62
7
  6
CONTINUOUS
 10
45.5963545886
 20
171.2079650089
 11
-9.4447078406
 21
156.4536850837
  0
LINE
  5
220
100
AcDbEntity
  8
0
100
AcDbLine
 62
7
  6
CONTINUOUS
 10
-27.384424017
 20
323.4742202055
 11
-32.5376086997
 21
318.7832554642
  0
LINE
  5
221
100
AcDbEntity
  8
0
100
AcDbLine
 62
7
  6
CONTINUOUS
 10
-31.4115660815
 20
318.1328839185
 11
-26.2583813988
 21
322.8238486598
  0
LINE
  5
222
100
AcDbEntity
  8
0
100
AcDbLine
 62
7
  6
CONTINUOUS
 10
-12.7551315469
 20
324.3517576403
 11
-12.8342889114
 21
324.2895228835
  0
LINE
  5
223
100
AcDbEntity
  8
0
100
AcDbLine
 62
7
  6
CONTINUOUS
 10
50.3226835205
 20
183.7199598798
 11
2.7196025006
 21
170.9595015661
  0
LINE
  5
224
100
AcDbEntity
  8
0
100
AcDbLine
 62
7
  6
CONTINUOUS
 10
-10.1679627905
 20
156.521984272
 11
-55.4468490376
 21
182.673835682
  0
LINE
  5
225
100
AcDbEntity
  8
0
100
AcDbLine
 62
7
  6
CONTINUOUS
 10
25.8599891074
 20
184.4252455812
 11
33.6285474683
 21
186.5076814866
  0
LINE
  5
226
100
AcDbEntity
  8
0
100
AcDbLine
 62
7
  6
CONTINUOUS
 10
40.9012404019
 20
188.4571959512
 11
48.6697987627
 21
190.5396318565
  0
LINE
  5
227
100
AcDbEntity
  8
0
100
AcDbLine
 62
7
  6
CONTINUOUS
 10
48.5943903588
 20
190.8221266782
 11
42.4787167556
 21
189.182762242
  0
LINE
  5
228
100
AcDbEntity
  8
0
100
AcDbLine
 62
7
  6
CONTINUOUS
 10
33.5531390643
 20
186.7901763082
 11
27.4374654611
 21
185.1508118721
  0
LINE
  5
229
100
AcDbEntity
  8
0
100
AcDbLine
 62
7
  6
CONTINUOUS
 10
26.1147096726
 20
185.3815360774
 11
25.8599891074
 21
185.313255809
  0
LINE
  5
22A
100
AcDbEntity
  8
0
100
AcDbLine
 62
7
  6
CONTINUOUS
 10
40.9012404019
 20
189.3452061789
 11
41.155960967
 21
189.4134864474
  0
LINE
  5
22B
100
AcDbEntity
  8
0
100
AcDbLine
 62
7
  6
CONTINUOUS
 10
-55.4468490376
 20
182.673835682
 11
-65.8222471541
 21
221.210828349
  0
LINE
  5
22C
100
AcDbEntity
  8
0
100
AcDbLine
 62
7
  6
CONTINUOUS
 10
-66.7230812487
 20
221.7311255855
 11
-66.7230812487
 21
309.6195146296
  0
LINE
  5
22D
100
AcDbEntity
  8
0
100
AcDbLine
 62
7
  6
CONTINUOUS
 10
47.3051402478
 20
194.9353038073
 11
43.0902841159
 21
193.8054715608
  0
LINE
  5
22E
100
AcDbEntity
  8
0
100
AcDbLine
 62
7
  6
CONTINUOUS
 10
32.2638889534
 20
190.9033534374
 11
28.0490328214
 21
189.7735211908
  0
LINE
  5
22F
100
AcDbEntity
  8
0
100
AcDbLine
 62
7
  6
CONTINUOUS
 10
24.041815874
 20
190.9248100272
 11
25.8599891074
 21
191.4121886433
  0
LINE
  5
230
100
AcDbEntity
  8
0
100
AcDbLine
 62
7
  6
CONTINUOUS
 10
39.0830671685
 20
194.9567603971
 11
40.9012404019
 21
195.4441390133
  0
LINE
  5
231
100
AcDbEntity
  8
0
100
AcDbLine
 62
7
  6
CONTINUOUS
 10
29.0169646511
 20
192.9506842706
 11
29.8434070299
 21
193.1722200052
  0
LINE
  5
232
100
AcDbEntity
  8
0
100
AcDbLine
 62
7
  6
CONTINUOUS
 10
44.0582159455
 20
196.9826346405
 11
44.8846583243
 21
197.2041703751
  0
LINE
  5
233
100
AcDbEntity
  8
0
100
AcDbLine
 62
7
  6
CONTINUOUS
 10
24.041815874
 20
191.8128202549
 11
24.6762264816
 21
191.9828800481
  0
LINE
  5
234
100
AcDbEntity
  8
0
100
AcDbLine
 62
7
  6
CONTINUOUS
 10
39.0830671685
 20
195.8447706248
 11
39.7174777761
 21
196.014830418
  0
LINE
  5
235
100
AcDbEntity
  8
0
100
AcDbLine
 62
7
  6
CONTINUOUS
 10
29.7047491766
 20
193.3544481353
 11
29.7130136004
 21
193.3566634926
  0
LINE
  5
236
100
AcDbEntity
  8
0
100
AcDbLine
 62
7
  6
CONTINUOUS
 10
44.746000471
 20
197.3863985052
 11
44.7542648948
 21
197.3886138626
  0
LINE
  5
237
100
AcDbEntity
  8
0
100
AcDbLine
 62
7
  6
CONTINUOUS
 10
44.7542648948
 20
197.3978072087
 11
44.746000471
 21
197.3955918514
  0
LINE
  5
238
100
AcDbEntity
  8
0
100
AcDbLine
 62
7
  6
CONTINUOUS
 10
29.7130136004
 20
193.3658568388
 11
29.7047491766
 21
193.3636414814
  0
LINE
  5
239
100
AcDbEntity
  8
0
100
AcDbLine
 62
7
  6
CONTINUOUS
 10
44.8846583243
 20
198.1235049885
 11
44.0582159455
 21
197.9019692539
  0
LINE
  5
23A
100
AcDbEntity
  8
0
100
AcDbLine
 62
7
  6
CONTINUOUS
 10
29.8434070299
 20
194.0915546186
 11
29.0169646511
 21
193.870018884
  0
LINE
  5
23B
100
AcDbEntity
  8
0
100
AcDbLine
 62
7
  6
CONTINUOUS
 10
40.9012404019
 20
200.0408120804
 11
39.0830671685
 21
199.5534334643
  0
LINE
  5
23C
100
AcDbEntity
  8
0
100
AcDbLine
 62
7
  6
CONTINUOUS
 10
25.1988352044
 20
195.8316331228
 11
24.041815874
 21
195.5214830943
  0
LINE
  5
23D
100
AcDbEntity
  8
0
100
AcDbLine
 62
7
  6
CONTINUOUS
 10
44.0582159455
 20
201.6528544767
 11
44.8846583243
 21
201.8743902113
  0
LINE
  5
23E
100
AcDbEntity
  8
0
100
AcDbLine
 62
7
  6
CONTINUOUS
 10
44.746000471
 20
202.0566183415
 11
44.7542648948
 21
202.0588336988
  0
LINE
  5
23F
100
AcDbEntity
  8
0
100
AcDbLine
 62
7
  6
CONTINUOUS
 10
44.7542648948
 20
202.068027045
 11
44.746000471
 21
202.0658116876
  0
LINE
  5
240
100
AcDbEntity
  8
0
100
AcDbLine
 62
7
  6
CONTINUOUS
 10
44.8846583243
 20
202.7937248248
 11
44.0582159455
 21
202.5721890902
  0
LINE
  5
241
100
AcDbEntity
  8
0
100
AcDbLine
 62
7
  6
CONTINUOUS
 10
43.0902841159
 20
203.5688051554
 11
47.3051402478
 21
204.6986374019
  0
LINE
  5
242
100
AcDbEntity
  8
0
100
AcDbLine
 62
7
  6
CONTINUOUS
 10
25.877286422
 20
185.4229490815
 11
27.4374654611
 21
185.1508118721
  0
LINE
  5
243
100
AcDbEntity
  8
0
100
AcDbLine
 62
7
  6
CONTINUOUS
 10
48.5943903588
 20
209.5030060231
 11
42.4787167556
 21
207.8636415869
  0
LINE
  5
244
100
AcDbEntity
  8
0
100
AcDbLine
 62
7
  6
CONTINUOUS
 10
48.6697987627
 20
210.351292776
 11
40.9012404019
 21
208.2688568706
  0
LINE
  5
245
100
AcDbEntity
  8
0
100
AcDbLine
 62
7
  6
CONTINUOUS
 10
24.041815874
 20
206.4064049174
 11
25.1988352044
 21
206.7165549458
  0
LINE
  5
246
100
AcDbEntity
  8
0
100
AcDbLine
 62
7
  6
CONTINUOUS
 10
40.9185377164
 20
189.4548994514
 11
42.4787167556
 21
189.182762242
  0
LINE
  5
247
100
AcDbEntity
  8
0
100
AcDbLine
 62
7
  6
CONTINUOUS
 10
-65.8222471541
 20
221.210828349
 11
-66.7230812487
 21
221.7311255855
  0
LINE
  5
248
100
AcDbEntity
  8
0
100
AcDbLine
 62
7
  6
CONTINUOUS
 10
-22.4257697441
 20
324.4555362678
 11
-22.9758606382
 21
322.3065751661
  0
LINE
  5
249
100
AcDbEntity
  8
0
100
AcDbLine
 62
7
  6
CONTINUOUS
 10
29.0169646511
 20
211.6315636155
 11
29.8434070299
 21
211.8530993501
  0
LINE
  5
24A
100
AcDbEntity
  8
0
100
AcDbLine
 62
7
  6
CONTINUOUS
 10
29.7047491766
 20
212.0353274802
 11
29.7130136004
 21
212.0375428376
  0
LINE
  5
24B
100
AcDbEntity
  8
0
100
AcDbLine
 62
7
  6
CONTINUOUS
 10
29.7130136004
 20
212.0467361837
 11
29.7047491766
 21
212.0445208264
  0
LINE
  5
24C
100
AcDbEntity
  8
0
100
AcDbLine
 62
7
  6
CONTINUOUS
 10
25.8599891074
 20
211.4904566007
 11
24.041815874
 21
211.0030779845
  0
LINE
  5
24D
100
AcDbEntity
  8
0
100
AcDbLine
 62
7
  6
CONTINUOUS
 10
29.8434070299
 20
212.7724339635
 11
29.0169646511
 21
212.5508982289
  0
LINE
  5
24E
100
AcDbEntity
  8
0
100
AcDbLine
 62
7
  6
CONTINUOUS
 10
28.0490328214
 20
213.5475142942
 11
32.2638889534
 21
214.6773465407
  0
LINE
  5
24F
100
AcDbEntity
  8
0
100
AcDbLine
 62
7
  6
CONTINUOUS
 10
44.7731829597
 20
219.2163554461
 11
44.9797935544
 21
219.2717393797
  0
LINE
  5
250
100
AcDbEntity
  8
0
100
AcDbLine
 62
7
  6
CONTINUOUS
 10
-38.1462645264
 20
317.279801962
 11
-38.1462645264
 21
317.5342981343
  0
LINE
  5
251
100
AcDbEntity
  8
0
100
AcDbLine
 62
7
  6
CONTINUOUS
 10
-19.8951492897
 20
321.7182464445
 11
-19.6106631986
 21
322.8296074038
  0
LINE
  5
252
100
AcDbEntity
  8
0
100
AcDbLine
 62
7
  6
CONTINUOUS
 10
33.5531390643
 20
219.4817151618
 11
27.4374654611
 21
217.8423507257
  0
LINE
  5
253
100
AcDbEntity
  8
0
100
AcDbLine
 62
7
  6
CONTINUOUS
 10
33.6285474683
 20
220.3391952609
 11
25.8599891074
 21
218.2567593555
  0
LINE
  5
254
100
AcDbEntity
  8
0
100
AcDbLine
 62
7
  6
CONTINUOUS
 10
24.6762264816
 20
191.9828800481
 11
25.8599891074
 21
191.4121886433
  0
LINE
  5
255
100
AcDbEntity
  8
0
100
AcDbLine
 62
7
  6
CONTINUOUS
 10
33.2643730436
 20
186.7127698318
 11
33.6285474683
 21
186.5076814866
  0
LINE
  5
256
100
AcDbEntity
  8
0
100
AcDbLine
 62
7
  6
CONTINUOUS
 10
-29.0006535392
 20
287.8320678514
 11
-29.0006535392
 21
167.3992334919
  0
LINE
  5
257
100
AcDbEntity
  8
0
100
AcDbLine
 62
7
  6
CONTINUOUS
 10
-26.2583813988
 20
322.8238486598
 11
-26.2583813988
 21
319.5142440515
  0
LINE
  5
258
100
AcDbEntity
  8
0
100
AcDbLine
 62
7
  6
CONTINUOUS
 10
37.3698647271
 20
282.127845933
 11
37.5642561955
 21
282.1974415196
  0
LINE
  5
259
100
AcDbEntity
  8
0
100
AcDbLine
 62
7
  6
CONTINUOUS
 10
37.3694614192
 20
282.1333272749
 11
37.5642561955
 21
282.1974415196
  0
LINE
  5
25A
100
AcDbEntity
  8
0
100
AcDbLine
 62
7
  6
CONTINUOUS
 10
42.4787167556
 20
207.8636415869
 11
40.9185377164
 21
208.1357787964
  0
LINE
  5
25B
100
AcDbEntity
  8
0
100
AcDbLine
 62
7
  6
CONTINUOUS
 10
39.7174777761
 20
196.014830418
 11
40.9012404019
 21
195.4441390133
  0
LINE
  5
25C
100
AcDbEntity
  8
0
100
AcDbLine
 62
7
  6
CONTINUOUS
 10
28.0490328214
 20
193.3377395368
 11
32.2638889534
 21
190.9033534374
  0
LINE
  5
25D
100
AcDbEntity
  8
0
100
AcDbLine
 62
7
  6
CONTINUOUS
 10
28.0490328214
 20
193.5097353313
 11
29.0169646511
 21
192.9506842706
  0
LINE
  5
25E
100
AcDbEntity
  8
0
100
AcDbLine
 62
7
  6
CONTINUOUS
 10
32.2638889534
 20
191.6152906214
 11
29.655470785
 21
193.1218419085
  0
LINE
  5
25F
100
AcDbEntity
  8
0
100
AcDbLine
 62
7
  6
CONTINUOUS
 10
28.0490328214
 20
194.4290699447
 11
29.0169646511
 21
193.870018884
  0
LINE
  5
260
100
AcDbEntity
  8
0
100
AcDbLine
 62
7
  6
CONTINUOUS
 10
28.0490328214
 20
195.127936287
 11
29.8434070299
 21
194.0915546186
  0
LINE
  5
261
100
AcDbEntity
  8
0
100
AcDbLine
 62
7
  6
CONTINUOUS
 10
28.0490328214
 20
197.7189161112
 11
32.2638889534
 21
195.2845300117
  0
LINE
  5
262
100
AcDbEntity
  8
0
100
AcDbLine
 62
7
  6
CONTINUOUS
 10
-24.5693174715
 20
318.5386867331
 11
-24.5693174715
 21
321.8482913414
  0
LINE
  5
263
100
AcDbEntity
  8
0
100
AcDbLine
 62
7
  6
CONTINUOUS
 10
-22.9164327139
 20
322.2913628106
 11
-22.9164327139
 21
321.9434644653
  0
LINE
  5
264
100
AcDbEntity
  8
0
100
AcDbLine
 62
7
  6
CONTINUOUS
 10
-22.4257697441
 20
324.8034346131
 11
-22.4257697441
 21
324.4555362678
  0
LINE
  5
265
100
AcDbEntity
  8
0
100
AcDbLine
 62
7
  6
CONTINUOUS
 10
-21.5277904485
 20
316.7819835683
 11
-21.5277904485
 21
317.4840952848
  0
LINE
  5
266
100
AcDbEntity
  8
0
100
AcDbLine
 62
7
  6
CONTINUOUS
 10
-20.5564194766
 20
317.0682047923
 11
-20.5564194766
 21
317.2574255556
  0
LINE
  5
267
100
AcDbEntity
  8
0
100
AcDbLine
 62
7
  6
CONTINUOUS
 10
-20.3518601108
 20
316.1027982348
 11
-20.3518601108
 21
316.8523999367
  0
LINE
  5
268
100
AcDbEntity
  8
0
100
AcDbLine
 62
7
  6
CONTINUOUS
 10
-20.3518601108
 20
317.7993145886
 11
-20.3518601108
 21
320.7289479081
  0
LINE
  5
269
100
AcDbEntity
  8
0
100
AcDbLine
 62
7
  6
CONTINUOUS
 10
-20.2749088221
 20
319.4210678907
 11
-20.2749088221
 21
319.0264638627
  0
LINE
  5
26A
100
AcDbEntity
  8
0
100
AcDbLine
 62
7
  6
CONTINUOUS
 10
-20.2749088221
 20
317.0948326692
 11
-20.2749088221
 21
316.7002286412
  0
LINE
  5
26B
100
AcDbEntity
  8
0
100
AcDbLine
 62
7
  6
CONTINUOUS
 10
-20.2046612199
 20
316.0177801647
 11
-20.2046612199
 21
317.6060214775
  0
LINE
  5
26C
100
AcDbEntity
  8
0
100
AcDbLine
 62
7
  6
CONTINUOUS
 10
-20.2046612199
 20
318.5529361293
 11
-20.2046612199
 21
321.4825694488
  0
LINE
  5
26D
100
AcDbEntity
  8
0
100
AcDbLine
 62
7
  6
CONTINUOUS
 10
-19.9437091641
 20
317.9140266493
 11
-19.9437091641
 21
318.4022173296
  0
LINE
  5
26E
100
AcDbEntity
  8
0
100
AcDbLine
 62
7
  6
CONTINUOUS
 10
-19.6106631986
 20
323.1775057491
 11
-19.6106631986
 21
322.8296074038
  0
LINE
  5
26F
100
AcDbEntity
  8
0
100
AcDbLine
 62
7
  6
CONTINUOUS
 10
-19.3601292562
 20
320.9947907896
 11
-19.3601292562
 21
318.0651574701
  0
LINE
  5
270
100
AcDbEntity
  8
0
100
AcDbLine
 62
7
  6
CONTINUOUS
 10
-19.3601292562
 20
317.1182428183
 11
-19.3601292562
 21
315.5668463126
  0
LINE
  5
271
100
AcDbEntity
  8
0
100
AcDbLine
 62
7
  6
CONTINUOUS
 10
-13.7041961126
 20
315.2331471513
 11
-13.5325684978
 21
317.1289793622
  0
LINE
  5
272
100
AcDbEntity
  8
0
100
AcDbLine
 62
7
  6
CONTINUOUS
 10
27.4374654611
 20
217.8423507257
 11
25.877286422
 21
218.1144879351
  0
LINE
  5
273
100
AcDbEntity
  8
0
100
AcDbLine
 62
7
  6
CONTINUOUS
 10
24.041815874
 20
207.242926983
 11
25.1988352044
 21
206.7165549458
  0
LINE
  5
274
100
AcDbEntity
  8
0
100
AcDbLine
 62
7
  6
CONTINUOUS
 10
48.3056243381
 20
190.7447202017
 11
48.6697987627
 21
190.5396318565
  0
LINE
  5
275
100
AcDbEntity
  8
0
100
AcDbLine
 62
7
  6
CONTINUOUS
 10
43.0902841159
 20
197.3696899067
 11
47.3051402478
 21
194.9353038073
  0
LINE
  5
276
100
AcDbEntity
  8
0
100
AcDbLine
 62
7
  6
CONTINUOUS
 10
43.0902841159
 20
197.5416857012
 11
44.0582159455
 21
196.9826346405
  0
LINE
  5
277
100
AcDbEntity
  8
0
100
AcDbLine
 62
7
  6
CONTINUOUS
 10
47.3051402478
 20
195.6472409913
 11
44.6967220795
 21
197.1537922784
  0
LINE
  5
278
100
AcDbEntity
  8
0
100
AcDbLine
 62
7
  6
CONTINUOUS
 10
29.0169646511
 20
193.870018884
 11
29.7047491766
 21
193.3636414814
  0
LINE
  5
279
100
AcDbEntity
  8
0
100
AcDbLine
 62
7
  6
CONTINUOUS
 10
-18.3443791763
 20
317.5259778759
 11
-18.3443791763
 21
318.3374389333
  0
LINE
  5
27A
100
AcDbEntity
  8
0
100
AcDbLine
 62
7
  6
CONTINUOUS
 10
-18.3032486664
 20
260.6795711661
 11
-18.3032487788
 21
267.1648254142
  0
LINE
  5
27B
100
AcDbEntity
  8
0
100
AcDbLine
 62
7
  6
CONTINUOUS
 10
-18.1841989185
 20
318.3803767738
 11
-18.1841989185
 21
317.433462122
  0
LINE
  5
27C
100
AcDbEntity
  8
0
100
AcDbLine
 62
7
  6
CONTINUOUS
 10
-17.957778441
 20
323.6205772183
 11
-17.957778441
 21
320.706052532
  0
LINE
  5
27D
100
AcDbEntity
  8
0
100
AcDbLine
 62
7
  6
CONTINUOUS
 10
-12.8342889114
 20
324.0649176048
 11
-12.8342889114
 21
324.2895228835
  0
LINE
  5
27E
100
AcDbEntity
  8
0
100
AcDbLine
 62
7
  6
CONTINUOUS
 10
-12.7551315469
 20
324.0861364887
 11
-12.7551315469
 21
324.3517576403
  0
LINE
  5
27F
100
AcDbEntity
  8
0
100
AcDbLine
 62
7
  6
CONTINUOUS
 10
43.0902841159
 20
198.4610203146
 11
44.0582159455
 21
197.9019692539
  0
LINE
  5
280
100
AcDbEntity
  8
0
100
AcDbLine
 62
7
  6
CONTINUOUS
 10
43.0902841159
 20
199.159886657
 11
44.8846583243
 21
198.1235049885
  0
LINE
  5
281
100
AcDbEntity
  8
0
100
AcDbLine
 62
7
  6
CONTINUOUS
 10
43.0902841159
 20
201.7508664811
 11
47.3051402478
 21
199.3164803817
  0
LINE
  5
282
100
AcDbEntity
  8
0
100
AcDbLine
 62
7
  6
CONTINUOUS
 10
43.0902841159
 20
202.2119055374
 11
44.0582159455
 21
201.6528544767
  0
LINE
  5
283
100
AcDbEntity
  8
0
100
AcDbLine
 62
7
  6
CONTINUOUS
 10
47.3051402478
 20
200.3174608276
 11
44.6967220795
 21
201.8240121147
  0
LINE
  5
284
100
AcDbEntity
  8
0
100
AcDbLine
 62
7
  6
CONTINUOUS
 10
43.0902841159
 20
203.1312401509
 11
44.0582159455
 21
202.5721890902
  0
LINE
  5
285
100
AcDbEntity
  8
0
100
AcDbLine
 62
7
  6
CONTINUOUS
 10
28.0490328214
 20
212.1906146762
 11
29.0169646511
 21
211.6315636155
  0
LINE
  5
286
100
AcDbEntity
  8
0
100
AcDbLine
 62
7
  6
CONTINUOUS
 10
43.3992852597
 20
203.6516358489
 11
44.8846583243
 21
202.7937248248
  0
LINE
  5
287
100
AcDbEntity
  8
0
100
AcDbLine
 62
7
  6
CONTINUOUS
 10
32.2638889534
 20
210.2961699663
 11
29.655470785
 21
211.8027212534
  0
LINE
  5
288
100
AcDbEntity
  8
0
100
AcDbLine
 62
7
  6
CONTINUOUS
 10
28.0490328214
 20
213.1099492896
 11
29.0169646511
 21
212.5508982289
  0
LINE
  5
289
100
AcDbEntity
  8
0
100
AcDbLine
 62
7
  6
CONTINUOUS
 10
28.3580339653
 20
213.6303449877
 11
29.8434070299
 21
212.7724339635
  0
LINE
  5
28A
100
AcDbEntity
  8
0
100
AcDbLine
 62
7
  6
CONTINUOUS
 10
50.3226835204
 20
253.5893905004
 11
45.2822677657
 21
252.2382591505
  0
LINE
  5
28B
100
AcDbEntity
  8
0
100
AcDbLine
 62
7
  6
CONTINUOUS
 10
46.4632409829
 20
204.4729583021
 11
47.3051402478
 21
203.9867002179
  0
LINE
  5
28C
100
AcDbEntity
  8
0
100
AcDbLine
 62
7
  6
CONTINUOUS
 10
31.4219896884
 20
214.4516674408
 11
32.2638889534
 21
213.9654093566
  0
LINE
  5
28D
100
AcDbEntity
  8
0
100
AcDbLine
 62
7
  6
CONTINUOUS
 10
47.6151552399
 20
210.0685855558
 11
48.5943903588
 21
209.5030060231
  0
LINE
  5
28E
100
AcDbEntity
  8
0
100
AcDbLine
 62
7
  6
CONTINUOUS
 10
32.5630323805
 20
220.0535738143
 11
33.5531390643
 21
219.4817151618
  0
LINE
  5
28F
100
AcDbEntity
  8
0
100
AcDbLine
 62
7
  6
CONTINUOUS
 10
44.0582159455
 20
197.9019692539
 11
44.746000471
 21
197.3955918514
  0
LINE
  5
290
100
AcDbEntity
  8
0
100
AcDbLine
 62
7
  6
CONTINUOUS
 10
29.0169646511
 20
212.5508982289
 11
29.7047491766
 21
212.0445208264
  0
LINE
  5
291
100
AcDbEntity
  8
0
100
AcDbLine
 62
7
  6
CONTINUOUS
 10
44.0582159455
 20
202.5721890902
 11
44.746000471
 21
202.0658116876
  0
LINE
  5
292
100
AcDbEntity
  8
0
100
AcDbLine
 62
7
  6
CONTINUOUS
 10
-34.8516134573
 20
325.5457568739
 11
-34.4005612303
 21
324.1849160472
  0
LINE
  5
293
100
AcDbEntity
  8
0
100
AcDbLine
 62
7
  6
CONTINUOUS
 10
-19.6207185297
 20
282.4144728764
 11
-18.8109140468
 21
279.1110771649
  0
LINE
  5
294
100
AcDbEntity
  8
0
100
AcDbLine
 62
7
  6
CONTINUOUS
 10
-1.4126093935
 20
179.9322462863
 11
-1.4126093935
 21
249.085329126
  0
LINE
  5
295
100
AcDbEntity
  8
0
100
AcDbLine
 62
7
  6
CONTINUOUS
 10
44.5840987415
 20
219.3255653403
 11
44.7731829597
 21
219.2163554461
  0
LINE
  5
296
100
AcDbEntity
  8
0
100
AcDbLine
 62
7
  6
CONTINUOUS
 10
29.8434070299
 20
193.1722200052
 11
29.7130136004
 21
193.3566634926
  0
LINE
  5
297
100
AcDbEntity
  8
0
100
AcDbLine
 62
7
  6
CONTINUOUS
 10
-22.9164327139
 20
321.9434644653
 11
-22.6319565455
 21
320.9846553513
  0
LINE
  5
298
100
AcDbEntity
  8
0
100
AcDbLine
 62
7
  6
CONTINUOUS
 10
37.0973009082
 20
264.018087114
 11
2.7196025005
 21
254.8028183109
  0
LINE
  5
299
100
AcDbEntity
  8
0
100
AcDbLine
 62
9
  6
CONTINUOUS
 10
-18.3032486664
 20
260.6825054774
 11
-1.4126093935
 21
249.0882630663
  0
LINE
  5
29A
100
AcDbEntity
  8
0
100
AcDbLine
 62
7
  6
CONTINUOUS
 10
29.8434070299
 20
211.8530993501
 11
29.7130136004
 21
212.0375428376
  0
LINE
  5
29B
100
AcDbEntity
  8
0
100
AcDbLine
 62
9
  6
CONTINUOUS
 10
-14.1710367723
 20
266.397060722
 11
2.7196025005
 21
254.8028183109
  0
LINE
  5
29C
100
AcDbEntity
  8
0
100
AcDbLine
 62
7
  6
CONTINUOUS
 10
44.8846583243
 20
197.2041703751
 11
44.7542648948
 21
197.3886138626
  0
LINE
  5
29D
100
AcDbEntity
  8
0
100
AcDbLine
 62
7
  6
CONTINUOUS
 10
44.8846583243
 20
201.8743902113
 11
44.7542648948
 21
202.0588336988
  0
LINE
  5
29E
100
AcDbEntity
  8
0
100
AcDbLine
 62
7
  6
CONTINUOUS
 10
21.8669938934
 20
293.8498804446
 11
21.8669938934
 21
293.2593645592
  0
LINE
  5
29F
100
AcDbEntity
  8
0
100
AcDbLine
 62
7
  6
CONTINUOUS
 10
21.9795981551
 20
293.1922828769
 11
21.9795981551
 21
293.7848432901
  0
LINE
  5
2A0
100
AcDbEntity
  8
0
100
AcDbLine
 62
9
  6
CONTINUOUS
 10
-1.4126093935
 20
179.9322462859
 11
-10.1679627905
 21
156.521984272
  0
LINE
  5
2A1
100
AcDbEntity
  8
0
100
AcDbLine
 62
7
  6
CONTINUOUS
 10
-14.1710367723
 20
266.397060722
 11
23.514790332
 21
276.4991048645
  0
LINE
  5
2A2
100
AcDbEntity
  8
0
100
AcDbLine
 62
7
  6
CONTINUOUS
 10
-18.3032487788
 20
267.1648254142
 11
11.7605640057
 21
275.2237171938
  0
LINE
  5
2A3
100
AcDbEntity
  8
0
100
AcDbLine
 62
7
  6
CONTINUOUS
 10
-19.6207185297
 20
282.4144728764
 11
-66.7230812487
 21
309.6195146296
  0
LINE
  5
2A4
100
AcDbEntity
  8
0
100
AcDbLine
 62
7
  6
CONTINUOUS
 10
10.1650109241
 20
290.0243218011
 11
10.8607400903
 21
287.1862471472
  0
LINE
  5
2A5
100
AcDbEntity
  8
0
100
AcDbLine
 62
7
  6
CONTINUOUS
 10
10.5830502323
 20
286.9904086666
 11
9.7939943777
 21
290.2993662451
  0
LINE
  5
2A6
100
AcDbEntity
  8
0
100
AcDbLine
 62
7
  6
CONTINUOUS
 10
24.041815874
 20
211.0030779845
 11
24.041815874
 21
206.4064049174
  0
LINE
  5
2A7
100
AcDbEntity
  8
0
100
AcDbLine
 62
7
  6
CONTINUOUS
 10
24.041815874
 20
195.5214830943
 11
24.041815874
 21
190.9248100272
  0
LINE
  5
2A8
100
AcDbEntity
  8
0
100
AcDbLine
 62
7
  6
CONTINUOUS
 10
24.9764523274
 20
211.2536161692
 11
24.9764523274
 21
206.8177253627
  0
LINE
  5
2A9
100
AcDbEntity
  8
0
100
AcDbLine
 62
7
  6
CONTINUOUS
 10
24.9764523274
 20
195.772021279
 11
24.9764523274
 21
191.8381413091
  0
LINE
  5
2AA
100
AcDbEntity
  8
0
100
AcDbLine
 62
7
  6
CONTINUOUS
 10
25.1988352044
 20
206.7165549458
 11
25.1988352044
 21
195.8316331228
  0
LINE
  5
2AB
100
AcDbEntity
  8
0
100
AcDbLine
 62
7
  6
CONTINUOUS
 10
25.8599891074
 20
218.2567593555
 11
25.8599891074
 21
211.4904566007
  0
LINE
  5
2AC
100
AcDbEntity
  8
0
100
AcDbLine
 62
7
  6
CONTINUOUS
 10
25.8599891074
 20
191.4121886433
 11
25.8599891074
 21
184.4252455812
  0
LINE
  5
2AD
100
AcDbEntity
  8
0
100
AcDbLine
 62
7
  6
CONTINUOUS
 10
25.877286422
 20
218.1144879351
 11
25.877286422
 21
185.4229490815
  0
LINE
  5
2AE
100
AcDbEntity
  8
0
100
AcDbLine
 62
7
  6
CONTINUOUS
 10
27.4374654611
 20
217.8423507257
 11
27.4374654611
 21
185.1508118721
  0
LINE
  5
2AF
100
AcDbEntity
  8
0
100
AcDbLine
 62
7
  6
CONTINUOUS
 10
28.0490328214
 20
189.7735211908
 11
28.0490328214
 21
213.5475142942
  0
LINE
  5
2B0
100
AcDbEntity
  8
0
100
AcDbLine
 62
7
  6
CONTINUOUS
 10
29.0169646511
 20
212.5508982289
 11
29.0169646511
 21
211.6315636155
  0
LINE
  5
2B1
100
AcDbEntity
  8
0
100
AcDbLine
 62
7
  6
CONTINUOUS
 10
29.0169646511
 20
193.870018884
 11
29.0169646511
 21
192.9506842706
  0
LINE
  5
2B2
100
AcDbEntity
  8
0
100
AcDbLine
 62
7
  6
CONTINUOUS
 10
-20.2749088221
 20
316.7002286412
 11
-20.3518601108
 21
316.8008153813
  0
LINE
  5
2B3
100
AcDbEntity
  8
0
100
AcDbLine
 62
7
  6
CONTINUOUS
 10
-20.4225650048
 20
316.8932371577
 11
-20.5564194766
 21
317.0682047923
  0
LINE
  5
2B4
100
AcDbEntity
  8
0
100
AcDbLine
 62
7
  6
CONTINUOUS
 10
29.7047491766
 20
212.0445208264
 11
29.7047491766
 21
212.0353274802
  0
LINE
  5
2B5
100
AcDbEntity
  8
0
100
AcDbLine
 62
7
  6
CONTINUOUS
 10
29.7047491766
 20
193.3636414814
 11
29.7047491766
 21
193.3544481353
  0
LINE
  5
2B6
100
AcDbEntity
  8
0
100
AcDbLine
 62
7
  6
CONTINUOUS
 10
29.7130136004
 20
193.3566634926
 11
29.7130136004
 21
193.3658568388
  0
LINE
  5
2B7
100
AcDbEntity
  8
0
100
AcDbLine
 62
7
  6
CONTINUOUS
 10
29.7130136004
 20
212.0375428376
 11
29.7130136004
 21
212.0467361837
  0
LINE
  5
2B8
100
AcDbEntity
  8
0
100
AcDbLine
 62
7
  6
CONTINUOUS
 10
29.8434070299
 20
193.1722200052
 11
29.8434070299
 21
194.0915546186
  0
LINE
  5
2B9
100
AcDbEntity
  8
0
100
AcDbLine
 62
7
  6
CONTINUOUS
 10
29.8434070299
 20
211.8530993501
 11
29.8434070299
 21
212.7724339635
  0
LINE
  5
2BA
100
AcDbEntity
  8
0
100
AcDbLine
 62
7
  6
CONTINUOUS
 10
32.2638889534
 20
214.6773465407
 11
32.2638889534
 21
213.9654093566
  0
LINE
  5
2BB
100
AcDbEntity
  8
0
100
AcDbLine
 62
7
  6
CONTINUOUS
 10
32.2638889534
 20
210.2961699663
 11
32.2638889534
 21
195.2845300117
  0
LINE
  5
2BC
100
AcDbEntity
  8
0
100
AcDbLine
 62
7
  6
CONTINUOUS
 10
32.2638889534
 20
191.6152906214
 11
32.2638889534
 21
190.9033534374
  0
LINE
  5
2BD
100
AcDbEntity
  8
0
100
AcDbLine
 62
7
  6
CONTINUOUS
 10
33.5531390643
 20
219.4817151618
 11
33.5531390643
 21
186.7901763082
  0
LINE
  5
2BE
100
AcDbEntity
  8
0
100
AcDbLine
 62
7
  6
CONTINUOUS
 10
33.6285474683
 20
186.5076814866
 11
33.6285474683
 21
220.3391952609
  0
LINE
  5
2BF
100
AcDbEntity
  8
0
100
AcDbLine
 62
7
  6
CONTINUOUS
 10
29.8434070299
 20
212.7724339635
 11
29.7130136004
 21
212.0467361837
  0
LINE
  5
2C0
100
AcDbEntity
  8
0
100
AcDbLine
 62
7
  6
CONTINUOUS
 10
-18.8109140468
 20
279.1110771649
 11
10.5830502323
 21
286.9904086666
  0
LINE
  5
2C1
100
AcDbEntity
  8
0
100
AcDbLine
 62
7
  6
CONTINUOUS
 10
10.8607400903
 20
287.1862471472
 11
36.8110307852
 21
294.1424693695
  0
LINE
  5
2C2
100
AcDbEntity
  8
0
100
AcDbLine
 62
7
  6
CONTINUOUS
 10
23.0749917036
 20
290.815484968
 11
37.0558252319
 21
294.563180277
  0
LINE
  5
2C3
100
AcDbEntity
  8
0
100
AcDbLine
 62
7
  6
CONTINUOUS
 10
22.8571544918
 20
290.9306463059
 11
22.5572638992
 21
290.8502577805
  0
LINE
  5
2C4
100
AcDbEntity
  8
0
100
AcDbLine
 62
7
  6
CONTINUOUS
 10
10.1650109241
 20
290.0243218011
 11
21.9831369412
 21
293.1922828769
  0
LINE
  5
2C5
100
AcDbEntity
  8
0
100
AcDbLine
 62
7
  6
CONTINUOUS
 10
11.0706544612
 20
275.5117759527
 11
11.3649676631
 21
275.3417872263
  0
LINE
  5
2C6
100
AcDbEntity
  8
0
100
AcDbLine
 62
9
  6
CONTINUOUS
 10
45.2822677657
 20
252.2382591505
 11
41.3056232486
 21
254.8931798564
  0
LINE
  5
2C7
100
AcDbEntity
  8
0
100
AcDbLine
 62
9
  6
CONTINUOUS
 10
50.3226835204
 20
253.5893905004
 11
41.229458172
 21
259.8312536582
  0
LINE
  5
2C8
100
AcDbEntity
  8
0
100
AcDbLine
 62
7
  6
CONTINUOUS
 10
22.3838109953
 20
293.5599200935
 11
23.0749917035
 21
290.815484968
  0
LINE
  5
2C9
100
AcDbEntity
  8
0
100
AcDbLine
 62
7
  6
CONTINUOUS
 10
22.6788661074
 20
290.354208223
 11
21.9831369412
 21
293.1922828769
  0
LINE
  5
2CA
100
AcDbEntity
  8
0
100
AcDbLine
 62
7
  6
CONTINUOUS
 10
37.5642561416
 20
265.7289957943
 11
37.5642561416
 21
282.1974415081
  0
LINE
  5
2CB
100
AcDbEntity
  8
0
100
AcDbLine
 62
7
  6
CONTINUOUS
 10
39.0830671685
 20
199.5534334643
 11
39.0830671685
 21
194.9567603971
  0
LINE
  5
2CC
100
AcDbEntity
  8
0
100
AcDbLine
 62
7
  6
CONTINUOUS
 10
40.0177036219
 20
199.8039716489
 11
40.0177036219
 21
195.870091679
  0
LINE
  5
2CD
100
AcDbEntity
  8
0
100
AcDbLine
 62
7
  6
CONTINUOUS
 10
40.9012404019
 20
208.2688568706
 11
40.9012404019
 21
200.0408120804
  0
LINE
  5
2CE
100
AcDbEntity
  8
0
100
AcDbLine
 62
7
  6
CONTINUOUS
 10
40.9012404019
 20
195.4441390133
 11
40.9012404019
 21
188.4571959512
  0
LINE
  5
2CF
100
AcDbEntity
  8
0
100
AcDbLine
 62
7
  6
CONTINUOUS
 10
40.9185377164
 20
208.1357787964
 11
40.9185377164
 21
189.4548994514
  0
LINE
  5
2D0
100
AcDbEntity
  8
0
100
AcDbLine
 62
7
  6
CONTINUOUS
 10
41.229458172
 20
255.6742643973
 11
41.229458172
 21
260.5594038638
  0
LINE
  5
2D1
100
AcDbEntity
  8
0
100
AcDbLine
 62
7
  6
CONTINUOUS
 10
42.4787167556
 20
207.8636415869
 11
42.4787167556
 21
189.182762242
  0
LINE
  5
2D2
100
AcDbEntity
  8
0
100
AcDbLine
 62
7
  6
CONTINUOUS
 10
43.0902841159
 20
193.8054715608
 11
43.0902841159
 21
203.5688051554
  0
LINE
  5
2D3
100
AcDbEntity
  8
0
100
AcDbLine
 62
7
  6
CONTINUOUS
 10
29.8434070299
 20
194.0915546186
 11
29.7130136004
 21
193.3658568388
  0
LINE
  5
2D4
100
AcDbEntity
  8
0
100
AcDbLine
 62
7
  6
CONTINUOUS
 10
29.0169646511
 20
211.6315636155
 11
29.7047491766
 21
212.0353274802
  0
LINE
  5
2D5
100
AcDbEntity
  8
0
100
AcDbLine
 62
7
  6
CONTINUOUS
 10
36.3819113925
 20
297.3122439507
 11
22.3838109953
 21
293.5599200935
  0
LINE
  5
2D6
100
AcDbEntity
  8
0
100
AcDbLine
 62
7
  6
CONTINUOUS
 10
9.808278492
 20
290.2460791439
 11
21.6078191272
 21
293.4090582313
  0
LINE
  5
2D7
100
AcDbEntity
  8
0
100
AcDbLine
 62
7
  6
CONTINUOUS
 10
9.7939943777
 20
290.2993662451
 11
-19.6207185297
 21
282.4144728764
  0
LINE
  5
2D8
100
AcDbEntity
  8
0
100
AcDbLine
 62
7
  6
CONTINUOUS
 10
9.4290360922
 20
290.5157676387
 11
21.8669938934
 21
293.8498804446
  0
LINE
  5
2D9
100
AcDbEntity
  8
0
100
AcDbLine
 62
7
  6
CONTINUOUS
 10
41.1459862264
 20
261.3462980115
 11
53.010084803
 21
253.2024241969
  0
LINE
  5
2DA
100
AcDbEntity
  8
0
100
AcDbLine
 62
9
  6
CONTINUOUS
 10
23.514790332
 20
276.4991048645
 11
37.0973009082
 21
264.018087114
  0
LINE
  5
2DB
100
AcDbEntity
  8
0
100
AcDbLine
 62
7
  6
CONTINUOUS
 10
40.1233868443
 20
263.3774014004
 11
26.5408762681
 21
275.858419151
  0
LINE
  5
2DC
100
AcDbEntity
  8
0
100
AcDbLine
 62
7
  6
CONTINUOUS
 10
44.0582159455
 20
202.5721890902
 11
44.0582159455
 21
201.6528544767
  0
LINE
  5
2DD
100
AcDbEntity
  8
0
100
AcDbLine
 62
7
  6
CONTINUOUS
 10
44.0582159455
 20
197.9019692539
 11
44.0582159455
 21
196.9826346405
  0
LINE
  5
2DE
100
AcDbEntity
  8
0
100
AcDbLine
 62
7
  6
CONTINUOUS
 10
44.746000471
 20
202.0658116876
 11
44.746000471
 21
202.0566183415
  0
LINE
  5
2DF
100
AcDbEntity
  8
0
100
AcDbLine
 62
7
  6
CONTINUOUS
 10
44.746000471
 20
197.3955918514
 11
44.746000471
 21
197.3863985052
  0
LINE
  5
2E0
100
AcDbEntity
  8
0
100
AcDbLine
 62
7
  6
CONTINUOUS
 10
44.7542648948
 20
197.3886138626
 11
44.7542648948
 21
197.3978072087
  0
LINE
  5
2E1
100
AcDbEntity
  8
0
100
AcDbLine
 62
7
  6
CONTINUOUS
 10
44.7542648948
 20
202.0588336988
 11
44.7542648948
 21
202.068027045
  0
LINE
  5
2E2
100
AcDbEntity
  8
0
100
AcDbLine
 62
7
  6
CONTINUOUS
 10
44.7731829597
 20
219.7251053179
 11
44.7731829597
 21
219.2163554461
  0
LINE
  5
2E3
100
AcDbEntity
  8
0
100
AcDbLine
 62
7
  6
CONTINUOUS
 10
44.8846583243
 20
197.2041703751
 11
44.8846583243
 21
198.1235049885
  0
LINE
  5
2E4
100
AcDbEntity
  8
0
100
AcDbLine
 62
7
  6
CONTINUOUS
 10
44.8846583243
 20
201.8743902113
 11
44.8846583243
 21
202.7937248248
  0
LINE
  5
2E5
100
AcDbEntity
  8
0
100
AcDbLine
 62
7
  6
CONTINUOUS
 10
44.9797935544
 20
219.2717393797
 11
44.9797935544
 21
220.7418674476
  0
LINE
  5
2E6
100
AcDbEntity
  8
0
100
AcDbLine
 62
7
  6
CONTINUOUS
 10
47.3051402478
 20
204.6986374019
 11
47.3051402478
 21
203.9867002179
  0
LINE
  5
2E7
100
AcDbEntity
  8
0
100
AcDbLine
 62
7
  6
CONTINUOUS
 10
47.3051402478
 20
200.3174608276
 11
47.3051402478
 21
199.3164803817
  0
LINE
  5
2E8
100
AcDbEntity
  8
0
100
AcDbLine
 62
7
  6
CONTINUOUS
 10
47.3051402478
 20
195.6472409913
 11
47.3051402478
 21
194.9353038073
  0
LINE
  5
2E9
100
AcDbEntity
  8
0
100
AcDbLine
 62
7
  6
CONTINUOUS
 10
48.5943903588
 20
209.5030060231
 11
48.5943903588
 21
190.8221266782
  0
LINE
  5
2EA
100
AcDbEntity
  8
0
100
AcDbLine
 62
7
  6
CONTINUOUS
 10
48.6697987627
 20
190.5396318565
 11
48.6697987627
 21
210.351292776
  0
LINE
  5
2EB
100
AcDbEntity
  8
0
100
AcDbLine
 62
7
  6
CONTINUOUS
 10
43.338824899
 20
218.6381088814
 11
43.2979233004
 21
218.150623366
  0
LINE
  5
2EC
100
AcDbEntity
  8
0
100
AcDbLine
 62
9
  6
CONTINUOUS
 10
-9.4447078406
 20
156.4536850837
 11
2.7196025006
 21
170.959501566
  0
LINE
  5
2ED
100
AcDbEntity
  8
0
100
AcDbLine
 62
7
  6
CONTINUOUS
 10
26.8668512688
 20
302.8078835112
 11
-29.0006535392
 21
287.8320678514
  0
LINE
  5
2EE
100
AcDbEntity
  8
0
100
AcDbLine
 62
7
  6
CONTINUOUS
 10
-35.7289254533
 20
317.9277926763
 11
-36.1087425265
 21
318.127820102
  0
LINE
  5
2EF
100
AcDbEntity
  8
0
100
AcDbLine
 62
7
  6
CONTINUOUS
 10
10.1650109241
 20
290.0243218011
 11
9.8107957095
 21
290.228908756
  0
LINE
  5
2F0
100
AcDbEntity
  8
0
100
AcDbLine
 62
7
  6
CONTINUOUS
 10
9.4290360922
 20
290.5157676387
 11
9.5416403539
 21
290.4507304841
  0
LINE
  5
2F1
100
AcDbEntity
  8
0
100
AcDbLine
 62
7
  6
CONTINUOUS
 10
-37.3017325628
 20
317.5061867818
 11
-37.6586737699
 21
317.7123463008
  0
LINE
  5
2F2
100
AcDbEntity
  8
0
100
AcDbLine
 62
7
  6
CONTINUOUS
 10
-31.4115660815
 20
318.1328839185
 11
-32.5376086997
 21
318.7832554642
  0
LINE
  5
2F3
100
AcDbEntity
  8
0
100
AcDbLine
 62
7
  6
CONTINUOUS
 10
9.5416403539
 20
290.4507304841
 11
9.7939943777
 21
290.2993662451
  0
LINE
  5
2F4
100
AcDbEntity
  8
0
100
AcDbLine
 62
7
  6
CONTINUOUS
 10
37.0558252319
 20
294.563180277
 11
36.3819113925
 21
297.3122439507
  0
LINE
  5
2F5
100
AcDbEntity
  8
0
100
AcDbLine
 62
7
  6
CONTINUOUS
 10
54.4548954145
 20
250.0872582901
 11
54.4548954145
 21
194.9080619457
  0
LINE
  5
2F6
100
AcDbEntity
  8
0
100
AcDbLine
 62
7
  6
CONTINUOUS
 10
44.8846583243
 20
202.7937248248
 11
44.7542648948
 21
202.068027045
  0
LINE
  5
2F7
100
AcDbEntity
  8
0
100
AcDbLine
 62
7
  6
CONTINUOUS
 10
44.8846583243
 20
198.1235049885
 11
44.7542648948
 21
197.3978072087
  0
LINE
  5
2F8
100
AcDbEntity
  8
0
100
AcDbLine
 62
7
  6
CONTINUOUS
 10
29.0169646511
 20
192.9506842706
 11
29.7047491766
 21
193.3544481353
  0
LINE
  5
2F9
100
AcDbEntity
  8
0
100
AcDbLine
 62
7
  6
CONTINUOUS
 10
44.0582159455
 20
201.6528544767
 11
44.746000471
 21
202.0566183415
  0
LINE
  5
2FA
100
AcDbEntity
  8
0
100
AcDbLine
 62
7
  6
CONTINUOUS
 10
22.4899720412
 20
291.124760167
 11
23.0749917036
 21
290.815484968
  0
LINE
  5
2FB
100
AcDbEntity
  8
0
100
AcDbLine
 62
7
  6
CONTINUOUS
 10
21.9795981551
 20
293.7848432901
 11
22.3838109953
 21
293.5599200935
  0
LINE
  5
2FC
100
AcDbEntity
  8
0
100
AcDbLine
 62
7
  6
CONTINUOUS
 10
-18.6632924249
 20
315.7536400483
 11
-6.1782790728
 21
308.6182635394
  0
LINE
  5
2FD
100
AcDbEntity
  8
0
100
AcDbLine
 62
7
  6
CONTINUOUS
 10
-29.8632223061
 20
321.2177601539
 11
-33.9059461786
 21
323.5527273487
  0
LINE
  5
2FE
100
AcDbEntity
  8
0
100
AcDbLine
 62
7
  6
CONTINUOUS
 10
-26.2583813988
 20
319.5142440515
 11
-19.4036999766
 21
315.5551667668
  0
LINE
  5
2FF
100
AcDbEntity
  8
0
100
AcDbLine
 62
7
  6
CONTINUOUS
 10
-21.1963920744
 20
317.3401785959
 11
-20.3518601108
 21
316.8523999367
  0
LINE
  5
300
100
AcDbEntity
  8
0
100
AcDbLine
 62
7
  6
CONTINUOUS
 10
-20.2749088221
 20
317.0948326692
 11
-20.5564194766
 21
317.2574255556
  0
LINE
  5
301
100
AcDbEntity
  8
0
100
AcDbLine
 62
7
  6
CONTINUOUS
 10
21.6078191272
 20
293.4090582313
 11
21.9831369412
 21
293.1922828769
  0
LINE
  5
302
100
AcDbEntity
  8
0
100
AcDbLine
 62
7
  6
CONTINUOUS
 10
-20.2046612199
 20
317.6060214775
 11
-19.3601292562
 21
317.1182428183
  0
LINE
  5
303
100
AcDbEntity
  8
0
100
AcDbLine
 62
7
  6
CONTINUOUS
 10
-20.1138105129
 20
317.868429366
 11
-19.8322998583
 21
317.7058364796
  0
LINE
  5
304
100
AcDbEntity
  8
0
100
AcDbLine
 62
7
  6
CONTINUOUS
 10
21.9795981551
 20
293.7848432901
 11
21.8669938934
 21
293.8498804446
  0
LINE
  5
305
100
AcDbEntity
  8
0
100
AcDbLine
 62
7
  6
CONTINUOUS
 10
-20.2046612199
 20
318.5529361293
 11
-19.3601292562
 21
318.0651574701
  0
LINE
  5
306
100
AcDbEntity
  8
0
100
AcDbLine
 62
7
  6
CONTINUOUS
 10
-18.3443791763
 20
317.5259778759
 11
-18.1841989185
 21
317.433462122
  0
LINE
  5
307
100
AcDbEntity
  8
0
100
AcDbLine
 62
7
  6
CONTINUOUS
 10
-20.3518601108
 20
319.0709088311
 11
-20.2749088221
 21
319.0264638627
  0
LINE
  5
308
100
AcDbEntity
  8
0
100
AcDbLine
 62
7
  6
CONTINUOUS
 10
-24.5693174715
 20
321.8482913414
 11
-27.384424017
 21
323.4742202055
  0
LINE
  5
309
100
AcDbEntity
  8
0
100
AcDbLine
 62
7
  6
CONTINUOUS
 10
-27.3212241952
 20
323.4911615184
 11
-28.0853390563
 21
323.9324934495
  0
LINE
  5
30A
100
AcDbEntity
  8
0
100
AcDbLine
 62
9
  6
CONTINUOUS
 10
-22.5671846386
 20
321.035593254
 11
-22.6635901561
 21
321.0912744551
  0
LINE
  5
30B
100
AcDbEntity
  8
0
100
AcDbLine
 62
7
  6
CONTINUOUS
 10
-28.1016870286
 20
324.2421866613
 11
-32.1554404541
 21
326.5835242255
  0
LINE
  5
30C
100
AcDbEntity
  8
0
100
AcDbLine
 62
9
  6
CONTINUOUS
 10
-16.7633144465
 20
318.1961140902
 11
-13.6012945862
 21
316.3698175446
  0
LINE
  5
30D
100
AcDbEntity
  8
0
100
AcDbLine
 62
7
  6
CONTINUOUS
 10
-22.8890102364
 20
321.8510387219
 11
-22.0637359965
 21
321.3743827994
  0
LINE
  5
30E
100
AcDbEntity
  8
0
100
AcDbLine
 62
7
  6
CONTINUOUS
 10
-21.1963920744
 20
321.2167265673
 11
-20.3518601108
 21
320.7289479081
  0
LINE
  5
30F
100
AcDbEntity
  8
0
100
AcDbLine
 62
7
  6
CONTINUOUS
 10
-25.7315392594
 20
323.9172916747
 11
-22.9164327139
 21
322.2913628106
  0
LINE
  5
310
100
AcDbEntity
  8
0
100
AcDbLine
 62
7
  6
CONTINUOUS
 10
-19.3601292562
 20
320.9947907896
 11
-20.2046612199
 21
321.4825694488
  0
LINE
  5
311
100
AcDbEntity
  8
0
100
AcDbLine
 62
7
  6
CONTINUOUS
 10
-12.7921609461
 20
317.3274526437
 11
-17.1447164598
 21
319.8413701555
  0
LINE
  5
312
100
AcDbEntity
  8
0
100
AcDbLine
 62
7
  6
CONTINUOUS
 10
-17.9804528358
 20
320.7060610714
 11
-19.3880061085
 21
321.5190255034
  0
LINE
  5
313
100
AcDbEntity
  8
0
100
AcDbLine
 62
7
  6
CONTINUOUS
 10
-22.4257697441
 20
324.4555362678
 11
-19.6106631986
 21
322.8296074038
  0
LINE
  5
314
100
AcDbEntity
  8
0
100
AcDbLine
 62
7
  6
CONTINUOUS
 10
-1.2264218309
 20
309.945655941
 11
-13.5325684978
 21
317.1289793622
  0
LINE
  5
315
100
AcDbEntity
  8
0
100
AcDbLine
 62
7
  6
CONTINUOUS
 10
37.3143929752
 20
282.3488928609
 11
37.5642561416
 21
282.1974415081
  0
LINE
  5
316
100
AcDbEntity
  8
0
100
AcDbLine
 62
7
  6
CONTINUOUS
 10
44.0582159455
 20
196.9826346405
 11
44.746000471
 21
197.3863985052
  0
LINE
  5
317
100
AcDbEntity
  8
0
100
AcDbLine
 62
9
  6
CONTINUOUS
 10
-13.7041961126
 20
315.2331471513
 11
-1.2264204618
 21
309.9456563041
  0
LINE
  5
318
100
AcDbEntity
  8
0
100
AcDbLine
 62
7
  6
CONTINUOUS
 10
-22.4257697441
 20
324.8034346131
 11
-19.6106631986
 21
323.1775057491
  0
LINE
  5
319
100
AcDbEntity
  8
0
100
AcDbLine
 62
7
  6
CONTINUOUS
 10
-17.957778441
 20
323.6205772183
 11
-20.7728849865
 21
325.2465060824
  0
LINE
  5
31A
100
AcDbEntity
  8
0
100
AcDbLine
 62
7
  6
CONTINUOUS
 10
-15.6197003038
 20
323.318261607
 11
-14.4936576856
 21
322.6678900613
  0
LINE
  5
31B
100
AcDbEntity
  8
0
100
AcDbLine
 62
7
  6
CONTINUOUS
 10
36.3911210953
 20
294.3850000154
 11
36.8110307852
 21
294.1424693695
  0
LINE
  5
31C
100
AcDbEntity
  8
0
100
AcDbLine
 62
7
  6
CONTINUOUS
 10
36.3819113925
 20
297.3122439507
 11
-11.170663866
 21
324.777316204
  0
LINE
  5
31D
100
AcDbEntity
  8
0
100
AcDbLine
 62
7
  6
CONTINUOUS
 10
-12.4462681429
 20
324.1689302598
 11
-12.745204449
 21
324.3552456354
  0
LINE
  5
31E
100
AcDbEntity
  8
0
100
AcDbLine
 62
9
  6
CONTINUOUS
 10
50.3226835204
 20
183.7199598797
 11
45.5963545886
 21
171.2079650089
  0
LINE
  5
31F
100
AcDbEntity
  8
0
100
AcDbLine
 62
7
  6
CONTINUOUS
 10
45.7895481069
 20
171.3293702701
 11
52.9454545661
 21
186.3877591448
  0
LINE
  5
320
100
AcDbEntity
  8
0
100
AcDbLine
 62
7
  6
CONTINUOUS
 10
-19.4036999766
 20
315.5551667668
 11
-18.6632924249
 21
315.7536400483
  0
LINE
  5
321
100
AcDbEntity
  8
0
100
AcDbLine
 62
7
  6
CONTINUOUS
 10
-13.5325684978
 20
317.1289793622
 11
-12.7921609461
 21
317.3274526437
  0
LINE
  5
322
100
AcDbEntity
  8
0
100
AcDbLine
 62
7
  6
CONTINUOUS
 10
-20.2749088221
 20
316.7002286412
 11
-20.3518601108
 21
316.6796011168
  0
LINE
  5
323
100
AcDbEntity
  8
0
100
AcDbLine
 62
7
  6
CONTINUOUS
 10
-18.1841989185
 20
317.433462122
 11
-19.3601292562
 21
317.1182428183
  0
LINE
  5
324
100
AcDbEntity
  8
0
100
AcDbLine
 62
7
  6
CONTINUOUS
 10
-20.3518601108
 20
316.8523999367
 11
-21.2382994429
 21
316.6147814485
  0
LINE
  5
325
100
AcDbEntity
  8
0
100
AcDbLine
 62
7
  6
CONTINUOUS
 10
-20.6719034066
 20
317.0372482272
 11
-20.5564194766
 21
317.0682047923
  0
LINE
  5
326
100
AcDbEntity
  8
0
100
AcDbLine
 62
7
  6
CONTINUOUS
 10
-19.8322998583
 20
317.7058364796
 11
-20.2046612199
 21
317.6060214775
  0
LINE
  5
327
100
AcDbEntity
  8
0
100
AcDbLine
 62
7
  6
CONTINUOUS
 10
-21.1963920744
 20
317.3401785959
 11
-21.5277904485
 21
317.251344112
  0
LINE
  5
328
100
AcDbEntity
  8
0
100
AcDbLine
 62
7
  6
CONTINUOUS
 10
-21.5277904485
 20
317.4840952848
 11
-20.3518601108
 21
317.7993145886
  0
LINE
  5
329
100
AcDbEntity
  8
0
100
AcDbLine
 62
7
  6
CONTINUOUS
 10
-19.3601292562
 20
318.0651574701
 11
-18.1841989185
 21
318.3803767738
  0
LINE
  5
32A
100
AcDbEntity
  8
0
100
AcDbLine
 62
7
  6
CONTINUOUS
 10
-20.1138105129
 20
317.868429366
 11
-19.9437091641
 21
317.9140266493
  0
LINE
  5
32B
100
AcDbEntity
  8
0
100
AcDbLine
 62
7
  6
CONTINUOUS
 10
-19.9437091641
 20
317.9140266493
 11
-18.3443791763
 21
317.5259778759
  0
LINE
  5
32C
100
AcDbEntity
  8
0
100
AcDbLine
 62
7
  6
CONTINUOUS
 10
-19.6468423683
 20
324.5961345367
 11
-14.4936576856
 21
322.6678900613
  0
LINE
  5
32D
100
AcDbEntity
  8
0
100
AcDbLine
 62
7
  6
CONTINUOUS
 10
-15.6197003038
 20
323.318261607
 11
-20.7728849865
 21
325.2465060824
  0
LINE
  5
32E
100
AcDbEntity
  8
0
100
AcDbLine
 62
7
  6
CONTINUOUS
 10
-20.2749088221
 20
319.4210678907
 11
-20.3518601108
 21
319.4004403664
  0
LINE
  5
32F
100
AcDbEntity
  8
0
100
AcDbLine
 62
7
  6
CONTINUOUS
 10
-26.2583813988
 20
319.5142440515
 11
-31.4115660815
 21
318.1328839185
  0
LINE
  5
330
100
AcDbEntity
  8
0
100
AcDbLine
 62
7
  6
CONTINUOUS
 10
-17.957778441
 20
321.7392995679
 11
-14.4936576856
 21
322.6678900613
  0
LINE
  5
331
100
AcDbEntity
  8
0
100
AcDbLine
 62
7
  6
CONTINUOUS
 10
-12.4462681429
 20
324.1689302598
 11
-15.6197003038
 21
323.318261607
  0
LINE
  5
332
100
AcDbEntity
  8
0
100
AcDbLine
 62
7
  6
CONTINUOUS
 10
-32.5376086997
 20
318.7832554642
 11
-35.7289254533
 21
317.9277926763
  0
LINE
  5
333
100
AcDbEntity
  8
0
100
AcDbLine
 62
7
  6
CONTINUOUS
 10
-66.7230812487
 20
309.6195146296
 11
-37.3017325628
 21
317.5061867818
  0
LINE
  5
334
100
AcDbEntity
  8
0
100
AcDbLine
 62
7
  6
CONTINUOUS
 10
-12.745204449
 20
324.3552456354
 11
-11.170663866
 21
324.777316204
  0
LINE
  5
335
100
AcDbEntity
  8
0
100
AcDbLine
 62
7
  6
CONTINUOUS
 10
-37.6586737699
 20
317.7123463008
 11
-36.1087425265
 21
318.127820102
  0
LINE
  5
336
100
AcDbEntity
  8
0
100
AcDbLine
 62
7
  6
CONTINUOUS
 10
-17.957778441
 20
323.6205772183
 11
-19.6106631986
 21
323.1775057491
  0
LINE
  5
337
100
AcDbEntity
  8
0
100
AcDbLine
 62
7
  6
CONTINUOUS
 10
-22.9164327139
 20
322.2913628106
 11
-24.5693174715
 21
321.8482913414
  0
LINE
  5
338
100
AcDbEntity
  8
0
100
AcDbLine
 62
7
  6
CONTINUOUS
 10
-20.7728849865
 20
325.2465060824
 11
-22.4257697441
 21
324.8034346131
  0
LINE
  5
339
100
AcDbEntity
  8
0
100
AcDbLine
 62
7
  6
CONTINUOUS
 10
-25.7315392594
 20
323.9172916747
 11
-27.384424017
 21
323.4742202055
  0
LINE
  5
33A
100
AcDbEntity
  8
0
100
AcDbLine
 62
7
  6
CONTINUOUS
 10
-34.3543474177
 20
326.4067151321
 11
-32.9502019483
 21
326.6960443005
  0
ARC
  5
33B
100
AcDbEntity
  8
0
100
AcDbCircle
 62
7
  6
CONTINUOUS
 10
-115.0784768058
 20
114.8625071063
 40
225.8754643189
100
AcDbArc
 50
59.0981416909
 51
59.7318293329
  0
ARC
  5
33C
100
AcDbEntity
  8
0
100
AcDbCircle
 62
7
  6
CONTINUOUS
 10
-153.6266379249
 20
274.0559489456
 40
165.0106125592
100
AcDbArc
 50
4.2862692862
 51
4.5639903998
  0
ARC
  5
33D
100
AcDbEntity
  8
0
100
AcDbCircle
 62
7
  6
CONTINUOUS
 10
-15.1859039895
 20
423.5856519392
 40
150.7891764871
100
AcDbArc
 50
280.0305287492
 51
280.294221365
  0
ARC
  5
33E
100
AcDbEntity
  8
0
100
AcDbCircle
 62
7
  6
CONTINUOUS
 10
-19.0677780717
 20
318.8241966692
 40
2.1734023887
100
AcDbArc
 50
53.4889948601
 51
59.9810436041
  0
ARC
  5
33F
100
AcDbEntity
  8
0
100
AcDbCircle
 62
7
  6
CONTINUOUS
 10
-21.5402634363
 20
318.4312019255
 40
1.5333968
100
AcDbArc
 50
328.3935394706
 51
328.8862253708
  0
ARC
  5
340
100
AcDbEntity
  8
0
100
AcDbCircle
 62
7
  6
CONTINUOUS
 10
-21.5372098356
 20
318.4300718647
 40
1.5301986565
100
AcDbArc
 50
328.8633691359
 51
338.4668832235
  0
ARC
  5
341
100
AcDbEntity
  8
0
100
AcDbCircle
 62
7
  6
CONTINUOUS
 10
-28.5434338612
 20
322.3121442764
 40
1.5185196337
100
AcDbArc
 50
179.5643958656
 51
179.999720751
  0
ARC
  5
342
100
AcDbEntity
  8
0
100
AcDbCircle
 62
7
  6
CONTINUOUS
 10
-21.1445704832
 20
318.1634922328
 40
1.3778042923
100
AcDbArc
 50
309.1382611537
 51
313.0141595441
  0
ARC
  5
343
100
AcDbEntity
  8
0
100
AcDbCircle
 62
7
  6
CONTINUOUS
 10
44.7501382466
 20
219.9573163516
 40
0.9742397027
100
AcDbArc
 50
38.9103976356
 51
48.9288977823
  0
ARC
  5
344
100
AcDbEntity
  8
0
100
AcDbCircle
 62
7
  6
CONTINUOUS
 10
-29.1304631521
 20
322.1164387699
 40
0.884908912
100
AcDbArc
 50
224.4000286708
 51
233.4803000601
  0
ARC
  5
345
100
AcDbEntity
  8
0
100
AcDbCircle
 62
7
  6
CONTINUOUS
 10
-28.5162227917
 20
323.1863813625
 40
0.8615865854
100
AcDbArc
 50
59.9933355771
 51
60.2133929887
  0
ARC
  5
346
100
AcDbEntity
  8
0
100
AcDbCircle
 62
7
  6
CONTINUOUS
 10
-20.7703652413
 20
318.4997088933
 40
0.7275280372
100
AcDbArc
 50
38.583122308
 51
41.7345163383
  0
ARC
  5
347
100
AcDbEntity
  8
0
100
AcDbCircle
 62
7
  6
CONTINUOUS
 10
-20.7550446572
 20
318.5134192167
 40
0.7069685583
100
AcDbArc
 50
41.731878519
 51
46.937810366
  0
ARC
  5
348
100
AcDbEntity
  8
0
100
AcDbCircle
 62
7
  6
CONTINUOUS
 10
-20.4600749422
 20
318.3580888801
 40
0.6935500049
100
AcDbArc
 50
68.3910312836
 51
74.515178582
  0
SPLINE
  5
349
100
AcDbEntity
  8
0
100
AcDbSpline
 62
7
  6
CONTINUOUS
 70
0
 71
3
 72
9
 73
5
 74
0
 42
0.0000001
 43
0.0000001
 44
0.0000000001
 40
0.0
 40
0.0
 40
0.0
 40
0.0
 40
0.2455865045
 40
1.0
 40
1.0
 40
1.0
 40
1.0
 10
44.8834734059
 20
220.7336176901
 30
0.0
 10
44.8878111546
 20
220.7094199269
 30
0.0
 10
44.903153169
 20
220.6104821584
 30
0.0
 10
44.9094053506
 20
220.5101780446
 30
0.0
 10
44.9094053506
 20
220.4346604014
 30
0.0
  0
SPLINE
  5
34A
100
AcDbEntity
  8
0
100
AcDbSpline
 62
7
  6
CONTINUOUS
 70
0
 71
3
 72
14
 73
10
 74
0
 42
0.0000001
 43
0.0000001
 44
0.0000000001
 40
0.0
 40
0.0
 40
0.0
 40
0.0
 40
0.2484716955
 40
0.377995358
 40
0.5082873754
 40
0.637332926
 40
0.7632445195
 40
0.8844575303
 40
1.0
 40
1.0
 40
1.0
 40
1.0
 10
44.9094053506
 20
220.4346604014
 30
0.0
 10
44.9094053506
 20
220.2174970139
 30
0.0
 10
44.8502047496
 20
219.8849998617
 30
0.0
 10
44.6785675595
 20
219.4743507944
 30
0.0
 10
44.5028863257
 20
219.1818395504
 30
0.0
 10
44.2885842825
 20
218.9205976634
 30
0.0
 10
44.0431692453
 20
218.6997845254
 30
0.0
 10
43.7754692596
 20
218.5274779633
 30
0.0
 10
43.5832201995
 20
218.4471715457
 30
0.0
 10
43.4866209503
 20
218.4177386537
 30
0.0
  0
SPLINE
  5
34B
100
AcDbEntity
  8
0
100
AcDbSpline
 62
7
  6
CONTINUOUS
 70
0
 71
3
 72
14
 73
10
 74
0
 42
0.0000001
 43
0.0000001
 44
0.0000000001
 40
0.0
 40
0.0
 40
0.0
 40
0.0
 40
0.1130995803
 40
0.227749328
 40
0.3453231754
 40
0.4668829583
 40
0.5931026093
 40
0.724248994
 40
1.0
 40
1.0
 40
1.0
 40
1.0
 10
-19.3880104707
 20
321.5190179194
 30
0.0
 10
-19.5021340043
 20
321.5849242566
 30
0.0
 10
-19.7446989879
 20
321.6967995437
 30
0.0
 10
-20.1364280638
 20
321.7972393225
 30
0.0
 10
-20.5494108794
 20
321.8293038594
 30
0.0
 10
-20.9752965609
 20
321.7926876541
 30
0.0
 10
-21.4060378755
 20
321.6884455058
 30
0.0
 10
-21.9848775315
 20
321.4589234782
 30
0.0
 10
-22.3880561773
 20
321.1976363415
 30
0.0
 10
-22.6367798257
 20
320.9942184193
 30
0.0
  0
SPLINE
  5
34C
100
AcDbEntity
  8
0
100
AcDbSpline
 62
7
  6
CONTINUOUS
 70
0
 71
3
 72
9
 73
5
 74
0
 42
0.0000001
 43
0.0000001
 44
0.0000000001
 40
0.0
 40
0.0
 40
0.0
 40
0.0
 40
0.498420553
 40
1.0
 40
1.0
 40
1.0
 40
1.0
 10
-22.6367798257
 20
320.9942184193
 30
0.0
 10
-23.040752388
 20
320.6638306183
 30
0.0
 10
-23.7359919644
 20
319.852356423
 30
0.0
 10
-24.1440875908
 20
318.8655877971
 30
0.0
 10
-24.2590053745
 20
318.3531358714
 30
0.0
  0
SPLINE
  5
34D
100
AcDbEntity
  8
0
100
AcDbSpline
 62
7
  6
CONTINUOUS
 70
0
 71
3
 72
11
 73
7
 74
0
 42
0.0000001
 43
0.0000001
 44
0.0000000001
 40
0.0
 40
0.0
 40
0.0
 40
0.0
 40
0.2324322963
 40
0.4742324178
 40
0.7295946492
 40
1.0
 40
1.0
 40
1.0
 40
1.0
 10
-17.7746532533
 20
320.5710527443
 30
0.0
 10
-17.6136195793
 20
320.4518575823
 30
0.0
 10
-17.3177155918
 20
320.1614335596
 30
0.0
 10
-16.9947601553
 20
319.6146192569
 30
0.0
 10
-16.7981607519
 20
318.9773456046
 30
0.0
 10
-16.7568357629
 20
318.5226170979
 30
0.0
 10
-16.7568357629
 20
318.2895377082
 30
0.0
  0
SPLINE
  5
34E
100
AcDbEntity
  8
0
100
AcDbSpline
 62
7
  6
CONTINUOUS
 70
0
 71
3
 72
10
 73
6
 74
0
 42
0.0000001
 43
0.0000001
 44
0.0000000001
 40
0.0
 40
0.0
 40
0.0
 40
0.0
 40
0.489655595
 40
0.7450050595
 40
1.0
 40
1.0
 40
1.0
 40
1.0
 10
-16.7568357629
 20
318.2895377082
 30
0.0
 10
-16.7568357629
 20
317.7604569728
 30
0.0
 10
-16.9236954275
 20
316.9489630567
 30
0.0
 10
-17.3966263335
 20
315.9748546893
 30
0.0
 10
-17.7182788666
 20
315.5226238059
 30
0.0
 10
-17.8967910021
 20
315.3127474965
 30
0.0
  0
SPLINE
  5
34F
100
AcDbEntity
  8
0
100
AcDbSpline
 62
7
  6
CONTINUOUS
 70
0
 71
3
 72
10
 73
6
 74
0
 42
0.0000001
 43
0.0000001
 44
0.0000000001
 40
0.0
 40
0.0
 40
0.0
 40
0.0
 40
0.2417033539
 40
0.4871990952
 40
1.0
 40
1.0
 40
1.0
 40
1.0
 10
-32.1554447476
 20
326.5835167912
 30
0.0
 10
-32.212530523
 20
326.6164841347
 30
0.0
 10
-32.3345238669
 20
326.6717367689
 30
0.0
 10
-32.6011568103
 20
326.7347823935
 30
0.0
 10
-32.8132224617
 20
326.7242764943
 30
0.0
 10
-32.9502021569
 20
326.6960400761
 30
0.0
  0
SPLINE
  5
350
100
AcDbEntity
  8
0
100
AcDbSpline
 62
7
  6
CONTINUOUS
 70
0
 71
3
 72
9
 73
5
 74
0
 42
0.0000001
 43
0.0000001
 44
0.0000000001
 40
0.0
 40
0.0
 40
0.0
 40
0.0
 40
0.487957204
 40
1.0
 40
1.0
 40
1.0
 40
1.0
 10
-28.1016913221
 20
324.242179227
 30
0.0
 10
-27.9965108418
 20
324.1814369317
 30
0.0
 10
-27.8025846725
 20
324.0158465421
 30
0.0
 10
-27.677373654
 20
323.7951171747
 30
0.0
 10
-27.6310088615
 20
323.676394037
 30
0.0
  0
SPLINE
  5
351
100
AcDbEntity
  8
0
100
AcDbSpline
 62
7
  6
CONTINUOUS
 70
0
 71
3
 72
10
 73
6
 74
0
 42
0.0000001
 43
0.0000001
 44
0.0000000001
 40
0.0
 40
0.0
 40
0.0
 40
0.0
 40
0.5127914505
 40
0.7582930357
 40
1.0
 40
1.0
 40
1.0
 40
1.0
 10
-34.4005610045
 20
324.1849161928
 30
0.0
 10
-34.3565589199
 20
324.0521614866
 30
0.0
 10
-34.2597068171
 20
323.8632122317
 30
0.0
 10
-34.0718404454
 20
323.6637790914
 30
0.0
 10
-33.9630284906
 20
323.5857026059
 30
0.0
 10
-33.9059418851
 20
323.552734783
 30
0.0
  0
SPLINE
  5
352
100
AcDbEntity
  8
0
100
AcDbSpline
 62
7
  6
CONTINUOUS
 70
0
 71
3
 72
12
 73
8
 74
0
 42
0.0000001
 43
0.0000001
 44
0.0000000001
 40
0.0
 40
0.0
 40
0.0
 40
0.0
 40
0.2328661464
 40
0.4870428089
 40
0.6183149576
 40
0.7491125501
 40
1.0
 40
1.0
 40
1.0
 40
1.0
 10
-34.3543477392
 20
326.4067091948
 30
0.0
 10
-34.4248227895
 20
326.3921986102
 30
0.0
 10
-34.5657886228
 20
326.3277675803
 30
0.0
 10
-34.7046500671
 20
326.1919289421
 30
0.0
 10
-34.7910631791
 20
326.0571588851
 30
0.0
 10
-34.8554384638
 20
325.9119273673
 30
0.0
 10
-34.8778098855
 20
325.7931719957
 30
0.0
 10
-34.8778098855
 20
325.7156502011
 30
0.0
  0
SPLINE
  5
353
100
AcDbEntity
  8
0
100
AcDbSpline
 62
7
  6
CONTINUOUS
 70
0
 71
3
 72
9
 73
5
 74
0
 42
0.0000001
 43
0.0000001
 44
0.0000000001
 40
0.0
 40
0.0
 40
0.0
 40
0.0
 40
0.2582019487
 40
1.0
 40
1.0
 40
1.0
 40
1.0
 10
-34.8778098855
 20
325.7156502011
 30
0.0
 10
-34.8778098855
 20
325.7008205729
 30
0.0
 10
-34.8757145879
 20
325.6434242108
 30
0.0
 10
-34.8650208399
 20
325.5861966301
 30
0.0
 10
-34.8516144083
 20
325.5457563154
 30
0.0
  0
SPLINE
  5
354
100
AcDbEntity
  8
0
100
AcDbSpline
 62
7
  6
CONTINUOUS
 70
0
 71
3
 72
9
 73
5
 74
0
 42
0.0000001
 43
0.0000001
 44
0.0000000001
 40
0.0
 40
0.0
 40
0.0
 40
0.0
 40
0.2540363635
 40
1.0
 40
1.0
 40
1.0
 40
1.0
 10
-20.2343186876
 20
317.6275763539
 30
0.0
 10
-20.256150816
 20
317.592097686
 30
0.0
 10
-20.3477030578
 20
317.456004118
 30
0.0
 10
-20.4615211965
 20
317.3346134229
 30
0.0
 10
-20.5564194766
 20
317.2574255556
 30
0.0
  0
SPLINE
  5
355
100
AcDbEntity
  8
0
100
AcDbSpline
 62
7
  6
CONTINUOUS
 70
0
 71
3
 72
9
 73
5
 74
0
 42
0.0000001
 43
0.0000001
 44
0.0000000001
 40
0.0
 40
0.0
 40
0.0
 40
0.0
 40
0.2490501825
 40
1.0
 40
1.0
 40
1.0
 40
1.0
 10
-28.088211471
 20
323.9341365052
 30
0.0
 10
-28.1050742011
 20
323.9437886484
 30
0.0
 10
-28.1740706917
 20
323.9802586078
 30
0.0
 10
-28.2480355791
 20
324.0072492848
 30
0.0
 10
-28.3047753562
 20
324.021839674
 30
0.0
  0
SPLINE
  5
356
100
AcDbEntity
  8
0
100
AcDbSpline
 62
7
  6
CONTINUOUS
 70
0
 71
3
 72
14
 73
10
 74
0
 42
0.0000001
 43
0.0000001
 44
0.0000000001
 40
0.0
 40
0.0
 40
0.0
 40
0.0
 40
0.1067407076
 40
0.2203934184
 40
0.3420977764
 40
0.4709895106
 40
0.6046962554
 40
0.7399575336
 40
1.0
 40
1.0
 40
1.0
 40
1.0
 10
-28.3047753562
 20
324.021839674
 30
0.0
 10
-28.3995887163
 20
324.0462205209
 30
0.0
 10
-28.6047136497
 20
324.0642160014
 30
0.0
 10
-28.9155462085
 20
324.0003359032
 30
0.0
 10
-29.2188441168
 20
323.8530651464
 30
0.0
 10
-29.4968585855
 20
323.6324260134
 30
0.0
 10
-29.7338386684
 20
323.3516352253
 30
0.0
 10
-29.9726443172
 20
322.9275716314
 30
0.0
 10
-30.0600975353
 20
322.5621817279
 30
0.0
 10
-30.0619096088
 20
322.3236890545
 30
0.0
  0
SPLINE
  5
357
100
AcDbEntity
  8
0
100
AcDbSpline
 62
7
  6
CONTINUOUS
 70
0
 71
3
 72
11
 73
7
 74
0
 42
0.0000001
 43
0.0000001
 44
0.0000000001
 40
0.0
 40
0.0
 40
0.0
 40
0.0
 40
0.258349201
 40
0.5098015552
 40
0.7561990008
 40
1.0
 40
1.0
 40
1.0
 40
1.0
 10
-19.3601292562
 20
320.9947907896
 30
0.0
 10
-19.2374010118
 20
321.0055605112
 30
0.0
 10
-18.9933675031
 20
321.0102687702
 30
0.0
 10
-18.634377975
 20
320.9640378189
 30
0.0
 10
-18.2934145396
 20
320.8648984383
 30
0.0
 10
-18.081128948
 20
320.7642093746
 30
0.0
 10
-17.980454201
 20
320.7060587107
 30
0.0
  0
SPLINE
  5
358
100
AcDbEntity
  8
0
100
AcDbSpline
 62
7
  6
CONTINUOUS
 70
0
 71
3
 72
15
 73
11
 74
0
 42
0.0000001
 43
0.0000001
 44
0.0000000001
 40
0.0
 40
0.0
 40
0.0
 40
0.0
 40
0.2646694599
 40
0.4021382152
 40
0.5367260625
 40
0.6646701152
 40
0.7837860162
 40
0.8943550023
 40
0.9475380985
 40
1.0
 40
1.0
 40
1.0
 40
1.0
 10
-30.4232140538
 20
322.3391006873
 30
0.0
 10
-30.4232140538
 20
322.649744699
 30
0.0
 10
-30.3001961048
 20
323.1269920809
 30
0.0
 10
-29.9655845486
 20
323.663543356
 30
0.0
 10
-29.6368624557
 20
324.004470368
 30
0.0
 10
-29.2575619704
 20
324.2507096797
 30
0.0
 10
-28.8539185174
 20
324.3839024817
 30
0.0
 10
-28.5153189549
 20
324.388558121
 30
0.0
 10
-28.2683748034
 20
324.3252304913
 30
0.0
 10
-28.1550131022
 20
324.2729728429
 30
0.0
 10
-28.1016913221
 20
324.242179227
 30
0.0
  0
SPLINE
  5
359
100
AcDbEntity
  8
0
100
AcDbSpline
 62
7
  6
CONTINUOUS
 70
0
 71
3
 72
10
 73
6
 74
0
 42
0.0000001
 43
0.0000001
 44
0.0000000001
 40
0.0
 40
0.0
 40
0.0
 40
0.0
 40
0.5223215371
 40
0.7660304873
 40
1.0
 40
1.0
 40
1.0
 40
1.0
 10
-30.0619534949
 20
322.3121516774
 30
0.0
 10
-30.0619534949
 20
322.1577265584
 30
0.0
 10
-30.0269044458
 20
321.9275339108
 30
0.0
 10
-29.8984869803
 20
321.6594622779
 30
0.0
 10
-29.8111191835
 20
321.5467079672
 30
0.0
 10
-29.7627060839
 20
321.4973001281
 30
0.0
  0
SPLINE
  5
35A
100
AcDbEntity
  8
0
100
AcDbSpline
 62
7
  6
CONTINUOUS
 70
0
 71
3
 72
9
 73
5
 74
0
 42
0.0000001
 43
0.0000001
 44
0.0000000001
 40
0.0
 40
0.0
 40
0.0
 40
0.0
 40
0.5111226061
 40
1.0
 40
1.0
 40
1.0
 40
1.0
 10
-21.1963920744
 20
321.2167265673
 30
0.0
 10
-21.0362149962
 20
321.28854459
 30
0.0
 10
-20.7117674047
 20
321.4059316782
 30
0.0
 10
-20.3719192056
 20
321.4678921271
 30
0.0
 10
-20.2046612199
 20
321.4825694488
 30
0.0
  0
SPLINE
  5
35B
100
AcDbEntity
  8
0
100
AcDbSpline
 62
7
  6
CONTINUOUS
 70
0
 71
3
 72
11
 73
7
 74
0
 42
0.0000001
 43
0.0000001
 44
0.0000000001
 40
0.0
 40
0.0
 40
0.0
 40
0.0
 40
0.232344737
 40
0.4732231759
 40
0.7283600795
 40
1.0
 40
1.0
 40
1.0
 40
1.0
 10
-29.8629943093
 20
321.2177271505
 30
0.0
 10
-29.9501005838
 20
321.269479627
 30
0.0
 10
-30.1122871052
 20
321.4028712138
 30
0.0
 10
-30.2912354699
 20
321.670024608
 30
0.0
 10
-30.4004033395
 20
321.9899743115
 30
0.0
 10
-30.4232140538
 20
322.2206445362
 30
0.0
 10
-30.4232140538
 20
322.3391006873
 30
0.0
  0
SPLINE
  5
35C
100
AcDbEntity
  8
0
100
AcDbSpline
 62
7
  6
CONTINUOUS
 70
0
 71
3
 72
12
 73
8
 74
0
 42
0.0000001
 43
0.0000001
 44
0.0000000001
 40
0.0
 40
0.0
 40
0.0
 40
0.0
 40
0.2536261207
 40
0.3823722309
 40
0.5107969988
 40
0.7619507212
 40
1.0
 40
1.0
 40
1.0
 40
1.0
 10
-22.85110087
 20
317.5417346581
 30
0.0
 10
-22.7735907215
 20
317.8868153255
 30
0.0
 10
-22.5947481292
 20
318.3953741204
 30
0.0
 10
-22.2523970242
 20
319.0210690029
 30
0.0
 10
-21.8458794214
 20
319.6033523873
 30
0.0
 10
-21.2395854349
 20
320.2253601844
 30
0.0
 10
-20.6547635445
 20
320.5931361807
 30
0.0
 10
-20.3518601108
 20
320.7289479081
 30
0.0
  0
SPLINE
  5
35D
100
AcDbEntity
  8
0
100
AcDbSpline
 62
7
  6
CONTINUOUS
 70
0
 71
3
 72
9
 73
5
 74
0
 42
0.0000001
 43
0.0000001
 44
0.0000000001
 40
0.0
 40
0.0
 40
0.0
 40
0.0
 40
0.2584063521
 40
1.0
 40
1.0
 40
1.0
 40
1.0
 10
-34.4769674793
 20
324.6804382515
 30
0.0
 10
-34.4769674793
 20
324.6371507847
 30
0.0
 10
-34.470889554
 20
324.4697418681
 30
0.0
 10
-34.4396463419
 20
324.302837026
 30
0.0
 10
-34.4005610045
 20
324.1849161928
 30
0.0
  0
SPLINE
  5
35E
100
AcDbEntity
  8
0
100
AcDbSpline
 62
7
  6
CONTINUOUS
 70
0
 71
3
 72
12
 73
8
 74
0
 42
0.0000001
 43
0.0000001
 44
0.0000000001
 40
0.0
 40
0.0
 40
0.0
 40
0.0
 40
0.2328616877
 40
0.3584392653
 40
0.4878815971
 40
0.749155687
 40
1.0
 40
1.0
 40
1.0
 40
1.0
 10
-32.9502021569
 20
326.6960400761
 30
0.0
 10
-33.1557561311
 20
326.6536680444
 30
0.0
 10
-33.4592679475
 20
326.5149600059
 30
0.0
 10
-33.8007175226
 20
326.2364421878
 30
0.0
 10
-34.1107697023
 20
325.8867914753
 30
0.0
 10
-34.3897851168
 20
325.3700406347
 30
0.0
 10
-34.4769674793
 20
324.9065215366
 30
0.0
 10
-34.4769674793
 20
324.6804382515
 30
0.0
  0
SPLINE
  5
35F
100
AcDbEntity
  8
0
100
AcDbSpline
 62
7
  6
CONTINUOUS
 70
0
 71
3
 72
16
 73
12
 74
0
 42
0.0000001
 43
0.0000001
 44
0.0000000001
 40
0.0
 40
0.0
 40
0.0
 40
0.0
 40
0.1228957
 40
0.2548120427
 40
0.3918517134
 40
0.5286530492
 40
0.6599165618
 40
0.7819160618
 40
0.8939810117
 40
0.947441015
 40
1.0
 40
1.0
 40
1.0
 40
1.0
 10
45.4539093193
 20
193.2117520528
 30
0.0
 10
45.3669589545
 20
193.1884441811
 30
0.0
 10
45.1941985389
 20
193.1095251721
 30
0.0
 10
44.9725053946
 20
192.9227652914
 30
0.0
 10
44.7957368551
 20
192.6803554754
 30
0.0
 10
44.6798683735
 20
192.4041945107
 30
0.0
 10
44.6355288928
 20
192.1187440181
 30
0.0
 10
44.6677238469
 20
191.8492438
 30
0.0
 10
44.7610118989
 20
191.6548099729
 30
0.0
 10
44.8695259376
 20
191.5363231608
 30
0.0
 10
44.9329296163
 20
191.4903610132
 30
0.0
 10
44.9662703462
 20
191.4711107728
 30
0.0
  0
SPLINE
  5
360
100
AcDbEntity
  8
0
100
AcDbSpline
 62
7
  6
CONTINUOUS
 70
0
 71
3
 72
16
 73
12
 74
0
 42
0.0000001
 43
0.0000001
 44
0.0000000001
 40
0.0
 40
0.0
 40
0.0
 40
0.0
 40
0.1228957
 40
0.2548120427
 40
0.3918517134
 40
0.5286530492
 40
0.6599165618
 40
0.7819160618
 40
0.8939810117
 40
0.947441015
 40
1.0
 40
1.0
 40
1.0
 40
1.0
 10
45.4539093193
 20
207.2224115615
 30
0.0
 10
45.3669589545
 20
207.1991036898
 30
0.0
 10
45.1941985389
 20
207.1201846808
 30
0.0
 10
44.9725053946
 20
206.9334248001
 30
0.0
 10
44.7957368551
 20
206.6910149841
 30
0.0
 10
44.6798683735
 20
206.4148540194
 30
0.0
 10
44.6355288928
 20
206.1294035268
 30
0.0
 10
44.6677238469
 20
205.8599033087
 30
0.0
 10
44.7610118989
 20
205.6654694816
 30
0.0
 10
44.8695259376
 20
205.5469826695
 30
0.0
 10
44.9329296163
 20
205.5010205219
 30
0.0
 10
44.9662703462
 20
205.4817702815
 30
0.0
  0
SPLINE
  5
361
100
AcDbEntity
  8
0
100
AcDbSpline
 62
7
  6
CONTINUOUS
 70
0
 71
3
 72
10
 73
6
 74
0
 42
0.0000001
 43
0.0000001
 44
0.0000000001
 40
0.0
 40
0.0
 40
0.0
 40
0.0
 40
0.2403264523
 40
0.4850944245
 40
1.0
 40
1.0
 40
1.0
 40
1.0
 10
45.9415482924
 20
193.1596908366
 30
0.0
 10
45.9067535555
 20
193.1797805902
 30
0.0
 10
45.8318727979
 20
193.2128472179
 30
0.0
 10
45.6672976447
 20
193.2471128641
 30
0.0
 10
45.5370562386
 20
193.2340403748
 30
0.0
 10
45.4539093193
 20
193.2117520528
 30
0.0
  0
SPLINE
  5
362
100
AcDbEntity
  8
0
100
AcDbSpline
 62
7
  6
CONTINUOUS
 70
0
 71
3
 72
10
 73
6
 74
0
 42
0.0000001
 43
0.0000001
 44
0.0000000001
 40
0.0
 40
0.0
 40
0.0
 40
0.0
 40
0.2403264523
 40
0.4850944245
 40
1.0
 40
1.0
 40
1.0
 40
1.0
 10
45.9415482924
 20
207.1703503453
 30
0.0
 10
45.9067535555
 20
207.1904400989
 30
0.0
 10
45.8318727979
 20
207.2235067266
 30
0.0
 10
45.6672976447
 20
207.2577723728
 30
0.0
 10
45.5370562386
 20
207.2446998835
 30
0.0
 10
45.4539093193
 20
207.2224115615
 30
0.0
  0
SPLINE
  5
363
100
AcDbEntity
  8
0
100
AcDbSpline
 62
7
  6
CONTINUOUS
 70
0
 71
3
 72
9
 73
5
 74
0
 42
0.0000001
 43
0.0000001
 44
0.0000000001
 40
0.0
 40
0.0
 40
0.0
 40
0.0
 40
0.4877543155
 40
1.0
 40
1.0
 40
1.0
 40
1.0
 10
43.0959918897
 20
200.960023128
 30
0.0
 10
43.1311370819
 20
200.7807181032
 30
0.0
 10
43.1647570693
 20
200.4049146644
 30
0.0
 10
43.1295037994
 20
200.0298834045
 30
0.0
 10
43.0959908847
 20
199.8409408923
 30
0.0
  0
SPLINE
  5
364
100
AcDbEntity
  8
0
100
AcDbSpline
 62
7
  6
CONTINUOUS
 70
0
 71
3
 72
13
 73
9
 74
0
 42
0.0000001
 43
0.0000001
 44
0.0000000001
 40
0.0
 40
0.0
 40
0.0
 40
0.0
 40
0.2744599184
 40
0.5374501873
 40
0.6615540854
 40
0.7796615768
 40
0.8920844276
 40
1.0
 40
1.0
 40
1.0
 40
1.0
 10
47.3051402478
 20
195.6472409913
 30
0.0
 10
47.5038781922
 20
195.948666372
 30
0.0
 10
47.8140874072
 20
196.5951324323
 30
0.0
 10
47.9607939467
 20
197.4673351938
 30
0.0
 10
47.9078039989
 20
198.1327811202
 30
0.0
 10
47.787701619
 20
198.5865250613
 30
0.0
 10
47.5898268302
 20
198.98875749
 30
0.0
 10
47.4065009104
 20
199.2170882771
 30
0.0
 10
47.3051402478
 20
199.3164803817
 30
0.0
  0
SPLINE
  5
365
100
AcDbEntity
  8
0
100
AcDbSpline
 62
7
  6
CONTINUOUS
 70
0
 71
3
 72
10
 73
6
 74
0
 42
0.0000001
 43
0.0000001
 44
0.0000000001
 40
0.0
 40
0.0
 40
0.0
 40
0.0
 40
0.2403264523
 40
0.4850944245
 40
1.0
 40
1.0
 40
1.0
 40
1.0
 10
44.9662703462
 20
191.4711107728
 30
0.0
 10
45.0010650831
 20
191.4510210193
 30
0.0
 10
45.0759458407
 20
191.4179543916
 30
0.0
 10
45.2405209939
 20
191.3836887454
 30
0.0
 10
45.3707624
 20
191.3967612346
 30
0.0
 10
45.4539093193
 20
191.4190495566
 30
0.0
  0
SPLINE
  5
366
100
AcDbEntity
  8
0
100
AcDbSpline
 62
7
  6
CONTINUOUS
 70
0
 71
3
 72
16
 73
12
 74
0
 42
0.0000001
 43
0.0000001
 44
0.0000000001
 40
0.0
 40
0.0
 40
0.0
 40
0.0
 40
0.1228957
 40
0.2548120427
 40
0.3918517134
 40
0.5286530492
 40
0.6599165618
 40
0.7819160618
 40
0.8939810117
 40
0.947441015
 40
1.0
 40
1.0
 40
1.0
 40
1.0
 10
45.4539093193
 20
191.4190495566
 30
0.0
 10
45.5408596841
 20
191.4423574284
 30
0.0
 10
45.7136200996
 20
191.5212764374
 30
0.0
 10
45.935313244
 20
191.708036318
 30
0.0
 10
46.1120817835
 20
191.9504461341
 30
0.0
 10
46.2279502651
 20
192.2266070988
 30
0.0
 10
46.2722897458
 20
192.5120575913
 30
0.0
 10
46.2400947916
 20
192.7815578095
 30
0.0
 10
46.1468067397
 20
192.9759916366
 30
0.0
 10
46.038292701
 20
193.0944784486
 30
0.0
 10
45.9748890223
 20
193.1404405963
 30
0.0
 10
45.9415482924
 20
193.1596908366
 30
0.0
  0
SPLINE
  5
367
100
AcDbEntity
  8
0
100
AcDbSpline
 62
7
  6
CONTINUOUS
 70
0
 71
3
 72
13
 73
9
 74
0
 42
0.0000001
 43
0.0000001
 44
0.0000000001
 40
0.0
 40
0.0
 40
0.0
 40
0.0
 40
0.2744599184
 40
0.5374501873
 40
0.6615540854
 40
0.7796615768
 40
0.8920844276
 40
1.0
 40
1.0
 40
1.0
 40
1.0
 10
47.3051402478
 20
200.3174608276
 30
0.0
 10
47.5038781922
 20
200.6188862083
 30
0.0
 10
47.8140874072
 20
201.2653522686
 30
0.0
 10
47.9607939467
 20
202.13755503
 30
0.0
 10
47.9078039989
 20
202.8030009565
 30
0.0
 10
47.787701619
 20
203.2567448975
 30
0.0
 10
47.5898268302
 20
203.6589773262
 30
0.0
 10
47.4065009104
 20
203.8873081134
 30
0.0
 10
47.3051402478
 20
203.9867002179
 30
0.0
  0
SPLINE
  5
368
100
AcDbEntity
  8
0
100
AcDbSpline
 62
7
  6
CONTINUOUS
 70
0
 71
3
 72
16
 73
12
 74
0
 42
0.0000001
 43
0.0000001
 44
0.0000000001
 40
0.0
 40
0.0
 40
0.0
 40
0.0
 40
0.1228957
 40
0.2548120427
 40
0.3918517134
 40
0.5286530492
 40
0.6599165618
 40
0.7819160618
 40
0.8939810117
 40
0.947441015
 40
1.0
 40
1.0
 40
1.0
 40
1.0
 10
45.4539093193
 20
205.4297090653
 30
0.0
 10
45.5408596841
 20
205.4530169371
 30
0.0
 10
45.7136200996
 20
205.5319359461
 30
0.0
 10
45.935313244
 20
205.7186958267
 30
0.0
 10
46.1120817835
 20
205.9611056428
 30
0.0
 10
46.2279502651
 20
206.2372666075
 30
0.0
 10
46.2722897458
 20
206.5227171
 30
0.0
 10
46.2400947916
 20
206.7922173182
 30
0.0
 10
46.1468067397
 20
206.9866511453
 30
0.0
 10
46.038292701
 20
207.1051379573
 30
0.0
 10
45.9748890223
 20
207.151100105
 30
0.0
 10
45.9415482924
 20
207.1703503453
 30
0.0
  0
SPLINE
  5
369
100
AcDbEntity
  8
0
100
AcDbSpline
 62
7
  6
CONTINUOUS
 70
0
 71
3
 72
10
 73
6
 74
0
 42
0.0000001
 43
0.0000001
 44
0.0000000001
 40
0.0
 40
0.0
 40
0.0
 40
0.0
 40
0.2403264523
 40
0.4850944245
 40
1.0
 40
1.0
 40
1.0
 40
1.0
 10
44.9662703462
 20
205.4817702815
 30
0.0
 10
45.0010650831
 20
205.4616805279
 30
0.0
 10
45.0759458407
 20
205.4286139003
 30
0.0
 10
45.2405209939
 20
205.3943482541
 30
0.0
 10
45.3707624
 20
205.4074207433
 30
0.0
 10
45.4539093193
 20
205.4297090653
 30
0.0
  0
SPLINE
  5
36A
100
AcDbEntity
  8
0
100
AcDbSpline
 62
7
  6
CONTINUOUS
 70
0
 71
3
 72
15
 73
11
 74
0
 42
0.0000001
 43
0.0000001
 44
0.0000000001
 40
0.0
 40
0.0
 40
0.0
 40
0.0
 40
0.1229644169
 40
0.2549500445
 40
0.3920676545
 40
0.5289385702
 40
0.6602685659
 40
0.782330488
 40
0.8944541082
 40
1.0
 40
1.0
 40
1.0
 40
1.0
 10
30.4126580248
 20
189.1798016829
 30
0.0
 10
30.3257060549
 20
189.1564933809
 30
0.0
 10
30.1529414187
 20
189.0775797521
 30
0.0
 10
29.9312617321
 20
188.8907997797
 30
0.0
 10
29.7544835063
 20
188.6484005577
 30
0.0
 10
29.6386356097
 20
188.3722309067
 30
0.0
 10
29.5942196274
 20
188.0868334433
 30
0.0
 10
29.6266756925
 20
187.8171930253
 30
0.0
 10
29.7359512777
 20
187.5880664558
 30
0.0
 10
29.8581181497
 20
187.4778238873
 30
0.0
 10
29.9250277632
 20
187.4391752413
 30
0.0
  0
SPLINE
  5
36B
100
AcDbEntity
  8
0
100
AcDbSpline
 62
7
  6
CONTINUOUS
 70
0
 71
3
 72
15
 73
11
 74
0
 42
0.0000001
 43
0.0000001
 44
0.0000000001
 40
0.0
 40
0.0
 40
0.0
 40
0.0
 40
0.1229644169
 40
0.2549500445
 40
0.3920676545
 40
0.5289385702
 40
0.6602685659
 40
0.782330488
 40
0.8944541082
 40
1.0
 40
1.0
 40
1.0
 40
1.0
 10
30.4126580248
 20
217.2011207003
 30
0.0
 10
30.3257060549
 20
217.1778123983
 30
0.0
 10
30.1529414187
 20
217.0988987695
 30
0.0
 10
29.9312617321
 20
216.9121187971
 30
0.0
 10
29.7544835063
 20
216.6697195751
 30
0.0
 10
29.6386356097
 20
216.3935499241
 30
0.0
 10
29.5942196274
 20
216.1081524606
 30
0.0
 10
29.6266756925
 20
215.8385120427
 30
0.0
 10
29.7359512777
 20
215.6093854732
 30
0.0
 10
29.8581181497
 20
215.4991429047
 30
0.0
 10
29.9250277632
 20
215.4604942587
 30
0.0
  0
SPLINE
  5
36C
100
AcDbEntity
  8
0
100
AcDbSpline
 62
7
  6
CONTINUOUS
 70
0
 71
3
 72
9
 73
5
 74
0
 42
0.0000001
 43
0.0000001
 44
0.0000000001
 40
0.0
 40
0.0
 40
0.0
 40
0.0
 40
0.4837082031
 40
1.0
 40
1.0
 40
1.0
 40
1.0
 10
30.9002882865
 20
189.1277256283
 30
0.0
 10
30.8304505064
 20
189.1680656557
 30
0.0
 10
30.6659059237
 20
189.2197635787
 30
0.0
 10
30.4958066326
 20
189.2020904575
 30
0.0
 10
30.4126580248
 20
189.1798016829
 30
0.0
  0
SPLINE
  5
36D
100
AcDbEntity
  8
0
100
AcDbSpline
 62
7
  6
CONTINUOUS
 70
0
 71
3
 72
9
 73
5
 74
0
 42
0.0000001
 43
0.0000001
 44
0.0000000001
 40
0.0
 40
0.0
 40
0.0
 40
0.0
 40
0.4837082031
 40
1.0
 40
1.0
 40
1.0
 40
1.0
 10
30.9002882865
 20
217.1490446457
 30
0.0
 10
30.8304505064
 20
217.1893846731
 30
0.0
 10
30.6659059237
 20
217.2410825961
 30
0.0
 10
30.4958066326
 20
217.2234094749
 30
0.0
 10
30.4126580248
 20
217.2011207003
 30
0.0
  0
SPLINE
  5
36E
100
AcDbEntity
  8
0
100
AcDbSpline
 62
7
  6
CONTINUOUS
 70
0
 71
3
 72
9
 73
5
 74
0
 42
0.0000001
 43
0.0000001
 44
0.0000000001
 40
0.0
 40
0.0
 40
0.0
 40
0.0
 40
0.2410461664
 40
1.0
 40
1.0
 40
1.0
 40
1.0
 10
28.0537249243
 20
196.9332167411
 30
0.0
 10
28.0714330264
 20
196.8438653158
 30
0.0
 10
28.1254780144
 20
196.4694180624
 30
0.0
 10
28.1042995093
 20
196.0856065169
 30
0.0
 10
28.0537233819
 20
195.8032990617
 30
0.0
  0
SPLINE
  5
36F
100
AcDbEntity
  8
0
100
AcDbSpline
 62
7
  6
CONTINUOUS
 70
0
 71
3
 72
13
 73
9
 74
0
 42
0.0000001
 43
0.0000001
 44
0.0000000001
 40
0.0
 40
0.0
 40
0.0
 40
0.0
 40
0.2744616291
 40
0.5374504928
 40
0.6615544969
 40
0.7796605881
 40
0.8920870892
 40
1.0
 40
1.0
 40
1.0
 40
1.0
 10
32.2638889534
 20
191.6152906214
 30
0.0
 10
32.46262827
 20
191.9167180834
 30
0.0
 10
32.7728407217
 20
192.5631831866
 30
0.0
 10
32.919548407
 20
193.4353882619
 30
0.0
 10
32.8665530762
 20
194.1008299256
 30
0.0
 10
32.7464564316
 20
194.5545794604
 30
0.0
 10
32.5485704836
 20
194.9568063403
 30
0.0
 10
32.3652471841
 20
195.1851402918
 30
0.0
 10
32.2638889534
 20
195.2845300117
 30
0.0
  0
SPLINE
  5
370
100
AcDbEntity
  8
0
100
AcDbSpline
 62
7
  6
CONTINUOUS
 70
0
 71
3
 72
9
 73
5
 74
0
 42
0.0000001
 43
0.0000001
 44
0.0000000001
 40
0.0
 40
0.0
 40
0.0
 40
0.0
 40
0.4837082031
 40
1.0
 40
1.0
 40
1.0
 40
1.0
 10
29.9250277632
 20
187.4391752413
 30
0.0
 10
29.9948655433
 20
187.3988352139
 30
0.0
 10
30.1594101259
 20
187.3471372909
 30
0.0
 10
30.3295094171
 20
187.3648104121
 30
0.0
 10
30.4126580248
 20
187.3870991867
 30
0.0
  0
SPLINE
  5
371
100
AcDbEntity
  8
0
100
AcDbSpline
 62
7
  6
CONTINUOUS
 70
0
 71
3
 72
15
 73
11
 74
0
 42
0.0000001
 43
0.0000001
 44
0.0000000001
 40
0.0
 40
0.0
 40
0.0
 40
0.0
 40
0.1229644169
 40
0.2549500445
 40
0.3920676545
 40
0.5289385702
 40
0.6602685659
 40
0.782330488
 40
0.8944541082
 40
1.0
 40
1.0
 40
1.0
 40
1.0
 10
30.4126580248
 20
187.3870991867
 30
0.0
 10
30.4996099947
 20
187.4104074887
 30
0.0
 10
30.672374631
 20
187.4893211175
 30
0.0
 10
30.8940543175
 20
187.6761010899
 30
0.0
 10
31.0708325433
 20
187.9185003119
 30
0.0
 10
31.18668044
 20
188.1946699629
 30
0.0
 10
31.2310964222
 20
188.4800674263
 30
0.0
 10
31.1986403572
 20
188.7497078443
 30
0.0
 10
31.089364772
 20
188.9788344137
 30
0.0
 10
30.9671979
 20
189.0890769823
 30
0.0
 10
30.9002882865
 20
189.1277256283
 30
0.0
  0
SPLINE
  5
372
100
AcDbEntity
  8
0
100
AcDbSpline
 62
7
  6
CONTINUOUS
 70
0
 71
3
 72
13
 73
9
 74
0
 42
0.0000001
 43
0.0000001
 44
0.0000000001
 40
0.0
 40
0.0
 40
0.0
 40
0.0
 40
0.2744616291
 40
0.5374504928
 40
0.6615544969
 40
0.7796605881
 40
0.8920870892
 40
1.0
 40
1.0
 40
1.0
 40
1.0
 10
32.2638889534
 20
210.2961699663
 30
0.0
 10
32.46262827
 20
210.5975974283
 30
0.0
 10
32.7728407217
 20
211.2440625316
 30
0.0
 10
32.919548407
 20
212.1162676068
 30
0.0
 10
32.8665530762
 20
212.7817092705
 30
0.0
 10
32.7464564316
 20
213.2354588054
 30
0.0
 10
32.5485704836
 20
213.6376856852
 30
0.0
 10
32.3652471841
 20
213.8660196367
 30
0.0
 10
32.2638889534
 20
213.9654093567
 30
0.0
  0
SPLINE
  5
373
100
AcDbEntity
  8
0
100
AcDbSpline
 62
7
  6
CONTINUOUS
 70
0
 71
3
 72
15
 73
11
 74
0
 42
0.0000001
 43
0.0000001
 44
0.0000000001
 40
0.0
 40
0.0
 40
0.0
 40
0.0
 40
0.1229644169
 40
0.2549500445
 40
0.3920676545
 40
0.5289385702
 40
0.6602685659
 40
0.782330488
 40
0.8944541082
 40
1.0
 40
1.0
 40
1.0
 40
1.0
 10
30.4126580248
 20
215.4084182041
 30
0.0
 10
30.4996099947
 20
215.4317265061
 30
0.0
 10
30.672374631
 20
215.5106401349
 30
0.0
 10
30.8940543175
 20
215.6974201073
 30
0.0
 10
31.0708325433
 20
215.9398193293
 30
0.0
 10
31.18668044
 20
216.2159889803
 30
0.0
 10
31.2310964222
 20
216.5013864437
 30
0.0
 10
31.1986403572
 20
216.7710268617
 30
0.0
 10
31.089364772
 20
217.0001534311
 30
0.0
 10
30.9671979
 20
217.1103959996
 30
0.0
 10
30.9002882865
 20
217.1490446457
 30
0.0
  0
SPLINE
  5
374
100
AcDbEntity
  8
0
100
AcDbSpline
 62
7
  6
CONTINUOUS
 70
0
 71
3
 72
9
 73
5
 74
0
 42
0.0000001
 43
0.0000001
 44
0.0000000001
 40
0.0
 40
0.0
 40
0.0
 40
0.0
 40
0.4837082031
 40
1.0
 40
1.0
 40
1.0
 40
1.0
 10
29.9250277632
 20
215.4604942587
 30
0.0
 10
29.9948655433
 20
215.4201542313
 30
0.0
 10
30.1594101259
 20
215.3684563083
 30
0.0
 10
30.3295094171
 20
215.3861294295
 30
0.0
 10
30.4126580248
 20
215.4084182041
 30
0.0
  0
SPLINE
  5
375
100
AcDbEntity
  8
0
100
AcDbSpline
 62
7
  6
CONTINUOUS
 70
0
 71
3
 72
9
 73
5
 74
0
 42
0.0000001
 43
0.0000001
 44
0.0000000001
 40
0.0
 40
0.0
 40
0.0
 40
0.0
 40
0.2462935692
 40
1.0
 40
1.0
 40
1.0
 40
1.0
 10
37.315258358
 20
282.2980094486
 30
0.0
 10
37.3113984484
 20
283.2714190182
 30
0.0
 10
37.2565560818
 20
287.2234290389
 30
0.0
 10
37.0480574165
 20
291.173067598
 30
0.0
 10
36.8110307852
 20
294.1424693695
 30
0.0
  0
SPLINE
  5
376
100
AcDbEntity
  8
0
100
AcDbSpline
 62
7
  6
CONTINUOUS
 70
0
 71
3
 72
9
 73
5
 74
0
 42
0.0000001
 43
0.0000001
 44
0.0000000001
 40
0.0
 40
0.0
 40
0.0
 40
0.0
 40
0.5055637851
 40
1.0
 40
1.0
 40
1.0
 40
1.0
 10
37.315258358
 20
282.2980094486
 30
0.0
 10
33.0492068466
 20
280.7697054931
 30
0.0
 10
24.4865712863
 20
278.0822648938
 30
0.0
 10
15.7282386361
 20
276.1181681288
 30
0.0
 10
11.3649676631
 20
275.3417872231
 30
0.0
  0
SPLINE
  5
377
100
AcDbEntity
  8
0
100
AcDbSpline
 62
7
  6
CONTINUOUS
 70
0
 71
3
 72
9
 73
5
 74
0
 42
0.0000001
 43
0.0000001
 44
0.0000000001
 40
0.0
 40
0.0
 40
0.0
 40
0.0
 40
0.2533828339
 40
1.0
 40
1.0
 40
1.0
 40
1.0
 10
10.9224520389
 20
286.3888013843
 30
0.0
 10
10.9922490006
 20
285.4575150539
 30
0.0
 10
11.2363998686
 20
281.7798483601
 30
0.0
 10
11.3540558123
 20
278.0935874711
 30
0.0
 10
11.3649676631
 20
275.3417872263
 30
0.0
  0
SPLINE
  5
378
100
AcDbEntity
  8
0
100
AcDbSpline
 62
7
  6
CONTINUOUS
 70
0
 71
3
 72
10
 73
6
 74
0
 42
0.0000001
 43
0.0000001
 44
0.0000000001
 40
0.0
 40
0.0
 40
0.0
 40
0.0
 40
0.2330483206
 40
0.4746082413
 40
1.0
 40
1.0
 40
1.0
 40
1.0
 10
45.5263365156
 20
220.6331280234
 30
0.0
 10
45.4448136071
 20
220.6802447734
 30
0.0
 10
45.2625612692
 20
220.750563492
 30
0.0
 10
44.8550911919
 20
220.7799776054
 30
0.0
 10
44.5477461373
 20
220.6725853861
 30
0.0
 10
44.364448371
 20
220.5655202581
 30
0.0
  0
SPLINE
  5
379
100
AcDbEntity
  8
0
100
AcDbSpline
 62
7
  6
CONTINUOUS
 70
0
 71
3
 72
9
 73
5
 74
0
 42
0.0000001
 43
0.0000001
 44
0.0000000001
 40
0.0
 40
0.0
 40
0.0
 40
0.0
 40
0.4784246351
 40
1.0
 40
1.0
 40
1.0
 40
1.0
 10
45.508222585
 20
220.569240476
 30
0.0
 10
45.5941642549
 20
220.4628904352
 30
0.0
 10
45.7281448919
 20
220.2018702758
 30
0.0
 10
45.7669050301
 20
219.913742316
 30
0.0
 10
45.7669050301
 20
219.7646753572
 30
0.0
  0
SPLINE
  5
37A
100
AcDbEntity
  8
0
100
AcDbSpline
 62
7
  6
CONTINUOUS
 70
0
 71
3
 72
9
 73
5
 74
0
 42
0.0000001
 43
0.0000001
 44
0.0000000001
 40
0.0
 40
0.0
 40
0.0
 40
0.0
 40
0.4999415094
 40
1.0
 40
1.0
 40
1.0
 40
1.0
 10
44.5607638913
 20
220.7539839005
 30
0.0
 10
44.2409487346
 20
220.4917318106
 30
0.0
 10
43.6993776422
 20
219.8407343966
 30
0.0
 10
43.4059808686
 20
219.0462926925
 30
0.0
 10
43.3387467162
 20
218.6381045952
 30
0.0
  0
SPLINE
  5
37B
100
AcDbEntity
  8
0
100
AcDbSpline
 62
7
  6
CONTINUOUS
 70
0
 71
3
 72
11
 73
7
 74
0
 42
0.0000001
 43
0.0000001
 44
0.0000000001
 40
0.0
 40
0.0
 40
0.0
 40
0.0
 40
0.2708663548
 40
0.5262126564
 40
0.767680722
 40
1.0
 40
1.0
 40
1.0
 40
1.0
 10
54.4548954145
 20
250.0872582901
 30
0.0
 10
54.4548954145
 20
250.4090825134
 30
0.0
 10
54.3967346712
 20
251.0365928852
 30
0.0
 10
54.1171261276
 20
251.9130753953
 30
0.0
 10
53.6575893765
 20
252.658351174
 30
0.0
 10
53.237639167
 20
253.0461902073
 30
0.0
 10
53.0100818243
 20
253.2024196251
 30
0.0
  0
SPLINE
  5
37C
100
AcDbEntity
  8
0
100
AcDbSpline
 62
7
  6
CONTINUOUS
 70
0
 71
3
 72
9
 73
5
 74
0
 42
0.0000001
 43
0.0000001
 44
0.0000000001
 40
0.0
 40
0.0
 40
0.0
 40
0.0
 40
0.2537513398
 40
1.0
 40
1.0
 40
1.0
 40
1.0
 10
43.4038000724
 20
218.89316812
 30
0.0
 10
43.4038000724
 20
218.8721558927
 30
0.0
 10
43.4054205037
 20
218.7893602818
 30
0.0
 10
43.4135683295
 20
218.7066701175
 30
0.0
 10
43.4235486077
 20
218.6456872503
 30
0.0
  0
SPLINE
  5
37D
100
AcDbEntity
  8
0
100
AcDbSpline
 62
7
  6
CONTINUOUS
 70
0
 71
3
 72
9
 73
5
 74
0
 42
0.0000001
 43
0.0000001
 44
0.0000000001
 40
0.0
 40
0.0
 40
0.0
 40
0.0
 40
0.5205759716
 40
1.0
 40
1.0
 40
1.0
 40
1.0
 10
43.4235486077
 20
218.6456872503
 30
0.0
 10
43.4502985173
 20
218.482236277
 30
0.0
 10
43.5570104733
 20
218.1718525554
 30
0.0
 10
43.7938168585
 20
217.9384489693
 30
0.0
 10
43.9258792415
 20
217.8621225674
 30
0.0
  0
SPLINE
  5
37E
100
AcDbEntity
  8
0
100
AcDbSpline
 62
7
  6
CONTINUOUS
 70
0
 71
3
 72
11
 73
7
 74
0
 42
0.0000001
 43
0.0000001
 44
0.0000000001
 40
0.0
 40
0.0
 40
0.0
 40
0.0
 40
0.2575358247
 40
0.5241401292
 40
0.776364989
 40
1.0
 40
1.0
 40
1.0
 40
1.0
 10
45.7669050301
 20
219.7646753572
 30
0.0
 10
45.7669050301
 20
219.5249177151
 30
0.0
 10
45.6601203941
 20
219.0342216217
 30
0.0
 10
45.2655043945
 20
218.4125903916
 30
0.0
 10
44.7045414798
 20
217.9816475997
 30
0.0
 10
44.2493073928
 20
217.8830605972
 30
0.0
 10
44.0419041157
 20
217.9012237104
 30
0.0
  0
SPLINE
  5
37F
100
AcDbEntity
  8
0
100
AcDbSpline
 62
7
  6
CONTINUOUS
 70
0
 71
3
 72
9
 73
5
 74
0
 42
0.0000001
 43
0.0000001
 44
0.0000000001
 40
0.0
 40
0.0
 40
0.0
 40
0.0
 40
0.2536733956
 40
1.0
 40
1.0
 40
1.0
 40
1.0
 10
44.0419041157
 20
217.9012237104
 30
0.0
 10
44.0194452387
 20
217.9031905218
 30
0.0
 10
43.931192752
 20
217.9138317175
 30
0.0
 10
43.8443239075
 20
217.9363047931
 30
0.0
 10
43.7822282646
 20
217.959620417
 30
0.0
  0
SPLINE
  5
380
100
AcDbEntity
  8
0
100
AcDbSpline
 62
7
  6
CONTINUOUS
 70
0
 71
3
 72
9
 73
5
 74
0
 42
0.0000001
 43
0.0000001
 44
0.0000000001
 40
0.0
 40
0.0
 40
0.0
 40
0.0
 40
0.2575981508
 40
1.0
 40
1.0
 40
1.0
 40
1.0
 10
46.0484156846
 20
219.6020824708
 30
0.0
 10
46.0484156846
 20
219.6401130605
 30
0.0
 10
46.0431987681
 20
219.7876604747
 30
0.0
 10
46.0167711496
 20
219.9347825664
 30
0.0
 10
45.9836973341
 20
220.0392781323
 30
0.0
  0
SPLINE
  5
381
100
AcDbEntity
  8
0
100
AcDbSpline
 62
7
  6
CONTINUOUS
 70
0
 71
3
 72
9
 73
5
 74
0
 42
0.0000001
 43
0.0000001
 44
0.0000000001
 40
0.0
 40
0.0
 40
0.0
 40
0.0
 40
0.5144646319
 40
1.0
 40
1.0
 40
1.0
 40
1.0
 10
45.9836973341
 20
220.0392781323
 30
0.0
 10
45.944223528
 20
220.1639942449
 30
0.0
 10
45.8287755441
 20
220.3971323547
 30
0.0
 10
45.633226222
 20
220.5713503506
 30
0.0
 10
45.5263365156
 20
220.6331280234
 30
0.0
  0
SPLINE
  5
382
100
AcDbEntity
  8
0
100
AcDbSpline
 62
7
  6
CONTINUOUS
 70
0
 71
3
 72
10
 73
6
 74
0
 42
0.0000001
 43
0.0000001
 44
0.0000000001
 40
0.0
 40
0.0
 40
0.0
 40
0.0
 40
0.2408630154
 40
0.4852773065
 40
1.0
 40
1.0
 40
1.0
 40
1.0
 10
53.0100818243
 20
253.2024196251
 30
0.0
 10
52.8255704749
 20
253.3290958306
 30
0.0
 10
52.4220642724
 20
253.541434553
 30
0.0
 10
51.5163045349
 20
253.7755163631
 30
0.0
 10
50.7872754055
 20
253.713928771
 30
0.0
 10
50.3253028844
 20
253.5900926459
 30
0.0
  0
SPLINE
  5
383
100
AcDbEntity
  8
0
100
AcDbSpline
 62
7
  6
CONTINUOUS
 70
0
 71
3
 72
17
 73
13
 74
0
 42
0.0000001
 43
0.0000001
 44
0.0000000001
 40
0.0
 40
0.0
 40
0.0
 40
0.0
 40
0.1233159065
 40
0.180513508
 40
0.2354434886
 40
0.2893544391
 40
0.3437304043
 40
0.4582770975
 40
0.5856598641
 40
0.7236207442
 40
0.8646646162
 40
1.0
 40
1.0
 40
1.0
 40
1.0
 10
43.2979233004
 20
218.150623366
 30
0.0
 10
43.2979233004
 20
217.8381830066
 30
0.0
 10
43.3758966136
 20
217.3713709684
 30
0.0
 10
43.6634755723
 20
216.8436318529
 30
0.0
 10
43.9499917394
 20
216.529414526
 30
0.0
 10
44.3014023133
 20
216.3026190014
 30
0.0
 10
44.844073511
 20
216.1265029523
 30
0.0
 10
45.6219376022
 20
216.1794876909
 30
0.0
 10
46.4955064808
 20
216.6293756449
 30
0.0
 10
47.2247597993
 20
217.379045427
 30
0.0
 10
47.7154863605
 20
218.3228213361
 30
0.0
 10
47.8433563839
 20
219.0261762995
 30
0.0
 10
47.8433563839
 20
219.3690699064
 30
0.0
  0
SPLINE
  5
384
100
AcDbEntity
  8
0
100
AcDbSpline
 62
7
  6
CONTINUOUS
 70
0
 71
3
 72
15
 73
11
 74
0
 42
0.0000001
 43
0.0000001
 44
0.0000000001
 40
0.0
 40
0.0
 40
0.0
 40
0.0
 40
0.1336616865
 40
0.2583522839
 40
0.3757232577
 40
0.4898712079
 40
0.6059800754
 40
0.7285359629
 40
0.8599002481
 40
1.0
 40
1.0
 40
1.0
 40
1.0
 10
47.8433563839
 20
219.3690699064
 30
0.0
 10
47.8433563839
 20
219.575650865
 30
0.0
 10
47.7992512355
 20
219.9770776482
 30
0.0
 10
47.5870831274
 20
220.5255347045
 30
0.0
 10
47.2393848973
 20
220.9645127603
 30
0.0
 10
46.7774589635
 20
221.2587573838
 30
0.0
 10
46.2368217328
 20
221.3845460557
 30
0.0
 10
45.6587713835
 20
221.3370505617
 30
0.0
 10
45.0812716733
 20
221.125205783
 30
0.0
 10
44.7281996448
 20
220.8912831353
 30
0.0
 10
44.5607638913
 20
220.7539839005
 30
0.0
  0
SPLINE
  5
385
100
AcDbEntity
  8
0
100
AcDbSpline
 62
7
  6
CONTINUOUS
 70
0
 71
3
 72
9
 73
5
 74
0
 42
0.0000001
 43
0.0000001
 44
0.0000000001
 40
0.0
 40
0.0
 40
0.0
 40
0.0
 40
0.2460169949
 40
1.0
 40
1.0
 40
1.0
 40
1.0
 10
11.7605640057
 20
275.2237171938
 30
0.0
 10
13.9019024348
 20
275.613153221
 30
0.0
 10
22.5713978297
 20
277.3823724646
 30
0.0
 10
31.0885355022
 20
279.883233276
 30
0.0
 10
37.3698647271
 20
282.127845933
 30
0.0
  0
SPLINE
  5
386
100
AcDbEntity
  8
0
100
AcDbSpline
 62
7
  6
CONTINUOUS
 70
0
 71
3
 72
12
 73
8
 74
0
 42
0.0000001
 43
0.0000001
 44
0.0000000001
 40
0.0
 40
0.0
 40
0.0
 40
0.0
 40
0.2495436165
 40
0.3796415298
 40
0.5104267282
 40
0.7649617639
 40
1.0
 40
1.0
 40
1.0
 40
1.0
 10
-18.3032486664
 20
260.6795711661
 30
0.0
 10
-18.3032486664
 20
261.3035080624
 30
0.0
 10
-18.1310548084
 20
262.2590733251
 30
0.0
 10
-17.6301980756
 20
263.4359060296
 30
0.0
 10
-16.9542457601
 20
264.5382700968
 30
0.0
 10
-15.8594183355
 20
265.6704235044
 30
0.0
 10
-14.7412850662
 20
266.2442002469
 30
0.0
 10
-14.1736561364
 20
266.3963585766
 30
0.0
  0
SPLINE
  5
387
100
AcDbEntity
  8
0
100
AcDbSpline
 62
7
  6
CONTINUOUS
 70
0
 71
3
 72
12
 73
8
 74
0
 42
0.0000001
 43
0.0000001
 44
0.0000000001
 40
0.0
 40
0.0
 40
0.0
 40
0.0
 40
0.2350383181
 40
0.4895732669
 40
0.6203584142
 40
0.7504562916
 40
1.0
 40
1.0
 40
1.0
 40
1.0
 10
2.716983475
 20
254.8021162562
 30
0.0
 10
2.1493543489
 20
254.6499578739
 30
0.0
 10
1.0312210572
 20
254.0761811932
 30
0.0
 10
-0.0636062812
 20
252.9440279194
 30
0.0
 10
-0.7395584397
 20
251.841664276
 30
0.0
 10
-1.2404153504
 20
250.6648316486
 30
0.0
 10
-1.4126093935
 20
249.7092662501
 30
0.0
 10
-1.4126093935
 20
249.085329126
 30
0.0
  0
SPLINE
  5
388
100
AcDbEntity
  8
0
100
AcDbSpline
 62
7
  6
CONTINUOUS
 70
0
 71
3
 72
13
 73
9
 74
0
 42
0.0000001
 43
0.0000001
 44
0.0000000001
 40
0.0
 40
0.0
 40
0.0
 40
0.0
 40
0.1054288022
 40
0.2162191698
 40
0.3355711527
 40
0.4637667416
 40
0.7347867849
 40
1.0
 40
1.0
 40
1.0
 40
1.0
 10
43.9258792415
 20
217.8621225674
 30
0.0
 10
44.0236363386
 20
217.8056231516
 30
0.0
 10
44.247887193
 20
217.7270566024
 30
0.0
 10
44.6133903126
 20
217.732722018
 30
0.0
 10
44.9828007282
 20
217.8543011373
 30
0.0
 10
45.452513795
 20
218.1597513814
 30
0.0
 10
45.9003923028
 20
218.7406449282
 30
0.0
 10
46.0484156846
 20
219.3180501813
 30
0.0
 10
46.0484156846
 20
219.6020824708
 30
0.0
  0
SPLINE
  5
389
100
AcDbEntity
  8
0
100
AcDbSpline
 62
7
  6
CONTINUOUS
 70
0
 71
3
 72
9
 73
5
 74
0
 42
0.0000001
 43
0.0000001
 44
0.0000000001
 40
0.0
 40
0.0
 40
0.0
 40
0.0
 40
0.2535995344
 40
1.0
 40
1.0
 40
1.0
 40
1.0
 10
-18.8109140468
 20
279.1110771649
 30
0.0
 10
-18.7303078195
 20
278.1033939487
 30
0.0
 10
-18.4487886238
 20
274.1270833022
 30
0.0
 10
-18.3140434055
 20
270.1401179467
 30
0.0
 10
-18.3032486689
 20
267.1648256229
 30
0.0
  0
SPLINE
  5
38A
100
AcDbEntity
  8
0
100
AcDbSpline
 62
7
  6
CONTINUOUS
 70
0
 71
3
 72
12
 73
8
 74
0
 42
0.0000001
 43
0.0000001
 44
0.0000000001
 40
0.0
 40
0.0
 40
0.0
 40
0.0
 40
0.1326000068
 40
0.2616375362
 40
0.5132490937
 40
0.758933391
 40
1.0
 40
1.0
 40
1.0
 40
1.0
 10
9.361896299
 20
300.6326972251
 30
0.0
 10
8.6505180726
 20
300.9341456996
 30
0.0
 10
7.2592765269
 20
301.5582267239
 30
0.0
 10
4.5606931624
 20
302.8472376603
 30
0.0
 10
1.3072845923
 20
304.5017799067
 30
0.0
 10
-2.4841793729
 20
306.5353177081
 30
0.0
 10
-4.958783001
 20
307.9213028412
 30
0.0
 10
-6.1782790728
 20
308.6182635394
 30
0.0
  0
SPLINE
  5
38B
100
AcDbEntity
  8
0
100
AcDbSpline
 62
7
  6
CONTINUOUS
 70
0
 71
3
 72
41
 73
37
 74
0
 42
0.0000001
 43
0.0000001
 44
0.0000000001
 40
0.0
 40
0.0
 40
0.0
 40
0.0
 40
0.1268405891
 40
0.1896585209
 40
0.2520378856
 40
0.3139388533
 40
0.3753071761
 40
0.4360676224
 40
0.496112532
 40
0.5552800024
 40
0.6133081157
 40
0.6697215895
 40
0.6970444059
 40
0.7103950251
 40
0.7234789043
 40
0.736227631
 40
0.7485371882
 40
0.7602392159
 40
0.7657849827
 40
0.771069077
 40
0.7760721684
 40
0.7810220656
 40
0.7839370013
 40
0.7877801847
 40
0.7929944993
 40
0.799080084
 40
0.8113643659
 40
0.8230331463
 40
0.8341909564
 40
0.8449837225
 40
0.8658179687
 40
0.8859698704
 40
0.9056508998
 40
0.9249814093
 40
0.9628688847
 40
1.0
 40
1.0
 40
1.0
 40
1.0
 10
0.9241780354
 20
308.6745538192
 30
0.0
 10
1.6540312489
 20
308.237655523
 30
0.0
 10
2.741553008
 20
307.578004787
 30
0.0
 10
4.1779310211
 20
306.687083742
 30
0.0
 10
5.239423452
 20
306.0180437823
 30
0.0
 10
6.2873752347
 20
305.3458225336
 30
0.0
 10
7.3201539068
 20
304.6701399718
 30
0.0
 10
8.3354859579
 20
303.9906331114
 30
0.0
 10
9.3300720388
 20
303.3068178499
 30
0.0
 10
10.2989213539
 20
302.6181090389
 30
0.0
 10
11.2335829226
 20
301.9237522391
 30
0.0
 10
11.9796117405
 20
301.3339700326
 30
0.0
 10
12.4739851787
 20
300.9100787375
 30
0.0
 10
12.7404375873
 20
300.6671921634
 30
0.0
 10
12.9300208155
 20
300.4851886715
 30
0.0
 10
13.108428996
 20
300.3017703062
 30
0.0
 10
13.271532347
 20
300.1168007686
 30
0.0
 10
13.3914600299
 20
299.9584295101
 30
0.0
 10
13.4694087957
 20
299.8287734279
 30
0.0
 10
13.5138177397
 20
299.7319478017
 30
0.0
 10
13.5399921125
 20
299.6324594321
 30
0.0
 10
13.5295655663
 20
299.542233598
 30
0.0
 10
13.4814517794
 20
299.4776386673
 30
0.0
 10
13.4112664862
 20
299.4353239767
 30
0.0
 10
13.311950722
 20
299.4100743939
 30
0.0
 10
13.153782898
 20
299.3985433768
 30
0.0
 10
12.9521791014
 20
299.4146302974
 30
0.0
 10
12.7198766476
 20
299.4532841911
 30
0.0
 10
12.4995968813
 20
299.5017702272
 30
0.0
 10
12.2216137837
 20
299.5729577384
 30
0.0
 10
11.8884977684
 20
299.6713719021
 30
0.0
 10
11.5019821
 20
299.7984924734
 30
0.0
 10
11.1278406983
 20
299.9306346442
 30
0.0
 10
10.6444640114
 20
300.1104007419
 30
0.0
 10
10.0557792972
 20
300.3425004032
 30
0.0
 10
9.5911717603
 20
300.5355411195
 30
0.0
 10
9.361896299
 20
300.6326972251
 30
0.0
  0
SPLINE
  5
38C
100
AcDbEntity
  8
0
100
AcDbSpline
 62
7
  6
CONTINUOUS
 70
0
 71
3
 72
15
 73
11
 74
0
 42
0.0000001
 43
0.0000001
 44
0.0000000001
 40
0.0
 40
0.0
 40
0.0
 40
0.0
 40
0.2646694599
 40
0.4021382152
 40
0.5367260625
 40
0.6646701152
 40
0.7837860162
 40
0.8943550023
 40
0.9475380985
 40
1.0
 40
1.0
 40
1.0
 40
1.0
 10
-34.5815350635
 20
324.9504935427
 30
0.0
 10
-34.5815350635
 20
325.2078842953
 30
0.0
 10
-34.4796059058
 20
325.6033178403
 30
0.0
 10
-34.2023563307
 20
326.0478888968
 30
0.0
 10
-33.9299865965
 20
326.3303712781
 30
0.0
 10
-33.6157090515
 20
326.5343981364
 30
0.0
 10
-33.281261619
 20
326.6447578866
 30
0.0
 10
-33.0007076959
 20
326.6486154163
 30
0.0
 10
-32.7960968274
 20
326.5961439517
 30
0.0
 10
-32.7021685608
 20
326.5528447573
 30
0.0
 10
-32.6579876573
 20
326.527330047
 30
0.0
  0
SPLINE
  5
38D
100
AcDbEntity
  8
0
100
AcDbSpline
 62
7
  6
CONTINUOUS
 70
0
 71
3
 72
16
 73
12
 74
0
 42
0.0000001
 43
0.0000001
 44
0.0000000001
 40
0.0
 40
0.0
 40
0.0
 40
0.0
 40
0.0525592866
 40
0.106020099
 40
0.2180850457
 40
0.3400837309
 40
0.4713455844
 40
0.6081466949
 40
0.7451907765
 40
0.8771065778
 40
1.0
 40
1.0
 40
1.0
 40
1.0
 10
46.0790889571
 20
207.4084860758
 30
0.0
 10
46.1218334719
 20
207.383805507
 30
0.0
 10
46.2031210409
 20
207.3248788671
 30
0.0
 10
46.3422429986
 20
207.1729719722
 30
0.0
 10
46.4618433333
 20
206.9236972708
 30
0.0
 10
46.5031178545
 20
206.5781857649
 30
0.0
 10
46.4462730162
 20
206.2122255133
 30
0.0
 10
46.2977234033
 20
205.8581697507
 30
0.0
 10
46.0710938635
 20
205.5473846242
 30
0.0
 10
45.7868680503
 20
205.3079500314
 30
0.0
 10
45.5653822927
 20
205.2067734367
 30
0.0
 10
45.4539093193
 20
205.1768920466
 30
0.0
  0
SPLINE
  5
38E
100
AcDbEntity
  8
0
100
AcDbSpline
 62
7
  6
CONTINUOUS
 70
0
 71
3
 72
16
 73
12
 74
0
 42
0.0000001
 43
0.0000001
 44
0.0000000001
 40
0.0
 40
0.0
 40
0.0
 40
0.0
 40
0.0525592866
 40
0.106020099
 40
0.2180850457
 40
0.3400837309
 40
0.4713455844
 40
0.6081466949
 40
0.7451907765
 40
0.8771065778
 40
1.0
 40
1.0
 40
1.0
 40
1.0
 10
44.8287296814
 20
205.2436345511
 30
0.0
 10
44.7859851667
 20
205.2683151199
 30
0.0
 10
44.7046975977
 20
205.3272417598
 30
0.0
 10
44.56557564
 20
205.4791486546
 30
0.0
 10
44.4459753053
 20
205.728423356
 30
0.0
 10
44.4047007841
 20
206.0739348619
 30
0.0
 10
44.4615456223
 20
206.4398951136
 30
0.0
 10
44.6100952353
 20
206.7939508762
 30
0.0
 10
44.8367247751
 20
207.1047360026
 30
0.0
 10
45.1209505882
 20
207.3441705954
 30
0.0
 10
45.3424363459
 20
207.4453471902
 30
0.0
 10
45.4539093193
 20
207.4752285802
 30
0.0
  0
SPLINE
  5
38F
100
AcDbEntity
  8
0
100
AcDbSpline
 62
7
  6
CONTINUOUS
 70
0
 71
3
 72
16
 73
12
 74
0
 42
0.0000001
 43
0.0000001
 44
0.0000000001
 40
0.0
 40
0.0
 40
0.0
 40
0.0
 40
0.0525592866
 40
0.106020099
 40
0.2180850457
 40
0.3400837309
 40
0.4713455844
 40
0.6081466949
 40
0.7451907765
 40
0.8771065778
 40
1.0
 40
1.0
 40
1.0
 40
1.0
 10
46.0790889571
 20
193.3978265671
 30
0.0
 10
46.1218334719
 20
193.3731459983
 30
0.0
 10
46.2031210409
 20
193.3142193584
 30
0.0
 10
46.3422429986
 20
193.1623124636
 30
0.0
 10
46.4618433333
 20
192.9130377621
 30
0.0
 10
46.5031178545
 20
192.5675262562
 30
0.0
 10
46.4462730162
 20
192.2015660046
 30
0.0
 10
46.2977234033
 20
191.847510242
 30
0.0
 10
46.0710938635
 20
191.5367251155
 30
0.0
 10
45.7868680503
 20
191.2972905227
 30
0.0
 10
45.5653822927
 20
191.196113928
 30
0.0
 10
45.4539093193
 20
191.166232538
 30
0.0
  0
SPLINE
  5
390
100
AcDbEntity
  8
0
100
AcDbSpline
 62
7
  6
CONTINUOUS
 70
0
 71
3
 72
16
 73
12
 74
0
 42
0.0000001
 43
0.0000001
 44
0.0000000001
 40
0.0
 40
0.0
 40
0.0
 40
0.0
 40
0.0525592866
 40
0.106020099
 40
0.2180850457
 40
0.3400837309
 40
0.4713455844
 40
0.6081466949
 40
0.7451907765
 40
0.8771065778
 40
1.0
 40
1.0
 40
1.0
 40
1.0
 10
44.8287296814
 20
191.2329750424
 30
0.0
 10
44.7859851667
 20
191.2576556112
 30
0.0
 10
44.7046975977
 20
191.3165822511
 30
0.0
 10
44.56557564
 20
191.4684891459
 30
0.0
 10
44.4459753053
 20
191.7177638474
 30
0.0
 10
44.4047007841
 20
192.0632753532
 30
0.0
 10
44.4615456223
 20
192.4292356049
 30
0.0
 10
44.6100952353
 20
192.7832913675
 30
0.0
 10
44.8367247751
 20
193.0940764939
 30
0.0
 10
45.1209505882
 20
193.3335110867
 30
0.0
 10
45.3424363459
 20
193.4346876815
 30
0.0
 10
45.4539093193
 20
193.4645690715
 30
0.0
  0
SPLINE
  5
391
100
AcDbEntity
  8
0
100
AcDbSpline
 62
7
  6
CONTINUOUS
 70
0
 71
3
 72
10
 73
6
 74
0
 42
0.0000001
 43
0.0000001
 44
0.0000000001
 40
0.0
 40
0.0
 40
0.0
 40
0.0
 40
0.5149041168
 40
0.7596719482
 40
1.0
 40
1.0
 40
1.0
 40
1.0
 10
45.4539093193
 20
207.4752285802
 30
0.0
 10
45.5605077466
 20
207.5038033018
 30
0.0
 10
45.7274838719
 20
207.5205638342
 30
0.0
 10
45.9384773574
 20
207.4766330107
 30
0.0
 10
46.0344803276
 20
207.4342429794
 30
0.0
 10
46.0790889571
 20
207.4084860758
 30
0.0
  0
SPLINE
  5
392
100
AcDbEntity
  8
0
100
AcDbSpline
 62
7
  6
CONTINUOUS
 70
0
 71
3
 72
10
 73
6
 74
0
 42
0.0000001
 43
0.0000001
 44
0.0000000001
 40
0.0
 40
0.0
 40
0.0
 40
0.0
 40
0.5149041168
 40
0.7596719482
 40
1.0
 40
1.0
 40
1.0
 40
1.0
 10
45.4539093193
 20
205.1768920466
 30
0.0
 10
45.347310892
 20
205.148317325
 30
0.0
 10
45.1803347667
 20
205.1315567927
 30
0.0
 10
44.9693412812
 20
205.1754876161
 30
0.0
 10
44.873338311
 20
205.2178776475
 30
0.0
 10
44.8287296814
 20
205.2436345511
 30
0.0
  0
SPLINE
  5
393
100
AcDbEntity
  8
0
100
AcDbSpline
 62
7
  6
CONTINUOUS
 70
0
 71
3
 72
10
 73
6
 74
0
 42
0.0000001
 43
0.0000001
 44
0.0000000001
 40
0.0
 40
0.0
 40
0.0
 40
0.0
 40
0.5149041168
 40
0.7596719482
 40
1.0
 40
1.0
 40
1.0
 40
1.0
 10
45.4539093193
 20
193.4645690715
 30
0.0
 10
45.5605077466
 20
193.4931437931
 30
0.0
 10
45.7274838719
 20
193.5099043255
 30
0.0
 10
45.9384773574
 20
193.465973502
 30
0.0
 10
46.0344803276
 20
193.4235834707
 30
0.0
 10
46.0790889571
 20
193.3978265671
 30
0.0
  0
SPLINE
  5
394
100
AcDbEntity
  8
0
100
AcDbSpline
 62
7
  6
CONTINUOUS
 70
0
 71
3
 72
10
 73
6
 74
0
 42
0.0000001
 43
0.0000001
 44
0.0000000001
 40
0.0
 40
0.0
 40
0.0
 40
0.0
 40
0.5149041168
 40
0.7596719482
 40
1.0
 40
1.0
 40
1.0
 40
1.0
 10
45.4539093193
 20
191.166232538
 30
0.0
 10
45.347310892
 20
191.1376578163
 30
0.0
 10
45.1803347667
 20
191.120897284
 30
0.0
 10
44.9693412812
 20
191.1648281074
 30
0.0
 10
44.873338311
 20
191.2072181388
 30
0.0
 10
44.8287296814
 20
191.2329750424
 30
0.0
  0
SPLINE
  5
395
100
AcDbEntity
  8
0
100
AcDbSpline
 62
7
  6
CONTINUOUS
 70
0
 71
3
 72
15
 73
11
 74
0
 42
0.0000001
 43
0.0000001
 44
0.0000000001
 40
0.0
 40
0.0
 40
0.0
 40
0.0
 40
0.1055415294
 40
0.2176666205
 40
0.3397316106
 40
0.4710626814
 40
0.6079366083
 40
0.7450553225
 40
0.877039371
 40
1.0
 40
1.0
 40
1.0
 40
1.0
 10
31.0378328373
 20
217.387186858
 30
0.0
 10
31.1236217263
 20
217.3376570452
 30
0.0
 10
31.2802343651
 20
217.1963000353
 30
0.0
 10
31.4203299468
 20
216.9025506457
 30
0.0
 10
31.4619301017
 20
216.5568487371
 30
0.0
 10
31.4050076662
 20
216.1909437188
 30
0.0
 10
31.2564787648
 20
215.8368725062
 30
0.0
 10
31.0298321772
 20
215.5261037958
 30
0.0
 10
30.7456201166
 20
215.2866547706
 30
0.0
 10
30.5241321239
 20
215.1854828772
 30
0.0
 10
30.4126580248
 20
215.1556011854
 30
0.0
  0
SPLINE
  5
396
100
AcDbEntity
  8
0
100
AcDbSpline
 62
7
  6
CONTINUOUS
 70
0
 71
3
 72
15
 73
11
 74
0
 42
0.0000001
 43
0.0000001
 44
0.0000000001
 40
0.0
 40
0.0
 40
0.0
 40
0.0
 40
0.1055415294
 40
0.2176666205
 40
0.3397316106
 40
0.4710626814
 40
0.6079366083
 40
0.7450553225
 40
0.877039371
 40
1.0
 40
1.0
 40
1.0
 40
1.0
 10
29.7874832123
 20
215.2223520464
 30
0.0
 10
29.7016943234
 20
215.2718818592
 30
0.0
 10
29.5450816846
 20
215.4132388691
 30
0.0
 10
29.4049861028
 20
215.7069882587
 30
0.0
 10
29.3633859479
 20
216.0526901673
 30
0.0
 10
29.4203083835
 20
216.4185951856
 30
0.0
 10
29.5688372849
 20
216.7726663981
 30
0.0
 10
29.7954838725
 20
217.0834351086
 30
0.0
 10
30.0796959331
 20
217.3228841338
 30
0.0
 10
30.3011839257
 20
217.4240560272
 30
0.0
 10
30.4126580248
 20
217.453937719
 30
0.0
  0
SPLINE
  5
397
100
AcDbEntity
  8
0
100
AcDbSpline
 62
7
  6
CONTINUOUS
 70
0
 71
3
 72
15
 73
11
 74
0
 42
0.0000001
 43
0.0000001
 44
0.0000000001
 40
0.0
 40
0.0
 40
0.0
 40
0.0
 40
0.1055415294
 40
0.2176666205
 40
0.3397316106
 40
0.4710626814
 40
0.6079366083
 40
0.7450553225
 40
0.877039371
 40
1.0
 40
1.0
 40
1.0
 40
1.0
 10
31.0378328373
 20
189.3658678406
 30
0.0
 10
31.1236217263
 20
189.3163380278
 30
0.0
 10
31.2802343651
 20
189.1749810179
 30
0.0
 10
31.4203299468
 20
188.8812316283
 30
0.0
 10
31.4619301017
 20
188.5355297197
 30
0.0
 10
31.4050076662
 20
188.1696247014
 30
0.0
 10
31.2564787648
 20
187.8155534888
 30
0.0
 10
31.0298321772
 20
187.5047847784
 30
0.0
 10
30.7456201166
 20
187.2653357532
 30
0.0
 10
30.5241321239
 20
187.1641638598
 30
0.0
 10
30.4126580248
 20
187.134282168
 30
0.0
  0
SPLINE
  5
398
100
AcDbEntity
  8
0
100
AcDbSpline
 62
7
  6
CONTINUOUS
 70
0
 71
3
 72
15
 73
11
 74
0
 42
0.0000001
 43
0.0000001
 44
0.0000000001
 40
0.0
 40
0.0
 40
0.0
 40
0.0
 40
0.1055415294
 40
0.2176666205
 40
0.3397316106
 40
0.4710626814
 40
0.6079366083
 40
0.7450553225
 40
0.877039371
 40
1.0
 40
1.0
 40
1.0
 40
1.0
 10
29.7874832123
 20
187.201033029
 30
0.0
 10
29.7016943234
 20
187.2505628418
 30
0.0
 10
29.5450816846
 20
187.3919198517
 30
0.0
 10
29.4049861028
 20
187.6856692413
 30
0.0
 10
29.3633859479
 20
188.0313711499
 30
0.0
 10
29.4203083835
 20
188.3972761682
 30
0.0
 10
29.5688372849
 20
188.7513473808
 30
0.0
 10
29.7954838725
 20
189.0621160912
 30
0.0
 10
30.0796959331
 20
189.3015651164
 30
0.0
 10
30.3011839257
 20
189.4027370098
 30
0.0
 10
30.4126580248
 20
189.4326187016
 30
0.0
  0
SPLINE
  5
399
100
AcDbEntity
  8
0
100
AcDbSpline
 62
7
  6
CONTINUOUS
 70
0
 71
3
 72
10
 73
6
 74
0
 42
0.0000001
 43
0.0000001
 44
0.0000000001
 40
0.0
 40
0.0
 40
0.0
 40
0.0
 40
0.5149137139
 40
0.7596812022
 40
1.0
 40
1.0
 40
1.0
 40
1.0
 10
30.4126580248
 20
217.453937719
 30
0.0
 10
30.5192584734
 20
217.4825129824
 30
0.0
 10
30.6862342156
 20
217.4992673068
 30
0.0
 10
30.8972341789
 20
217.4553532884
 30
0.0
 10
30.9932249062
 20
217.4129410379
 30
0.0
 10
31.0378328373
 20
217.387186858
 30
0.0
  0
SPLINE
  5
39A
100
AcDbEntity
  8
0
100
AcDbSpline
 62
7
  6
CONTINUOUS
 70
0
 71
3
 72
10
 73
6
 74
0
 42
0.0000001
 43
0.0000001
 44
0.0000000001
 40
0.0
 40
0.0
 40
0.0
 40
0.0
 40
0.5149137139
 40
0.7596812022
 40
1.0
 40
1.0
 40
1.0
 40
1.0
 10
30.4126580248
 20
215.1556011854
 30
0.0
 10
30.3060575762
 20
215.127025922
 30
0.0
 10
30.139081834
 20
215.1102715975
 30
0.0
 10
29.9280818708
 20
215.154185616
 30
0.0
 10
29.8320911434
 20
215.1965978665
 30
0.0
 10
29.7874832123
 20
215.2223520464
 30
0.0
  0
SPLINE
  5
39B
100
AcDbEntity
  8
0
100
AcDbSpline
 62
7
  6
CONTINUOUS
 70
0
 71
3
 72
10
 73
6
 74
0
 42
0.0000001
 43
0.0000001
 44
0.0000000001
 40
0.0
 40
0.0
 40
0.0
 40
0.0
 40
0.5149137139
 40
0.7596812022
 40
1.0
 40
1.0
 40
1.0
 40
1.0
 10
30.4126580248
 20
189.4326187016
 30
0.0
 10
30.5192584734
 20
189.461193965
 30
0.0
 10
30.6862342156
 20
189.4779482894
 30
0.0
 10
30.8972341789
 20
189.434034271
 30
0.0
 10
30.9932249062
 20
189.3916220205
 30
0.0
 10
31.0378328373
 20
189.3658678406
 30
0.0
  0
SPLINE
  5
39C
100
AcDbEntity
  8
0
100
AcDbSpline
 62
7
  6
CONTINUOUS
 70
0
 71
3
 72
10
 73
6
 74
0
 42
0.0000001
 43
0.0000001
 44
0.0000000001
 40
0.0
 40
0.0
 40
0.0
 40
0.0
 40
0.5149137139
 40
0.7596812022
 40
1.0
 40
1.0
 40
1.0
 40
1.0
 10
30.4126580248
 20
187.134282168
 30
0.0
 10
30.3060575762
 20
187.1057069046
 30
0.0
 10
30.139081834
 20
187.0889525802
 30
0.0
 10
29.9280818708
 20
187.1328665986
 30
0.0
 10
29.8320911434
 20
187.1752788491
 30
0.0
 10
29.7874832123
 20
187.201033029
 30
0.0
  0
ELLIPSE
  5
39D
100
AcDbEntity
  8
0
100
AcDbEllipse
 62
7
  6
CONTINUOUS
 10
45.3462803933
 20
171.3813698984
 30
0.0
 11
0.4527005305
 21
-0.0142306372
 31
0.0
 40
0.4423556505
 41
-0.9717087664
 42
-0.1910546365
  0
ELLIPSE
  5
39E
100
AcDbEntity
  8
0
100
AcDbEllipse
 62
7
  6
CONTINUOUS
 10
-42.5191474596
 20
306.6553370071
 30
0.0
 11
-24.4268504671
 21
94.6003320873
 31
0.0
 40
0.5043111154
 41
4.2457914755
 42
4.3752770446
  0
ELLIPSE
  5
39F
100
AcDbEntity
  8
0
100
AcDbEllipse
 62
7
  6
CONTINUOUS
 10
-9.7632960858
 20
156.608724131
 30
0.0
 11
0.4938049217
 21
-0.0263293339
 31
0.0
 40
0.3710895911
 41
-2.5112481815
 42
-0.8499318103
  0
ELLIPSE
  5
3A0
100
AcDbEntity
  8
0
100
AcDbEllipse
 62
7
  6
CONTINUOUS
 10
5.0280818278
 20
187.2902100344
 30
0.0
 11
3.2700907836
 21
16.372588167
 31
0.0
 40
0.3389069868
 41
-4.1798485873
 42
-2.9756282851
  0
ELLIPSE
  5
3A1
100
AcDbEntity
  8
0
100
AcDbEllipse
 62
7
  6
CONTINUOUS
 10
48.0142041932
 20
198.8130486986
 30
0.0
 11
-1.9834210474
 21
15.1577125251
 31
0.0
 40
0.4042619686
 41
-3.0880558564
 42
-1.8838355543
  0
ELLIPSE
  5
3A2
100
AcDbEntity
  8
0
100
AcDbEllipse
 62
7
  6
CONTINUOUS
 10
45.2867121886
 20
256.766809287
 30
0.0
 11
2.4409131882
 21
4.2736761771
 31
0.0
 40
0.758333603
 41
2.2163202826
 42
3.7860211828
  0
ELLIPSE
  5
3A3
100
AcDbEntity
  8
0
100
AcDbEllipse
 62
7
  6
CONTINUOUS
 10
23.4781147574
 20
271.8823970567
 30
0.0
 11
2.5896049322
 21
4.3294577646
 31
0.0
 40
0.7545917578
 41
-0.1549462507
 42
0.6614527303
  0
ELLIPSE
  5
3A4
100
AcDbEntity
  8
0
100
AcDbEllipse
 62
7
  6
CONTINUOUS
 10
37.0606253336
 20
259.4013793061
 30
0.0
 11
2.5896049322
 21
4.3294577646
 31
0.0
 40
0.7545917578
 41
5.3826393884
 42
6.9446380375
  0
ELLIPSE
  5
3A5
100
AcDbEntity
  8
0
100
AcDbEllipse
 62
7
  6
CONTINUOUS
 10
-16.1738754352
 20
314.7117841378
 30
0.0
 11
1.6683536757
 21
2.5218159273
 31
0.0
 40
0.7288049538
 41
-1.6330587171
 42
-0.9342083141
  0
ENDSEC
  0
SECTION
  2
OBJECTS
  0
DICTIONARY
  5
C
100
AcDbDictionary
280
0
281
1
  3
ACAD_GROUP
350
D
  3
ACAD_MLINESTYLE
350
17
  3
ACAD_LAYOUT
350
1A
  3
ACAD_PLOTSETTINGS
350
19
  3
ACAD_PLOTSTYLENAME
350
E
  0
DICTIONARY
  5
D
102
{ACAD_REACTORS
330
C
102
}
100
AcDbDictionary
280
0
281
1
  0
ACDBDICTIONARYWDFLT
  5
E
102
{ACAD_REACTORS
330
C
102
}
100
AcDbDictionary
281
1
  3
Normal
350
F
100
AcDbDictionaryWithDefault
340
F
  0
DICTIONARY
  5
17
102
{ACAD_REACTORS
330
C
102
}
100
AcDbDictionary
280
0
281
1
  3
Standard
350
18
  0
DICTIONARY
  5
19
102
{ACAD_REACTORS
330
C
102
}
100
AcDbDictionary
281
1
  0
DICTIONARY
  5
1A
102
{ACAD_REACTORS
330
C
102
}
100
AcDbDictionary
281
1
  3
Model
350
3A6
  3
Layout1
350
3A7
  0
ACDBPLACEHOLDER
  5
F
102
{ACAD_REACTORS
330
E
102
}
  0
MLINESTYLE
  5
18
102
{ACAD_REACTORS
330
17
102
}
100
AcDbMlineStyle
  2
STANDARD
 70
0
  3

 62
256
 51
90.0
 52
90.0
 71
2
 49
0.5
 62
256
  6
BYLAYER
 49
-0.5
 62
256
  6
BYLAYER
  0
LAYOUT
  5
3A6
102
{ACAD_REACTORS
330
1A
102
}
100
AcDbPlotSettings
  1

  2
none_device
  4
ANSI_C_(22.00_x_17.00_Inches)
  6

 40
0.0
 41
0.0
 42
0.0
 43
0.0
 44
558.8
 45
431.8
 46
0.0
 47
0.0
 48
0.0
 49
0.0
140
0.0
141
0.0
142
1.0
143
1.0
 70
1024
 72
1
 73
0
 74
0
  7

 75
0
147
1.0
148
0.0
149
0.0
100
AcDbLayout
  1
Model
 70
0
 71
0
 10
0.0
 20
0.0
 11
558.8
 21
431.8
 12
0.0
 22
0.0
 32
0.0
 14
0.0
 24
0.0
 34
0.0
 15
0.0
 25
0.0
 35
0.0
146
0.0
 13
0.0
 23
0.0
 33
0.0
 16
1.0
 26
0.0
 36
0.0
 17
0.0
 27
1.0
 37
0.0
 76
0
330
216
345
0
346
0
  0
LAYOUT
  5
3A7
102
{ACAD_REACTORS
330
1A
102
}
100
AcDbPlotSettings
  1

  2
none_device
  4
ANSI_C_(22.00_x_17.00_Inches)
  6

 40
0.0
 41
0.0
 42
0.0
 43
0.0
 44
558.8
 45
431.8
 46
0.0
 47
0.0
 48
0.0
 49
0.0
140
0.0
141
0.0
142
1.0
143
1.0
 70
0
 72
1
 73
0
 74
0
  7

 75
0
147
1.0
148
0.0
149
0.0
100
AcDbLayout
  1
Layout1
 70
0
 71
1
 10
0.0
 20
0.0
 11
558.8
 21
431.8
 12
0.0
 22
0.0
 32
0.0
 14
0.0
 24
0.0
 34
0.0
 15
0.0
 25
0.0
 35
0.0
146
0.0
 13
0.0
 23
0.0
 33
0.0
 16
1.0
 26
0.0
 36
0.0
 17
0.0
 27
1.0
 37
0.0
 76
0
330
217
345
0
346
0
  0
ENDSEC
  0
EOF
