999
DXF file: C:\Users\sesa63760\Dev\_Creo\CAD\MCADID0000844_3D-CAD\drw0001_6.dxf
999
Pro/ENGINEER 2019471 by Parametric Technology Corporation
  0
SECTION
  2
HEADER
  9
$ACADVER
  1
AC1024
  9
$DWGCODEPAGE
  3
ANSI_1252
  9
$EXTMAX
 10
391.8024693222
 20
554.1206351842
 30
0.0
  9
$EXTMIN
 10
0.0
 20
0.0
 30
0.0
  9
$LIMMIN
 10
0.0
 20
0.0
  9
$LIMMAX
 10
391.8024693222
 20
554.1206351842
  9
$VIEWCTR
 10
195.9012346611
 20
277.0603175921
  9
$VIEWSIZE
 40
554.1206351842
  9
$CLAYER
  8
0
  9
$LTSCALE
 40
36.1204562194
  9
$CELTYPE
  6
BYLAYER
  9
$DIMSCALE
 40
1.0
  9
$DIMASZ
 40
4.664315111
  9
$DIMEXO
 40
1.0
  9
$DIMDLI
 40
24.9559515698
  9
$DIMEXE
 40
1.0
  9
$DIMCEN
 40
5.9106201086
  9
$DIMLFAC
 40
1.0
  9
$DIMBLK
  1
_FILLED
  9
$DIMALT
 70
0
  9
$DIMALTF
 40
0.0393700787
  9
$DIMTXT
 40
6.5300411554
  9
$DIMTOL
 70
1
  9
$DIMLIM
 70
0
  9
$DIMTFAC
 40
1.0
  9
$DIMTP
 40
0.01
  9
$DIMTM
 40
0.01
  9
$DIMGAP
 40
0.625
  9
$DIMDSEP
 70
46
  9
$AUNITS
 70
0
  9
$PDMODE
 70
3
  9
$PDSIZE
 40
0.3125
  9
$HANDSEED
  5
2F9
  9
$TILEMODE
 70
1
  9
$MEASUREMENT
 70
1
  9
$INSUNITS
 70
4
  0
ENDSEC
  0
SECTION
  2
CLASSES
  0
CLASS
  1
ACDBDICTIONARYWDFLT
  2
AcDbDictionaryWithDefault
  3
AutoCAD 2000
 90
0
 91
1
280
0
281
0
  0
CLASS
  1
ACDBPLACEHOLDER
  2
AcDbPlaceHolder
  3
AutoCAD 2000
 90
0
 91
1
280
0
281
0
  0
CLASS
  1
LAYOUT
  2
AcDbLayout
  3
AutoCAD 2000
 90
0
 91
0
280
0
281
0
  0
ENDSEC
  0
SECTION
  2
TABLES
  0
TABLE
  2
VPORT
  5
8
100
AcDbSymbolTable
 70
2
  0
VPORT
  5
1F4
100
AcDbSymbolTableRecord
100
AcDbViewportTableRecord
  2
*ACTIVE
 70
0
 10
0.0
 20
0.0
 11
1.0
 21
1.0
 12
195.9012346611
 22
277.0603175921
 13
0.0
 23
0.0
 14
1.0
 24
1.0
 15
0.0
 25
0.0
 16
0.0
 26
0.0
 36
1.0
 17
0.0
 27
0.0
 37
0.0
 40
554.1206351842
 41
0.7070707071
 42
50.0
 43
0.0
 44
0.0
 50
0.0
 51
0.0
 71
0
 72
100
 73
1
 74
1
 75
0
 76
0
 77
0
 78
0
  0
ENDTAB
  0
TABLE
  2
LTYPE
  5
5
100
AcDbSymbolTable
 70
6
  0
LTYPE
  5
14
100
AcDbSymbolTableRecord
100
AcDbLinetypeTableRecord
  2
BYBLOCK
 70
0
  3

 72
65
 73
0
 40
0.0
  0
LTYPE
  5
15
100
AcDbSymbolTableRecord
100
AcDbLinetypeTableRecord
  2
BYLAYER
 70
0
  3

 72
65
 73
0
 40
0.0
  0
LTYPE
  5
16
100
AcDbSymbolTableRecord
100
AcDbLinetypeTableRecord
  2
CONTINUOUS
 70
64
  3
Solid line
 72
65
 73
0
 40
0.0
  0
LTYPE
  5
1F5
100
AcDbSymbolTableRecord
100
AcDbLinetypeTableRecord
  2
CENTER
 70
64
  3
____ _ ____ _ ____ _ ____ _ ____ _ ____ _ ____
 72
65
 73
4
 40
0.6
 49
0.375
 74
0
 49
-0.075
 74
0
 49
0.075
 74
0
 49
-0.075
 74
0
  0
LTYPE
  5
1F6
100
AcDbSymbolTableRecord
100
AcDbLinetypeTableRecord
  2
HIDDEN
 70
64
  3
- - - - - - - - - - - - - - - - - - - -
 72
65
 73
2
 40
0.2
 49
0.1
 74
0
 49
-0.1
 74
0
  0
LTYPE
  5
1F7
100
AcDbSymbolTableRecord
100
AcDbLinetypeTableRecord
  2
PHANTOM
 70
64
  3
_____ _ _ _____ _ _ _____ _ _ _____
 72
65
 73
6
 40
0.8
 49
0.45
 74
0
 49
-0.05
 74
0
 49
0.1
 74
0
 49
-0.05
 74
0
 49
0.1
 74
0
 49
-0.05
 74
0
  0
LTYPE
  5
1F8
100
AcDbSymbolTableRecord
100
AcDbLinetypeTableRecord
  2
DOT
 70
64
  3
. . . . . . . . . . . . . . . . . . . .
 72
65
 73
2
 40
0.2
 49
0.1
 74
0
 49
-0.1
 74
0
  0
LTYPE
  5
1F9
100
AcDbSymbolTableRecord
100
AcDbLinetypeTableRecord
  2
DASHED
 70
64
  3
- - - - - - - - - - - - - - - - - - - -
 72
65
 73
2
 40
0.2
 49
0.1
 74
0
 49
-0.1
 74
0
  0
ENDTAB
  0
TABLE
  2
LAYER
  5
2
100
AcDbSymbolTable
 70
36
  0
LAYER
  5
10
100
AcDbSymbolTableRecord
100
AcDbLayerTableRecord
  2
0
 70
0
 62
7
  6
CONTINUOUS
370
-3
390
F
  0
LAYER
  5
1FA
100
AcDbSymbolTableRecord
100
AcDbLayerTableRecord
  2
DEFAULT_1
 70
0
 62
7
  6
CENTER
370
-3
390
F
  0
LAYER
  5
1FB
100
AcDbSymbolTableRecord
100
AcDbLayerTableRecord
  2
DEFAULT_2
 70
0
 62
8
  6
HIDDEN
370
-3
390
F
  0
LAYER
  5
1FC
100
AcDbSymbolTableRecord
100
AcDbLayerTableRecord
  2
DEFAULT_3
 70
0
 62
7
  6
PHANTOM
370
-3
390
F
  0
LAYER
  5
1FD
100
AcDbSymbolTableRecord
100
AcDbLayerTableRecord
  2
00_COMPONENTS
 70
0
 62
7
  6
CONTINUOUS
370
-3
390
F
  0
LAYER
  5
1FE
100
AcDbSymbolTableRecord
100
AcDbLayerTableRecord
  2
01_1_DEFAULT_DATUMS
 70
0
 62
7
  6
CONTINUOUS
370
-3
390
F
  0
LAYER
  5
1FF
100
AcDbSymbolTableRecord
100
AcDbLayerTableRecord
  2
01_PLANES
 70
0
 62
7
  6
CONTINUOUS
370
-3
390
F
  0
LAYER
  5
200
100
AcDbSymbolTableRecord
100
AcDbLayerTableRecord
  2
02_COORD_SYS
 70
0
 62
7
  6
CONTINUOUS
370
-3
390
F
  0
LAYER
  5
201
100
AcDbSymbolTableRecord
100
AcDbLayerTableRecord
  2
03_AXES
 70
0
 62
7
  6
CONTINUOUS
370
-3
390
F
  0
LAYER
  5
202
100
AcDbSymbolTableRecord
100
AcDbLayerTableRecord
  2
04_POINTS
 70
0
 62
7
  6
CONTINUOUS
370
-3
390
F
  0
LAYER
  5
203
100
AcDbSymbolTableRecord
100
AcDbLayerTableRecord
  2
05_CURVES
 70
0
 62
7
  6
CONTINUOUS
370
-3
390
F
  0
LAYER
  5
204
100
AcDbSymbolTableRecord
100
AcDbLayerTableRecord
  2
06_SURFS
 70
0
 62
7
  6
CONTINUOUS
370
-3
390
F
  0
LAYER
  5
205
100
AcDbSymbolTableRecord
100
AcDbLayerTableRecord
  2
07_COSMETICS
 70
0
 62
7
  6
CONTINUOUS
370
-3
390
F
  0
LAYER
  5
206
100
AcDbSymbolTableRecord
100
AcDbLayerTableRecord
  2
10_NOTES
 70
0
 62
7
  6
CONTINUOUS
370
-3
390
F
  0
LAYER
  5
207
100
AcDbSymbolTableRecord
100
AcDbLayerTableRecord
  2
11_NOTES_PUB
 70
0
 62
7
  6
CONTINUOUS
370
-3
390
F
  0
LAYER
  5
208
100
AcDbSymbolTableRecord
100
AcDbLayerTableRecord
  2
13_REF_GTOL
 70
0
 62
7
  6
CONTINUOUS
370
-3
390
F
  0
LAYER
  5
209
100
AcDbSymbolTableRecord
100
AcDbLayerTableRecord
  2
16_MISC
 70
0
 62
7
  6
CONTINUOUS
370
-3
390
F
  0
LAYER
  5
20A
100
AcDbSymbolTableRecord
100
AcDbLayerTableRecord
  2
17_NO_PRINT
 70
0
 62
7
  6
CONTINUOUS
370
-3
390
F
  0
LAYER
  5
20B
100
AcDbSymbolTableRecord
100
AcDbLayerTableRecord
  2
18_DATUM_CAMS_JOINTS
 70
0
 62
7
  6
CONTINUOUS
370
-3
390
F
  0
LAYER
  5
20C
100
AcDbSymbolTableRecord
100
AcDbLayerTableRecord
  2
19_DATUM_FUNCTIONAL
 70
0
 62
7
  6
CONTINUOUS
370
-3
390
F
  0
LAYER
  5
20D
100
AcDbSymbolTableRecord
100
AcDbLayerTableRecord
  2
20_DATUM_KINEMATIC_SCHEME
 70
0
 62
7
  6
CONTINUOUS
370
-3
390
F
  0
ENDTAB
  0
TABLE
  2
STYLE
  5
3
100
AcDbSymbolTable
 70
1
  0
STYLE
  5
11
100
AcDbSymbolTableRecord
100
AcDbTextStyleTableRecord
  2
STANDARD
 70
0
 40
0.0
 41
0.8
 50
0.0
 71
0
 42
0.2
  3
txt
  4

  0
STYLE
  5
20E
100
AcDbSymbolTableRecord
100
AcDbTextStyleTableRecord
  2
TEXTSTYLE_1
 70
0
 40
0.0
 41
0.8
 50
0.0
 71
0
 42
0.2
  3
gdt
  4

  0
ENDTAB
  0
TABLE
  2
VIEW
  5
6
100
AcDbSymbolTable
 70
0
  0
ENDTAB
  0
TABLE
  2
UCS
  5
7
100
AcDbSymbolTable
 70
0
  0
ENDTAB
  0
TABLE
  2
APPID
  5
9
100
AcDbSymbolTable
 70
1
  0
APPID
  5
20F
100
AcDbSymbolTableRecord
100
AcDbRegAppTableRecord
  2
ACAD
 70
0
  0
ENDTAB
  0
TABLE
  2
BLOCK_RECORD
  5
1
100
AcDbSymbolTable
 70
0
  0
BLOCK_RECORD
  5
210
100
AcDbSymbolTableRecord
100
AcDbBlockTableRecord
  2
*Model_Space
  0
BLOCK_RECORD
  5
211
100
AcDbSymbolTableRecord
100
AcDbBlockTableRecord
  2
*Paper_Space
  0
BLOCK_RECORD
  5
212
100
AcDbSymbolTableRecord
100
AcDbBlockTableRecord
  2
_FILLED
  0
ENDTAB
  0
TABLE
  2
DIMSTYLE
  5
A
100
AcDbSymbolTable
 70
1
100
AcDbDimStyleTable
 71
0
  0
DIMSTYLE
105
213
100
AcDbSymbolTableRecord
100
AcDbDimStyleTableRecord
  2
STANDARD
 70
0
  3

  4

 40
1.0
 41
4.664315111
 42
1.0
 43
0.38
 44
1.0
 45
0.0
 46
0.0
 47
0.01
 48
0.01
140
6.5300411554
141
0.09
142
0.0
143
25.4
144
1.0
145
0.0
146
1.0
147
0.625
 71
1
 72
0
 73
0
 74
0
 75
0
 76
0
 77
1
 78
8
 79
2
170
0
171
1
172
0
173
0
174
0
175
0
176
0
177
0
178
0
270
2
179
2
271
2
272
2
273
2
274
2
275
0
280
0
281
0
282
0
283
1
284
8
285
0
286
0
287
3
288
0
340
11
278
46
341
212
342
212
343
212
344
212
  0
ENDTAB
  0
ENDSEC
  0
SECTION
  2
BLOCKS
  0
BLOCK
  5
20
100
AcDbEntity
  8
0
100
AcDbBlockBegin
  2
*Model_Space
 70
0
 10
0.0
 20
0.0
 30
0.0
  3
*Model_Space
  1

  0
ENDBLK
  5
21
100
AcDbEntity
  8
0
100
AcDbBlockEnd
  0
BLOCK
  5
1C
100
AcDbEntity
  8
0
100
AcDbBlockBegin
  2
*Paper_Space
 70
0
 10
0.0
 20
0.0
 30
0.0
  3
*Paper_Space
  1

  0
ENDBLK
  5
1D
100
AcDbEntity
  8
0
100
AcDbBlockEnd
  0
BLOCK
  5
214
100
AcDbEntity
  8
0
100
AcDbBlockBegin
  2
_FILLED
 70
64
 10
0.0
 20
0.0
  3
_FILLED
  1

  0
SOLID
  5
215
100
AcDbEntity
  8
0
  6
BYBLOCK
 62
0
100
AcDbTrace
 10
0.0
 20
0.0
 11
-1.0
 21
0.25
 12
-1.0
 22
-0.25
 13
-1.0
 23
-0.25
  0
ENDBLK
  5
216
100
AcDbEntity
  8
0
  6
BYBLOCK
 62
0
100
AcDbBlockEnd
  0
ENDSEC
  0
SECTION
  2
ENTITIES
  0
LINE
  5
217
100
AcDbEntity
  8
0
100
AcDbLine
 62
7
  6
CONTINUOUS
 10
164.3648603284
 20
99.06032497
 11
159.3648613715
 21
99.06032497
  0
LINE
  5
218
100
AcDbEntity
  8
0
100
AcDbLine
 62
7
  6
CONTINUOUS
 10
164.3648603284
 20
101.0602992208
 11
159.3648613715
 21
101.0602992208
  0
LINE
  5
219
100
AcDbEntity
  8
0
100
AcDbLine
 62
7
  6
CONTINUOUS
 10
274.2698663496
 20
102.0603161486
 11
261.5469106757
 21
102.0603161486
  0
LINE
  5
21A
100
AcDbEntity
  8
0
100
AcDbLine
 62
7
  6
CONTINUOUS
 10
314.2698679292
 20
102.0603161486
 11
354.2698617303
 21
102.0603161486
  0
LINE
  5
21B
100
AcDbEntity
  8
0
100
AcDbLine
 62
7
  6
CONTINUOUS
 10
44.7896737454
 20
232.1738024154
 11
44.7896971184
 21
232.1729026775
  0
LINE
  5
21C
100
AcDbEntity
  8
0
100
AcDbLine
 62
7
  6
CONTINUOUS
 10
313.2698648893
 20
107.5628999276
 11
312.2698703134
 21
107.5603190543
  0
LINE
  5
21D
100
AcDbEntity
  8
0
100
AcDbLine
 62
7
  6
CONTINUOUS
 10
314.2698693125
 20
106.5603170277
 11
313.2698648893
 21
106.5603170277
  0
LINE
  5
21E
100
AcDbEntity
  8
0
100
AcDbLine
 62
7
  6
CONTINUOUS
 10
308.7698675119
 20
117.4603148331
 11
312.2698703133
 21
117.4604811201
  0
LINE
  5
21F
100
AcDbEntity
  8
0
100
AcDbLine
 62
7
  6
CONTINUOUS
 10
314.2698693125
 20
118.5603152694
 11
313.2698648893
 21
118.5603152694
  0
LINE
  5
220
100
AcDbEntity
  8
0
100
AcDbLine
 62
7
  6
CONTINUOUS
 10
157.7065516108
 20
121.0603099497
 11
165.8723623776
 21
121.0603099497
  0
LINE
  5
221
100
AcDbEntity
  8
0
100
AcDbLine
 62
7
  6
CONTINUOUS
 10
308.7698675119
 20
107.660317464
 11
312.2698703133
 21
107.6601511771
  0
LINE
  5
222
100
AcDbEntity
  8
0
100
AcDbLine
 62
7
  6
CONTINUOUS
 10
313.2698648893
 20
117.5577323695
 11
312.2698703134
 21
117.5603132428
  0
LINE
  5
223
100
AcDbEntity
  8
0
100
AcDbLine
 62
7
  6
CONTINUOUS
 10
44.7849584076
 20
251.5888838458
 11
44.3149899075
 21
254.7635024566
  0
LINE
  5
224
100
AcDbEntity
  8
0
100
AcDbLine
 62
7
  6
CONTINUOUS
 10
44.793877067
 20
278.9088896867
 11
44.7896904663
 21
279.5603159958
  0
LINE
  5
225
100
AcDbEntity
  8
0
100
AcDbLine
 62
7
  6
CONTINUOUS
 10
44.3149899075
 20
254.7635024566
 11
44.3149899075
 21
255.4171298405
  0
LINE
  5
226
100
AcDbEntity
  8
0
100
AcDbLine
 62
7
  6
CONTINUOUS
 10
44.3149899075
 20
275.7335024566
 11
44.3149899075
 21
276.3871298405
  0
LINE
  5
227
100
AcDbEntity
  8
0
100
AcDbLine
 62
7
  6
CONTINUOUS
 10
44.6149899075
 20
275.7335024566
 11
44.6149899075
 21
276.3871298405
  0
LINE
  5
228
100
AcDbEntity
  8
0
100
AcDbLine
 62
7
  6
CONTINUOUS
 10
44.7896744383
 20
232.1738024154
 11
44.7896744383
 21
251.5937951212
  0
LINE
  5
229
100
AcDbEntity
  8
0
100
AcDbLine
 62
7
  6
CONTINUOUS
 10
44.7896744383
 20
258.5869865412
 11
44.7896744383
 21
272.5637951212
  0
LINE
  5
22A
100
AcDbEntity
  8
0
100
AcDbLine
 62
7
  6
CONTINUOUS
 10
44.7896744383
 20
279.5569865412
 11
44.7896744383
 21
370.4834690727
  0
LINE
  5
22B
100
AcDbEntity
  8
0
100
AcDbLine
 62
7
  6
CONTINUOUS
 10
45.0845249537
 20
272.5603163054
 11
45.0845249537
 21
279.5603159917
  0
LINE
  5
22C
100
AcDbEntity
  8
0
100
AcDbLine
 62
7
  6
CONTINUOUS
 10
45.7698630752
 20
199.0671143115
 11
45.7698630752
 21
232.1758366167
  0
LINE
  5
22D
100
AcDbEntity
  8
0
100
AcDbLine
 62
7
  6
CONTINUOUS
 10
46.2949041086
 20
332.4899699916
 11
46.2949041086
 21
370.4834690727
  0
LINE
  5
22E
100
AcDbEntity
  8
0
100
AcDbLine
 62
7
  6
CONTINUOUS
 10
47.2958212278
 20
199.0315726598
 11
47.2958212278
 21
370.4834690727
  0
LINE
  5
22F
100
AcDbEntity
  8
0
100
AcDbLine
 62
7
  6
CONTINUOUS
 10
49.4325072297
 20
370.1608750932
 11
49.4325072297
 21
198.9818063214
  0
LINE
  5
230
100
AcDbEntity
  8
0
100
AcDbLine
 62
7
  6
CONTINUOUS
 10
50.4108020686
 20
198.959020497
 11
50.4108020686
 21
370.2007459781
  0
LINE
  5
231
100
AcDbEntity
  8
0
100
AcDbLine
 62
7
  6
CONTINUOUS
 10
52.5198648297
 20
188.1103816089
 11
52.5198648297
 21
192.8702506882
  0
LINE
  5
232
100
AcDbEntity
  8
0
100
AcDbLine
 62
7
  6
CONTINUOUS
 10
54.5298645317
 20
193.4903018435
 11
54.5298645317
 21
186.0645058991
  0
LINE
  5
233
100
AcDbEntity
  8
0
100
AcDbLine
 62
7
  6
CONTINUOUS
 10
56.5698648297
 20
196.0603161486
 11
56.5698648297
 21
198.8155675043
  0
LINE
  5
234
100
AcDbEntity
  8
0
100
AcDbLine
 62
7
  6
CONTINUOUS
 10
44.7896904663
 20
272.5603163013
 11
44.793860371
 21
273.2086707916
  0
LINE
  5
235
100
AcDbEntity
  8
0
100
AcDbLine
 62
7
  6
CONTINUOUS
 10
44.7849584076
 20
279.5617484513
 11
44.3149899075
 21
276.3871298405
  0
LINE
  5
236
100
AcDbEntity
  8
0
100
AcDbLine
 62
7
  6
CONTINUOUS
 10
45.0845249537
 20
279.5603162007
 11
44.6149899075
 21
276.3871298405
  0
LINE
  5
237
100
AcDbEntity
  8
0
100
AcDbLine
 62
7
  6
CONTINUOUS
 10
44.7849584076
 20
258.5917484513
 11
44.3149899075
 21
255.4171298405
  0
LINE
  5
238
100
AcDbEntity
  8
0
100
AcDbLine
 62
7
  6
CONTINUOUS
 10
45.0943939957
 20
279.5927531194
 11
44.6149899075
 21
276.3871298405
  0
LINE
  5
239
100
AcDbEntity
  8
0
100
AcDbLine
 62
7
  6
CONTINUOUS
 10
169.5463293516
 20
422.4694892945
 11
170.6223608279
 21
422.9763671936
  0
LINE
  5
23A
100
AcDbEntity
  8
0
100
AcDbLine
 62
7
  6
CONTINUOUS
 10
241.6748160919
 20
129.4603161486
 11
237.6749685749
 21
129.4603161486
  0
LINE
  5
23B
100
AcDbEntity
  8
0
100
AcDbLine
 62
7
  6
CONTINUOUS
 10
181.6698160919
 20
129.4603161486
 11
177.6699685749
 21
129.4603161486
  0
LINE
  5
23C
100
AcDbEntity
  8
0
100
AcDbLine
 62
7
  6
CONTINUOUS
 10
100.1698160919
 20
129.4603161486
 11
96.1699685749
 21
129.4603161486
  0
LINE
  5
23D
100
AcDbEntity
  8
0
100
AcDbLine
 62
7
  6
CONTINUOUS
 10
91.7698600614
 20
130.561022106
 11
86.0698604309
 21
130.561022106
  0
LINE
  5
23E
100
AcDbEntity
  8
0
100
AcDbLine
 62
7
  6
CONTINUOUS
 10
243.6747672554
 20
131.4608957075
 11
235.674962404
 21
131.4608957075
  0
LINE
  5
23F
100
AcDbEntity
  8
0
100
AcDbLine
 62
7
  6
CONTINUOUS
 10
183.6697672554
 20
131.4608957075
 11
175.669962404
 21
131.4608957075
  0
LINE
  5
240
100
AcDbEntity
  8
0
100
AcDbLine
 62
7
  6
CONTINUOUS
 10
102.1697672554
 20
131.4608957075
 11
94.169962404
 21
131.4608957075
  0
LINE
  5
241
100
AcDbEntity
  8
0
100
AcDbLine
 62
7
  6
CONTINUOUS
 10
86.0698604309
 20
132.0610325964
 11
91.7698600614
 21
132.0610325964
  0
LINE
  5
242
100
AcDbEntity
  8
0
100
AcDbLine
 62
7
  6
CONTINUOUS
 10
86.0773631656
 20
132.5603109034
 11
245.5898606503
 21
132.5603109034
  0
LINE
  5
243
100
AcDbEntity
  8
0
100
AcDbLine
 62
7
  6
CONTINUOUS
 10
245.5898606503
 20
134.0603213938
 11
245.8998606824
 21
134.0603213938
  0
LINE
  5
244
100
AcDbEntity
  8
0
100
AcDbLine
 62
7
  6
CONTINUOUS
 10
243.5898733302
 20
135.5603020819
 11
248.1643528962
 21
135.5603020819
  0
LINE
  5
245
100
AcDbEntity
  8
0
100
AcDbLine
 62
7
  6
CONTINUOUS
 10
170.6223608279
 20
131.1442535551
 11
169.5463293516
 21
131.6511314543
  0
LINE
  5
246
100
AcDbEntity
  8
0
100
AcDbLine
 62
7
  6
CONTINUOUS
 10
45.0943939959
 20
272.5278791769
 11
44.6149899075
 21
275.7335024566
  0
LINE
  5
247
100
AcDbEntity
  8
0
100
AcDbLine
 62
7
  6
CONTINUOUS
 10
44.7849584076
 20
272.5588838458
 11
44.3149899075
 21
275.7335024566
  0
LINE
  5
248
100
AcDbEntity
  8
0
100
AcDbLine
 62
7
  6
CONTINUOUS
 10
45.0845249537
 20
272.5603160964
 11
44.6149899075
 21
275.7335024566
  0
LINE
  5
249
100
AcDbEntity
  8
0
100
AcDbLine
 62
7
  6
CONTINUOUS
 10
60.1298628175
 20
185.3603051241
 11
60.1298628175
 21
185.2603034313
  0
LINE
  5
24A
100
AcDbEntity
  8
0
100
AcDbLine
 62
7
  6
CONTINUOUS
 10
64.8864203368
 20
185.0603000458
 11
64.8864203368
 21
183.550969951
  0
LINE
  5
24B
100
AcDbEntity
  8
0
100
AcDbLine
 62
7
  6
CONTINUOUS
 10
65.0414528536
 20
198.7603161486
 11
65.0414528536
 21
183.5431039022
  0
LINE
  5
24C
100
AcDbEntity
  8
0
100
AcDbLine
 62
7
  6
CONTINUOUS
 10
65.9107400877
 20
198.7603161486
 11
65.9107400877
 21
183.4989979567
  0
LINE
  5
24D
100
AcDbEntity
  8
0
100
AcDbLine
 62
7
  6
CONTINUOUS
 10
66.6985932545
 20
183.4590238175
 11
66.6985932545
 21
198.7603161486
  0
LINE
  5
24E
100
AcDbEntity
  8
0
100
AcDbLine
 62
7
  6
CONTINUOUS
 10
86.0698604309
 20
422.0595918776
 11
86.0773631656
 21
421.5603098454
  0
LINE
  5
24F
100
AcDbEntity
  8
0
100
AcDbLine
 62
7
  6
CONTINUOUS
 10
80.6698648297
 20
175.0603648864
 11
80.6698648297
 21
179.0602674108
  0
LINE
  5
250
100
AcDbEntity
  8
0
100
AcDbLine
 62
7
  6
CONTINUOUS
 10
80.6698648297
 20
380.0603648864
 11
80.6698648297
 21
384.0602674108
  0
LINE
  5
251
100
AcDbEntity
  8
0
100
AcDbLine
 62
7
  6
CONTINUOUS
 10
82.6704443887
 20
173.0604137228
 11
82.6704443887
 21
181.0602185743
  0
LINE
  5
252
100
AcDbEntity
  8
0
100
AcDbLine
 62
7
  6
CONTINUOUS
 10
82.6704443887
 20
378.0604137228
 11
82.6704443887
 21
386.0602185743
  0
LINE
  5
253
100
AcDbEntity
  8
0
100
AcDbLine
 62
7
  6
CONTINUOUS
 10
83.7648669606
 20
371.5601072165
 11
83.7648669606
 21
182.5931142432
  0
LINE
  5
254
100
AcDbEntity
  8
0
100
AcDbLine
 62
7
  6
CONTINUOUS
 10
83.7698662006
 20
132.8610163362
 11
83.7698662006
 21
182.5928605915
  0
LINE
  5
255
100
AcDbEntity
  8
0
100
AcDbLine
 62
7
  6
CONTINUOUS
 10
83.7698662006
 20
371.560310963
 11
83.7698662006
 21
421.259591374
  0
LINE
  5
256
100
AcDbEntity
  8
0
100
AcDbLine
 62
7
  6
CONTINUOUS
 10
86.0773631656
 20
132.5603109034
 11
86.0698604309
 21
132.0610325964
  0
LINE
  5
257
100
AcDbEntity
  8
0
100
AcDbLine
 62
7
  6
CONTINUOUS
 10
59.2965692305
 20
196.0603161486
 11
59.0347541296
 21
194.7176234062
  0
LINE
  5
258
100
AcDbEntity
  8
0
100
AcDbLine
 62
7
  6
CONTINUOUS
 10
55.4764611446
 20
186.1808226641
 11
60.1298628175
 21
185.3603051241
  0
LINE
  5
259
100
AcDbEntity
  8
0
100
AcDbLine
 62
7
  6
CONTINUOUS
 10
91.7698600614
 20
423.5595911922
 11
91.7698600614
 21
422.0595918776
  0
LINE
  5
25A
100
AcDbEntity
  8
0
100
AcDbLine
 62
7
  6
CONTINUOUS
 10
91.7698600614
 20
132.0610325964
 11
91.7698600614
 21
130.561022106
  0
LINE
  5
25B
100
AcDbEntity
  8
0
100
AcDbLine
 62
7
  6
CONTINUOUS
 10
94.169962404
 20
422.6597365896
 11
94.169962404
 21
421.5603098454
  0
LINE
  5
25C
100
AcDbEntity
  8
0
100
AcDbLine
 62
7
  6
CONTINUOUS
 10
94.169962404
 20
131.4608957075
 11
94.169962404
 21
132.5603109034
  0
LINE
  5
25D
100
AcDbEntity
  8
0
100
AcDbLine
 62
7
  6
CONTINUOUS
 10
102.1697672554
 20
132.5603109034
 11
102.1697672554
 21
131.4608957075
  0
LINE
  5
25E
100
AcDbEntity
  8
0
100
AcDbLine
 62
7
  6
CONTINUOUS
 10
102.1697672554
 20
421.5603098454
 11
102.1697672554
 21
422.6597365896
  0
LINE
  5
25F
100
AcDbEntity
  8
0
100
AcDbLine
 62
7
  6
CONTINUOUS
 10
157.7065516108
 20
433.060310799
 11
153.901443752
 21
424.9823019089
  0
LINE
  5
260
100
AcDbEntity
  8
0
100
AcDbLine
 62
7
  6
CONTINUOUS
 10
154.0371411764
 20
424.9183759274
 11
153.122362616
 21
422.9763671936
  0
LINE
  5
261
100
AcDbEntity
  8
0
100
AcDbLine
 62
7
  6
CONTINUOUS
 10
154.1983940923
 20
422.4694892945
 11
157.3009639883
 21
429.0560592639
  0
LINE
  5
262
100
AcDbEntity
  8
0
100
AcDbLine
 62
7
  6
CONTINUOUS
 10
261.5469106757
 20
452.0603101881
 11
258.862868818
 21
450.1809249813
  0
LINE
  5
263
100
AcDbEntity
  8
0
100
AcDbLine
 62
7
  6
CONTINUOUS
 10
82.6704443887
 20
173.0604137228
 11
83.7698662006
 21
173.0604137228
  0
LINE
  5
264
100
AcDbEntity
  8
0
100
AcDbLine
 62
7
  6
CONTINUOUS
 10
82.6704443887
 20
181.0602185743
 11
83.7698662006
 21
181.0602185743
  0
LINE
  5
265
100
AcDbEntity
  8
0
100
AcDbLine
 62
7
  6
CONTINUOUS
 10
54.7211406542
 20
185.8646962548
 11
55.2798626744
 21
185.8403013285
  0
LINE
  5
266
100
AcDbEntity
  8
0
100
AcDbLine
 62
7
  6
CONTINUOUS
 10
64.8864203368
 20
183.550969951
 11
83.7698662006
 21
182.5928605915
  0
LINE
  5
267
100
AcDbEntity
  8
0
100
AcDbLine
 62
7
  6
CONTINUOUS
 10
258.862868818
 20
103.939710203
 11
261.5469106757
 21
102.0603161486
  0
LINE
  5
268
100
AcDbEntity
  8
0
100
AcDbLine
 62
7
  6
CONTINUOUS
 10
153.901443752
 20
129.1383188398
 11
157.7065516108
 21
121.0603099497
  0
LINE
  5
269
100
AcDbEntity
  8
0
100
AcDbLine
 62
7
  6
CONTINUOUS
 10
153.122362616
 20
131.1442535551
 11
154.0371411764
 21
129.2022448214
  0
LINE
  5
26A
100
AcDbEntity
  8
0
100
AcDbLine
 62
7
  6
CONTINUOUS
 10
157.3009639883
 20
125.0645614848
 11
154.1983940923
 21
131.6511314543
  0
LINE
  5
26B
100
AcDbEntity
  8
0
100
AcDbLine
 62
7
  6
CONTINUOUS
 10
55.2798626744
 20
185.8403013285
 11
55.4764611446
 21
186.1808226641
  0
LINE
  5
26C
100
AcDbEntity
  8
0
100
AcDbLine
 62
7
  6
CONTINUOUS
 10
60.329866203
 20
185.0603000458
 11
65.0414528536
 21
185.0603000458
  0
LINE
  5
26D
100
AcDbEntity
  8
0
100
AcDbLine
 62
7
  6
CONTINUOUS
 10
52.5198648297
 20
188.1103161486
 11
54.5298645317
 21
188.1103161486
  0
LINE
  5
26E
100
AcDbEntity
  8
0
100
AcDbLine
 62
7
  6
CONTINUOUS
 10
52.5198648297
 20
192.8703161486
 11
54.5298645317
 21
192.8703161486
  0
LINE
  5
26F
100
AcDbEntity
  8
0
100
AcDbLine
 62
7
  6
CONTINUOUS
 10
57.4298618161
 20
194.0902994211
 11
55.1298645317
 21
194.0903018435
  0
LINE
  5
270
100
AcDbEntity
  8
0
100
AcDbLine
 62
7
  6
CONTINUOUS
 10
56.5698648297
 20
196.0603161486
 11
65.0414528536
 21
196.0603161486
  0
LINE
  5
271
100
AcDbEntity
  8
0
100
AcDbLine
 62
7
  6
CONTINUOUS
 10
66.6985932545
 20
198.7603161486
 11
58.9420465513
 21
198.7603161486
  0
LINE
  5
272
100
AcDbEntity
  8
0
100
AcDbLine
 62
7
  6
CONTINUOUS
 10
58.9420465513
 20
198.7603161486
 11
45.7692573308
 21
199.0671284202
  0
LINE
  5
273
100
AcDbEntity
  8
0
100
AcDbLine
 62
7
  6
CONTINUOUS
 10
58.8085085051
 20
194.4922291829
 11
58.6672244393
 21
194.4602952536
  0
LINE
  5
274
100
AcDbEntity
  8
0
100
AcDbLine
 62
7
  6
CONTINUOUS
 10
157.8723617899
 20
125.1924021408
 11
157.8723610663
 21
132.5603109034
  0
LINE
  5
275
100
AcDbEntity
  8
0
100
AcDbLine
 62
7
  6
CONTINUOUS
 10
157.8723610663
 20
421.5603098454
 11
157.8723617899
 21
428.928218608
  0
LINE
  5
276
100
AcDbEntity
  8
0
100
AcDbLine
 62
7
  6
CONTINUOUS
 10
159.3648613715
 20
99.06032497
 11
159.3648613715
 21
121.0603099497
  0
LINE
  5
277
100
AcDbEntity
  8
0
100
AcDbLine
 62
7
  6
CONTINUOUS
 10
159.3648613715
 20
433.060310799
 11
159.3648613715
 21
455.0603102142
  0
LINE
  5
278
100
AcDbEntity
  8
0
100
AcDbLine
 62
7
  6
CONTINUOUS
 10
164.3648603284
 20
99.06032497
 11
164.3648603284
 21
121.0603099497
  0
LINE
  5
279
100
AcDbEntity
  8
0
100
AcDbLine
 62
7
  6
CONTINUOUS
 10
164.3648603284
 20
433.060310799
 11
164.3648603284
 21
455.0603102142
  0
LINE
  5
27A
100
AcDbEntity
  8
0
100
AcDbLine
 62
7
  6
CONTINUOUS
 10
165.8723617899
 20
428.928218608
 11
165.8723623776
 21
421.5603098454
  0
LINE
  5
27B
100
AcDbEntity
  8
0
100
AcDbLine
 62
7
  6
CONTINUOUS
 10
165.8723623776
 20
132.5603109034
 11
165.8723617899
 21
125.1924021408
  0
LINE
  5
27C
100
AcDbEntity
  8
0
100
AcDbLine
 62
7
  6
CONTINUOUS
 10
44.7896989729
 20
232.1729026775
 11
45.7699439546
 21
232.1729026775
  0
LINE
  5
27D
100
AcDbEntity
  8
0
100
AcDbLine
 62
7
  6
CONTINUOUS
 10
45.8956610396
 20
238.1361608435
 11
44.9169347078
 21
238.1361608435
  0
LINE
  5
27E
100
AcDbEntity
  8
0
100
AcDbLine
 62
7
  6
CONTINUOUS
 10
175.669962404
 20
422.6597365896
 11
175.669962404
 21
421.5603098454
  0
LINE
  5
27F
100
AcDbEntity
  8
0
100
AcDbLine
 62
7
  6
CONTINUOUS
 10
175.669962404
 20
131.4608957075
 11
175.669962404
 21
132.5603109034
  0
LINE
  5
280
100
AcDbEntity
  8
0
100
AcDbLine
 62
7
  6
CONTINUOUS
 10
183.6697672554
 20
132.5603109034
 11
183.6697672554
 21
131.4608957075
  0
LINE
  5
281
100
AcDbEntity
  8
0
100
AcDbLine
 62
7
  6
CONTINUOUS
 10
183.6697672554
 20
421.5603098454
 11
183.6697672554
 21
422.6597365896
  0
LINE
  5
282
100
AcDbEntity
  8
0
100
AcDbLine
 62
7
  6
CONTINUOUS
 10
258.862868818
 20
450.1809249813
 11
248.9259214425
 21
422.8793885739
  0
LINE
  5
283
100
AcDbEntity
  8
0
100
AcDbLine
 62
7
  6
CONTINUOUS
 10
46.4564606959
 20
266.6018341285
 11
45.4754074275
 21
266.6018341285
  0
LINE
  5
284
100
AcDbEntity
  8
0
100
AcDbLine
 62
7
  6
CONTINUOUS
 10
248.9259214425
 20
131.2412303122
 11
258.862868818
 21
103.939710203
  0
LINE
  5
285
100
AcDbEntity
  8
0
100
AcDbLine
 62
7
  6
CONTINUOUS
 10
248.9259214425
 20
422.8793885739
 11
248.4288410568
 21
420.0603086682
  0
LINE
  5
286
100
AcDbEntity
  8
0
100
AcDbLine
 62
7
  6
CONTINUOUS
 10
248.1643528962
 20
135.5603020819
 11
248.9259214425
 21
131.2412303122
  0
LINE
  5
287
100
AcDbEntity
  8
0
100
AcDbLine
 62
7
  6
CONTINUOUS
 10
235.674962404
 20
422.6597365896
 11
235.674962404
 21
421.5603098454
  0
LINE
  5
288
100
AcDbEntity
  8
0
100
AcDbLine
 62
7
  6
CONTINUOUS
 10
235.674962404
 20
131.4608957075
 11
235.674962404
 21
132.5603109034
  0
LINE
  5
289
100
AcDbEntity
  8
0
100
AcDbLine
 62
7
  6
CONTINUOUS
 10
243.5898733302
 20
421.5603098454
 11
243.5898733302
 21
420.0603161486
  0
LINE
  5
28A
100
AcDbEntity
  8
0
100
AcDbLine
 62
7
  6
CONTINUOUS
 10
243.5898733302
 20
135.5603161486
 11
243.5898733302
 21
132.5603109034
  0
LINE
  5
28B
100
AcDbEntity
  8
0
100
AcDbLine
 62
7
  6
CONTINUOUS
 10
243.6747672554
 20
132.5603109034
 11
243.6747672554
 21
131.4608957075
  0
LINE
  5
28C
100
AcDbEntity
  8
0
100
AcDbLine
 62
7
  6
CONTINUOUS
 10
243.6747672554
 20
421.5603098454
 11
243.6747672554
 21
422.6597365896
  0
LINE
  5
28D
100
AcDbEntity
  8
0
100
AcDbLine
 62
7
  6
CONTINUOUS
 10
245.5898606503
 20
132.5603109034
 11
245.5898606503
 21
135.5603161486
  0
LINE
  5
28E
100
AcDbEntity
  8
0
100
AcDbLine
 62
7
  6
CONTINUOUS
 10
245.5898606503
 20
420.0603161486
 11
245.5898606503
 21
421.5603098454
  0
LINE
  5
28F
100
AcDbEntity
  8
0
100
AcDbLine
 62
7
  6
CONTINUOUS
 10
245.8998606824
 20
134.0603213938
 11
245.8998606824
 21
135.5603161486
  0
LINE
  5
290
100
AcDbEntity
  8
0
100
AcDbLine
 62
7
  6
CONTINUOUS
 10
169.5463293516
 20
131.6511314543
 11
166.4437585794
 21
125.0645499857
  0
LINE
  5
291
100
AcDbEntity
  8
0
100
AcDbLine
 62
7
  6
CONTINUOUS
 10
165.8723623776
 20
121.0603099497
 11
170.6223608279
 21
131.1442535551
  0
LINE
  5
292
100
AcDbEntity
  8
0
100
AcDbLine
 62
7
  6
CONTINUOUS
 10
58.6672244393
 20
194.4602952536
 11
57.4298618161
 21
194.0902994211
  0
LINE
  5
293
100
AcDbEntity
  8
0
100
AcDbLine
 62
7
  6
CONTINUOUS
 10
166.4437585794
 20
429.056070763
 11
169.5463293516
 21
422.4694892945
  0
LINE
  5
294
100
AcDbEntity
  8
0
100
AcDbLine
 62
7
  6
CONTINUOUS
 10
170.6223608279
 20
422.9763671936
 11
165.8723623776
 21
433.060310799
  0
LINE
  5
295
100
AcDbEntity
  8
0
100
AcDbLine
 62
7
  6
CONTINUOUS
 10
271.9698646687
 20
452.0603101881
 11
271.9698646687
 21
102.0603161486
  0
LINE
  5
296
100
AcDbEntity
  8
0
100
AcDbLine
 62
7
  6
CONTINUOUS
 10
274.2698663496
 20
102.0603161486
 11
274.2698663496
 21
452.0603101881
  0
LINE
  5
297
100
AcDbEntity
  8
0
100
AcDbLine
 62
7
  6
CONTINUOUS
 10
44.7897526228
 20
370.4834690727
 11
57.3478576334
 21
370.4834690727
  0
LINE
  5
298
100
AcDbEntity
  8
0
100
AcDbLine
 62
7
  6
CONTINUOUS
 10
308.2698675119
 20
108.160317464
 11
308.2698675119
 21
116.9603148331
  0
LINE
  5
299
100
AcDbEntity
  8
0
100
AcDbLine
 62
7
  6
CONTINUOUS
 10
308.2698675119
 20
439.170317464
 11
308.2698675119
 21
447.9703148331
  0
LINE
  5
29A
100
AcDbEntity
  8
0
100
AcDbLine
 62
7
  6
CONTINUOUS
 10
308.7698675119
 20
107.660317464
 11
308.7698675119
 21
117.4603148331
  0
LINE
  5
29B
100
AcDbEntity
  8
0
100
AcDbLine
 62
7
  6
CONTINUOUS
 10
308.7698675119
 20
438.670317464
 11
308.7698675119
 21
448.4703148331
  0
LINE
  5
29C
100
AcDbEntity
  8
0
100
AcDbLine
 62
7
  6
CONTINUOUS
 10
47.3081678564
 20
370.0742966024
 11
83.7698662006
 21
371.560310963
  0
LINE
  5
29D
100
AcDbEntity
  8
0
100
AcDbLine
 62
7
  6
CONTINUOUS
 10
82.6704443887
 20
378.0604137228
 11
83.7698662006
 21
378.0604137228
  0
LINE
  5
29E
100
AcDbEntity
  8
0
100
AcDbLine
 62
7
  6
CONTINUOUS
 10
82.6704443887
 20
386.0602185743
 11
83.7698662006
 21
386.0602185743
  0
LINE
  5
29F
100
AcDbEntity
  8
0
100
AcDbLine
 62
7
  6
CONTINUOUS
 10
312.2698703134
 20
107.5603788093
 11
312.2698703134
 21
117.5602534878
  0
LINE
  5
2A0
100
AcDbEntity
  8
0
100
AcDbLine
 62
7
  6
CONTINUOUS
 10
312.2698703134
 20
438.5703788093
 11
312.2698703134
 21
448.5702534878
  0
LINE
  5
2A1
100
AcDbEntity
  8
0
100
AcDbLine
 62
7
  6
CONTINUOUS
 10
313.2698648893
 20
106.561118786
 11
313.2698648893
 21
118.5595135111
  0
LINE
  5
2A2
100
AcDbEntity
  8
0
100
AcDbLine
 62
7
  6
CONTINUOUS
 10
313.2698648893
 20
437.571118786
 11
313.2698648893
 21
449.5695135111
  0
LINE
  5
2A3
100
AcDbEntity
  8
0
100
AcDbLine
 62
7
  6
CONTINUOUS
 10
314.2698679292
 20
452.0603161486
 11
314.2698679292
 21
102.0603161486
  0
LINE
  5
2A4
100
AcDbEntity
  8
0
100
AcDbLine
 62
7
  6
CONTINUOUS
 10
316.5698679292
 20
102.0603161486
 11
316.5698679292
 21
452.0603161486
  0
LINE
  5
2A5
100
AcDbEntity
  8
0
100
AcDbLine
 62
7
  6
CONTINUOUS
 10
154.1983940923
 20
131.6511314543
 11
153.122362616
 21
131.1442535551
  0
LINE
  5
2A6
100
AcDbEntity
  8
0
100
AcDbLine
 62
7
  6
CONTINUOUS
 10
154.0371411764
 20
129.2022448214
 11
153.901443752
 21
129.1383188398
  0
LINE
  5
2A7
100
AcDbEntity
  8
0
100
AcDbLine
 62
7
  6
CONTINUOUS
 10
153.122362616
 20
422.9763671936
 11
154.1983940923
 21
422.4694892945
  0
LINE
  5
2A8
100
AcDbEntity
  8
0
100
AcDbLine
 62
7
  6
CONTINUOUS
 10
153.901443752
 20
424.9823019089
 11
154.0371411764
 21
424.9183759274
  0
LINE
  5
2A9
100
AcDbEntity
  8
0
100
AcDbLine
 62
7
  6
CONTINUOUS
 10
248.4288410568
 20
420.0603086682
 11
243.5898733302
 21
420.0603086682
  0
LINE
  5
2AA
100
AcDbEntity
  8
0
100
AcDbLine
 62
7
  6
CONTINUOUS
 10
351.9698679292
 20
452.0603161486
 11
351.9698679292
 21
102.0603161486
  0
LINE
  5
2AB
100
AcDbEntity
  8
0
100
AcDbLine
 62
7
  6
CONTINUOUS
 10
354.2698617303
 20
102.0603161486
 11
354.2698617303
 21
452.0603161486
  0
LINE
  5
2AC
100
AcDbEntity
  8
0
100
AcDbLine
 62
7
  6
CONTINUOUS
 10
86.0773631656
 20
421.5603098454
 11
245.5898606503
 21
421.5603098454
  0
LINE
  5
2AD
100
AcDbEntity
  8
0
100
AcDbLine
 62
7
  6
CONTINUOUS
 10
91.7698600614
 20
422.0595918776
 11
86.0698604309
 21
422.0595918776
  0
LINE
  5
2AE
100
AcDbEntity
  8
0
100
AcDbLine
 62
7
  6
CONTINUOUS
 10
94.169962404
 20
422.6597365896
 11
102.1697672554
 21
422.6597365896
  0
LINE
  5
2AF
100
AcDbEntity
  8
0
100
AcDbLine
 62
7
  6
CONTINUOUS
 10
175.669962404
 20
422.6597365896
 11
183.6697672554
 21
422.6597365896
  0
LINE
  5
2B0
100
AcDbEntity
  8
0
100
AcDbLine
 62
7
  6
CONTINUOUS
 10
235.674962404
 20
422.6597365896
 11
243.6747672554
 21
422.6597365896
  0
LINE
  5
2B1
100
AcDbEntity
  8
0
100
AcDbLine
 62
7
  6
CONTINUOUS
 10
86.0698604309
 20
423.5595911922
 11
91.7698600614
 21
423.5595911922
  0
LINE
  5
2B2
100
AcDbEntity
  8
0
100
AcDbLine
 62
7
  6
CONTINUOUS
 10
96.1699135675
 20
424.6603161486
 11
100.1698160919
 21
424.6603161486
  0
LINE
  5
2B3
100
AcDbEntity
  8
0
100
AcDbLine
 62
7
  6
CONTINUOUS
 10
177.6699135675
 20
424.6603161486
 11
181.6698160919
 21
424.6603161486
  0
LINE
  5
2B4
100
AcDbEntity
  8
0
100
AcDbLine
 62
7
  6
CONTINUOUS
 10
237.6749135675
 20
424.6603161486
 11
241.6748160919
 21
424.6603161486
  0
LINE
  5
2B5
100
AcDbEntity
  8
0
100
AcDbLine
 62
7
  6
CONTINUOUS
 10
165.8723623776
 20
433.060310799
 11
157.7065516108
 21
433.060310799
  0
LINE
  5
2B6
100
AcDbEntity
  8
0
100
AcDbLine
 62
7
  6
CONTINUOUS
 10
313.2698648893
 20
438.5728999276
 11
312.2698703134
 21
438.5703190543
  0
LINE
  5
2B7
100
AcDbEntity
  8
0
100
AcDbLine
 62
7
  6
CONTINUOUS
 10
314.2698693125
 20
437.5703170277
 11
313.2698648893
 21
437.5703170277
  0
LINE
  5
2B8
100
AcDbEntity
  8
0
100
AcDbLine
 62
7
  6
CONTINUOUS
 10
308.7698675119
 20
448.4703148331
 11
312.2698703133
 21
448.4704811201
  0
LINE
  5
2B9
100
AcDbEntity
  8
0
100
AcDbLine
 62
7
  6
CONTINUOUS
 10
314.2698693125
 20
449.5703152694
 11
313.2698648893
 21
449.5703152694
  0
LINE
  5
2BA
100
AcDbEntity
  8
0
100
AcDbLine
 62
7
  6
CONTINUOUS
 10
261.5469106757
 20
452.0603101881
 11
274.2698663496
 21
452.0603101881
  0
LINE
  5
2BB
100
AcDbEntity
  8
0
100
AcDbLine
 62
7
  6
CONTINUOUS
 10
314.2698679292
 20
452.0603161486
 11
354.2698617303
 21
452.0603161486
  0
LINE
  5
2BC
100
AcDbEntity
  8
0
100
AcDbLine
 62
7
  6
CONTINUOUS
 10
308.7698675119
 20
438.670317464
 11
312.2698703133
 21
438.6701511771
  0
LINE
  5
2BD
100
AcDbEntity
  8
0
100
AcDbLine
 62
7
  6
CONTINUOUS
 10
313.2698648893
 20
448.5677323695
 11
312.2698703134
 21
448.5703132428
  0
LINE
  5
2BE
100
AcDbEntity
  8
0
100
AcDbLine
 62
7
  6
CONTINUOUS
 10
164.3648603284
 20
453.0603102356
 11
159.3648613715
 21
453.0603102356
  0
LINE
  5
2BF
100
AcDbEntity
  8
0
100
AcDbLine
 62
7
  6
CONTINUOUS
 10
164.3648603284
 20
455.0603102142
 11
159.3648613715
 21
455.0603102142
  0
ARC
  5
2C0
100
AcDbEntity
  8
0
100
AcDbCircle
 62
7
  6
CONTINUOUS
 10
-3639.994310836
 20
353.9026589078
 40
3687.3381773484
100
AcDbArc
 50
359.7075115458
 51
359.9996662268
  0
ARC
  5
2C1
100
AcDbEntity
  8
0
100
AcDbCircle
 62
7
  6
CONTINUOUS
 10
-3624.6125888258
 20
353.8103902509
 40
3671.9564559579
100
AcDbArc
 50
0.0011045528
 51
0.1751677872
  0
CIRCLE
  5
2C2
100
AcDbEntity
  8
0
100
AcDbCircle
 62
7
  6
CONTINUOUS
 10
151.2698648297
 20
250.2353161486
 40
3.4499965297
  0
CIRCLE
  5
2C3
100
AcDbEntity
  8
0
100
AcDbCircle
 62
7
  6
CONTINUOUS
 10
151.2698648297
 20
164.2353161486
 40
3.4499965297
  0
ARC
  5
2C4
100
AcDbEntity
  8
0
100
AcDbCircle
 62
7
  6
CONTINUOUS
 10
86.0677830415
 20
132.8589389468
 40
2.2979177799
100
AcDbArc
 50
180.0001167067
 51
269.9998832934
  0
ARC
  5
2C5
100
AcDbEntity
  8
0
100
AcDbCircle
 62
7
  6
CONTINUOUS
 10
100.1698160919
 20
131.4602674108
 40
1.9999512622
100
AcDbArc
 50
270.0
 51
360.0
  0
ARC
  5
2C6
100
AcDbEntity
  8
0
100
AcDbCircle
 62
7
  6
CONTINUOUS
 10
96.1699135675
 20
131.4602674108
 40
1.9999512622
100
AcDbArc
 50
180.0
 51
270.0
  0
ARC
  5
2C7
100
AcDbEntity
  8
0
100
AcDbCircle
 62
7
  6
CONTINUOUS
 10
181.6698160919
 20
131.4602674108
 40
1.9999512622
100
AcDbArc
 50
270.0
 51
360.0
  0
ARC
  5
2C8
100
AcDbEntity
  8
0
100
AcDbCircle
 62
7
  6
CONTINUOUS
 10
177.6699135675
 20
131.4602674108
 40
1.9999512622
100
AcDbArc
 50
180.0
 51
270.0
  0
ARC
  5
2C9
100
AcDbEntity
  8
0
100
AcDbCircle
 62
7
  6
CONTINUOUS
 10
241.6748160919
 20
131.4602674108
 40
1.9999512622
100
AcDbArc
 50
270.0
 51
360.0
  0
ARC
  5
2CA
100
AcDbEntity
  8
0
100
AcDbCircle
 62
7
  6
CONTINUOUS
 10
237.6749135675
 20
131.4602674108
 40
1.9999512622
100
AcDbArc
 50
180.0
 51
270.0
  0
ARC
  5
2CB
100
AcDbEntity
  8
0
100
AcDbCircle
 62
7
  6
CONTINUOUS
 10
82.6698160919
 20
179.0602674108
 40
1.9999512622
100
AcDbArc
 50
89.9820001857
 51
180.0
  0
ARC
  5
2CC
100
AcDbEntity
  8
0
100
AcDbCircle
 62
7
  6
CONTINUOUS
 10
82.6698160919
 20
175.0603648864
 40
1.9999512622
100
AcDbArc
 50
180.0
 51
270.0179998143
  0
CIRCLE
  5
2CD
100
AcDbEntity
  8
0
100
AcDbCircle
 62
7
  6
CONTINUOUS
 10
151.2698648297
 20
250.2353161486
 40
1.0210126638
  0
CIRCLE
  5
2CE
100
AcDbEntity
  8
0
100
AcDbCircle
 62
7
  6
CONTINUOUS
 10
151.2698648297
 20
164.2353161486
 40
1.0210126638
  0
ARC
  5
2CF
100
AcDbEntity
  8
0
100
AcDbCircle
 62
7
  6
CONTINUOUS
 10
55.1298645317
 20
193.4903018435
 40
0.6
100
AcDbArc
 50
90.0
 51
180.0000000001
  0
ARC
  5
2D0
100
AcDbEntity
  8
0
100
AcDbCircle
 62
7
  6
CONTINUOUS
 10
308.7698675119
 20
108.160317464
 40
0.5
100
AcDbArc
 50
180.0
 51
270.0
  0
ARC
  5
2D1
100
AcDbEntity
  8
0
100
AcDbCircle
 62
7
  6
CONTINUOUS
 10
308.7698675119
 20
116.9603148331
 40
0.5
100
AcDbArc
 50
90.0
 51
180.0
  0
ARC
  5
2D2
100
AcDbEntity
  8
0
100
AcDbCircle
 62
7
  6
CONTINUOUS
 10
166.1723643389
 20
125.1924041825
 40
0.300002549
100
AcDbArc
 50
180.0003899422
 51
334.7748113473
  0
ARC
  5
2D3
100
AcDbEntity
  8
0
100
AcDbCircle
 62
7
  6
CONTINUOUS
 10
58.7423833812
 20
194.7848513195
 40
0.3000004114
100
AcDbArc
 50
282.7335135003
 51
347.0504664191
  0
ARC
  5
2D4
100
AcDbEntity
  8
0
100
AcDbCircle
 62
7
  6
CONTINUOUS
 10
157.5723617899
 20
125.1924021408
 40
0.3
100
AcDbArc
 50
205.2225592966
 51
360.0
  0
ARC
  5
2D5
100
AcDbEntity
  8
0
100
AcDbCircle
 62
7
  6
CONTINUOUS
 10
60.3298688128
 20
185.2603060411
 40
0.2000059953
100
AcDbArc
 50
180.0007476167
 51
269.9992523823
  0
ARC
  5
2D6
100
AcDbEntity
  8
0
100
AcDbCircle
 62
7
  6
CONTINUOUS
 10
54.7298645317
 20
186.0645058991
 40
0.2
100
AcDbArc
 50
180.0
 51
267.5000000003
  0
ARC
  5
2D7
100
AcDbEntity
  8
0
100
AcDbCircle
 62
7
  6
CONTINUOUS
 10
-3.8214924139
 20
425.9272120694
 40
106.0291064167
100
AcDbArc
 50
298.2075183035
 51
298.8230666778
  0
ARC
  5
2D8
100
AcDbEntity
  8
0
100
AcDbCircle
 62
7
  6
CONTINUOUS
 10
86.0925936575
 20
421.2368637905
 40
2.3228386474
100
AcDbArc
 50
90.5607529968
 51
179.4393862056
  0
ARC
  5
2D9
100
AcDbEntity
  8
0
100
AcDbCircle
 62
7
  6
CONTINUOUS
 10
100.1698160919
 20
422.6603648864
 40
1.9999512622
100
AcDbArc
 50
0.0
 51
90.0
  0
ARC
  5
2DA
100
AcDbEntity
  8
0
100
AcDbCircle
 62
7
  6
CONTINUOUS
 10
96.1699135675
 20
422.6603648864
 40
1.9999512622
100
AcDbArc
 50
90.0
 51
180.0
  0
ARC
  5
2DB
100
AcDbEntity
  8
0
100
AcDbCircle
 62
7
  6
CONTINUOUS
 10
181.6698160919
 20
422.6603648864
 40
1.9999512622
100
AcDbArc
 50
0.0
 51
90.0
  0
ARC
  5
2DC
100
AcDbEntity
  8
0
100
AcDbCircle
 62
7
  6
CONTINUOUS
 10
177.6699135675
 20
422.6603648864
 40
1.9999512622
100
AcDbArc
 50
90.0
 51
180.0
  0
ARC
  5
2DD
100
AcDbEntity
  8
0
100
AcDbCircle
 62
7
  6
CONTINUOUS
 10
241.6748160919
 20
422.6603648864
 40
1.9999512622
100
AcDbArc
 50
0.0
 51
90.0
  0
ARC
  5
2DE
100
AcDbEntity
  8
0
100
AcDbCircle
 62
7
  6
CONTINUOUS
 10
237.6749135675
 20
422.6603648864
 40
1.9999512622
100
AcDbArc
 50
90.0
 51
180.0
  0
ARC
  5
2DF
100
AcDbEntity
  8
0
100
AcDbCircle
 62
7
  6
CONTINUOUS
 10
82.6698160919
 20
384.0602674108
 40
1.9999512622
100
AcDbArc
 50
89.9820001857
 51
180.0
  0
ARC
  5
2E0
100
AcDbEntity
  8
0
100
AcDbCircle
 62
7
  6
CONTINUOUS
 10
82.6698160919
 20
380.0603648864
 40
1.9999512622
100
AcDbArc
 50
180.0
 51
270.0179998143
  0
ARC
  5
2E1
100
AcDbEntity
  8
0
100
AcDbCircle
 62
7
  6
CONTINUOUS
 10
308.7698675119
 20
439.170317464
 40
0.5
100
AcDbArc
 50
180.0
 51
270.0
  0
ARC
  5
2E2
100
AcDbEntity
  8
0
100
AcDbCircle
 62
7
  6
CONTINUOUS
 10
308.7698675119
 20
447.9703148331
 40
0.5
100
AcDbArc
 50
90.0
 51
180.0
  0
ARC
  5
2E3
100
AcDbEntity
  8
0
100
AcDbCircle
 62
7
  6
CONTINUOUS
 10
166.1723643389
 20
428.9282165662
 40
0.300002549
100
AcDbArc
 50
25.2251886527
 51
179.9996100578
  0
ARC
  5
2E4
100
AcDbEntity
  8
0
100
AcDbCircle
 62
7
  6
CONTINUOUS
 10
157.5723617899
 20
428.928218608
 40
0.3
100
AcDbArc
 50
0.0
 51
154.7774407033
  0
SPLINE
  5
2E5
100
AcDbEntity
  8
0
100
AcDbSpline
 62
7
  6
CONTINUOUS
 70
0
 71
3
 72
14
 73
10
 74
0
 42
0.0000001
 43
0.0000001
 44
0.0000000001
 40
0.0
 40
0.0
 40
0.0
 40
0.0
 40
0.3778628637
 40
0.5485208906
 40
0.6981533815
 40
0.821367493
 40
0.9137911618
 40
0.9727750882
 40
1.0
 40
1.0
 40
1.0
 40
1.0
 10
49.0354051396
 20
361.5603161486
 30
0.0
 10
49.0354051396
 20
362.071970376
 30
0.0
 10
49.0204251833
 20
362.8151255854
 30
0.0
 10
48.9673252479
 20
363.7584951307
 30
0.0
 10
48.9149939528
 20
364.3582504872
 30
0.0
 10
48.8562074101
 20
364.8455449252
 30
0.0
 10
48.7829975742
 20
365.2204996917
 30
0.0
 10
48.7258850585
 20
365.4359029165
 30
0.0
 10
48.6502893366
 20
365.5602961837
 30
0.0
 10
48.6134248001
 20
365.5603153538
 30
0.0
  0
SPLINE
  5
2E6
100
AcDbEntity
  8
0
100
AcDbSpline
 62
7
  6
CONTINUOUS
 70
0
 71
3
 72
14
 73
10
 74
0
 42
0.0000001
 43
0.0000001
 44
0.0000000001
 40
0.0
 40
0.0
 40
0.0
 40
0.0
 40
0.0262349138
 40
0.0849676047
 40
0.1773380338
 40
0.3006751992
 40
0.4505207727
 40
0.621480413
 40
1.0
 40
1.0
 40
1.0
 40
1.0
 10
48.2208457819
 20
222.3703787065
 30
0.0
 10
48.24477417
 20
222.3703881198
 30
0.0
 10
48.291439123
 20
222.4566852404
 30
0.0
 10
48.3266944573
 20
222.5995448532
 30
0.0
 10
48.3721556313
 20
222.8536266218
 30
0.0
 10
48.4084656609
 20
223.1820563309
 30
0.0
 10
48.4407486167
 20
223.5870178651
 30
0.0
 10
48.4734236078
 20
224.2236164825
 30
0.0
 10
48.4826164463
 20
224.7250752852
 30
0.0
 10
48.4826164463
 20
225.0703161486
 30
0.0
  0
SPLINE
  5
2E7
100
AcDbEntity
  8
0
100
AcDbSpline
 62
7
  6
CONTINUOUS
 70
0
 71
3
 72
14
 73
10
 74
0
 42
0.0000001
 43
0.0000001
 44
0.0000000001
 40
0.0
 40
0.0
 40
0.0
 40
0.0
 40
0.3785080594
 40
0.5494792485
 40
0.6993346408
 40
0.8226699546
 40
0.9150419337
 40
0.9737640277
 40
1.0
 40
1.0
 40
1.0
 40
1.0
 10
48.4826164463
 20
225.0703161486
 30
0.0
 10
48.4826164463
 20
225.415546313
 30
0.0
 10
48.4734267423
 20
225.9170056352
 30
0.0
 10
48.4407438305
 20
226.5536109729
 30
0.0
 10
48.4084676755
 20
226.9585940759
 30
0.0
 10
48.3721473006
 20
227.2870222118
 30
0.0
 10
48.3267057109
 20
227.5411175343
 30
0.0
 10
48.291420145
 20
227.6839267006
 30
0.0
 10
48.2447719071
 20
227.7702621034
 30
0.0
 10
48.2208425661
 20
227.7702535033
 30
0.0
  0
SPLINE
  5
2E8
100
AcDbEntity
  8
0
100
AcDbSpline
 62
7
  6
CONTINUOUS
 70
0
 71
3
 72
14
 73
10
 74
0
 42
0.0000001
 43
0.0000001
 44
0.0000000001
 40
0.0
 40
0.0
 40
0.0
 40
0.0
 40
0.0272298651
 40
0.0862098369
 40
0.1786421861
 40
0.301851535
 40
0.4514801294
 40
0.6221285765
 40
1.0
 40
1.0
 40
1.0
 40
1.0
 10
48.6134297857
 20
357.5603171876
 30
0.0
 10
48.6503009613
 20
357.5602954961
 30
0.0
 10
48.7258733126
 20
357.6847991663
 30
0.0
 10
48.7830198692
 20
357.9001263573
 30
0.0
 10
48.8561990505
 20
358.2751291118
 30
0.0
 10
48.9150019395
 20
358.7624024085
 30
0.0
 10
48.9673251005
 20
359.3621393059
 30
0.0
 10
49.0204258281
 20
360.3054975171
 30
0.0
 10
49.0354051396
 20
361.0486512548
 30
0.0
 10
49.0354051396
 20
361.5603161486
 30
0.0
  0
SPLINE
  5
2E9
100
AcDbEntity
  8
0
100
AcDbSpline
 62
7
  6
CONTINUOUS
 70
0
 71
3
 72
14
 73
10
 74
0
 42
0.0000001
 43
0.0000001
 44
0.0000000001
 40
0.0
 40
0.0
 40
0.0
 40
0.0
 40
0.02705277
 40
0.0858451107
 40
0.1781753039
 40
0.3013795301
 40
0.4510802128
 40
0.621846689
 40
1.0
 40
1.0
 40
1.0
 40
1.0
 10
48.6134248001
 20
365.5603153538
 30
0.0
 10
48.5768314631
 20
365.560334383
 30
0.0
 10
48.5023757844
 20
365.4355197389
 30
0.0
 10
48.4488283824
 20
365.2203204571
 30
0.0
 10
48.3802095955
 20
364.8451867678
 30
0.0
 10
48.3270440479
 20
364.3578761784
 30
0.0
 10
48.2802681308
 20
363.7580577684
 30
0.0
 10
48.233716885
 20
362.8147177432
 30
0.0
 10
48.2208423169
 20
362.0718309935
 30
0.0
 10
48.2208423169
 20
361.5603161486
 30
0.0
  0
SPLINE
  5
2EA
100
AcDbEntity
  8
0
100
AcDbSpline
 62
7
  6
CONTINUOUS
 70
0
 71
3
 72
14
 73
10
 74
0
 42
0.0000001
 43
0.0000001
 44
0.0000000001
 40
0.0
 40
0.0
 40
0.0
 40
0.0
 40
0.3786864796
 40
0.5497330707
 40
0.6996342488
 40
0.8229672151
 40
0.9152752661
 40
0.9738784849
 40
1.0
 40
1.0
 40
1.0
 40
1.0
 10
47.9724314163
 20
225.0703161486
 30
0.0
 10
47.9724314163
 20
224.7251496798
 30
0.0
 10
47.9806682825
 20
224.2238027143
 30
0.0
 10
48.0103702107
 20
223.5872061777
 30
0.0
 10
48.0401334168
 20
223.1821866002
 30
0.0
 10
48.073886682
 20
222.853749807
 30
0.0
 10
48.117258254
 20
222.5995847688
 30
0.0
 10
48.1509152524
 20
222.4568617654
 30
0.0
 10
48.1970364543
 20
222.37036934
 30
0.0
 10
48.2208457819
 20
222.3703787065
 30
0.0
  0
SPLINE
  5
2EB
100
AcDbEntity
  8
0
100
AcDbSpline
 62
7
  6
CONTINUOUS
 70
0
 71
3
 72
10
 73
6
 74
0
 42
0.0000001
 43
0.0000001
 44
0.0000000001
 40
0.0
 40
0.0
 40
0.0
 40
0.0
 40
0.7071098055
 40
0.9239983956
 40
1.0
 40
1.0
 40
1.0
 40
1.0
 10
44.8014871327
 20
255.0903161486
 30
0.0
 10
44.801417453
 20
255.9152834205
 30
0.0
 10
44.8018709555
 20
256.9933417308
 30
0.0
 10
44.7906247779
 20
258.1599126372
 30
0.0
 10
44.7920289793
 20
258.5016776729
 30
0.0
 10
44.7896904663
 20
258.5903159958
 30
0.0
  0
SPLINE
  5
2EC
100
AcDbEntity
  8
0
100
AcDbSpline
 62
7
  6
CONTINUOUS
 70
0
 71
3
 72
10
 73
6
 74
0
 42
0.0000001
 43
0.0000001
 44
0.0000000001
 40
0.0
 40
0.0
 40
0.0
 40
0.0
 40
0.0760126883
 40
0.2928893279
 40
1.0
 40
1.0
 40
1.0
 40
1.0
 10
44.7896904663
 20
251.5903163013
 30
0.0
 10
44.7924291201
 20
251.6789561011
 30
0.0
 10
44.7900835641
 20
252.0207470668
 30
0.0
 10
44.802592745
 20
253.187281724
 30
0.0
 10
44.8014572412
 20
254.2653478629
 30
0.0
 10
44.8014871327
 20
255.0903161486
 30
0.0
  0
SPLINE
  5
2ED
100
AcDbEntity
  8
0
100
AcDbSpline
 62
7
  6
CONTINUOUS
 70
0
 71
3
 72
16
 73
12
 74
0
 42
0.0000001
 43
0.0000001
 44
0.0000000001
 40
0.0
 40
0.0
 40
0.0
 40
0.0
 40
0.3817971387
 40
0.5542061228
 40
0.7052844486
 40
0.8293571044
 40
0.921628682
 40
0.9547885551
 40
0.9789107818
 40
0.9939032069
 40
1.0
 40
1.0
 40
1.0
 40
1.0
 10
45.2209929487
 20
276.0603161486
 30
0.0
 10
45.2209929487
 20
276.5070793
 30
0.0
 10
45.2162534911
 20
277.1556541823
 30
0.0
 10
45.199900896
 20
277.9806813764
 30
0.0
 10
45.1834645083
 20
278.504428814
 30
0.0
 10
45.1647325692
 20
278.9332078678
 30
0.0
 10
45.1491654695
 20
279.2264229232
 30
0.0
 10
45.1309783788
 20
279.3983397437
 30
0.0
 10
45.1163886009
 20
279.4855079301
 30
0.0
 10
45.1027734657
 20
279.5296644515
 30
0.0
 10
45.09165916
 20
279.560326467
 30
0.0
 10
45.0845249537
 20
279.5603159917
 30
0.0
  0
SPLINE
  5
2EE
100
AcDbEntity
  8
0
100
AcDbSpline
 62
7
  6
CONTINUOUS
 70
0
 71
3
 72
16
 73
12
 74
0
 42
0.0000001
 43
0.0000001
 44
0.0000000001
 40
0.0
 40
0.0
 40
0.0
 40
0.0
 40
0.0060945845
 40
0.0210866214
 40
0.0452103427
 40
0.0783729577
 40
0.1706513049
 40
0.294726492
 40
0.4458063939
 40
0.6182129216
 40
1.0
 40
1.0
 40
1.0
 40
1.0
 10
45.0845249537
 20
272.5603163054
 30
0.0
 10
45.0916565441
 20
272.5603058284
 30
0.0
 10
45.1027465459
 20
272.5909830398
 30
0.0
 10
45.1163357861
 20
272.6351351146
 30
0.0
 10
45.1309247222
 20
272.7223117649
 30
0.0
 10
45.1491746313
 20
272.8942308412
 30
0.0
 10
45.1647635052
 20
273.1874615813
 30
0.0
 10
45.1834569436
 20
273.6162514604
 30
0.0
 10
45.1999007146
 20
274.1399987127
 30
0.0
 10
45.2162553137
 20
274.9650092811
 30
0.0
 10
45.2209929487
 20
275.6135667391
 30
0.0
 10
45.2209929487
 20
276.0603161486
 30
0.0
  0
SPLINE
  5
2EF
100
AcDbEntity
  8
0
100
AcDbSpline
 62
7
  6
CONTINUOUS
 70
0
 71
3
 72
9
 73
5
 74
0
 42
0.0000001
 43
0.0000001
 44
0.0000000001
 40
0.0
 40
0.0
 40
0.0
 40
0.0
 40
0.4938168823
 40
1.0
 40
1.0
 40
1.0
 40
1.0
 10
46.4564687213
 20
266.6018341285
 30
0.0
 10
46.6380007897
 20
277.5353024937
 30
0.0
 10
46.9983994042
 20
299.676185656
 30
0.0
 10
47.2219240168
 20
321.8191207101
 30
0.0
 10
47.2848434867
 20
333.0277546635
 30
0.0
  0
SPLINE
  5
2F0
100
AcDbEntity
  8
0
100
AcDbSpline
 62
7
  6
CONTINUOUS
 70
0
 71
3
 72
9
 73
5
 74
0
 42
0.0000001
 43
0.0000001
 44
0.0000000001
 40
0.0
 40
0.0
 40
0.0
 40
0.0
 40
0.506164991
 40
1.0
 40
1.0
 40
1.0
 40
1.0
 10
46.2948935839
 20
332.4899643226
 30
0.0
 10
46.231424964
 20
321.3724869817
 30
0.0
 10
46.0092731505
 20
299.4088507997
 30
0.0
 10
45.6543770294
 20
277.4471942338
 30
0.0
 10
45.4754074534
 20
266.6018341285
 30
0.0
  0
SPLINE
  5
2F1
100
AcDbEntity
  8
0
100
AcDbSpline
 62
7
  6
CONTINUOUS
 70
0
 71
3
 72
9
 73
5
 74
0
 42
0.0000001
 43
0.0000001
 44
0.0000000001
 40
0.0
 40
0.0
 40
0.0
 40
0.0
 40
0.5288769879
 40
1.0
 40
1.0
 40
1.0
 40
1.0
 10
45.4754074275
 20
266.6018341285
 30
0.0
 10
45.399157244
 20
261.5831649254
 30
0.0
 10
45.2142238449
 20
252.094514583
 30
0.0
 10
44.9995297597
 20
242.6065385997
 30
0.0
 10
44.9169344678
 20
238.1361608435
 30
0.0
  0
SPLINE
  5
2F2
100
AcDbEntity
  8
0
100
AcDbSpline
 62
7
  6
CONTINUOUS
 70
0
 71
3
 72
9
 73
5
 74
0
 42
0.0000001
 43
0.0000001
 44
0.0000000001
 40
0.0
 40
0.0
 40
0.0
 40
0.0
 40
0.4711217417
 40
1.0
 40
1.0
 40
1.0
 40
1.0
 10
45.8956609181
 20
238.1361608435
 30
0.0
 10
45.9782308821
 20
242.6065340934
 30
0.0
 10
46.1937388235
 20
252.0945080071
 30
0.0
 10
46.3797418293
 20
261.5831520573
 30
0.0
 10
46.4564606959
 20
266.6018341285
 30
0.0
  0
SPLINE
  5
2F3
100
AcDbEntity
  8
0
100
AcDbSpline
 62
7
  6
CONTINUOUS
 70
0
 71
3
 72
14
 73
10
 74
0
 42
0.0000001
 43
0.0000001
 44
0.0000000001
 40
0.0
 40
0.0
 40
0.0
 40
0.0
 40
0.0261202652
 40
0.0847343815
 40
0.1770407696
 40
0.3003755548
 40
0.4502670265
 40
0.6213021129
 40
1.0
 40
1.0
 40
1.0
 40
1.0
 10
48.2208425661
 20
227.7702535033
 30
0.0
 10
48.1970343645
 20
227.7702449468
 30
0.0
 10
48.1508961401
 20
227.6837907882
 30
0.0
 10
48.1172692138
 20
227.541017635
 30
0.0
 10
48.0738772414
 20
227.2868660567
 30
0.0
 10
48.0401353717
 20
226.9584276042
 30
0.0
 10
48.0103662109
 20
226.5534293893
 30
0.0
 10
47.9806707928
 20
225.9168396279
 30
0.0
 10
47.9724314163
 20
225.4154932041
 30
0.0
 10
47.9724314163
 20
225.0703161486
 30
0.0
  0
SPLINE
  5
2F4
100
AcDbEntity
  8
0
100
AcDbSpline
 62
7
  6
CONTINUOUS
 70
0
 71
3
 72
11
 73
7
 74
0
 42
0.0000001
 43
0.0000001
 44
0.0000000001
 40
0.0
 40
0.0
 40
0.0
 40
0.0
 40
0.0751284443
 40
0.2744638581
 40
0.5880074412
 40
1.0
 40
1.0
 40
1.0
 40
1.0
 10
45.7698622675
 20
232.1758455489
 30
0.0
 10
45.7699143734
 20
232.3251422541
 30
0.0
 10
45.7900044941
 20
232.8703312486
 30
0.0
 10
45.8127310979
 20
234.0385385877
 30
0.0
 10
45.8565347392
 20
235.8759838625
 30
0.0
 10
45.8822578404
 20
237.3175508893
 30
0.0
 10
45.8956610396
 20
238.1361608435
 30
0.0
  0
SPLINE
  5
2F5
100
AcDbEntity
  8
0
100
AcDbSpline
 62
7
  6
CONTINUOUS
 70
0
 71
3
 72
14
 73
10
 74
0
 42
0.0000001
 43
0.0000001
 44
0.0000000001
 40
0.0
 40
0.0
 40
0.0
 40
0.0
 40
0.3781446085
 40
0.5489206956
 40
0.6986252973
 40
0.8218344379
 40
0.9141558736
 40
0.9729523533
 40
1.0
 40
1.0
 40
1.0
 40
1.0
 10
48.2208423169
 20
361.5603161486
 30
0.0
 10
48.2208423169
 20
361.0488122185
 30
0.0
 10
48.2337182058
 20
360.3059243143
 30
0.0
 10
48.2802664308
 20
359.3625730278
 30
0.0
 10
48.3270529387
 20
358.7627362366
 30
0.0
 10
48.3802002832
 20
358.2754041342
 30
0.0
 10
48.4488530369
 20
357.900318823
 30
0.0
 10
48.5023631577
 20
357.6850427071
 30
0.0
 10
48.5768433188
 20
357.5603387115
 30
0.0
 10
48.6134297857
 20
357.5603171876
 30
0.0
  0
SPLINE
  5
2F6
100
AcDbEntity
  8
0
100
AcDbSpline
 62
7
  6
CONTINUOUS
 70
0
 71
3
 72
11
 73
7
 74
0
 42
0.0000001
 43
0.0000001
 44
0.0000000001
 40
0.0
 40
0.0
 40
0.0
 40
0.0
 40
0.4154194623
 40
0.7303124235
 40
0.9285542011
 40
1.0
 40
1.0
 40
1.0
 40
1.0
 10
44.9169347078
 20
238.1361608435
 30
0.0
 10
44.9034111897
 20
237.3104547747
 30
0.0
 10
44.8776176559
 20
235.8588902475
 30
0.0
 10
44.8328574397
 20
234.0135039503
 30
0.0
 10
44.8107772625
 20
232.8516894874
 30
0.0
 10
44.7897316826
 20
232.3158336395
 30
0.0
 10
44.7896729677
 20
232.1738057815
 30
0.0
  0
ENDSEC
  0
SECTION
  2
OBJECTS
  0
DICTIONARY
  5
C
100
AcDbDictionary
280
0
281
1
  3
ACAD_GROUP
350
D
  3
ACAD_MLINESTYLE
350
17
  3
ACAD_LAYOUT
350
1A
  3
ACAD_PLOTSETTINGS
350
19
  3
ACAD_PLOTSTYLENAME
350
E
  0
DICTIONARY
  5
D
102
{ACAD_REACTORS
330
C
102
}
100
AcDbDictionary
280
0
281
1
  0
ACDBDICTIONARYWDFLT
  5
E
102
{ACAD_REACTORS
330
C
102
}
100
AcDbDictionary
281
1
  3
Normal
350
F
100
AcDbDictionaryWithDefault
340
F
  0
DICTIONARY
  5
17
102
{ACAD_REACTORS
330
C
102
}
100
AcDbDictionary
280
0
281
1
  3
Standard
350
18
  0
DICTIONARY
  5
19
102
{ACAD_REACTORS
330
C
102
}
100
AcDbDictionary
281
1
  0
DICTIONARY
  5
1A
102
{ACAD_REACTORS
330
C
102
}
100
AcDbDictionary
281
1
  3
Model
350
2F7
  3
Layout1
350
2F8
  0
ACDBPLACEHOLDER
  5
F
102
{ACAD_REACTORS
330
E
102
}
  0
MLINESTYLE
  5
18
102
{ACAD_REACTORS
330
17
102
}
100
AcDbMlineStyle
  2
STANDARD
 70
0
  3

 62
256
 51
90.0
 52
90.0
 71
2
 49
0.5
 62
256
  6
BYLAYER
 49
-0.5
 62
256
  6
BYLAYER
  0
LAYOUT
  5
2F7
102
{ACAD_REACTORS
330
1A
102
}
100
AcDbPlotSettings
  1

  2
none_device
  4

  6

 40
0.0
 41
0.0
 42
0.0
 43
0.0
 44
210.0
 45
297.0
 46
0.0
 47
0.0
 48
0.0
 49
0.0
140
0.0
141
0.0
142
1.0
143
1.0
 70
1024
 72
1
 73
0
 74
0
  7

 75
0
147
1.0
148
0.0
149
0.0
100
AcDbLayout
  1
Model
 70
0
 71
0
 10
0.0
 20
0.0
 11
210.0
 21
297.0
 12
0.0
 22
0.0
 32
0.0
 14
0.0
 24
0.0
 34
0.0
 15
0.0
 25
0.0
 35
0.0
146
0.0
 13
0.0
 23
0.0
 33
0.0
 16
1.0
 26
0.0
 36
0.0
 17
0.0
 27
1.0
 37
0.0
 76
0
330
210
345
0
346
0
  0
LAYOUT
  5
2F8
102
{ACAD_REACTORS
330
1A
102
}
100
AcDbPlotSettings
  1

  2
none_device
  4

  6

 40
0.0
 41
0.0
 42
0.0
 43
0.0
 44
210.0
 45
297.0
 46
0.0
 47
0.0
 48
0.0
 49
0.0
140
0.0
141
0.0
142
1.0
143
1.0
 70
0
 72
1
 73
0
 74
0
  7

 75
0
147
1.0
148
0.0
149
0.0
100
AcDbLayout
  1
Layout1
 70
0
 71
1
 10
0.0
 20
0.0
 11
210.0
 21
297.0
 12
0.0
 22
0.0
 32
0.0
 14
0.0
 24
0.0
 34
0.0
 15
0.0
 25
0.0
 35
0.0
146
0.0
 13
0.0
 23
0.0
 33
0.0
 16
1.0
 26
0.0
 36
0.0
 17
0.0
 27
1.0
 37
0.0
 76
0
330
211
345
0
346
0
  0
ENDSEC
  0
EOF
