999
DXF file: C:\Users\sesa63760\Dev\_Creo\CAD\MCADID0004989_3D-CAD\drw0001_7.dxf
999
Pro/ENGINEER 2019471 by Parametric Technology Corporation
  0
SECTION
  2
HEADER
  9
$ACADVER
  1
AC1024
  9
$DWGCODEPAGE
  3
ANSI_1252
  9
$EXTMAX
 10
127.9231704352
 20
180.9199124726
 30
0.0
  9
$EXTMIN
 10
0.0
 20
0.0
 30
0.0
  9
$LIMMIN
 10
0.0
 20
0.0
  9
$LIMMAX
 10
127.9231704352
 20
180.9199124726
  9
$VIEWCTR
 10
63.9615852176
 20
90.4599562363
  9
$VIEWSIZE
 40
180.9199124726
  9
$CLAYER
  8
0
  9
$LTSCALE
 40
11.7932979982
  9
$CELTYPE
  6
BYLAYER
  9
$DIMSCALE
 40
1.0
  9
$DIMASZ
 40
1.5228948861
  9
$DIMEXO
 40
1.0
  9
$DIMDLI
 40
8.1480967988
  9
$DIMEXE
 40
1.0
  9
$DIMCEN
 40
1.9298123997
  9
$DIMLFAC
 40
1.0
  9
$DIMBLK
  1
_FILLED
  9
$DIMALT
 70
0
  9
$DIMALTF
 40
0.0393700787
  9
$DIMTXT
 40
2.1320528406
  9
$DIMTOL
 70
1
  9
$DIMLIM
 70
0
  9
$DIMTFAC
 40
1.0
  9
$DIMTP
 40
0.01
  9
$DIMTM
 40
0.01
  9
$DIMGAP
 40
0.625
  9
$DIMDSEP
 70
46
  9
$AUNITS
 70
0
  9
$PDMODE
 70
3
  9
$PDSIZE
 40
0.3125
  9
$HANDSEED
  5
651
  9
$TILEMODE
 70
1
  9
$MEASUREMENT
 70
1
  9
$INSUNITS
 70
4
  0
ENDSEC
  0
SECTION
  2
CLASSES
  0
CLASS
  1
ACDBDICTIONARYWDFLT
  2
AcDbDictionaryWithDefault
  3
AutoCAD 2000
 90
0
 91
1
280
0
281
0
  0
CLASS
  1
ACDBPLACEHOLDER
  2
AcDbPlaceHolder
  3
AutoCAD 2000
 90
0
 91
1
280
0
281
0
  0
CLASS
  1
LAYOUT
  2
AcDbLayout
  3
AutoCAD 2000
 90
0
 91
0
280
0
281
0
  0
ENDSEC
  0
SECTION
  2
TABLES
  0
TABLE
  2
VPORT
  5
8
100
AcDbSymbolTable
 70
2
  0
VPORT
  5
1F4
100
AcDbSymbolTableRecord
100
AcDbViewportTableRecord
  2
*ACTIVE
 70
0
 10
0.0
 20
0.0
 11
1.0
 21
1.0
 12
63.9615852176
 22
90.4599562363
 13
0.0
 23
0.0
 14
1.0
 24
1.0
 15
0.0
 25
0.0
 16
0.0
 26
0.0
 36
1.0
 17
0.0
 27
0.0
 37
0.0
 40
180.9199124726
 41
0.7070707071
 42
50.0
 43
0.0
 44
0.0
 50
0.0
 51
0.0
 71
0
 72
100
 73
1
 74
1
 75
0
 76
0
 77
0
 78
0
  0
ENDTAB
  0
TABLE
  2
LTYPE
  5
5
100
AcDbSymbolTable
 70
6
  0
LTYPE
  5
14
100
AcDbSymbolTableRecord
100
AcDbLinetypeTableRecord
  2
BYBLOCK
 70
0
  3

 72
65
 73
0
 40
0.0
  0
LTYPE
  5
15
100
AcDbSymbolTableRecord
100
AcDbLinetypeTableRecord
  2
BYLAYER
 70
0
  3

 72
65
 73
0
 40
0.0
  0
LTYPE
  5
16
100
AcDbSymbolTableRecord
100
AcDbLinetypeTableRecord
  2
CONTINUOUS
 70
64
  3
Solid line
 72
65
 73
0
 40
0.0
  0
LTYPE
  5
1F5
100
AcDbSymbolTableRecord
100
AcDbLinetypeTableRecord
  2
CENTER
 70
64
  3
____ _ ____ _ ____ _ ____ _ ____ _ ____ _ ____
 72
65
 73
4
 40
0.6
 49
0.375
 74
0
 49
-0.075
 74
0
 49
0.075
 74
0
 49
-0.075
 74
0
  0
LTYPE
  5
1F6
100
AcDbSymbolTableRecord
100
AcDbLinetypeTableRecord
  2
HIDDEN
 70
64
  3
- - - - - - - - - - - - - - - - - - - -
 72
65
 73
2
 40
0.2
 49
0.1
 74
0
 49
-0.1
 74
0
  0
LTYPE
  5
1F7
100
AcDbSymbolTableRecord
100
AcDbLinetypeTableRecord
  2
PHANTOM
 70
64
  3
_____ _ _ _____ _ _ _____ _ _ _____
 72
65
 73
6
 40
0.8
 49
0.45
 74
0
 49
-0.05
 74
0
 49
0.1
 74
0
 49
-0.05
 74
0
 49
0.1
 74
0
 49
-0.05
 74
0
  0
LTYPE
  5
1F8
100
AcDbSymbolTableRecord
100
AcDbLinetypeTableRecord
  2
DOT
 70
64
  3
. . . . . . . . . . . . . . . . . . . .
 72
65
 73
2
 40
0.2
 49
0.1
 74
0
 49
-0.1
 74
0
  0
LTYPE
  5
1F9
100
AcDbSymbolTableRecord
100
AcDbLinetypeTableRecord
  2
DASHED
 70
64
  3
- - - - - - - - - - - - - - - - - - - -
 72
65
 73
2
 40
0.2
 49
0.1
 74
0
 49
-0.1
 74
0
  0
ENDTAB
  0
TABLE
  2
LAYER
  5
2
100
AcDbSymbolTable
 70
36
  0
LAYER
  5
10
100
AcDbSymbolTableRecord
100
AcDbLayerTableRecord
  2
0
 70
0
 62
7
  6
CONTINUOUS
370
-3
390
F
  0
LAYER
  5
1FA
100
AcDbSymbolTableRecord
100
AcDbLayerTableRecord
  2
DEFAULT_1
 70
0
 62
7
  6
CENTER
370
-3
390
F
  0
LAYER
  5
1FB
100
AcDbSymbolTableRecord
100
AcDbLayerTableRecord
  2
DEFAULT_2
 70
0
 62
7
  6
HIDDEN
370
-3
390
F
  0
LAYER
  5
1FC
100
AcDbSymbolTableRecord
100
AcDbLayerTableRecord
  2
DEFAULT_3
 70
0
 62
7
  6
PHANTOM
370
-3
390
F
  0
LAYER
  5
1FD
100
AcDbSymbolTableRecord
100
AcDbLayerTableRecord
  2
00_COMPONENTS
 70
0
 62
7
  6
CONTINUOUS
370
-3
390
F
  0
LAYER
  5
1FE
100
AcDbSymbolTableRecord
100
AcDbLayerTableRecord
  2
01_1_DEFAULT_DATUMS
 70
0
 62
7
  6
CONTINUOUS
370
-3
390
F
  0
LAYER
  5
1FF
100
AcDbSymbolTableRecord
100
AcDbLayerTableRecord
  2
01_PLANES
 70
0
 62
7
  6
CONTINUOUS
370
-3
390
F
  0
LAYER
  5
200
100
AcDbSymbolTableRecord
100
AcDbLayerTableRecord
  2
02_COORD_SYS
 70
0
 62
7
  6
CONTINUOUS
370
-3
390
F
  0
LAYER
  5
201
100
AcDbSymbolTableRecord
100
AcDbLayerTableRecord
  2
03_AXES
 70
0
 62
7
  6
CONTINUOUS
370
-3
390
F
  0
LAYER
  5
202
100
AcDbSymbolTableRecord
100
AcDbLayerTableRecord
  2
04_POINTS
 70
0
 62
7
  6
CONTINUOUS
370
-3
390
F
  0
LAYER
  5
203
100
AcDbSymbolTableRecord
100
AcDbLayerTableRecord
  2
05_CURVES
 70
0
 62
7
  6
CONTINUOUS
370
-3
390
F
  0
LAYER
  5
204
100
AcDbSymbolTableRecord
100
AcDbLayerTableRecord
  2
06_SURFS
 70
0
 62
7
  6
CONTINUOUS
370
-3
390
F
  0
LAYER
  5
205
100
AcDbSymbolTableRecord
100
AcDbLayerTableRecord
  2
07_COSMETICS
 70
0
 62
7
  6
CONTINUOUS
370
-3
390
F
  0
LAYER
  5
206
100
AcDbSymbolTableRecord
100
AcDbLayerTableRecord
  2
10_NOTES
 70
0
 62
7
  6
CONTINUOUS
370
-3
390
F
  0
LAYER
  5
207
100
AcDbSymbolTableRecord
100
AcDbLayerTableRecord
  2
11_NOTES_PUB
 70
0
 62
7
  6
CONTINUOUS
370
-3
390
F
  0
LAYER
  5
208
100
AcDbSymbolTableRecord
100
AcDbLayerTableRecord
  2
13_REF_GTOL
 70
0
 62
7
  6
CONTINUOUS
370
-3
390
F
  0
LAYER
  5
209
100
AcDbSymbolTableRecord
100
AcDbLayerTableRecord
  2
16_MISC
 70
0
 62
7
  6
CONTINUOUS
370
-3
390
F
  0
LAYER
  5
20A
100
AcDbSymbolTableRecord
100
AcDbLayerTableRecord
  2
17_NO_PRINT
 70
0
 62
7
  6
CONTINUOUS
370
-3
390
F
  0
LAYER
  5
20B
100
AcDbSymbolTableRecord
100
AcDbLayerTableRecord
  2
18_DATUM_CAMS_JOINTS
 70
0
 62
7
  6
CONTINUOUS
370
-3
390
F
  0
LAYER
  5
20C
100
AcDbSymbolTableRecord
100
AcDbLayerTableRecord
  2
19_DATUM_FUNCTIONAL
 70
0
 62
7
  6
CONTINUOUS
370
-3
390
F
  0
LAYER
  5
20D
100
AcDbSymbolTableRecord
100
AcDbLayerTableRecord
  2
20_DATUM_KINEMATIC_SCHEME
 70
0
 62
7
  6
CONTINUOUS
370
-3
390
F
  0
ENDTAB
  0
TABLE
  2
STYLE
  5
3
100
AcDbSymbolTable
 70
1
  0
STYLE
  5
11
100
AcDbSymbolTableRecord
100
AcDbTextStyleTableRecord
  2
STANDARD
 70
0
 40
0.0
 41
1.0
 50
0.0
 71
0
 42
0.2
  3
ARIAL.TTF
  4

  0
STYLE
  5
20E
100
AcDbSymbolTableRecord
100
AcDbTextStyleTableRecord
  2
TEXTSTYLE_1
 70
0
 40
0.0
 41
0.8
 50
0.0
 71
0
 42
0.2
  3
gdt
  4

  0
ENDTAB
  0
TABLE
  2
VIEW
  5
6
100
AcDbSymbolTable
 70
0
  0
ENDTAB
  0
TABLE
  2
UCS
  5
7
100
AcDbSymbolTable
 70
0
  0
ENDTAB
  0
TABLE
  2
APPID
  5
9
100
AcDbSymbolTable
 70
1
  0
APPID
  5
20F
100
AcDbSymbolTableRecord
100
AcDbRegAppTableRecord
  2
ACAD
 70
0
  0
ENDTAB
  0
TABLE
  2
BLOCK_RECORD
  5
1
100
AcDbSymbolTable
 70
0
  0
BLOCK_RECORD
  5
210
100
AcDbSymbolTableRecord
100
AcDbBlockTableRecord
  2
*Model_Space
  0
BLOCK_RECORD
  5
211
100
AcDbSymbolTableRecord
100
AcDbBlockTableRecord
  2
*Paper_Space
  0
BLOCK_RECORD
  5
212
100
AcDbSymbolTableRecord
100
AcDbBlockTableRecord
  2
_FILLED
  0
ENDTAB
  0
TABLE
  2
DIMSTYLE
  5
A
100
AcDbSymbolTable
 70
1
100
AcDbDimStyleTable
 71
0
  0
DIMSTYLE
105
213
100
AcDbSymbolTableRecord
100
AcDbDimStyleTableRecord
  2
STANDARD
 70
0
  3

  4

 40
1.0
 41
1.5228948861
 42
1.0
 43
0.38
 44
1.0
 45
0.0
 46
0.0
 47
0.01
 48
0.01
140
2.1320528406
141
0.09
142
0.0
143
25.4
144
1.0
145
0.0
146
1.0
147
0.625
 71
1
 72
0
 73
0
 74
0
 75
0
 76
0
 77
1
 78
8
 79
2
170
0
171
1
172
0
173
0
174
0
175
0
176
0
177
0
178
0
270
2
179
2
271
2
272
2
273
2
274
2
275
0
280
0
281
0
282
0
283
1
284
8
285
0
286
0
287
3
288
0
340
11
278
46
341
212
342
212
343
212
344
212
  0
ENDTAB
  0
ENDSEC
  0
SECTION
  2
BLOCKS
  0
BLOCK
  5
20
100
AcDbEntity
  8
0
100
AcDbBlockBegin
  2
*Model_Space
 70
0
 10
0.0
 20
0.0
 30
0.0
  3
*Model_Space
  1

  0
ENDBLK
  5
21
100
AcDbEntity
  8
0
100
AcDbBlockEnd
  0
BLOCK
  5
1C
100
AcDbEntity
  8
0
100
AcDbBlockBegin
  2
*Paper_Space
 70
0
 10
0.0
 20
0.0
 30
0.0
  3
*Paper_Space
  1

  0
ENDBLK
  5
1D
100
AcDbEntity
  8
0
100
AcDbBlockEnd
  0
BLOCK
  5
214
100
AcDbEntity
  8
0
100
AcDbBlockBegin
  2
_FILLED
 70
64
 10
0.0
 20
0.0
  3
_FILLED
  1

  0
SOLID
  5
215
100
AcDbEntity
  8
0
  6
BYBLOCK
 62
0
100
AcDbTrace
 10
0.0
 20
0.0
 11
-1.0
 21
0.25
 12
-1.0
 22
-0.25
 13
-1.0
 23
-0.25
  0
ENDBLK
  5
216
100
AcDbEntity
  8
0
  6
BYBLOCK
 62
0
100
AcDbBlockEnd
  0
ENDSEC
  0
SECTION
  2
ENTITIES
  0
LINE
  5
217
100
AcDbEntity
  8
0
100
AcDbLine
 62
7
  6
BYLAYER
 10
13.5830294189
 20
88.7491649825
 11
13.5830294189
 21
93.0065242954
  0
LINE
  5
218
100
AcDbEntity
  8
0
100
AcDbLine
 62
7
  6
BYLAYER
 10
16.8830294189
 20
83.2278446389
 11
16.8830294189
 21
98.5778446389
  0
LINE
  5
219
100
AcDbEntity
  8
0
100
AcDbLine
 62
7
  6
BYLAYER
 10
18.0830294189
 20
83.2278446389
 11
18.0830294189
 21
98.5778446389
  0
LINE
  5
21A
100
AcDbEntity
  8
0
100
AcDbLine
 62
7
  6
BYLAYER
 10
18.2273748535
 20
98.5778446389
 11
18.2273748535
 21
83.2278446389
  0
LINE
  5
21B
100
AcDbEntity
  8
0
100
AcDbLine
 62
7
  6
BYLAYER
 10
19.9330294189
 20
97.1778446389
 11
19.9330294189
 21
92.0028446389
  0
LINE
  5
21C
100
AcDbEntity
  8
0
100
AcDbLine
 62
7
  6
BYLAYER
 10
19.9330294189
 20
89.8028446389
 11
19.9330294189
 21
84.6278446389
  0
LINE
  5
21D
100
AcDbEntity
  8
0
100
AcDbLine
 62
7
  6
BYLAYER
 10
22.7017526255
 20
83.2278446389
 11
22.7017526255
 21
83.8953843531
  0
LINE
  5
21E
100
AcDbEntity
  8
0
100
AcDbLine
 62
7
  6
BYLAYER
 10
22.7017526255
 20
90.5353049248
 11
22.7017526255
 21
91.2705037359
  0
LINE
  5
21F
100
AcDbEntity
  8
0
100
AcDbLine
 62
7
  6
BYLAYER
 10
22.7017526255
 20
97.910185542
 11
22.7017526255
 21
98.5778446389
  0
LINE
  5
220
100
AcDbEntity
  8
0
100
AcDbLine
 62
7
  6
BYLAYER
 10
23.5125605209
 20
98.5778446389
 11
23.5125605209
 21
97.6844459923
  0
LINE
  5
221
100
AcDbEntity
  8
0
100
AcDbLine
 62
7
  6
BYLAYER
 10
23.5125605209
 20
91.4962432856
 11
23.5125605209
 21
90.309565375
  0
LINE
  5
222
100
AcDbEntity
  8
0
100
AcDbLine
 62
7
  6
BYLAYER
 10
23.5125605209
 20
84.1211239029
 11
23.5125605209
 21
83.2278446389
  0
LINE
  5
223
100
AcDbEntity
  8
0
100
AcDbLine
 62
7
  6
BYLAYER
 10
23.9330294189
 20
84.6278446389
 11
23.9330294189
 21
89.8028446389
  0
LINE
  5
224
100
AcDbEntity
  8
0
100
AcDbLine
 62
7
  6
BYLAYER
 10
23.9330294189
 20
92.0028446389
 11
23.9330294189
 21
97.1778446389
  0
LINE
  5
225
100
AcDbEntity
  8
0
100
AcDbLine
 62
7
  6
BYLAYER
 10
24.8330294189
 20
97.6478446389
 11
24.8330294189
 21
97.0978446389
  0
LINE
  5
226
100
AcDbEntity
  8
0
100
AcDbLine
 62
7
  6
BYLAYER
 10
24.8330294189
 20
95.5878446389
 11
24.8330294189
 21
95.0378446389
  0
LINE
  5
227
100
AcDbEntity
  8
0
100
AcDbLine
 62
7
  6
BYLAYER
 10
24.8330294189
 20
94.0678446389
 11
24.8330294189
 21
93.5178446389
  0
LINE
  5
228
100
AcDbEntity
  8
0
100
AcDbLine
 62
7
  6
BYLAYER
 10
24.8330294189
 20
92.0228446389
 11
24.8330294189
 21
91.4728446389
  0
LINE
  5
229
100
AcDbEntity
  8
0
100
AcDbLine
 62
7
  6
BYLAYER
 10
24.8330294189
 20
90.3378446389
 11
24.8330294189
 21
89.7878446389
  0
LINE
  5
22A
100
AcDbEntity
  8
0
100
AcDbLine
 62
7
  6
BYLAYER
 10
24.8330294189
 20
88.2878446389
 11
24.8330294189
 21
87.7378446389
  0
LINE
  5
22B
100
AcDbEntity
  8
0
100
AcDbLine
 62
7
  6
BYLAYER
 10
24.8330294189
 20
86.7678446389
 11
24.8330294189
 21
86.2178446389
  0
LINE
  5
22C
100
AcDbEntity
  8
0
100
AcDbLine
 62
7
  6
BYLAYER
 10
24.8330294189
 20
84.7078446389
 11
24.8330294189
 21
84.1578446389
  0
LINE
  5
22D
100
AcDbEntity
  8
0
100
AcDbLine
 62
7
  6
BYLAYER
 10
24.9330294189
 20
84.1778984679
 11
24.9330294189
 21
84.6777560008
  0
LINE
  5
22E
100
AcDbEntity
  8
0
100
AcDbLine
 62
7
  6
BYLAYER
 10
24.9330294189
 20
86.1879305667
 11
24.9330294189
 21
86.68779081
  0
LINE
  5
22F
100
AcDbEntity
  8
0
100
AcDbLine
 62
7
  6
BYLAYER
 10
24.9330294189
 20
87.7478984679
 11
24.9330294189
 21
88.2477560008
  0
LINE
  5
230
100
AcDbEntity
  8
0
100
AcDbLine
 62
7
  6
BYLAYER
 10
24.9330294189
 20
89.7579305667
 11
24.9330294189
 21
90.25779081
  0
LINE
  5
231
100
AcDbEntity
  8
0
100
AcDbLine
 62
7
  6
BYLAYER
 10
24.9330294189
 20
91.4978984679
 11
24.9330294189
 21
91.9977560008
  0
LINE
  5
232
100
AcDbEntity
  8
0
100
AcDbLine
 62
7
  6
BYLAYER
 10
24.9330294189
 20
93.5079305667
 11
24.9330294189
 21
94.00779081
  0
LINE
  5
233
100
AcDbEntity
  8
0
100
AcDbLine
 62
7
  6
BYLAYER
 10
24.9330294189
 20
95.0678984679
 11
24.9330294189
 21
95.5677560008
  0
LINE
  5
234
100
AcDbEntity
  8
0
100
AcDbLine
 62
7
  6
BYLAYER
 10
24.9330294189
 20
97.0978446389
 11
24.9330294189
 21
97.57779081
  0
LINE
  5
235
100
AcDbEntity
  8
0
100
AcDbLine
 62
7
  6
BYLAYER
 10
25.1237514924
 20
97.3778446389
 11
25.1237502049
 21
97.2003572513
  0
LINE
  5
236
100
AcDbEntity
  8
0
100
AcDbLine
 62
7
  6
BYLAYER
 10
25.1237502049
 20
84.5553320266
 11
25.1237514924
 21
84.3778446389
  0
LINE
  5
237
100
AcDbEntity
  8
0
100
AcDbLine
 62
7
  6
BYLAYER
 10
25.1237514924
 20
93.8078446389
 11
25.1237502049
 21
93.6303572513
  0
LINE
  5
238
100
AcDbEntity
  8
0
100
AcDbLine
 62
7
  6
BYLAYER
 10
25.1237502049
 20
88.1253320266
 11
25.1237514924
 21
87.9478446389
  0
LINE
  5
239
100
AcDbEntity
  8
0
100
AcDbLine
 62
7
  6
BYLAYER
 10
25.1237502049
 20
91.8753320266
 11
25.1237514924
 21
91.6978446389
  0
LINE
  5
23A
100
AcDbEntity
  8
0
100
AcDbLine
 62
7
  6
BYLAYER
 10
25.1237514924
 20
90.0578446389
 11
25.1237502049
 21
89.8803572513
  0
LINE
  5
23B
100
AcDbEntity
  8
0
100
AcDbLine
 62
7
  6
BYLAYER
 10
25.1237502049
 20
95.4453320266
 11
25.1237514924
 21
95.2678446389
  0
LINE
  5
23C
100
AcDbEntity
  8
0
100
AcDbLine
 62
7
  6
BYLAYER
 10
25.1237514924
 20
86.4878446389
 11
25.1237502049
 21
86.3103572513
  0
LINE
  5
23D
100
AcDbEntity
  8
0
100
AcDbLine
 62
7
  6
BYLAYER
 10
26.2330294189
 20
84.1778446389
 11
26.2330294189
 21
86.6878446389
  0
LINE
  5
23E
100
AcDbEntity
  8
0
100
AcDbLine
 62
7
  6
BYLAYER
 10
26.2330294189
 20
87.7478446389
 11
26.2330294189
 21
90.2578446389
  0
LINE
  5
23F
100
AcDbEntity
  8
0
100
AcDbLine
 62
7
  6
BYLAYER
 10
26.2330294189
 20
91.4978446389
 11
26.2330294189
 21
94.0078446389
  0
LINE
  5
240
100
AcDbEntity
  8
0
100
AcDbLine
 62
7
  6
BYLAYER
 10
26.2330294189
 20
95.0678446389
 11
26.2330294189
 21
97.5778446389
  0
LINE
  5
241
100
AcDbEntity
  8
0
100
AcDbLine
 62
7
  6
BYLAYER
 10
26.4330294189
 20
97.5778446389
 11
26.4330294189
 21
95.0678446389
  0
LINE
  5
242
100
AcDbEntity
  8
0
100
AcDbLine
 62
7
  6
BYLAYER
 10
26.4330294189
 20
94.0078446389
 11
26.4330294189
 21
91.4978446389
  0
LINE
  5
243
100
AcDbEntity
  8
0
100
AcDbLine
 62
7
  6
BYLAYER
 10
26.4330294189
 20
90.2578446389
 11
26.4330294189
 21
87.7478446389
  0
LINE
  5
244
100
AcDbEntity
  8
0
100
AcDbLine
 62
7
  6
BYLAYER
 10
26.4330294189
 20
86.6878446389
 11
26.4330294189
 21
84.1778446389
  0
LINE
  5
245
100
AcDbEntity
  8
0
100
AcDbLine
 62
7
  6
BYLAYER
 10
26.7782267328
 20
86.7378446389
 11
26.7782267328
 21
86.7678446389
  0
LINE
  5
246
100
AcDbEntity
  8
0
100
AcDbLine
 62
7
  6
BYLAYER
 10
26.7782267328
 20
90.3078446389
 11
26.7782267328
 21
90.3378446389
  0
LINE
  5
247
100
AcDbEntity
  8
0
100
AcDbLine
 62
7
  6
BYLAYER
 10
26.7782267328
 20
94.0478446389
 11
26.7782267328
 21
94.0678446389
  0
LINE
  5
248
100
AcDbEntity
  8
0
100
AcDbLine
 62
7
  6
BYLAYER
 10
26.7782267328
 20
97.6278446389
 11
26.7782267328
 21
97.6478446389
  0
LINE
  5
249
100
AcDbEntity
  8
0
100
AcDbLine
 62
7
  6
BYLAYER
 10
26.8330294189
 20
84.1778446389
 11
26.8330294189
 21
86.6878446389
  0
LINE
  5
24A
100
AcDbEntity
  8
0
100
AcDbLine
 62
7
  6
BYLAYER
 10
26.8330294189
 20
87.7478446389
 11
26.8330294189
 21
90.2578446389
  0
LINE
  5
24B
100
AcDbEntity
  8
0
100
AcDbLine
 62
7
  6
BYLAYER
 10
26.8330294189
 20
91.4978446389
 11
26.8330294189
 21
94.0078446389
  0
LINE
  5
24C
100
AcDbEntity
  8
0
100
AcDbLine
 62
7
  6
BYLAYER
 10
26.8330294189
 20
95.0678446389
 11
26.8330294189
 21
97.5778446389
  0
LINE
  5
24D
100
AcDbEntity
  8
0
100
AcDbLine
 62
7
  6
BYLAYER
 10
27.0330294189
 20
84.1778446389
 11
27.0330294189
 21
86.6878446389
  0
LINE
  5
24E
100
AcDbEntity
  8
0
100
AcDbLine
 62
7
  6
BYLAYER
 10
27.0330294189
 20
87.7478446389
 11
27.0330294189
 21
90.2578446389
  0
LINE
  5
24F
100
AcDbEntity
  8
0
100
AcDbLine
 62
7
  6
BYLAYER
 10
27.0330294189
 20
91.4978446389
 11
27.0330294189
 21
94.0078446389
  0
LINE
  5
250
100
AcDbEntity
  8
0
100
AcDbLine
 62
7
  6
BYLAYER
 10
27.0330294189
 20
95.0678446389
 11
27.0330294189
 21
97.5778446389
  0
LINE
  5
251
100
AcDbEntity
  8
0
100
AcDbLine
 62
7
  6
BYLAYER
 10
14.0223692471
 20
94.0671844672
 11
16.1436895907
 21
96.1885048107
  0
LINE
  5
252
100
AcDbEntity
  8
0
100
AcDbLine
 62
7
  6
BYLAYER
 10
16.1436895907
 20
85.5671844672
 11
14.0223692471
 21
87.6885048107
  0
LINE
  5
253
100
AcDbEntity
  8
0
100
AcDbLine
 62
7
  6
BYLAYER
 10
27.8630294189
 20
97.3778446389
 11
27.8630294189
 21
95.2678446389
  0
LINE
  5
254
100
AcDbEntity
  8
0
100
AcDbLine
 62
7
  6
BYLAYER
 10
27.8630294189
 20
93.8078446389
 11
27.8630294189
 21
91.6978446389
  0
LINE
  5
255
100
AcDbEntity
  8
0
100
AcDbLine
 62
7
  6
BYLAYER
 10
27.8630294189
 20
90.0578446389
 11
27.8630294189
 21
87.9478446389
  0
LINE
  5
256
100
AcDbEntity
  8
0
100
AcDbLine
 62
7
  6
BYLAYER
 10
27.8630294189
 20
86.4878446389
 11
27.8630294189
 21
84.3778446389
  0
LINE
  5
257
100
AcDbEntity
  8
0
100
AcDbLine
 62
7
  6
BYLAYER
 10
28.1630294189
 20
97.3778446389
 11
28.1630294189
 21
95.2678446389
  0
LINE
  5
258
100
AcDbEntity
  8
0
100
AcDbLine
 62
7
  6
BYLAYER
 10
28.1630294189
 20
93.8078446389
 11
28.1630294189
 21
91.6978446389
  0
LINE
  5
259
100
AcDbEntity
  8
0
100
AcDbLine
 62
7
  6
BYLAYER
 10
28.1630294189
 20
90.0578446389
 11
28.1630294189
 21
87.9478446389
  0
LINE
  5
25A
100
AcDbEntity
  8
0
100
AcDbLine
 62
7
  6
BYLAYER
 10
28.1630294189
 20
86.4878446389
 11
28.1630294189
 21
84.3778446389
  0
LINE
  5
25B
100
AcDbEntity
  8
0
100
AcDbLine
 62
7
  6
BYLAYER
 10
28.2130294189
 20
84.1578446389
 11
28.2130294189
 21
86.7678446389
  0
LINE
  5
25C
100
AcDbEntity
  8
0
100
AcDbLine
 62
7
  6
BYLAYER
 10
28.2130294189
 20
87.7378446389
 11
28.2130294189
 21
90.3378446389
  0
LINE
  5
25D
100
AcDbEntity
  8
0
100
AcDbLine
 62
7
  6
BYLAYER
 10
28.2130294189
 20
91.4728446389
 11
28.2130294189
 21
94.0678446389
  0
LINE
  5
25E
100
AcDbEntity
  8
0
100
AcDbLine
 62
7
  6
BYLAYER
 10
28.2130294189
 20
95.0378446389
 11
28.2130294189
 21
97.6478446389
  0
LINE
  5
25F
100
AcDbEntity
  8
0
100
AcDbLine
 62
7
  6
BYLAYER
 10
28.3478273695
 20
98.5778446389
 11
28.3478273695
 21
83.2278446389
  0
LINE
  5
260
100
AcDbEntity
  8
0
100
AcDbLine
 62
7
  6
BYLAYER
 10
28.5830294189
 20
83.2278446389
 11
28.5830294189
 21
98.5778446389
  0
LINE
  5
261
100
AcDbEntity
  8
0
100
AcDbLine
 62
7
  6
BYLAYER
 10
31.3330294189
 20
82.9778446389
 11
31.3330294189
 21
98.8278446389
  0
LINE
  5
262
100
AcDbEntity
  8
0
100
AcDbLine
 62
7
  6
BYLAYER
 10
31.5830294189
 20
98.5778446389
 11
31.5830294189
 21
83.2278446389
  0
LINE
  5
263
100
AcDbEntity
  8
0
100
AcDbLine
 62
7
  6
BYLAYER
 10
38.2330294189
 20
92.0528446389
 11
38.2330294189
 21
90.4963517276
  0
LINE
  5
264
100
AcDbEntity
  8
0
100
AcDbLine
 62
7
  6
BYLAYER
 10
39.2330294189
 20
92.7528446389
 11
39.2330294189
 21
92.9028446389
  0
LINE
  5
265
100
AcDbEntity
  8
0
100
AcDbLine
 62
7
  6
BYLAYER
 10
33.9816542315
 20
87.6483833774
 11
34.1318417571
 21
87.9080826404
  0
LINE
  5
266
100
AcDbEntity
  8
0
100
AcDbLine
 62
7
  6
BYLAYER
 10
36.0342170807
 20
91.1976066375
 11
36.1844046063
 21
91.4573059005
  0
LINE
  5
267
100
AcDbEntity
  8
0
100
AcDbLine
 62
7
  6
BYLAYER
 10
18.0830294189
 20
97.1528446389
 11
16.8830294189
 21
96.6528446389
  0
LINE
  5
268
100
AcDbEntity
  8
0
100
AcDbLine
 62
7
  6
BYLAYER
 10
16.8830294189
 20
85.1528446389
 11
18.0830294189
 21
84.6528446389
  0
LINE
  5
269
100
AcDbEntity
  8
0
100
AcDbLine
 62
7
  6
BYLAYER
 10
42.303581284
 20
89.7528446389
 11
42.303581284
 21
92.0528446389
  0
LINE
  5
26A
100
AcDbEntity
  8
0
100
AcDbLine
 62
7
  6
BYLAYER
 10
42.5830294189
 20
83.2278446389
 11
42.5830294189
 21
89.7528446389
  0
LINE
  5
26B
100
AcDbEntity
  8
0
100
AcDbLine
 62
7
  6
BYLAYER
 10
42.5830294189
 20
92.0528446389
 11
42.5830294189
 21
98.5778446389
  0
LINE
  5
26C
100
AcDbEntity
  8
0
100
AcDbLine
 62
7
  6
BYLAYER
 10
42.8330294189
 20
98.8278446389
 11
42.8330294189
 21
92.0528446389
  0
LINE
  5
26D
100
AcDbEntity
  8
0
100
AcDbLine
 62
7
  6
BYLAYER
 10
42.8330294189
 20
89.7528446389
 11
42.8330294189
 21
82.9778446389
  0
LINE
  5
26E
100
AcDbEntity
  8
0
100
AcDbLine
 62
7
  6
BYLAYER
 10
43.6724442643
 20
82.9778446389
 11
43.6724442643
 21
84.7778446389
  0
LINE
  5
26F
100
AcDbEntity
  8
0
100
AcDbLine
 62
7
  6
BYLAYER
 10
43.6724442643
 20
97.0278446389
 11
43.6724442643
 21
98.8278446389
  0
LINE
  5
270
100
AcDbEntity
  8
0
100
AcDbLine
 62
7
  6
BYLAYER
 10
43.9188092932
 20
98.5778446389
 11
43.9188092932
 21
97.2742096679
  0
LINE
  5
271
100
AcDbEntity
  8
0
100
AcDbLine
 62
7
  6
BYLAYER
 10
43.9188092932
 20
84.53147961
 11
43.9188092932
 21
83.2278446389
  0
LINE
  5
272
100
AcDbEntity
  8
0
100
AcDbLine
 62
7
  6
BYLAYER
 10
44.3793944479
 20
83.2278446389
 11
44.3793944479
 21
84.5278446389
  0
LINE
  5
273
100
AcDbEntity
  8
0
100
AcDbLine
 62
7
  6
BYLAYER
 10
44.3793944479
 20
97.2778446389
 11
44.3793944479
 21
98.5778446389
  0
LINE
  5
274
100
AcDbEntity
  8
0
100
AcDbLine
 62
7
  6
BYLAYER
 10
44.3830294189
 20
98.5778446389
 11
44.3830294189
 21
97.2778446389
  0
LINE
  5
275
100
AcDbEntity
  8
0
100
AcDbLine
 62
7
  6
BYLAYER
 10
44.3830294189
 20
84.5278446389
 11
44.3830294189
 21
83.2278446389
  0
LINE
  5
276
100
AcDbEntity
  8
0
100
AcDbLine
 62
7
  6
BYLAYER
 10
44.853888048
 20
83.0528446389
 11
44.853888048
 21
98.7528446389
  0
LINE
  5
277
100
AcDbEntity
  8
0
100
AcDbLine
 62
7
  6
BYLAYER
 10
46.049014709
 20
83.0528446389
 11
46.049014709
 21
98.7528446389
  0
LINE
  5
278
100
AcDbEntity
  8
0
100
AcDbLine
 62
7
  6
BYLAYER
 10
46.2420868177
 20
83.0528446389
 11
46.2420868177
 21
98.7528446389
  0
LINE
  5
279
100
AcDbEntity
  8
0
100
AcDbLine
 62
7
  6
BYLAYER
 10
46.4340022126
 20
83.0528446389
 11
46.4340022126
 21
98.7528446389
  0
LINE
  5
27A
100
AcDbEntity
  8
0
100
AcDbLine
 62
7
  6
BYLAYER
 10
46.5830294189
 20
98.7778446389
 11
46.5830294189
 21
98.7528446389
  0
LINE
  5
27B
100
AcDbEntity
  8
0
100
AcDbLine
 62
7
  6
BYLAYER
 10
46.5830294189
 20
83.0278446389
 11
46.5830294189
 21
83.0528446389
  0
LINE
  5
27C
100
AcDbEntity
  8
0
100
AcDbLine
 62
7
  6
BYLAYER
 10
46.6259176074
 20
83.0528446389
 11
46.6259176074
 21
98.7528446389
  0
LINE
  5
27D
100
AcDbEntity
  8
0
100
AcDbLine
 62
7
  6
BYLAYER
 10
46.8178330023
 20
83.0528446389
 11
46.8178330023
 21
98.7528446389
  0
LINE
  5
27E
100
AcDbEntity
  8
0
100
AcDbLine
 62
7
  6
BYLAYER
 10
47.0097483972
 20
83.0528446389
 11
47.0097483972
 21
98.7528446389
  0
LINE
  5
27F
100
AcDbEntity
  8
0
100
AcDbLine
 62
7
  6
BYLAYER
 10
47.201663792
 20
83.0528446389
 11
47.201663792
 21
98.7528446389
  0
LINE
  5
280
100
AcDbEntity
  8
0
100
AcDbLine
 62
7
  6
BYLAYER
 10
47.2992456018
 20
83.0528446389
 11
47.2992456018
 21
98.7528446389
  0
LINE
  5
281
100
AcDbEntity
  8
0
100
AcDbLine
 62
7
  6
BYLAYER
 10
40.3344046063
 20
89.0573059005
 11
40.1842170807
 21
88.7976066375
  0
LINE
  5
282
100
AcDbEntity
  8
0
100
AcDbLine
 62
7
  6
BYLAYER
 10
38.2818417571
 20
85.5080826404
 11
38.1316542315
 21
85.2483833774
  0
LINE
  5
283
100
AcDbEntity
  8
0
100
AcDbLine
 62
7
  6
BYLAYER
 10
38.1316542315
 20
85.2483833774
 11
33.9816542315
 21
87.6483833774
  0
LINE
  5
284
100
AcDbEntity
  8
0
100
AcDbLine
 62
7
  6
BYLAYER
 10
34.1318417571
 20
87.9080826404
 11
38.2818417571
 21
85.5080826404
  0
LINE
  5
285
100
AcDbEntity
  8
0
100
AcDbLine
 62
7
  6
BYLAYER
 10
48.5830294189
 20
98.7778446389
 11
48.5830294189
 21
98.7528446389
  0
LINE
  5
286
100
AcDbEntity
  8
0
100
AcDbLine
 62
7
  6
BYLAYER
 10
48.5830294189
 20
83.0278446389
 11
48.5830294189
 21
83.0528446389
  0
LINE
  5
287
100
AcDbEntity
  8
0
100
AcDbLine
 62
7
  6
BYLAYER
 10
18.0830294189
 20
89.6528446389
 11
16.8830294189
 21
89.1528446389
  0
LINE
  5
288
100
AcDbEntity
  8
0
100
AcDbLine
 62
7
  6
BYLAYER
 10
16.8830294189
 20
92.6528446389
 11
18.0830294189
 21
92.1528446389
  0
LINE
  5
289
100
AcDbEntity
  8
0
100
AcDbLine
 62
7
  6
BYLAYER
 10
40.1842170807
 20
88.7976066375
 11
36.0342170807
 21
91.1976066375
  0
LINE
  5
28A
100
AcDbEntity
  8
0
100
AcDbLine
 62
7
  6
BYLAYER
 10
36.1844046063
 20
91.4573059005
 11
40.3344046063
 21
89.0573059005
  0
LINE
  5
28B
100
AcDbEntity
  8
0
100
AcDbLine
 62
7
  6
BYLAYER
 10
38.2330294189
 20
90.4963517276
 11
39.5186770931
 21
89.7528446389
  0
LINE
  5
28C
100
AcDbEntity
  8
0
100
AcDbLine
 62
7
  6
BYLAYER
 10
51.4677375783
 20
97.3528446389
 11
51.4677375783
 21
84.4528446389
  0
LINE
  5
28D
100
AcDbEntity
  8
0
100
AcDbLine
 62
7
  6
BYLAYER
 10
51.6481522968
 20
83.0528446389
 11
51.6481522968
 21
84.4528446389
  0
LINE
  5
28E
100
AcDbEntity
  8
0
100
AcDbLine
 62
7
  6
BYLAYER
 10
51.6481522968
 20
97.3528446389
 11
51.6481522968
 21
98.7528446389
  0
LINE
  5
28F
100
AcDbEntity
  8
0
100
AcDbLine
 62
7
  6
BYLAYER
 10
52.0160762169
 20
97.3528446389
 11
52.0160761523
 21
93.9879681661
  0
LINE
  5
290
100
AcDbEntity
  8
0
100
AcDbLine
 62
7
  6
BYLAYER
 10
52.0160761523
 20
87.8177211115
 11
52.0160762169
 21
84.4528446389
  0
LINE
  5
291
100
AcDbEntity
  8
0
100
AcDbLine
 62
7
  6
BYLAYER
 10
52.0877553809
 20
93.1462328482
 11
52.0877553809
 21
88.6594564297
  0
LINE
  5
292
100
AcDbEntity
  8
0
100
AcDbLine
 62
7
  6
BYLAYER
 10
52.5042333587
 20
98.7528446389
 11
52.5042333587
 21
97.3528446389
  0
LINE
  5
293
100
AcDbEntity
  8
0
100
AcDbLine
 62
7
  6
BYLAYER
 10
52.5042333587
 20
84.4528446389
 11
52.5042333587
 21
83.0528446389
  0
LINE
  5
294
100
AcDbEntity
  8
0
100
AcDbLine
 62
7
  6
BYLAYER
 10
55.207421925
 20
84.5278446389
 11
55.207421925
 21
97.2778446389
  0
LINE
  5
295
100
AcDbEntity
  8
0
100
AcDbLine
 62
7
  6
BYLAYER
 10
55.3979039535
 20
97.0278446389
 11
55.3979039535
 21
84.7778446389
  0
LINE
  5
296
100
AcDbEntity
  8
0
100
AcDbLine
 62
7
  6
BYLAYER
 10
56.8803181557
 20
97.3528446389
 11
56.8803181557
 21
84.4528446389
  0
LINE
  5
297
100
AcDbEntity
  8
0
100
AcDbLine
 62
7
  6
BYLAYER
 10
17.1330294189
 20
82.9778446389
 11
114.5330294189
 21
82.9778446389
  0
LINE
  5
298
100
AcDbEntity
  8
0
100
AcDbLine
 62
7
  6
BYLAYER
 10
46.5830294189
 20
83.0278446389
 11
48.5830294189
 21
83.0278446389
  0
LINE
  5
299
100
AcDbEntity
  8
0
100
AcDbLine
 62
7
  6
BYLAYER
 10
44.853888048
 20
83.0528446389
 11
61.8787975865
 21
83.0528446389
  0
LINE
  5
29A
100
AcDbEntity
  8
0
100
AcDbLine
 62
7
  6
BYLAYER
 10
16.8830294189
 20
83.2278446389
 11
44.866069561
 21
83.2278446389
  0
LINE
  5
29B
100
AcDbEntity
  8
0
100
AcDbLine
 62
7
  6
BYLAYER
 10
62.1200733816
 20
83.2278446389
 11
114.7830294189
 21
83.2278446389
  0
LINE
  5
29C
100
AcDbEntity
  8
0
100
AcDbLine
 62
7
  6
BYLAYER
 10
63.0150023883
 20
83.6528446389
 11
68.3847070508
 21
83.6528446389
  0
LINE
  5
29D
100
AcDbEntity
  8
0
100
AcDbLine
 62
7
  6
BYLAYER
 10
111.598585016
 20
83.8778446389
 11
110.3260908004
 21
83.8778446389
  0
LINE
  5
29E
100
AcDbEntity
  8
0
100
AcDbLine
 62
7
  6
BYLAYER
 10
98.598585016
 20
83.8778446389
 11
97.3260908004
 21
83.8778446389
  0
LINE
  5
29F
100
AcDbEntity
  8
0
100
AcDbLine
 62
7
  6
BYLAYER
 10
85.5749206802
 20
83.8778446389
 11
84.3260908004
 21
83.8778446389
  0
LINE
  5
2A0
100
AcDbEntity
  8
0
100
AcDbLine
 62
7
  6
BYLAYER
 10
22.5953948339
 20
83.8778446389
 11
21.2914219239
 21
83.8778446389
  0
LINE
  5
2A1
100
AcDbEntity
  8
0
100
AcDbLine
 62
7
  6
BYLAYER
 10
68.1830294189
 20
84.0778446389
 11
65.1830294189
 21
84.0778446389
  0
LINE
  5
2A2
100
AcDbEntity
  8
0
100
AcDbLine
 62
7
  6
BYLAYER
 10
81.329123034
 20
84.1420380499
 11
81.9334500092
 21
84.1420380499
  0
LINE
  5
2A3
100
AcDbEntity
  8
0
100
AcDbLine
 62
7
  6
BYLAYER
 10
95.0330294189
 20
84.1578446389
 11
91.6546960856
 21
84.1578446389
  0
LINE
  5
2A4
100
AcDbEntity
  8
0
100
AcDbLine
 62
7
  6
BYLAYER
 10
82.0330294189
 20
84.1578446389
 11
81.9330294189
 21
84.1578446389
  0
LINE
  5
2A5
100
AcDbEntity
  8
0
100
AcDbLine
 62
7
  6
BYLAYER
 10
80.6330294189
 20
84.1578446389
 11
79.8330294189
 21
84.1578446389
  0
LINE
  5
2A6
100
AcDbEntity
  8
0
100
AcDbLine
 62
7
  6
BYLAYER
 10
78.9420534646
 20
84.1578446389
 11
78.6530294189
 21
84.1578446389
  0
LINE
  5
2A7
100
AcDbEntity
  8
0
100
AcDbLine
 62
7
  6
BYLAYER
 10
28.2130294189
 20
84.1578446389
 11
24.8330294189
 21
84.1578446389
  0
LINE
  5
2A8
100
AcDbEntity
  8
0
100
AcDbLine
 62
7
  6
BYLAYER
 10
108.0370235753
 20
84.1628446389
 11
104.6530294189
 21
84.1628446389
  0
LINE
  5
2A9
100
AcDbEntity
  8
0
100
AcDbLine
 62
7
  6
BYLAYER
 10
24.9325898242
 20
84.1778446389
 11
27.9630294189
 21
84.1778446389
  0
LINE
  5
2AA
100
AcDbEntity
  8
0
100
AcDbLine
 62
7
  6
BYLAYER
 10
91.9080294189
 20
84.1778446389
 11
94.9384500092
 21
84.1778446389
  0
LINE
  5
2AB
100
AcDbEntity
  8
0
100
AcDbLine
 62
7
  6
BYLAYER
 10
104.9030294189
 20
84.1778446389
 11
107.9334500092
 21
84.1778446389
  0
LINE
  5
2AC
100
AcDbEntity
  8
0
100
AcDbLine
 62
7
  6
BYLAYER
 10
68.3847070508
 20
84.2528446389
 11
68.1830294189
 21
84.2528446389
  0
LINE
  5
2AD
100
AcDbEntity
  8
0
100
AcDbLine
 62
7
  6
BYLAYER
 10
65.1830294189
 20
84.2528446389
 11
64.0843716134
 21
84.2528446389
  0
LINE
  5
2AE
100
AcDbEntity
  8
0
100
AcDbLine
 62
7
  6
BYLAYER
 10
79.0030294189
 20
84.3420380499
 11
79.8330294189
 21
84.3420380499
  0
LINE
  5
2AF
100
AcDbEntity
  8
0
100
AcDbLine
 62
7
  6
BYLAYER
 10
80.6330294189
 20
84.3420380499
 11
81.7423073454
 21
84.3420380499
  0
LINE
  5
2B0
100
AcDbEntity
  8
0
100
AcDbLine
 62
7
  6
BYLAYER
 10
25.1237514924
 20
84.3778446389
 11
26.2330294189
 21
84.3778446389
  0
LINE
  5
2B1
100
AcDbEntity
  8
0
100
AcDbLine
 62
7
  6
BYLAYER
 10
27.0330294189
 20
84.3778446389
 11
27.8630294189
 21
84.3778446389
  0
LINE
  5
2B2
100
AcDbEntity
  8
0
100
AcDbLine
 62
7
  6
BYLAYER
 10
92.0080294189
 20
84.3778446389
 11
92.8380294189
 21
84.3778446389
  0
LINE
  5
2B3
100
AcDbEntity
  8
0
100
AcDbLine
 62
7
  6
BYLAYER
 10
93.6380294189
 20
84.3778446389
 11
94.7473073454
 21
84.3778446389
  0
LINE
  5
2B4
100
AcDbEntity
  8
0
100
AcDbLine
 62
7
  6
BYLAYER
 10
105.0030294189
 20
84.3778446389
 11
105.8330294189
 21
84.3778446389
  0
LINE
  5
2B5
100
AcDbEntity
  8
0
100
AcDbLine
 62
7
  6
BYLAYER
 10
106.6330294189
 20
84.3778446389
 11
107.7423073454
 21
84.3778446389
  0
LINE
  5
2B6
100
AcDbEntity
  8
0
100
AcDbLine
 62
7
  6
BYLAYER
 10
51.4677375783
 20
84.4528446389
 11
65.1830294189
 21
84.4528446389
  0
LINE
  5
2B7
100
AcDbEntity
  8
0
100
AcDbLine
 62
7
  6
BYLAYER
 10
65.1830294189
 20
84.4778446389
 11
68.1830294189
 21
84.4778446389
  0
LINE
  5
2B8
100
AcDbEntity
  8
0
100
AcDbLine
 62
7
  6
BYLAYER
 10
44.853888048
 20
84.5278446389
 11
43.9261328672
 21
84.5278446389
  0
LINE
  5
2B9
100
AcDbEntity
  8
0
100
AcDbLine
 62
7
  6
BYLAYER
 10
52.0160762169
 20
84.5278446389
 11
56.8803181557
 21
84.5278446389
  0
LINE
  5
2BA
100
AcDbEntity
  8
0
100
AcDbLine
 62
7
  6
BYLAYER
 10
58.6803170121
 20
84.5278446389
 11
73.7830294189
 21
84.5278446389
  0
LINE
  5
2BB
100
AcDbEntity
  8
0
100
AcDbLine
 62
7
  6
BYLAYER
 10
58.6803170121
 20
97.3528446389
 11
58.6803170121
 21
84.4528446389
  0
LINE
  5
2BC
100
AcDbEntity
  8
0
100
AcDbLine
 62
7
  6
BYLAYER
 10
58.7830294189
 20
84.7778446389
 11
58.7830294189
 21
97.0278446389
  0
LINE
  5
2BD
100
AcDbEntity
  8
0
100
AcDbLine
 62
7
  6
BYLAYER
 10
59.0330294189
 20
97.2778446389
 11
59.0330294189
 21
84.5278446389
  0
LINE
  5
2BE
100
AcDbEntity
  8
0
100
AcDbLine
 62
7
  6
BYLAYER
 10
60.3330294189
 20
86.0028446389
 11
60.3330294189
 21
88.3028446389
  0
LINE
  5
2BF
100
AcDbEntity
  8
0
100
AcDbLine
 62
7
  6
BYLAYER
 10
60.3330294189
 20
93.5028446389
 11
60.3330294189
 21
95.8028446389
  0
LINE
  5
2C0
100
AcDbEntity
  8
0
100
AcDbLine
 62
7
  6
BYLAYER
 10
60.5830294189
 20
95.8028446389
 11
60.5830294189
 21
93.5028446389
  0
LINE
  5
2C1
100
AcDbEntity
  8
0
100
AcDbLine
 62
7
  6
BYLAYER
 10
60.5830294189
 20
88.3028446389
 11
60.5830294189
 21
86.0028446389
  0
LINE
  5
2C2
100
AcDbEntity
  8
0
100
AcDbLine
 62
7
  6
BYLAYER
 10
43.6724442643
 20
84.7778446389
 11
44.853888048
 21
84.7778446389
  0
LINE
  5
2C3
100
AcDbEntity
  8
0
100
AcDbLine
 62
7
  6
BYLAYER
 10
52.0160762107
 20
84.7778446389
 11
56.8803181557
 21
84.7778446389
  0
LINE
  5
2C4
100
AcDbEntity
  8
0
100
AcDbLine
 62
7
  6
BYLAYER
 10
58.6803170121
 20
84.7778446389
 11
73.7830294189
 21
84.7778446389
  0
LINE
  5
2C5
100
AcDbEntity
  8
0
100
AcDbLine
 62
7
  6
BYLAYER
 10
81.4330294189
 20
85.39703805
 11
81.2423073479
 21
85.39703805
  0
LINE
  5
2C6
100
AcDbEntity
  8
0
100
AcDbLine
 62
7
  6
BYLAYER
 10
107.4330294189
 20
85.432844639
 11
107.2423073479
 21
85.432844639
  0
LINE
  5
2C7
100
AcDbEntity
  8
0
100
AcDbLine
 62
7
  6
BYLAYER
 10
94.4380294189
 20
85.432844639
 11
94.2473073479
 21
85.432844639
  0
LINE
  5
2C8
100
AcDbEntity
  8
0
100
AcDbLine
 62
7
  6
BYLAYER
 10
25.4330294189
 20
85.4328446389
 11
25.62375149
 21
85.4328446389
  0
LINE
  5
2C9
100
AcDbEntity
  8
0
100
AcDbLine
 62
7
  6
BYLAYER
 10
60.3330294189
 20
86.0028446389
 11
61.8330294189
 21
86.0028446389
  0
LINE
  5
2CA
100
AcDbEntity
  8
0
100
AcDbLine
 62
7
  6
BYLAYER
 10
65.3330294189
 20
86.0028446389
 11
66.8330294189
 21
86.0028446389
  0
LINE
  5
2CB
100
AcDbEntity
  8
0
100
AcDbLine
 62
7
  6
BYLAYER
 10
70.3330294189
 20
86.0028446389
 11
71.8330294189
 21
86.0028446389
  0
LINE
  5
2CC
100
AcDbEntity
  8
0
100
AcDbLine
 62
7
  6
BYLAYER
 10
81.7423073454
 20
86.4520380499
 11
80.6330294189
 21
86.4520380499
  0
LINE
  5
2CD
100
AcDbEntity
  8
0
100
AcDbLine
 62
7
  6
BYLAYER
 10
79.8330294189
 20
86.4520380499
 11
79.0030294189
 21
86.4520380499
  0
LINE
  5
2CE
100
AcDbEntity
  8
0
100
AcDbLine
 62
7
  6
BYLAYER
 10
107.7423073454
 20
86.4878446389
 11
106.6330294189
 21
86.4878446389
  0
LINE
  5
2CF
100
AcDbEntity
  8
0
100
AcDbLine
 62
7
  6
BYLAYER
 10
105.8330294189
 20
86.4878446389
 11
105.0030294189
 21
86.4878446389
  0
LINE
  5
2D0
100
AcDbEntity
  8
0
100
AcDbLine
 62
7
  6
BYLAYER
 10
94.7473073454
 20
86.4878446389
 11
93.6380294189
 21
86.4878446389
  0
LINE
  5
2D1
100
AcDbEntity
  8
0
100
AcDbLine
 62
7
  6
BYLAYER
 10
92.8380294189
 20
86.4878446389
 11
92.0080294189
 21
86.4878446389
  0
LINE
  5
2D2
100
AcDbEntity
  8
0
100
AcDbLine
 62
7
  6
BYLAYER
 10
27.8630294189
 20
86.4878446389
 11
27.0330294189
 21
86.4878446389
  0
LINE
  5
2D3
100
AcDbEntity
  8
0
100
AcDbLine
 62
7
  6
BYLAYER
 10
26.2330294189
 20
86.4878446389
 11
25.1237514924
 21
86.4878446389
  0
LINE
  5
2D4
100
AcDbEntity
  8
0
100
AcDbLine
 62
7
  6
BYLAYER
 10
78.9030294189
 20
86.6520380499
 11
81.9334589277
 21
86.6520380499
  0
LINE
  5
2D5
100
AcDbEntity
  8
0
100
AcDbLine
 62
7
  6
BYLAYER
 10
24.9325813556
 20
86.6878446389
 11
27.9630294189
 21
86.6878446389
  0
LINE
  5
2D6
100
AcDbEntity
  8
0
100
AcDbLine
 62
7
  6
BYLAYER
 10
91.9080294189
 20
86.6878446389
 11
94.9384589277
 21
86.6878446389
  0
LINE
  5
2D7
100
AcDbEntity
  8
0
100
AcDbLine
 62
7
  6
BYLAYER
 10
104.9030294189
 20
86.6878446389
 11
107.9334589277
 21
86.6878446389
  0
LINE
  5
2D8
100
AcDbEntity
  8
0
100
AcDbLine
 62
7
  6
BYLAYER
 10
78.6530294189
 20
86.7020380499
 11
79.887832105
 21
86.7020380499
  0
LINE
  5
2D9
100
AcDbEntity
  8
0
100
AcDbLine
 62
7
  6
BYLAYER
 10
26.7782267328
 20
86.7378446389
 11
28.2130294189
 21
86.7378446389
  0
LINE
  5
2DA
100
AcDbEntity
  8
0
100
AcDbLine
 62
7
  6
BYLAYER
 10
91.6563627522
 20
86.7378446389
 11
92.887832105
 21
86.7378446389
  0
LINE
  5
2DB
100
AcDbEntity
  8
0
100
AcDbLine
 62
7
  6
BYLAYER
 10
104.6530294189
 20
86.7378446389
 11
106.2460054656
 21
86.7378446389
  0
LINE
  5
2DC
100
AcDbEntity
  8
0
100
AcDbLine
 62
7
  6
BYLAYER
 10
24.8330294189
 20
86.7678446389
 11
28.2130294189
 21
86.7678446389
  0
LINE
  5
2DD
100
AcDbEntity
  8
0
100
AcDbLine
 62
7
  6
BYLAYER
 10
78.6530294189
 20
86.7678446389
 11
82.0330294189
 21
86.7678446389
  0
LINE
  5
2DE
100
AcDbEntity
  8
0
100
AcDbLine
 62
7
  6
BYLAYER
 10
91.6546960856
 20
86.7678446389
 11
95.0330294189
 21
86.7678446389
  0
LINE
  5
2DF
100
AcDbEntity
  8
0
100
AcDbLine
 62
7
  6
BYLAYER
 10
104.6530294189
 20
86.7728446389
 11
108.0370235753
 21
86.7728446389
  0
LINE
  5
2E0
100
AcDbEntity
  8
0
100
AcDbLine
 62
7
  6
BYLAYER
 10
81.3291230341
 20
87.7120380499
 11
81.9334774822
 21
87.7120380499
  0
LINE
  5
2E1
100
AcDbEntity
  8
0
100
AcDbLine
 62
7
  6
BYLAYER
 10
108.0370235753
 20
87.7378446389
 11
104.6530294189
 21
87.7378446389
  0
LINE
  5
2E2
100
AcDbEntity
  8
0
100
AcDbLine
 62
7
  6
BYLAYER
 10
95.0330294189
 20
87.7378446389
 11
91.6546960856
 21
87.7378446389
  0
LINE
  5
2E3
100
AcDbEntity
  8
0
100
AcDbLine
 62
7
  6
BYLAYER
 10
82.0330294189
 20
87.7378446389
 11
81.9330294189
 21
87.7378446389
  0
LINE
  5
2E4
100
AcDbEntity
  8
0
100
AcDbLine
 62
7
  6
BYLAYER
 10
80.6330294189
 20
87.7378446389
 11
79.8330294189
 21
87.7378446389
  0
LINE
  5
2E5
100
AcDbEntity
  8
0
100
AcDbLine
 62
7
  6
BYLAYER
 10
78.9420534646
 20
87.7378446389
 11
78.6530294189
 21
87.7378446389
  0
LINE
  5
2E6
100
AcDbEntity
  8
0
100
AcDbLine
 62
7
  6
BYLAYER
 10
28.2130294189
 20
87.7378446389
 11
24.8330294189
 21
87.7378446389
  0
LINE
  5
2E7
100
AcDbEntity
  8
0
100
AcDbLine
 62
7
  6
BYLAYER
 10
24.9325999102
 20
87.7478446389
 11
26.2330294189
 21
87.7478446389
  0
LINE
  5
2E8
100
AcDbEntity
  8
0
100
AcDbLine
 62
7
  6
BYLAYER
 10
27.0330294189
 20
87.7478446389
 11
27.9230940832
 21
87.7478446389
  0
LINE
  5
2E9
100
AcDbEntity
  8
0
100
AcDbLine
 62
7
  6
BYLAYER
 10
91.9479647546
 20
87.7478446389
 11
92.8380294189
 21
87.7478446389
  0
LINE
  5
2EA
100
AcDbEntity
  8
0
100
AcDbLine
 62
7
  6
BYLAYER
 10
93.6380294189
 20
87.7478446389
 11
94.9384774822
 21
87.7478446389
  0
LINE
  5
2EB
100
AcDbEntity
  8
0
100
AcDbLine
 62
7
  6
BYLAYER
 10
106.6330294189
 20
87.7478446389
 11
107.9334774822
 21
87.7478446389
  0
LINE
  5
2EC
100
AcDbEntity
  8
0
100
AcDbLine
 62
7
  6
BYLAYER
 10
79.0030294189
 20
87.9120380499
 11
79.8330294189
 21
87.9120380499
  0
LINE
  5
2ED
100
AcDbEntity
  8
0
100
AcDbLine
 62
7
  6
BYLAYER
 10
80.6330294189
 20
87.9120380499
 11
81.7423073454
 21
87.9120380499
  0
LINE
  5
2EE
100
AcDbEntity
  8
0
100
AcDbLine
 62
7
  6
BYLAYER
 10
61.5830294189
 20
86.0028446389
 11
61.5830294189
 21
88.3028446389
  0
LINE
  5
2EF
100
AcDbEntity
  8
0
100
AcDbLine
 62
7
  6
BYLAYER
 10
61.5830294189
 20
93.5028446389
 11
61.5830294189
 21
95.8028446389
  0
LINE
  5
2F0
100
AcDbEntity
  8
0
100
AcDbLine
 62
7
  6
BYLAYER
 10
61.8330294189
 20
95.8028446389
 11
61.8330294189
 21
93.5028446389
  0
LINE
  5
2F1
100
AcDbEntity
  8
0
100
AcDbLine
 62
7
  6
BYLAYER
 10
61.8330294189
 20
88.3028446389
 11
61.8330294189
 21
86.0028446389
  0
LINE
  5
2F2
100
AcDbEntity
  8
0
100
AcDbLine
 62
7
  6
BYLAYER
 10
64.0843716134
 20
98.1528446389
 11
64.0843716134
 21
97.5528446389
  0
LINE
  5
2F3
100
AcDbEntity
  8
0
100
AcDbLine
 62
7
  6
BYLAYER
 10
64.0843716134
 20
83.6528446389
 11
64.0843716134
 21
84.2528446389
  0
LINE
  5
2F4
100
AcDbEntity
  8
0
100
AcDbLine
 62
7
  6
BYLAYER
 10
25.1237514924
 20
87.9478446389
 11
26.2330294189
 21
87.9478446389
  0
LINE
  5
2F5
100
AcDbEntity
  8
0
100
AcDbLine
 62
7
  6
BYLAYER
 10
27.0330294189
 20
87.9478446389
 11
27.8630294189
 21
87.9478446389
  0
LINE
  5
2F6
100
AcDbEntity
  8
0
100
AcDbLine
 62
7
  6
BYLAYER
 10
92.0080294189
 20
87.9478446389
 11
92.8380294189
 21
87.9478446389
  0
LINE
  5
2F7
100
AcDbEntity
  8
0
100
AcDbLine
 62
7
  6
BYLAYER
 10
93.6380294189
 20
87.9478446389
 11
94.7473073454
 21
87.9478446389
  0
LINE
  5
2F8
100
AcDbEntity
  8
0
100
AcDbLine
 62
7
  6
BYLAYER
 10
105.0030294189
 20
87.9478446389
 11
105.8330294189
 21
87.9478446389
  0
LINE
  5
2F9
100
AcDbEntity
  8
0
100
AcDbLine
 62
7
  6
BYLAYER
 10
106.6330294189
 20
87.9478446389
 11
107.7423073454
 21
87.9478446389
  0
LINE
  5
2FA
100
AcDbEntity
  8
0
100
AcDbLine
 62
7
  6
BYLAYER
 10
71.8330294189
 20
88.3028446389
 11
70.3330294189
 21
88.3028446389
  0
LINE
  5
2FB
100
AcDbEntity
  8
0
100
AcDbLine
 62
7
  6
BYLAYER
 10
66.8330294189
 20
88.3028446389
 11
65.3330294189
 21
88.3028446389
  0
LINE
  5
2FC
100
AcDbEntity
  8
0
100
AcDbLine
 62
7
  6
BYLAYER
 10
61.8330294189
 20
88.3028446389
 11
60.3330294189
 21
88.3028446389
  0
LINE
  5
2FD
100
AcDbEntity
  8
0
100
AcDbLine
 62
7
  6
BYLAYER
 10
81.4330294189
 20
88.96703805
 11
81.2423073479
 21
88.96703805
  0
LINE
  5
2FE
100
AcDbEntity
  8
0
100
AcDbLine
 62
7
  6
BYLAYER
 10
107.4330294189
 20
89.002844639
 11
107.2423073479
 21
89.002844639
  0
LINE
  5
2FF
100
AcDbEntity
  8
0
100
AcDbLine
 62
7
  6
BYLAYER
 10
94.4380294189
 20
89.002844639
 11
94.2473073479
 21
89.002844639
  0
LINE
  5
300
100
AcDbEntity
  8
0
100
AcDbLine
 62
7
  6
BYLAYER
 10
25.4330294189
 20
89.0028446389
 11
25.62375149
 21
89.0028446389
  0
LINE
  5
301
100
AcDbEntity
  8
0
100
AcDbLine
 62
7
  6
BYLAYER
 10
39.5186770931
 20
89.7528446389
 11
44.853888048
 21
89.7528446389
  0
LINE
  5
302
100
AcDbEntity
  8
0
100
AcDbLine
 62
7
  6
BYLAYER
 10
81.7423073454
 20
90.0220380499
 11
80.6330294189
 21
90.0220380499
  0
LINE
  5
303
100
AcDbEntity
  8
0
100
AcDbLine
 62
7
  6
BYLAYER
 10
79.8330294189
 20
90.0220380499
 11
79.0030294189
 21
90.0220380499
  0
LINE
  5
304
100
AcDbEntity
  8
0
100
AcDbLine
 62
7
  6
BYLAYER
 10
107.7423073454
 20
90.0578446389
 11
106.6330294189
 21
90.0578446389
  0
LINE
  5
305
100
AcDbEntity
  8
0
100
AcDbLine
 62
7
  6
BYLAYER
 10
105.8330294189
 20
90.0578446389
 11
105.0030294189
 21
90.0578446389
  0
LINE
  5
306
100
AcDbEntity
  8
0
100
AcDbLine
 62
7
  6
BYLAYER
 10
94.7473073454
 20
90.0578446389
 11
93.6380294189
 21
90.0578446389
  0
LINE
  5
307
100
AcDbEntity
  8
0
100
AcDbLine
 62
7
  6
BYLAYER
 10
92.8380294189
 20
90.0578446389
 11
92.0080294189
 21
90.0578446389
  0
LINE
  5
308
100
AcDbEntity
  8
0
100
AcDbLine
 62
7
  6
BYLAYER
 10
27.8630294189
 20
90.0578446389
 11
27.0330294189
 21
90.0578446389
  0
LINE
  5
309
100
AcDbEntity
  8
0
100
AcDbLine
 62
7
  6
BYLAYER
 10
26.2330294189
 20
90.0578446389
 11
25.1237514924
 21
90.0578446389
  0
LINE
  5
30A
100
AcDbEntity
  8
0
100
AcDbLine
 62
7
  6
BYLAYER
 10
78.9030294189
 20
90.2220380499
 11
81.9334690136
 21
90.2220380499
  0
LINE
  5
30B
100
AcDbEntity
  8
0
100
AcDbLine
 62
7
  6
BYLAYER
 10
24.9326088286
 20
90.2578446389
 11
27.9630294189
 21
90.2578446389
  0
LINE
  5
30C
100
AcDbEntity
  8
0
100
AcDbLine
 62
7
  6
BYLAYER
 10
91.9080294189
 20
90.2578446389
 11
94.9384690136
 21
90.2578446389
  0
LINE
  5
30D
100
AcDbEntity
  8
0
100
AcDbLine
 62
7
  6
BYLAYER
 10
104.9030294189
 20
90.2578446389
 11
107.9334690136
 21
90.2578446389
  0
LINE
  5
30E
100
AcDbEntity
  8
0
100
AcDbLine
 62
7
  6
BYLAYER
 10
78.6530294189
 20
90.2720380499
 11
79.887832105
 21
90.2720380499
  0
LINE
  5
30F
100
AcDbEntity
  8
0
100
AcDbLine
 62
7
  6
BYLAYER
 10
26.7782267328
 20
90.3078446389
 11
28.2130294189
 21
90.3078446389
  0
LINE
  5
310
100
AcDbEntity
  8
0
100
AcDbLine
 62
7
  6
BYLAYER
 10
91.6563627522
 20
90.3078446389
 11
92.887832105
 21
90.3078446389
  0
LINE
  5
311
100
AcDbEntity
  8
0
100
AcDbLine
 62
7
  6
BYLAYER
 10
104.6530294189
 20
90.3078446389
 11
106.2460054656
 21
90.3078446389
  0
LINE
  5
312
100
AcDbEntity
  8
0
100
AcDbLine
 62
7
  6
BYLAYER
 10
78.6530294189
 20
90.3328446389
 11
82.0330294189
 21
90.3328446389
  0
LINE
  5
313
100
AcDbEntity
  8
0
100
AcDbLine
 62
7
  6
BYLAYER
 10
91.6546960856
 20
90.3328446389
 11
95.0330294189
 21
90.3328446389
  0
LINE
  5
314
100
AcDbEntity
  8
0
100
AcDbLine
 62
7
  6
BYLAYER
 10
24.8330294189
 20
90.3378446389
 11
28.2130294189
 21
90.3378446389
  0
LINE
  5
315
100
AcDbEntity
  8
0
100
AcDbLine
 62
7
  6
BYLAYER
 10
104.6530294189
 20
90.3378446389
 11
108.0370235753
 21
90.3378446389
  0
LINE
  5
316
100
AcDbEntity
  8
0
100
AcDbLine
 62
7
  6
BYLAYER
 10
21.5452710121
 20
90.5778446389
 11
22.3908951943
 21
90.5778446389
  0
LINE
  5
317
100
AcDbEntity
  8
0
100
AcDbLine
 62
7
  6
BYLAYER
 10
84.4720974297
 20
90.5778446389
 11
85.3202921842
 21
90.5778446389
  0
LINE
  5
318
100
AcDbEntity
  8
0
100
AcDbLine
 62
7
  6
BYLAYER
 10
97.4734364547
 20
90.5778446389
 11
98.319507083
 21
90.5778446389
  0
LINE
  5
319
100
AcDbEntity
  8
0
100
AcDbLine
 62
7
  6
BYLAYER
 10
110.4734364547
 20
90.5778446389
 11
111.319507083
 21
90.5778446389
  0
LINE
  5
31A
100
AcDbEntity
  8
0
100
AcDbLine
 62
7
  6
BYLAYER
 10
65.1830294189
 20
97.7278446389
 11
65.1830294189
 21
97.2778446389
  0
LINE
  5
31B
100
AcDbEntity
  8
0
100
AcDbLine
 62
7
  6
BYLAYER
 10
65.1830294189
 20
84.0778446389
 11
65.1830294189
 21
84.5278446389
  0
LINE
  5
31C
100
AcDbEntity
  8
0
100
AcDbLine
 62
7
  6
BYLAYER
 10
65.3330294189
 20
86.0028446389
 11
65.3330294189
 21
88.3028446389
  0
LINE
  5
31D
100
AcDbEntity
  8
0
100
AcDbLine
 62
7
  6
BYLAYER
 10
65.3330294189
 20
93.5028446389
 11
65.3330294189
 21
95.8028446389
  0
LINE
  5
31E
100
AcDbEntity
  8
0
100
AcDbLine
 62
7
  6
BYLAYER
 10
65.5830294189
 20
95.8028446389
 11
65.5830294189
 21
93.5028446389
  0
LINE
  5
31F
100
AcDbEntity
  8
0
100
AcDbLine
 62
7
  6
BYLAYER
 10
65.5830294189
 20
88.3028446389
 11
65.5830294189
 21
86.0028446389
  0
LINE
  5
320
100
AcDbEntity
  8
0
100
AcDbLine
 62
7
  6
BYLAYER
 10
66.5830294189
 20
86.0028446389
 11
66.5830294189
 21
88.3028446389
  0
LINE
  5
321
100
AcDbEntity
  8
0
100
AcDbLine
 62
7
  6
BYLAYER
 10
66.5830294189
 20
93.5028446389
 11
66.5830294189
 21
95.8028446389
  0
LINE
  5
322
100
AcDbEntity
  8
0
100
AcDbLine
 62
7
  6
BYLAYER
 10
66.8330294189
 20
95.8028446389
 11
66.8330294189
 21
93.5028446389
  0
LINE
  5
323
100
AcDbEntity
  8
0
100
AcDbLine
 62
7
  6
BYLAYER
 10
66.8330294189
 20
88.3028446389
 11
66.8330294189
 21
86.0028446389
  0
LINE
  5
324
100
AcDbEntity
  8
0
100
AcDbLine
 62
7
  6
BYLAYER
 10
108.0370235753
 20
91.4728446389
 11
104.6530294189
 21
91.4728446389
  0
LINE
  5
325
100
AcDbEntity
  8
0
100
AcDbLine
 62
7
  6
BYLAYER
 10
95.0330294189
 20
91.4728446389
 11
91.6546960856
 21
91.4728446389
  0
LINE
  5
326
100
AcDbEntity
  8
0
100
AcDbLine
 62
7
  6
BYLAYER
 10
28.2130294189
 20
91.4728446389
 11
24.8330294189
 21
91.4728446389
  0
LINE
  5
327
100
AcDbEntity
  8
0
100
AcDbLine
 62
7
  6
BYLAYER
 10
78.6530294189
 20
91.4728446389
 11
82.0330294189
 21
91.4728446389
  0
LINE
  5
328
100
AcDbEntity
  8
0
100
AcDbLine
 62
7
  6
BYLAYER
 10
24.9325898242
 20
91.4978446389
 11
27.9630294189
 21
91.4978446389
  0
LINE
  5
329
100
AcDbEntity
  8
0
100
AcDbLine
 62
7
  6
BYLAYER
 10
78.9030294189
 20
91.4978446389
 11
81.9334500092
 21
91.4978446389
  0
LINE
  5
32A
100
AcDbEntity
  8
0
100
AcDbLine
 62
7
  6
BYLAYER
 10
91.9080294189
 20
91.4978446389
 11
94.9384500092
 21
91.4978446389
  0
LINE
  5
32B
100
AcDbEntity
  8
0
100
AcDbLine
 62
7
  6
BYLAYER
 10
104.9030294189
 20
91.4978446389
 11
107.9334500092
 21
91.4978446389
  0
LINE
  5
32C
100
AcDbEntity
  8
0
100
AcDbLine
 62
7
  6
BYLAYER
 10
25.1237514924
 20
91.6978446389
 11
26.2330294189
 21
91.6978446389
  0
LINE
  5
32D
100
AcDbEntity
  8
0
100
AcDbLine
 62
7
  6
BYLAYER
 10
27.0330294189
 20
91.6978446389
 11
27.8630294189
 21
91.6978446389
  0
LINE
  5
32E
100
AcDbEntity
  8
0
100
AcDbLine
 62
7
  6
BYLAYER
 10
79.0030294189
 20
91.6978446389
 11
79.8330294189
 21
91.6978446389
  0
LINE
  5
32F
100
AcDbEntity
  8
0
100
AcDbLine
 62
7
  6
BYLAYER
 10
80.6330294189
 20
91.6978446389
 11
81.7423073454
 21
91.6978446389
  0
LINE
  5
330
100
AcDbEntity
  8
0
100
AcDbLine
 62
7
  6
BYLAYER
 10
92.0080294189
 20
91.6978446389
 11
92.8380294189
 21
91.6978446389
  0
LINE
  5
331
100
AcDbEntity
  8
0
100
AcDbLine
 62
7
  6
BYLAYER
 10
93.6380294189
 20
91.6978446389
 11
94.7473073454
 21
91.6978446389
  0
LINE
  5
332
100
AcDbEntity
  8
0
100
AcDbLine
 62
7
  6
BYLAYER
 10
105.0030294189
 20
91.6978446389
 11
105.8330294189
 21
91.6978446389
  0
LINE
  5
333
100
AcDbEntity
  8
0
100
AcDbLine
 62
7
  6
BYLAYER
 10
106.6330294189
 20
91.6978446389
 11
107.7423073454
 21
91.6978446389
  0
LINE
  5
334
100
AcDbEntity
  8
0
100
AcDbLine
 62
7
  6
BYLAYER
 10
38.2330294189
 20
92.0528446389
 11
44.8580962225
 21
92.0528446389
  0
LINE
  5
335
100
AcDbEntity
  8
0
100
AcDbLine
 62
7
  6
BYLAYER
 10
107.4330294189
 20
92.752844639
 11
107.2423073479
 21
92.752844639
  0
LINE
  5
336
100
AcDbEntity
  8
0
100
AcDbLine
 62
7
  6
BYLAYER
 10
94.4380294189
 20
92.752844639
 11
94.2473073479
 21
92.752844639
  0
LINE
  5
337
100
AcDbEntity
  8
0
100
AcDbLine
 62
7
  6
BYLAYER
 10
81.4330294189
 20
92.752844639
 11
81.2423073479
 21
92.752844639
  0
LINE
  5
338
100
AcDbEntity
  8
0
100
AcDbLine
 62
7
  6
BYLAYER
 10
25.4330294189
 20
92.7528446389
 11
25.62375149
 21
92.7528446389
  0
LINE
  5
339
100
AcDbEntity
  8
0
100
AcDbLine
 62
7
  6
BYLAYER
 10
60.3330294189
 20
93.5028446389
 11
61.8330294189
 21
93.5028446389
  0
LINE
  5
33A
100
AcDbEntity
  8
0
100
AcDbLine
 62
7
  6
BYLAYER
 10
65.3330294189
 20
93.5028446389
 11
66.8330294189
 21
93.5028446389
  0
LINE
  5
33B
100
AcDbEntity
  8
0
100
AcDbLine
 62
7
  6
BYLAYER
 10
70.3330294189
 20
93.5028446389
 11
71.8330294189
 21
93.5028446389
  0
LINE
  5
33C
100
AcDbEntity
  8
0
100
AcDbLine
 62
7
  6
BYLAYER
 10
107.7423073454
 20
93.8078446389
 11
106.6330294189
 21
93.8078446389
  0
LINE
  5
33D
100
AcDbEntity
  8
0
100
AcDbLine
 62
7
  6
BYLAYER
 10
105.8330294189
 20
93.8078446389
 11
105.0030294189
 21
93.8078446389
  0
LINE
  5
33E
100
AcDbEntity
  8
0
100
AcDbLine
 62
7
  6
BYLAYER
 10
94.7473073454
 20
93.8078446389
 11
93.6380294189
 21
93.8078446389
  0
LINE
  5
33F
100
AcDbEntity
  8
0
100
AcDbLine
 62
7
  6
BYLAYER
 10
92.8380294189
 20
93.8078446389
 11
92.0080294189
 21
93.8078446389
  0
LINE
  5
340
100
AcDbEntity
  8
0
100
AcDbLine
 62
7
  6
BYLAYER
 10
81.7423073454
 20
93.8078446389
 11
80.6330294189
 21
93.8078446389
  0
LINE
  5
341
100
AcDbEntity
  8
0
100
AcDbLine
 62
7
  6
BYLAYER
 10
79.8330294189
 20
93.8078446389
 11
79.0030294189
 21
93.8078446389
  0
LINE
  5
342
100
AcDbEntity
  8
0
100
AcDbLine
 62
7
  6
BYLAYER
 10
27.8630294189
 20
93.8078446389
 11
27.0330294189
 21
93.8078446389
  0
LINE
  5
343
100
AcDbEntity
  8
0
100
AcDbLine
 62
7
  6
BYLAYER
 10
26.2330294189
 20
93.8078446389
 11
25.1237514924
 21
93.8078446389
  0
LINE
  5
344
100
AcDbEntity
  8
0
100
AcDbLine
 62
7
  6
BYLAYER
 10
24.9325813556
 20
94.0078446389
 11
27.9630294189
 21
94.0078446389
  0
LINE
  5
345
100
AcDbEntity
  8
0
100
AcDbLine
 62
7
  6
BYLAYER
 10
78.9030294189
 20
94.0078446389
 11
81.9334589277
 21
94.0078446389
  0
LINE
  5
346
100
AcDbEntity
  8
0
100
AcDbLine
 62
7
  6
BYLAYER
 10
91.9080294189
 20
94.0078446389
 11
94.9384589277
 21
94.0078446389
  0
LINE
  5
347
100
AcDbEntity
  8
0
100
AcDbLine
 62
7
  6
BYLAYER
 10
104.9030294189
 20
94.0078446389
 11
107.9334589277
 21
94.0078446389
  0
LINE
  5
348
100
AcDbEntity
  8
0
100
AcDbLine
 62
7
  6
BYLAYER
 10
26.7782267328
 20
94.0478446389
 11
28.2130294189
 21
94.0478446389
  0
LINE
  5
349
100
AcDbEntity
  8
0
100
AcDbLine
 62
7
  6
BYLAYER
 10
78.6530294189
 20
94.0478446389
 11
79.887832105
 21
94.0478446389
  0
LINE
  5
34A
100
AcDbEntity
  8
0
100
AcDbLine
 62
7
  6
BYLAYER
 10
91.6563627522
 20
94.0478446389
 11
92.887832105
 21
94.0478446389
  0
LINE
  5
34B
100
AcDbEntity
  8
0
100
AcDbLine
 62
7
  6
BYLAYER
 10
104.6530294189
 20
94.0478446389
 11
106.2460054656
 21
94.0478446389
  0
LINE
  5
34C
100
AcDbEntity
  8
0
100
AcDbLine
 62
7
  6
BYLAYER
 10
24.8330294189
 20
94.0678446389
 11
28.2130294189
 21
94.0678446389
  0
LINE
  5
34D
100
AcDbEntity
  8
0
100
AcDbLine
 62
7
  6
BYLAYER
 10
78.6530294189
 20
94.0678446389
 11
82.0330294189
 21
94.0678446389
  0
LINE
  5
34E
100
AcDbEntity
  8
0
100
AcDbLine
 62
7
  6
BYLAYER
 10
91.6546960856
 20
94.0678446389
 11
95.0330294189
 21
94.0678446389
  0
LINE
  5
34F
100
AcDbEntity
  8
0
100
AcDbLine
 62
7
  6
BYLAYER
 10
104.6530294189
 20
94.0678446389
 11
108.0370235753
 21
94.0678446389
  0
LINE
  5
350
100
AcDbEntity
  8
0
100
AcDbLine
 62
7
  6
BYLAYER
 10
68.0843690721
 20
83.6528446389
 11
68.0843690721
 21
84.0778446389
  0
LINE
  5
351
100
AcDbEntity
  8
0
100
AcDbLine
 62
7
  6
BYLAYER
 10
68.0843690721
 20
97.7278446389
 11
68.0843690721
 21
98.1528446389
  0
LINE
  5
352
100
AcDbEntity
  8
0
100
AcDbLine
 62
7
  6
BYLAYER
 10
68.1830294189
 20
84.0778446389
 11
68.1830294189
 21
84.5278446389
  0
LINE
  5
353
100
AcDbEntity
  8
0
100
AcDbLine
 62
7
  6
BYLAYER
 10
68.1830294189
 20
97.2778446389
 11
68.1830294189
 21
97.7278446389
  0
LINE
  5
354
100
AcDbEntity
  8
0
100
AcDbLine
 62
7
  6
BYLAYER
 10
68.3847070508
 20
98.1528446389
 11
68.3847070508
 21
97.5528446389
  0
LINE
  5
355
100
AcDbEntity
  8
0
100
AcDbLine
 62
7
  6
BYLAYER
 10
68.3847070508
 20
84.2528446389
 11
68.3847070508
 21
83.6528446389
  0
LINE
  5
356
100
AcDbEntity
  8
0
100
AcDbLine
 62
7
  6
BYLAYER
 10
70.3330294189
 20
86.0028446389
 11
70.3330294189
 21
88.3028446389
  0
LINE
  5
357
100
AcDbEntity
  8
0
100
AcDbLine
 62
7
  6
BYLAYER
 10
70.3330294189
 20
93.5028446389
 11
70.3330294189
 21
95.8028446389
  0
LINE
  5
358
100
AcDbEntity
  8
0
100
AcDbLine
 62
7
  6
BYLAYER
 10
70.5830294189
 20
95.8028446389
 11
70.5830294189
 21
93.5028446389
  0
LINE
  5
359
100
AcDbEntity
  8
0
100
AcDbLine
 62
7
  6
BYLAYER
 10
70.5830294189
 20
88.3028446389
 11
70.5830294189
 21
86.0028446389
  0
LINE
  5
35A
100
AcDbEntity
  8
0
100
AcDbLine
 62
7
  6
BYLAYER
 10
61.8867401965
 20
83.0528446389
 11
62.420073191
 21
83.4528446389
  0
LINE
  5
35B
100
AcDbEntity
  8
0
100
AcDbLine
 62
7
  6
BYLAYER
 10
61.8787975865
 20
83.0528446389
 11
62.4134821991
 21
83.4528446389
  0
LINE
  5
35C
100
AcDbEntity
  8
0
100
AcDbLine
 62
7
  6
BYLAYER
 10
108.0370235753
 20
95.0378446389
 11
104.6530294189
 21
95.0378446389
  0
LINE
  5
35D
100
AcDbEntity
  8
0
100
AcDbLine
 62
7
  6
BYLAYER
 10
95.0330294189
 20
95.0378446389
 11
91.6546960856
 21
95.0378446389
  0
LINE
  5
35E
100
AcDbEntity
  8
0
100
AcDbLine
 62
7
  6
BYLAYER
 10
82.0330294189
 20
95.0378446389
 11
78.6530294189
 21
95.0378446389
  0
LINE
  5
35F
100
AcDbEntity
  8
0
100
AcDbLine
 62
7
  6
BYLAYER
 10
28.2130294189
 20
95.0378446389
 11
24.8330294189
 21
95.0378446389
  0
LINE
  5
360
100
AcDbEntity
  8
0
100
AcDbLine
 62
7
  6
BYLAYER
 10
24.9325999102
 20
95.0678446389
 11
27.9630294189
 21
95.0678446389
  0
LINE
  5
361
100
AcDbEntity
  8
0
100
AcDbLine
 62
7
  6
BYLAYER
 10
78.9030294189
 20
95.0678446389
 11
81.9334774822
 21
95.0678446389
  0
LINE
  5
362
100
AcDbEntity
  8
0
100
AcDbLine
 62
7
  6
BYLAYER
 10
91.9080294189
 20
95.0678446389
 11
94.9384774822
 21
95.0678446389
  0
LINE
  5
363
100
AcDbEntity
  8
0
100
AcDbLine
 62
7
  6
BYLAYER
 10
104.9030294189
 20
95.0678446389
 11
107.9334774822
 21
95.0678446389
  0
LINE
  5
364
100
AcDbEntity
  8
0
100
AcDbLine
 62
7
  6
BYLAYER
 10
25.1237514924
 20
95.2678446389
 11
26.2330294189
 21
95.2678446389
  0
LINE
  5
365
100
AcDbEntity
  8
0
100
AcDbLine
 62
7
  6
BYLAYER
 10
27.0330294189
 20
95.2678446389
 11
27.8630294189
 21
95.2678446389
  0
LINE
  5
366
100
AcDbEntity
  8
0
100
AcDbLine
 62
7
  6
BYLAYER
 10
79.0030294189
 20
95.2678446389
 11
79.8330294189
 21
95.2678446389
  0
LINE
  5
367
100
AcDbEntity
  8
0
100
AcDbLine
 62
7
  6
BYLAYER
 10
80.6330294189
 20
95.2678446389
 11
81.7423073454
 21
95.2678446389
  0
LINE
  5
368
100
AcDbEntity
  8
0
100
AcDbLine
 62
7
  6
BYLAYER
 10
92.0080294189
 20
95.2678446389
 11
92.8380294189
 21
95.2678446389
  0
LINE
  5
369
100
AcDbEntity
  8
0
100
AcDbLine
 62
7
  6
BYLAYER
 10
93.6380294189
 20
95.2678446389
 11
94.7473073454
 21
95.2678446389
  0
LINE
  5
36A
100
AcDbEntity
  8
0
100
AcDbLine
 62
7
  6
BYLAYER
 10
105.0030294189
 20
95.2678446389
 11
105.8330294189
 21
95.2678446389
  0
LINE
  5
36B
100
AcDbEntity
  8
0
100
AcDbLine
 62
7
  6
BYLAYER
 10
106.6330294189
 20
95.2678446389
 11
107.7423073454
 21
95.2678446389
  0
LINE
  5
36C
100
AcDbEntity
  8
0
100
AcDbLine
 62
7
  6
BYLAYER
 10
71.8330294189
 20
95.8028446389
 11
70.3330294189
 21
95.8028446389
  0
LINE
  5
36D
100
AcDbEntity
  8
0
100
AcDbLine
 62
7
  6
BYLAYER
 10
66.8330294189
 20
95.8028446389
 11
65.3330294189
 21
95.8028446389
  0
LINE
  5
36E
100
AcDbEntity
  8
0
100
AcDbLine
 62
7
  6
BYLAYER
 10
61.8330294189
 20
95.8028446389
 11
60.3330294189
 21
95.8028446389
  0
LINE
  5
36F
100
AcDbEntity
  8
0
100
AcDbLine
 62
7
  6
BYLAYER
 10
107.4330294189
 20
96.322844639
 11
107.2423073479
 21
96.322844639
  0
LINE
  5
370
100
AcDbEntity
  8
0
100
AcDbLine
 62
7
  6
BYLAYER
 10
94.4380294189
 20
96.322844639
 11
94.2473073479
 21
96.322844639
  0
LINE
  5
371
100
AcDbEntity
  8
0
100
AcDbLine
 62
7
  6
BYLAYER
 10
81.4330294189
 20
96.322844639
 11
81.2423073479
 21
96.322844639
  0
LINE
  5
372
100
AcDbEntity
  8
0
100
AcDbLine
 62
7
  6
BYLAYER
 10
25.4330294189
 20
96.3228446389
 11
25.62375149
 21
96.3228446389
  0
LINE
  5
373
100
AcDbEntity
  8
0
100
AcDbLine
 62
7
  6
BYLAYER
 10
73.7830294189
 20
97.0278446389
 11
58.6803170121
 21
97.0278446389
  0
LINE
  5
374
100
AcDbEntity
  8
0
100
AcDbLine
 62
7
  6
BYLAYER
 10
56.8803181557
 20
97.0278446389
 11
52.0160762107
 21
97.0278446389
  0
LINE
  5
375
100
AcDbEntity
  8
0
100
AcDbLine
 62
7
  6
BYLAYER
 10
44.853888048
 20
97.0278446389
 11
43.6724442643
 21
97.0278446389
  0
LINE
  5
376
100
AcDbEntity
  8
0
100
AcDbLine
 62
7
  6
BYLAYER
 10
43.9261328672
 20
97.2778446389
 11
44.853888048
 21
97.2778446389
  0
LINE
  5
377
100
AcDbEntity
  8
0
100
AcDbLine
 62
7
  6
BYLAYER
 10
52.0160762169
 20
97.2778446389
 11
56.8803181557
 21
97.2778446389
  0
LINE
  5
378
100
AcDbEntity
  8
0
100
AcDbLine
 62
7
  6
BYLAYER
 10
58.6803170121
 20
97.2778446389
 11
73.7830294189
 21
97.2778446389
  0
LINE
  5
379
100
AcDbEntity
  8
0
100
AcDbLine
 62
7
  6
BYLAYER
 10
68.1830294189
 20
97.3278446389
 11
65.1830294189
 21
97.3278446389
  0
LINE
  5
37A
100
AcDbEntity
  8
0
100
AcDbLine
 62
7
  6
BYLAYER
 10
51.4677375783
 20
97.3528446389
 11
65.1830294189
 21
97.3528446389
  0
LINE
  5
37B
100
AcDbEntity
  8
0
100
AcDbLine
 62
7
  6
BYLAYER
 10
107.7423073454
 20
97.3778446389
 11
106.6330294189
 21
97.3778446389
  0
LINE
  5
37C
100
AcDbEntity
  8
0
100
AcDbLine
 62
7
  6
BYLAYER
 10
105.8330294189
 20
97.3778446389
 11
105.0030294189
 21
97.3778446389
  0
LINE
  5
37D
100
AcDbEntity
  8
0
100
AcDbLine
 62
7
  6
BYLAYER
 10
94.7473073454
 20
97.3778446389
 11
93.6380294189
 21
97.3778446389
  0
LINE
  5
37E
100
AcDbEntity
  8
0
100
AcDbLine
 62
7
  6
BYLAYER
 10
92.8380294189
 20
97.3778446389
 11
92.0080294189
 21
97.3778446389
  0
LINE
  5
37F
100
AcDbEntity
  8
0
100
AcDbLine
 62
7
  6
BYLAYER
 10
81.7423073454
 20
97.3778446389
 11
80.6330294189
 21
97.3778446389
  0
LINE
  5
380
100
AcDbEntity
  8
0
100
AcDbLine
 62
7
  6
BYLAYER
 10
79.8330294189
 20
97.3778446389
 11
79.0030294189
 21
97.3778446389
  0
LINE
  5
381
100
AcDbEntity
  8
0
100
AcDbLine
 62
7
  6
BYLAYER
 10
27.8630294189
 20
97.3778446389
 11
27.0330294189
 21
97.3778446389
  0
LINE
  5
382
100
AcDbEntity
  8
0
100
AcDbLine
 62
7
  6
BYLAYER
 10
26.2330294189
 20
97.3778446389
 11
25.1237514924
 21
97.3778446389
  0
LINE
  5
383
100
AcDbEntity
  8
0
100
AcDbLine
 62
7
  6
BYLAYER
 10
64.0843716134
 20
97.5528446389
 11
65.1830294189
 21
97.5528446389
  0
LINE
  5
384
100
AcDbEntity
  8
0
100
AcDbLine
 62
7
  6
BYLAYER
 10
68.1830294189
 20
97.5528446389
 11
68.3847070508
 21
97.5528446389
  0
LINE
  5
385
100
AcDbEntity
  8
0
100
AcDbLine
 62
7
  6
BYLAYER
 10
24.9326088286
 20
97.5778446389
 11
27.9630294189
 21
97.5778446389
  0
LINE
  5
386
100
AcDbEntity
  8
0
100
AcDbLine
 62
7
  6
BYLAYER
 10
78.9030294189
 20
97.5778446389
 11
81.9334690136
 21
97.5778446389
  0
LINE
  5
387
100
AcDbEntity
  8
0
100
AcDbLine
 62
7
  6
BYLAYER
 10
91.9080294189
 20
97.5778446389
 11
94.9384690136
 21
97.5778446389
  0
LINE
  5
388
100
AcDbEntity
  8
0
100
AcDbLine
 62
7
  6
BYLAYER
 10
104.9030294189
 20
97.5778446389
 11
107.9334690136
 21
97.5778446389
  0
LINE
  5
389
100
AcDbEntity
  8
0
100
AcDbLine
 62
7
  6
BYLAYER
 10
26.7782267328
 20
97.6278446389
 11
28.2130294189
 21
97.6278446389
  0
LINE
  5
38A
100
AcDbEntity
  8
0
100
AcDbLine
 62
7
  6
BYLAYER
 10
78.6530294189
 20
97.6278446389
 11
79.887832105
 21
97.6278446389
  0
LINE
  5
38B
100
AcDbEntity
  8
0
100
AcDbLine
 62
7
  6
BYLAYER
 10
91.6563627522
 20
97.6278446389
 11
92.887832105
 21
97.6278446389
  0
LINE
  5
38C
100
AcDbEntity
  8
0
100
AcDbLine
 62
7
  6
BYLAYER
 10
104.6530294189
 20
97.6278446389
 11
106.2460054656
 21
97.6278446389
  0
LINE
  5
38D
100
AcDbEntity
  8
0
100
AcDbLine
 62
7
  6
BYLAYER
 10
24.8330294189
 20
97.6478446389
 11
28.2130294189
 21
97.6478446389
  0
LINE
  5
38E
100
AcDbEntity
  8
0
100
AcDbLine
 62
7
  6
BYLAYER
 10
78.6530294189
 20
97.6478446389
 11
82.0330294189
 21
97.6478446389
  0
LINE
  5
38F
100
AcDbEntity
  8
0
100
AcDbLine
 62
7
  6
BYLAYER
 10
91.6546960856
 20
97.6478446389
 11
95.0330294189
 21
97.6478446389
  0
LINE
  5
390
100
AcDbEntity
  8
0
100
AcDbLine
 62
7
  6
BYLAYER
 10
104.6530294189
 20
97.6478446389
 11
108.0370235753
 21
97.6478446389
  0
LINE
  5
391
100
AcDbEntity
  8
0
100
AcDbLine
 62
7
  6
BYLAYER
 10
65.1830294189
 20
97.7278446389
 11
68.1830294189
 21
97.7278446389
  0
LINE
  5
392
100
AcDbEntity
  8
0
100
AcDbLine
 62
7
  6
BYLAYER
 10
21.2925356646
 20
97.9278446389
 11
22.5946107384
 21
97.9278446389
  0
LINE
  5
393
100
AcDbEntity
  8
0
100
AcDbLine
 62
7
  6
BYLAYER
 10
84.3260908004
 20
97.9278446389
 11
85.5736840363
 21
97.9278446389
  0
LINE
  5
394
100
AcDbEntity
  8
0
100
AcDbLine
 62
7
  6
BYLAYER
 10
97.3260908004
 20
97.9278446389
 11
98.5985849141
 21
97.9278446389
  0
LINE
  5
395
100
AcDbEntity
  8
0
100
AcDbLine
 62
7
  6
BYLAYER
 10
110.3260908004
 20
97.9278446389
 11
111.5985849141
 21
97.9278446389
  0
LINE
  5
396
100
AcDbEntity
  8
0
100
AcDbLine
 62
7
  6
BYLAYER
 10
63.0150023883
 20
98.1528446389
 11
68.3847070508
 21
98.1528446389
  0
LINE
  5
397
100
AcDbEntity
  8
0
100
AcDbLine
 62
7
  6
BYLAYER
 10
62.4134821991
 20
98.352844639
 11
61.8787975865
 21
98.7528446389
  0
LINE
  5
398
100
AcDbEntity
  8
0
100
AcDbLine
 62
7
  6
BYLAYER
 10
62.420073191
 20
98.3528446389
 11
61.8867401965
 21
98.7528446389
  0
LINE
  5
399
100
AcDbEntity
  8
0
100
AcDbLine
 62
7
  6
BYLAYER
 10
71.5830294189
 20
86.0028446389
 11
71.5830294189
 21
88.3028446389
  0
LINE
  5
39A
100
AcDbEntity
  8
0
100
AcDbLine
 62
7
  6
BYLAYER
 10
71.5830294189
 20
93.5028446389
 11
71.5830294189
 21
95.8028446389
  0
LINE
  5
39B
100
AcDbEntity
  8
0
100
AcDbLine
 62
7
  6
BYLAYER
 10
71.8330294189
 20
95.8028446389
 11
71.8330294189
 21
93.5028446389
  0
LINE
  5
39C
100
AcDbEntity
  8
0
100
AcDbLine
 62
7
  6
BYLAYER
 10
71.8330294189
 20
88.3028446389
 11
71.8330294189
 21
86.0028446389
  0
LINE
  5
39D
100
AcDbEntity
  8
0
100
AcDbLine
 62
7
  6
BYLAYER
 10
73.7830294189
 20
83.2278446389
 11
73.7830294189
 21
98.5778446389
  0
LINE
  5
39E
100
AcDbEntity
  8
0
100
AcDbLine
 62
7
  6
BYLAYER
 10
74.5830294189
 20
98.8278446389
 11
74.5830294189
 21
82.9778446389
  0
LINE
  5
39F
100
AcDbEntity
  8
0
100
AcDbLine
 62
7
  6
BYLAYER
 10
114.7830294189
 20
98.5778446389
 11
62.1200733816
 21
98.5778446389
  0
LINE
  5
3A0
100
AcDbEntity
  8
0
100
AcDbLine
 62
7
  6
BYLAYER
 10
44.8660695611
 20
98.5778446389
 11
16.8830294189
 21
98.5778446389
  0
LINE
  5
3A1
100
AcDbEntity
  8
0
100
AcDbLine
 62
7
  6
BYLAYER
 10
61.8787975865
 20
98.7528446389
 11
44.853888048
 21
98.7528446389
  0
LINE
  5
3A2
100
AcDbEntity
  8
0
100
AcDbLine
 62
7
  6
BYLAYER
 10
46.5830294189
 20
98.7778446389
 11
48.5830294189
 21
98.7778446389
  0
LINE
  5
3A3
100
AcDbEntity
  8
0
100
AcDbLine
 62
7
  6
BYLAYER
 10
17.1330294189
 20
98.8278446389
 11
114.5330294189
 21
98.8278446389
  0
LINE
  5
3A4
100
AcDbEntity
  8
0
100
AcDbLine
 62
7
  6
BYLAYER
 10
78.9420534646
 20
84.1578446389
 11
78.9423572279
 21
84.1418276983
  0
LINE
  5
3A5
100
AcDbEntity
  8
0
100
AcDbLine
 62
7
  6
BYLAYER
 10
78.9420534646
 20
87.7378446389
 11
78.9423572279
 21
87.7118276983
  0
LINE
  5
3A6
100
AcDbEntity
  8
0
100
AcDbLine
 62
7
  6
BYLAYER
 10
78.6530294189
 20
97.6478446389
 11
78.6530294189
 21
95.0378446389
  0
LINE
  5
3A7
100
AcDbEntity
  8
0
100
AcDbLine
 62
7
  6
BYLAYER
 10
78.6530294189
 20
94.0678446389
 11
78.6530294189
 21
91.4728446389
  0
LINE
  5
3A8
100
AcDbEntity
  8
0
100
AcDbLine
 62
7
  6
BYLAYER
 10
78.6530294189
 20
90.3328446389
 11
78.6530294189
 21
87.7378446389
  0
LINE
  5
3A9
100
AcDbEntity
  8
0
100
AcDbLine
 62
7
  6
BYLAYER
 10
78.6530294189
 20
86.7678446389
 11
78.6530294189
 21
84.1578446389
  0
LINE
  5
3AA
100
AcDbEntity
  8
0
100
AcDbLine
 62
7
  6
BYLAYER
 10
78.7030294189
 20
84.3420380499
 11
78.7030294189
 21
86.4520380499
  0
LINE
  5
3AB
100
AcDbEntity
  8
0
100
AcDbLine
 62
7
  6
BYLAYER
 10
78.7030294189
 20
87.9120380499
 11
78.7030294189
 21
90.0220380499
  0
LINE
  5
3AC
100
AcDbEntity
  8
0
100
AcDbLine
 62
7
  6
BYLAYER
 10
78.7030294189
 20
91.6978446389
 11
78.7030294189
 21
93.8078446389
  0
LINE
  5
3AD
100
AcDbEntity
  8
0
100
AcDbLine
 62
7
  6
BYLAYER
 10
78.7030294189
 20
95.2678446389
 11
78.7030294189
 21
97.3778446389
  0
LINE
  5
3AE
100
AcDbEntity
  8
0
100
AcDbLine
 62
7
  6
BYLAYER
 10
78.7830294189
 20
82.9778446389
 11
78.7830294189
 21
84.1578446389
  0
LINE
  5
3AF
100
AcDbEntity
  8
0
100
AcDbLine
 62
7
  6
BYLAYER
 10
78.7830294189
 20
86.7678446389
 11
78.7830294189
 21
87.7378446389
  0
LINE
  5
3B0
100
AcDbEntity
  8
0
100
AcDbLine
 62
7
  6
BYLAYER
 10
78.7830294189
 20
90.3328446389
 11
78.7830294189
 21
91.4728446389
  0
LINE
  5
3B1
100
AcDbEntity
  8
0
100
AcDbLine
 62
7
  6
BYLAYER
 10
78.7830294189
 20
94.0678446389
 11
78.7830294189
 21
95.0378446389
  0
LINE
  5
3B2
100
AcDbEntity
  8
0
100
AcDbLine
 62
7
  6
BYLAYER
 10
78.7830294189
 20
97.6478446389
 11
78.7830294189
 21
98.8278446389
  0
LINE
  5
3B3
100
AcDbEntity
  8
0
100
AcDbLine
 62
7
  6
BYLAYER
 10
79.0030294189
 20
84.3420380499
 11
79.0030294189
 21
86.4520380499
  0
LINE
  5
3B4
100
AcDbEntity
  8
0
100
AcDbLine
 62
7
  6
BYLAYER
 10
79.0030294189
 20
87.9120380499
 11
79.0030294189
 21
90.0220380499
  0
LINE
  5
3B5
100
AcDbEntity
  8
0
100
AcDbLine
 62
7
  6
BYLAYER
 10
79.0030294189
 20
91.6978446389
 11
79.0030294189
 21
93.8078446389
  0
LINE
  5
3B6
100
AcDbEntity
  8
0
100
AcDbLine
 62
7
  6
BYLAYER
 10
79.0030294189
 20
95.2678446389
 11
79.0030294189
 21
97.3778446389
  0
LINE
  5
3B7
100
AcDbEntity
  8
0
100
AcDbLine
 62
7
  6
BYLAYER
 10
79.8330294189
 20
84.1430768547
 11
79.8330294189
 21
86.6520380499
  0
LINE
  5
3B8
100
AcDbEntity
  8
0
100
AcDbLine
 62
7
  6
BYLAYER
 10
79.8330294189
 20
87.7130768547
 11
79.8330294189
 21
90.2220380499
  0
LINE
  5
3B9
100
AcDbEntity
  8
0
100
AcDbLine
 62
7
  6
BYLAYER
 10
79.8330294189
 20
91.4978446389
 11
79.8330294189
 21
94.0078446389
  0
LINE
  5
3BA
100
AcDbEntity
  8
0
100
AcDbLine
 62
7
  6
BYLAYER
 10
79.8330294189
 20
95.0678446389
 11
79.8330294189
 21
97.5778446389
  0
LINE
  5
3BB
100
AcDbEntity
  8
0
100
AcDbLine
 62
7
  6
BYLAYER
 10
79.887832105
 20
86.7020380499
 11
79.887832105
 21
86.7678446389
  0
LINE
  5
3BC
100
AcDbEntity
  8
0
100
AcDbLine
 62
7
  6
BYLAYER
 10
79.887832105
 20
90.2720380499
 11
79.887832105
 21
90.3328446389
  0
LINE
  5
3BD
100
AcDbEntity
  8
0
100
AcDbLine
 62
7
  6
BYLAYER
 10
79.887832105
 20
94.0478446389
 11
79.887832105
 21
94.0678446389
  0
LINE
  5
3BE
100
AcDbEntity
  8
0
100
AcDbLine
 62
7
  6
BYLAYER
 10
79.887832105
 20
97.6278446389
 11
79.887832105
 21
97.6478446389
  0
LINE
  5
3BF
100
AcDbEntity
  8
0
100
AcDbLine
 62
7
  6
BYLAYER
 10
80.0330294189
 20
97.5778446389
 11
80.0330294189
 21
95.0678446389
  0
LINE
  5
3C0
100
AcDbEntity
  8
0
100
AcDbLine
 62
7
  6
BYLAYER
 10
80.0330294189
 20
94.0078446389
 11
80.0330294189
 21
91.4978446389
  0
LINE
  5
3C1
100
AcDbEntity
  8
0
100
AcDbLine
 62
7
  6
BYLAYER
 10
80.0330294189
 20
90.2220380499
 11
80.0330294189
 21
87.7378446389
  0
LINE
  5
3C2
100
AcDbEntity
  8
0
100
AcDbLine
 62
7
  6
BYLAYER
 10
80.0330294189
 20
86.6520380499
 11
80.0330294189
 21
84.1578446389
  0
LINE
  5
3C3
100
AcDbEntity
  8
0
100
AcDbLine
 62
7
  6
BYLAYER
 10
80.4330294189
 20
84.1578446389
 11
80.4330294189
 21
86.6520380499
  0
LINE
  5
3C4
100
AcDbEntity
  8
0
100
AcDbLine
 62
7
  6
BYLAYER
 10
80.4330294189
 20
87.7378446389
 11
80.4330294189
 21
90.2220380499
  0
LINE
  5
3C5
100
AcDbEntity
  8
0
100
AcDbLine
 62
7
  6
BYLAYER
 10
80.4330294189
 20
91.4978446389
 11
80.4330294189
 21
94.0078446389
  0
LINE
  5
3C6
100
AcDbEntity
  8
0
100
AcDbLine
 62
7
  6
BYLAYER
 10
80.4330294189
 20
95.0678446389
 11
80.4330294189
 21
97.5778446389
  0
LINE
  5
3C7
100
AcDbEntity
  8
0
100
AcDbLine
 62
7
  6
BYLAYER
 10
80.6330294189
 20
94.0078446389
 11
80.6330294189
 21
91.4978446389
  0
LINE
  5
3C8
100
AcDbEntity
  8
0
100
AcDbLine
 62
7
  6
BYLAYER
 10
80.6330294189
 20
86.6520380499
 11
80.6330294189
 21
84.1429232221
  0
LINE
  5
3C9
100
AcDbEntity
  8
0
100
AcDbLine
 62
7
  6
BYLAYER
 10
80.6330294189
 20
87.7129232221
 11
80.6330294189
 21
90.2220380499
  0
LINE
  5
3CA
100
AcDbEntity
  8
0
100
AcDbLine
 62
7
  6
BYLAYER
 10
80.6330294189
 20
95.0678446389
 11
80.6330294189
 21
97.5778446389
  0
LINE
  5
3CB
100
AcDbEntity
  8
0
100
AcDbLine
 62
7
  6
BYLAYER
 10
81.7423086329
 20
86.2745506623
 11
81.7423073454
 21
86.4520380499
  0
LINE
  5
3CC
100
AcDbEntity
  8
0
100
AcDbLine
 62
7
  6
BYLAYER
 10
81.7423073454
 20
95.2678446389
 11
81.7423086329
 21
95.4453320266
  0
LINE
  5
3CD
100
AcDbEntity
  8
0
100
AcDbLine
 62
7
  6
BYLAYER
 10
81.7423086329
 20
89.8445506623
 11
81.7423073454
 21
90.0220380499
  0
LINE
  5
3CE
100
AcDbEntity
  8
0
100
AcDbLine
 62
7
  6
BYLAYER
 10
81.7423073454
 20
91.6978446389
 11
81.7423086329
 21
91.8753320266
  0
LINE
  5
3CF
100
AcDbEntity
  8
0
100
AcDbLine
 62
7
  6
BYLAYER
 10
81.7423073454
 20
87.9120380499
 11
81.7423086329
 21
88.0895254376
  0
LINE
  5
3D0
100
AcDbEntity
  8
0
100
AcDbLine
 62
7
  6
BYLAYER
 10
81.7423086329
 20
93.6303572513
 11
81.7423073454
 21
93.8078446389
  0
LINE
  5
3D1
100
AcDbEntity
  8
0
100
AcDbLine
 62
7
  6
BYLAYER
 10
81.7423073454
 20
84.3420380499
 11
81.7423086329
 21
84.5195254376
  0
LINE
  5
3D2
100
AcDbEntity
  8
0
100
AcDbLine
 62
7
  6
BYLAYER
 10
81.7423086329
 20
97.2003572513
 11
81.7423073454
 21
97.3778446389
  0
LINE
  5
3D3
100
AcDbEntity
  8
0
100
AcDbLine
 62
7
  6
BYLAYER
 10
81.9330294189
 20
97.57779081
 11
81.9330294189
 21
97.0978446389
  0
LINE
  5
3D4
100
AcDbEntity
  8
0
100
AcDbLine
 62
7
  6
BYLAYER
 10
81.9330294189
 20
95.5677587112
 11
81.9330294189
 21
95.0678984679
  0
LINE
  5
3D5
100
AcDbEntity
  8
0
100
AcDbLine
 62
7
  6
BYLAYER
 10
81.9330294189
 20
94.00779081
 11
81.9330294189
 21
93.5079332771
  0
LINE
  5
3D6
100
AcDbEntity
  8
0
100
AcDbLine
 62
7
  6
BYLAYER
 10
81.9330294189
 20
91.9977587112
 11
81.9330294189
 21
91.4978984679
  0
LINE
  5
3D7
100
AcDbEntity
  8
0
100
AcDbLine
 62
7
  6
BYLAYER
 10
81.9330294189
 20
90.221984221
 11
81.9330294189
 21
89.7219905786
  0
LINE
  5
3D8
100
AcDbEntity
  8
0
100
AcDbLine
 62
7
  6
BYLAYER
 10
81.9330294189
 20
88.2119521222
 11
81.9330294189
 21
87.7120918789
  0
LINE
  5
3D9
100
AcDbEntity
  8
0
100
AcDbLine
 62
7
  6
BYLAYER
 10
81.9330294189
 20
86.651984221
 11
81.9330294189
 21
86.1519072232
  0
LINE
  5
3DA
100
AcDbEntity
  8
0
100
AcDbLine
 62
7
  6
BYLAYER
 10
81.9330294189
 20
84.6419521222
 11
81.9330294189
 21
84.1578446389
  0
LINE
  5
3DB
100
AcDbEntity
  8
0
100
AcDbLine
 62
7
  6
BYLAYER
 10
82.0330294189
 20
84.1578446389
 11
82.0330294189
 21
84.7078446389
  0
LINE
  5
3DC
100
AcDbEntity
  8
0
100
AcDbLine
 62
7
  6
BYLAYER
 10
82.0330294189
 20
86.2178446389
 11
82.0330294189
 21
86.7678446389
  0
LINE
  5
3DD
100
AcDbEntity
  8
0
100
AcDbLine
 62
7
  6
BYLAYER
 10
82.0330294189
 20
87.7378446389
 11
82.0330294189
 21
88.2878446389
  0
LINE
  5
3DE
100
AcDbEntity
  8
0
100
AcDbLine
 62
7
  6
BYLAYER
 10
82.0330294189
 20
89.7828446389
 11
82.0330294189
 21
90.3328446389
  0
LINE
  5
3DF
100
AcDbEntity
  8
0
100
AcDbLine
 62
7
  6
BYLAYER
 10
82.0330294189
 20
91.4728446389
 11
82.0330294189
 21
92.0228446389
  0
LINE
  5
3E0
100
AcDbEntity
  8
0
100
AcDbLine
 62
7
  6
BYLAYER
 10
82.0330294189
 20
93.5178446389
 11
82.0330294189
 21
94.0678446389
  0
LINE
  5
3E1
100
AcDbEntity
  8
0
100
AcDbLine
 62
7
  6
BYLAYER
 10
82.0330294189
 20
95.0378446389
 11
82.0330294189
 21
95.5878446389
  0
LINE
  5
3E2
100
AcDbEntity
  8
0
100
AcDbLine
 62
7
  6
BYLAYER
 10
82.0330294189
 20
97.0978446389
 11
82.0330294189
 21
97.6478446389
  0
LINE
  5
3E3
100
AcDbEntity
  8
0
100
AcDbLine
 62
7
  6
BYLAYER
 10
82.9330294189
 20
97.1778446389
 11
82.9330294189
 21
92.0028446389
  0
LINE
  5
3E4
100
AcDbEntity
  8
0
100
AcDbLine
 62
7
  6
BYLAYER
 10
82.9330294189
 20
89.8028446389
 11
82.9330294189
 21
84.6278446389
  0
LINE
  5
3E5
100
AcDbEntity
  8
0
100
AcDbLine
 62
7
  6
BYLAYER
 10
83.5332589704
 20
98.5778446389
 11
83.5332589704
 21
97.7491559361
  0
LINE
  5
3E6
100
AcDbEntity
  8
0
100
AcDbLine
 62
7
  6
BYLAYER
 10
83.5332589704
 20
91.4315330713
 11
83.5332589704
 21
90.3742753102
  0
LINE
  5
3E7
100
AcDbEntity
  8
0
100
AcDbLine
 62
7
  6
BYLAYER
 10
83.5332589704
 20
84.0564136797
 11
83.5332589704
 21
83.2278446389
  0
LINE
  5
3E8
100
AcDbEntity
  8
0
100
AcDbLine
 62
7
  6
BYLAYER
 10
84.3260908004
 20
98.5778446389
 11
84.3260908004
 21
97.9357989647
  0
LINE
  5
3E9
100
AcDbEntity
  8
0
100
AcDbLine
 62
7
  6
BYLAYER
 10
84.3260908004
 20
91.2448903132
 11
84.3260908004
 21
90.5609183475
  0
LINE
  5
3EA
100
AcDbEntity
  8
0
100
AcDbLine
 62
7
  6
BYLAYER
 10
84.3260908004
 20
83.8697709304
 11
84.3260908004
 21
83.2278446389
  0
LINE
  5
3EB
100
AcDbEntity
  8
0
100
AcDbLine
 62
7
  6
BYLAYER
 10
86.9330294189
 20
97.1778446389
 11
86.9330294189
 21
92.0028446389
  0
LINE
  5
3EC
100
AcDbEntity
  8
0
100
AcDbLine
 62
7
  6
BYLAYER
 10
86.9330294189
 20
89.8028446389
 11
86.9330294189
 21
84.6278446389
  0
LINE
  5
3ED
100
AcDbEntity
  8
0
100
AcDbLine
 62
7
  6
BYLAYER
 10
88.6098148974
 20
83.2278446389
 11
88.6098148974
 21
98.5778446389
  0
LINE
  5
3EE
100
AcDbEntity
  8
0
100
AcDbLine
 62
7
  6
BYLAYER
 10
88.7830294189
 20
98.5778446389
 11
88.7830294189
 21
83.2278446389
  0
LINE
  5
3EF
100
AcDbEntity
  8
0
100
AcDbLine
 62
7
  6
BYLAYER
 10
91.6580294189
 20
84.1578446389
 11
91.6580294189
 21
86.7678446389
  0
LINE
  5
3F0
100
AcDbEntity
  8
0
100
AcDbLine
 62
7
  6
BYLAYER
 10
91.6580294189
 20
87.7378446389
 11
91.6580294189
 21
90.3328446389
  0
LINE
  5
3F1
100
AcDbEntity
  8
0
100
AcDbLine
 62
7
  6
BYLAYER
 10
91.6580294189
 20
91.4728446389
 11
91.6580294189
 21
94.0678446389
  0
LINE
  5
3F2
100
AcDbEntity
  8
0
100
AcDbLine
 62
7
  6
BYLAYER
 10
91.6580294189
 20
95.0378446389
 11
91.6580294189
 21
97.6478446389
  0
LINE
  5
3F3
100
AcDbEntity
  8
0
100
AcDbLine
 62
7
  6
BYLAYER
 10
91.7080294189
 20
84.3778446389
 11
91.7080294189
 21
86.4878446389
  0
LINE
  5
3F4
100
AcDbEntity
  8
0
100
AcDbLine
 62
7
  6
BYLAYER
 10
91.7080294189
 20
87.9478446389
 11
91.7080294189
 21
90.0578446389
  0
LINE
  5
3F5
100
AcDbEntity
  8
0
100
AcDbLine
 62
7
  6
BYLAYER
 10
91.7080294189
 20
91.6978446389
 11
91.7080294189
 21
93.8078446389
  0
LINE
  5
3F6
100
AcDbEntity
  8
0
100
AcDbLine
 62
7
  6
BYLAYER
 10
91.7080294189
 20
95.2678446389
 11
91.7080294189
 21
97.3778446389
  0
LINE
  5
3F7
100
AcDbEntity
  8
0
100
AcDbLine
 62
7
  6
BYLAYER
 10
91.7830294189
 20
82.9778446389
 11
91.7830294189
 21
84.1578446389
  0
LINE
  5
3F8
100
AcDbEntity
  8
0
100
AcDbLine
 62
7
  6
BYLAYER
 10
91.7830294189
 20
86.7678446389
 11
91.7830294189
 21
87.7378446389
  0
LINE
  5
3F9
100
AcDbEntity
  8
0
100
AcDbLine
 62
7
  6
BYLAYER
 10
91.7830294189
 20
90.3328446389
 11
91.7830294189
 21
91.4728446389
  0
LINE
  5
3FA
100
AcDbEntity
  8
0
100
AcDbLine
 62
7
  6
BYLAYER
 10
91.7830294189
 20
94.0678446389
 11
91.7830294189
 21
95.0378446389
  0
LINE
  5
3FB
100
AcDbEntity
  8
0
100
AcDbLine
 62
7
  6
BYLAYER
 10
91.7830294189
 20
97.6478446389
 11
91.7830294189
 21
98.8278446389
  0
LINE
  5
3FC
100
AcDbEntity
  8
0
100
AcDbLine
 62
7
  6
BYLAYER
 10
92.0080294189
 20
84.3778446389
 11
92.0080294189
 21
86.4878446389
  0
LINE
  5
3FD
100
AcDbEntity
  8
0
100
AcDbLine
 62
7
  6
BYLAYER
 10
92.0080294189
 20
87.9478446389
 11
92.0080294189
 21
90.0578446389
  0
LINE
  5
3FE
100
AcDbEntity
  8
0
100
AcDbLine
 62
7
  6
BYLAYER
 10
92.0080294189
 20
91.6978446389
 11
92.0080294189
 21
93.8078446389
  0
LINE
  5
3FF
100
AcDbEntity
  8
0
100
AcDbLine
 62
7
  6
BYLAYER
 10
92.0080294189
 20
95.2678446389
 11
92.0080294189
 21
97.3778446389
  0
LINE
  5
400
100
AcDbEntity
  8
0
100
AcDbLine
 62
7
  6
BYLAYER
 10
92.8380294189
 20
84.1778446389
 11
92.8380294189
 21
86.6878446389
  0
LINE
  5
401
100
AcDbEntity
  8
0
100
AcDbLine
 62
7
  6
BYLAYER
 10
92.8380294189
 20
87.7478446389
 11
92.8380294189
 21
90.2578446389
  0
LINE
  5
402
100
AcDbEntity
  8
0
100
AcDbLine
 62
7
  6
BYLAYER
 10
92.8380294189
 20
91.4978446389
 11
92.8380294189
 21
94.0078446389
  0
LINE
  5
403
100
AcDbEntity
  8
0
100
AcDbLine
 62
7
  6
BYLAYER
 10
92.8380294189
 20
95.0678446389
 11
92.8380294189
 21
97.5778446389
  0
LINE
  5
404
100
AcDbEntity
  8
0
100
AcDbLine
 62
7
  6
BYLAYER
 10
92.887832105
 20
86.7378446389
 11
92.887832105
 21
86.7678446389
  0
LINE
  5
405
100
AcDbEntity
  8
0
100
AcDbLine
 62
7
  6
BYLAYER
 10
92.887832105
 20
90.3078446389
 11
92.887832105
 21
90.3328446389
  0
LINE
  5
406
100
AcDbEntity
  8
0
100
AcDbLine
 62
7
  6
BYLAYER
 10
92.887832105
 20
94.0478446389
 11
92.887832105
 21
94.0678446389
  0
LINE
  5
407
100
AcDbEntity
  8
0
100
AcDbLine
 62
7
  6
BYLAYER
 10
92.887832105
 20
97.6278446389
 11
92.887832105
 21
97.6478446389
  0
LINE
  5
408
100
AcDbEntity
  8
0
100
AcDbLine
 62
7
  6
BYLAYER
 10
93.0380294189
 20
97.5778446389
 11
93.0380294189
 21
95.0678446389
  0
LINE
  5
409
100
AcDbEntity
  8
0
100
AcDbLine
 62
7
  6
BYLAYER
 10
93.0380294189
 20
94.0078446389
 11
93.0380294189
 21
91.4978446389
  0
LINE
  5
40A
100
AcDbEntity
  8
0
100
AcDbLine
 62
7
  6
BYLAYER
 10
93.0380294189
 20
90.2578446389
 11
93.0380294189
 21
87.7478446389
  0
LINE
  5
40B
100
AcDbEntity
  8
0
100
AcDbLine
 62
7
  6
BYLAYER
 10
93.0380294189
 20
86.6878446389
 11
93.0380294189
 21
84.1778446389
  0
LINE
  5
40C
100
AcDbEntity
  8
0
100
AcDbLine
 62
7
  6
BYLAYER
 10
93.4380294189
 20
84.1778446389
 11
93.4380294189
 21
86.6878446389
  0
LINE
  5
40D
100
AcDbEntity
  8
0
100
AcDbLine
 62
7
  6
BYLAYER
 10
93.4380294189
 20
87.7478446389
 11
93.4380294189
 21
90.2578446389
  0
LINE
  5
40E
100
AcDbEntity
  8
0
100
AcDbLine
 62
7
  6
BYLAYER
 10
93.4380294189
 20
91.4978446389
 11
93.4380294189
 21
94.0078446389
  0
LINE
  5
40F
100
AcDbEntity
  8
0
100
AcDbLine
 62
7
  6
BYLAYER
 10
93.4380294189
 20
95.0678446389
 11
93.4380294189
 21
97.5778446389
  0
LINE
  5
410
100
AcDbEntity
  8
0
100
AcDbLine
 62
7
  6
BYLAYER
 10
93.6380294189
 20
94.0078446389
 11
93.6380294189
 21
91.4978446389
  0
LINE
  5
411
100
AcDbEntity
  8
0
100
AcDbLine
 62
7
  6
BYLAYER
 10
93.6380294189
 20
86.6878446389
 11
93.6380294189
 21
84.1778446389
  0
LINE
  5
412
100
AcDbEntity
  8
0
100
AcDbLine
 62
7
  6
BYLAYER
 10
93.6380294189
 20
87.7478446389
 11
93.6380294189
 21
90.2578446389
  0
LINE
  5
413
100
AcDbEntity
  8
0
100
AcDbLine
 62
7
  6
BYLAYER
 10
93.6380294189
 20
95.0678446389
 11
93.6380294189
 21
97.5778446389
  0
LINE
  5
414
100
AcDbEntity
  8
0
100
AcDbLine
 62
7
  6
BYLAYER
 10
94.7473086329
 20
86.3103572513
 11
94.7473073454
 21
86.4878446389
  0
LINE
  5
415
100
AcDbEntity
  8
0
100
AcDbLine
 62
7
  6
BYLAYER
 10
94.7473073454
 20
95.2678446389
 11
94.7473086329
 21
95.4453320266
  0
LINE
  5
416
100
AcDbEntity
  8
0
100
AcDbLine
 62
7
  6
BYLAYER
 10
94.7473086329
 20
89.8803572513
 11
94.7473073454
 21
90.0578446389
  0
LINE
  5
417
100
AcDbEntity
  8
0
100
AcDbLine
 62
7
  6
BYLAYER
 10
94.7473073454
 20
91.6978446389
 11
94.7473086329
 21
91.8753320266
  0
LINE
  5
418
100
AcDbEntity
  8
0
100
AcDbLine
 62
7
  6
BYLAYER
 10
94.7473073454
 20
87.9478446389
 11
94.7473086329
 21
88.1253320266
  0
LINE
  5
419
100
AcDbEntity
  8
0
100
AcDbLine
 62
7
  6
BYLAYER
 10
94.7473086329
 20
93.6303572513
 11
94.7473073454
 21
93.8078446389
  0
LINE
  5
41A
100
AcDbEntity
  8
0
100
AcDbLine
 62
7
  6
BYLAYER
 10
94.7473073454
 20
84.3778446389
 11
94.7473086329
 21
84.5553320266
  0
LINE
  5
41B
100
AcDbEntity
  8
0
100
AcDbLine
 62
7
  6
BYLAYER
 10
94.7473086329
 20
97.2003572513
 11
94.7473073454
 21
97.3778446389
  0
LINE
  5
41C
100
AcDbEntity
  8
0
100
AcDbLine
 62
7
  6
BYLAYER
 10
94.9380294189
 20
97.57779081
 11
94.9380294189
 21
97.0978455529
  0
LINE
  5
41D
100
AcDbEntity
  8
0
100
AcDbLine
 62
7
  6
BYLAYER
 10
94.9380294189
 20
95.5677587112
 11
94.9380294189
 21
95.0678984679
  0
LINE
  5
41E
100
AcDbEntity
  8
0
100
AcDbLine
 62
7
  6
BYLAYER
 10
94.9380294189
 20
94.00779081
 11
94.9380294189
 21
93.5079332771
  0
LINE
  5
41F
100
AcDbEntity
  8
0
100
AcDbLine
 62
7
  6
BYLAYER
 10
94.9380294189
 20
91.9977587112
 11
94.9380294189
 21
91.4978984679
  0
LINE
  5
420
100
AcDbEntity
  8
0
100
AcDbLine
 62
7
  6
BYLAYER
 10
94.9380294189
 20
90.25779081
 11
94.9380294189
 21
89.7579332771
  0
LINE
  5
421
100
AcDbEntity
  8
0
100
AcDbLine
 62
7
  6
BYLAYER
 10
94.9380294189
 20
88.2477587112
 11
94.9380294189
 21
87.7478984679
  0
LINE
  5
422
100
AcDbEntity
  8
0
100
AcDbLine
 62
7
  6
BYLAYER
 10
94.9380294189
 20
86.68779081
 11
94.9380294189
 21
86.1879332771
  0
LINE
  5
423
100
AcDbEntity
  8
0
100
AcDbLine
 62
7
  6
BYLAYER
 10
94.9380294189
 20
84.6777587112
 11
94.9380294189
 21
84.1778984679
  0
LINE
  5
424
100
AcDbEntity
  8
0
100
AcDbLine
 62
7
  6
BYLAYER
 10
95.0330294189
 20
84.1578446389
 11
95.0330294189
 21
84.7078446389
  0
LINE
  5
425
100
AcDbEntity
  8
0
100
AcDbLine
 62
7
  6
BYLAYER
 10
95.0330294189
 20
86.2178446389
 11
95.0330294189
 21
86.7678446389
  0
LINE
  5
426
100
AcDbEntity
  8
0
100
AcDbLine
 62
7
  6
BYLAYER
 10
95.0330294189
 20
87.7378446389
 11
95.0330294189
 21
88.2878446389
  0
LINE
  5
427
100
AcDbEntity
  8
0
100
AcDbLine
 62
7
  6
BYLAYER
 10
95.0330294189
 20
89.7828446389
 11
95.0330294189
 21
90.3328446389
  0
LINE
  5
428
100
AcDbEntity
  8
0
100
AcDbLine
 62
7
  6
BYLAYER
 10
95.0330294189
 20
91.4728446389
 11
95.0330294189
 21
92.0228446389
  0
LINE
  5
429
100
AcDbEntity
  8
0
100
AcDbLine
 62
7
  6
BYLAYER
 10
95.0330294189
 20
93.5178446389
 11
95.0330294189
 21
94.0678446389
  0
LINE
  5
42A
100
AcDbEntity
  8
0
100
AcDbLine
 62
7
  6
BYLAYER
 10
95.0330294189
 20
95.0378446389
 11
95.0330294189
 21
95.5860837689
  0
LINE
  5
42B
100
AcDbEntity
  8
0
100
AcDbLine
 62
7
  6
BYLAYER
 10
95.0330294189
 20
97.0978454267
 11
95.0330294189
 21
97.6478446389
  0
LINE
  5
42C
100
AcDbEntity
  8
0
100
AcDbLine
 62
7
  6
BYLAYER
 10
95.9330294189
 20
97.1828446389
 11
95.9330294189
 21
92.0028446389
  0
LINE
  5
42D
100
AcDbEntity
  8
0
100
AcDbLine
 62
7
  6
BYLAYER
 10
95.9330294189
 20
89.8028446389
 11
95.9330294189
 21
84.6228446389
  0
LINE
  5
42E
100
AcDbEntity
  8
0
100
AcDbLine
 62
7
  6
BYLAYER
 10
96.5332589704
 20
98.5778446389
 11
96.5332589704
 21
97.75416079
  0
LINE
  5
42F
100
AcDbEntity
  8
0
100
AcDbLine
 62
7
  6
BYLAYER
 10
96.5332589704
 20
91.4315282145
 11
96.5332589704
 21
90.37416079
  0
LINE
  5
430
100
AcDbEntity
  8
0
100
AcDbLine
 62
7
  6
BYLAYER
 10
96.5332589704
 20
84.0515282145
 11
96.5332589704
 21
83.2278446389
  0
LINE
  5
431
100
AcDbEntity
  8
0
100
AcDbLine
 62
7
  6
BYLAYER
 10
97.3260908004
 20
98.5778446389
 11
97.3260908004
 21
97.940766747
  0
LINE
  5
432
100
AcDbEntity
  8
0
100
AcDbLine
 62
7
  6
BYLAYER
 10
97.3260908004
 20
91.2449225309
 11
97.3260908004
 21
90.560766747
  0
LINE
  5
433
100
AcDbEntity
  8
0
100
AcDbLine
 62
7
  6
BYLAYER
 10
97.3260908004
 20
83.8649225309
 11
97.3260908004
 21
83.2278446389
  0
LINE
  5
434
100
AcDbEntity
  8
0
100
AcDbLine
 62
7
  6
BYLAYER
 10
99.9330294189
 20
97.1828446389
 11
99.9330294189
 21
92.0028446389
  0
LINE
  5
435
100
AcDbEntity
  8
0
100
AcDbLine
 62
7
  6
BYLAYER
 10
99.9330294189
 20
89.8028446389
 11
99.9330294189
 21
84.6228446389
  0
LINE
  5
436
100
AcDbEntity
  8
0
100
AcDbLine
 62
7
  6
BYLAYER
 10
101.6098148974
 20
83.2278446389
 11
101.6098148974
 21
98.5778446389
  0
LINE
  5
437
100
AcDbEntity
  8
0
100
AcDbLine
 62
7
  6
BYLAYER
 10
101.7830294189
 20
98.5778446389
 11
101.7830294189
 21
83.2278446389
  0
LINE
  5
438
100
AcDbEntity
  8
0
100
AcDbLine
 62
7
  6
BYLAYER
 10
104.6530294189
 20
84.1595113056
 11
104.6530294189
 21
86.7695113056
  0
LINE
  5
439
100
AcDbEntity
  8
0
100
AcDbLine
 62
7
  6
BYLAYER
 10
104.6530294189
 20
87.7378446389
 11
104.6530294189
 21
90.3378446389
  0
LINE
  5
43A
100
AcDbEntity
  8
0
100
AcDbLine
 62
7
  6
BYLAYER
 10
104.6530294189
 20
91.4695113056
 11
104.6530294189
 21
94.0678446389
  0
LINE
  5
43B
100
AcDbEntity
  8
0
100
AcDbLine
 62
7
  6
BYLAYER
 10
104.6530294189
 20
95.0378446389
 11
104.6530294189
 21
97.6478446389
  0
LINE
  5
43C
100
AcDbEntity
  8
0
100
AcDbLine
 62
7
  6
BYLAYER
 10
104.7030294189
 20
84.3778446389
 11
104.7030294189
 21
86.4878446389
  0
LINE
  5
43D
100
AcDbEntity
  8
0
100
AcDbLine
 62
7
  6
BYLAYER
 10
104.7030294189
 20
87.9478446389
 11
104.7030294189
 21
90.0578446389
  0
LINE
  5
43E
100
AcDbEntity
  8
0
100
AcDbLine
 62
7
  6
BYLAYER
 10
104.7030294189
 20
91.6978446389
 11
104.7030294189
 21
93.8078446389
  0
LINE
  5
43F
100
AcDbEntity
  8
0
100
AcDbLine
 62
7
  6
BYLAYER
 10
104.7030294189
 20
95.2678446389
 11
104.7030294189
 21
97.3778446389
  0
LINE
  5
440
100
AcDbEntity
  8
0
100
AcDbLine
 62
7
  6
BYLAYER
 10
104.7830294189
 20
82.9778446389
 11
104.7830294189
 21
84.1595113056
  0
LINE
  5
441
100
AcDbEntity
  8
0
100
AcDbLine
 62
7
  6
BYLAYER
 10
104.7830294189
 20
86.7695113056
 11
104.7830294189
 21
87.7378446389
  0
LINE
  5
442
100
AcDbEntity
  8
0
100
AcDbLine
 62
7
  6
BYLAYER
 10
104.7830294189
 20
90.3378446389
 11
104.7830294189
 21
91.4695113056
  0
LINE
  5
443
100
AcDbEntity
  8
0
100
AcDbLine
 62
7
  6
BYLAYER
 10
104.7830294189
 20
94.0678446389
 11
104.7830294189
 21
95.0378446389
  0
LINE
  5
444
100
AcDbEntity
  8
0
100
AcDbLine
 62
7
  6
BYLAYER
 10
104.7830294189
 20
97.6478455692
 11
104.7830294189
 21
98.8278446389
  0
LINE
  5
445
100
AcDbEntity
  8
0
100
AcDbLine
 62
7
  6
BYLAYER
 10
105.0030294189
 20
84.3778446389
 11
105.0030294189
 21
86.4878446389
  0
LINE
  5
446
100
AcDbEntity
  8
0
100
AcDbLine
 62
7
  6
BYLAYER
 10
105.0030294189
 20
87.9478446389
 11
105.0030294189
 21
90.0578446389
  0
LINE
  5
447
100
AcDbEntity
  8
0
100
AcDbLine
 62
7
  6
BYLAYER
 10
105.0030294189
 20
91.6978446389
 11
105.0030294189
 21
93.8078446389
  0
LINE
  5
448
100
AcDbEntity
  8
0
100
AcDbLine
 62
7
  6
BYLAYER
 10
105.0030294189
 20
95.2678446389
 11
105.0030294189
 21
97.3778446389
  0
LINE
  5
449
100
AcDbEntity
  8
0
100
AcDbLine
 62
7
  6
BYLAYER
 10
105.8330294189
 20
84.1778446389
 11
105.8330294189
 21
86.6878446389
  0
LINE
  5
44A
100
AcDbEntity
  8
0
100
AcDbLine
 62
7
  6
BYLAYER
 10
105.8330294189
 20
87.7478446389
 11
105.8330294189
 21
90.2578446389
  0
LINE
  5
44B
100
AcDbEntity
  8
0
100
AcDbLine
 62
7
  6
BYLAYER
 10
105.8330294189
 20
91.4978446389
 11
105.8330294189
 21
94.0078446389
  0
LINE
  5
44C
100
AcDbEntity
  8
0
100
AcDbLine
 62
7
  6
BYLAYER
 10
105.8330294189
 20
95.0678446389
 11
105.8330294189
 21
97.5778446389
  0
LINE
  5
44D
100
AcDbEntity
  8
0
100
AcDbLine
 62
7
  6
BYLAYER
 10
106.0330294189
 20
97.5778446389
 11
106.0330294189
 21
95.0678446389
  0
LINE
  5
44E
100
AcDbEntity
  8
0
100
AcDbLine
 62
7
  6
BYLAYER
 10
106.0330294189
 20
94.0078446389
 11
106.0330294189
 21
91.4978446389
  0
LINE
  5
44F
100
AcDbEntity
  8
0
100
AcDbLine
 62
7
  6
BYLAYER
 10
106.0330294189
 20
90.2578446389
 11
106.0330294189
 21
87.7478446389
  0
LINE
  5
450
100
AcDbEntity
  8
0
100
AcDbLine
 62
7
  6
BYLAYER
 10
106.0330294189
 20
86.6878446389
 11
106.0330294189
 21
84.1778446389
  0
LINE
  5
451
100
AcDbEntity
  8
0
100
AcDbLine
 62
7
  6
BYLAYER
 10
106.2460054656
 20
86.7378446389
 11
106.2460054656
 21
86.7728446389
  0
LINE
  5
452
100
AcDbEntity
  8
0
100
AcDbLine
 62
7
  6
BYLAYER
 10
106.2460054656
 20
90.3078446389
 11
106.2460054656
 21
90.3378446389
  0
LINE
  5
453
100
AcDbEntity
  8
0
100
AcDbLine
 62
7
  6
BYLAYER
 10
106.2460054656
 20
94.0478446389
 11
106.2460054656
 21
94.0678446389
  0
LINE
  5
454
100
AcDbEntity
  8
0
100
AcDbLine
 62
7
  6
BYLAYER
 10
106.2460054656
 20
97.6278446389
 11
106.2460054656
 21
97.6478446389
  0
LINE
  5
455
100
AcDbEntity
  8
0
100
AcDbLine
 62
7
  6
BYLAYER
 10
106.4330294189
 20
84.1778446389
 11
106.4330294189
 21
86.6878446389
  0
LINE
  5
456
100
AcDbEntity
  8
0
100
AcDbLine
 62
7
  6
BYLAYER
 10
106.4330294189
 20
87.7478446389
 11
106.4330294189
 21
90.2578446389
  0
LINE
  5
457
100
AcDbEntity
  8
0
100
AcDbLine
 62
7
  6
BYLAYER
 10
106.4330294189
 20
91.4978446389
 11
106.4330294189
 21
94.0078446389
  0
LINE
  5
458
100
AcDbEntity
  8
0
100
AcDbLine
 62
7
  6
BYLAYER
 10
106.4330294189
 20
95.0678446389
 11
106.4330294189
 21
97.5778446389
  0
LINE
  5
459
100
AcDbEntity
  8
0
100
AcDbLine
 62
7
  6
BYLAYER
 10
106.6330294189
 20
94.0078446389
 11
106.6330294189
 21
91.4978446389
  0
LINE
  5
45A
100
AcDbEntity
  8
0
100
AcDbLine
 62
7
  6
BYLAYER
 10
106.6330294189
 20
86.6878446389
 11
106.6330294189
 21
84.1778446389
  0
LINE
  5
45B
100
AcDbEntity
  8
0
100
AcDbLine
 62
7
  6
BYLAYER
 10
106.6330294189
 20
87.7478446389
 11
106.6330294189
 21
90.2578446389
  0
LINE
  5
45C
100
AcDbEntity
  8
0
100
AcDbLine
 62
7
  6
BYLAYER
 10
106.6330294189
 20
95.0678446389
 11
106.6330294189
 21
97.5778446389
  0
LINE
  5
45D
100
AcDbEntity
  8
0
100
AcDbLine
 62
7
  6
BYLAYER
 10
107.7423086329
 20
86.3103572513
 11
107.7423073454
 21
86.4878446389
  0
LINE
  5
45E
100
AcDbEntity
  8
0
100
AcDbLine
 62
7
  6
BYLAYER
 10
107.7423073454
 20
95.2678446389
 11
107.7423086329
 21
95.4453320266
  0
LINE
  5
45F
100
AcDbEntity
  8
0
100
AcDbLine
 62
7
  6
BYLAYER
 10
107.7423086329
 20
89.8803572513
 11
107.7423073454
 21
90.0578446389
  0
LINE
  5
460
100
AcDbEntity
  8
0
100
AcDbLine
 62
7
  6
BYLAYER
 10
107.7423073454
 20
91.6978446389
 11
107.7423086329
 21
91.8753320266
  0
LINE
  5
461
100
AcDbEntity
  8
0
100
AcDbLine
 62
7
  6
BYLAYER
 10
107.7423073454
 20
87.9478446389
 11
107.7423086329
 21
88.1253320266
  0
LINE
  5
462
100
AcDbEntity
  8
0
100
AcDbLine
 62
7
  6
BYLAYER
 10
107.7423086329
 20
93.6303572513
 11
107.7423073454
 21
93.8078446389
  0
LINE
  5
463
100
AcDbEntity
  8
0
100
AcDbLine
 62
7
  6
BYLAYER
 10
107.7423073454
 20
84.3778446389
 11
107.7423086329
 21
84.5553320266
  0
LINE
  5
464
100
AcDbEntity
  8
0
100
AcDbLine
 62
7
  6
BYLAYER
 10
107.7423086329
 20
97.2003572513
 11
107.7423073454
 21
97.3778446389
  0
LINE
  5
465
100
AcDbEntity
  8
0
100
AcDbLine
 62
7
  6
BYLAYER
 10
107.9330294189
 20
97.57779081
 11
107.9330294189
 21
97.0978446837
  0
LINE
  5
466
100
AcDbEntity
  8
0
100
AcDbLine
 62
7
  6
BYLAYER
 10
107.9330294189
 20
95.5677587112
 11
107.9330294189
 21
95.0678984679
  0
LINE
  5
467
100
AcDbEntity
  8
0
100
AcDbLine
 62
7
  6
BYLAYER
 10
107.9330294189
 20
94.00779081
 11
107.9330294189
 21
93.5079332771
  0
LINE
  5
468
100
AcDbEntity
  8
0
100
AcDbLine
 62
7
  6
BYLAYER
 10
107.9330294189
 20
91.9977587112
 11
107.9330294189
 21
91.4978984679
  0
LINE
  5
469
100
AcDbEntity
  8
0
100
AcDbLine
 62
7
  6
BYLAYER
 10
107.9330294189
 20
90.25779081
 11
107.9330294189
 21
89.7579332771
  0
LINE
  5
46A
100
AcDbEntity
  8
0
100
AcDbLine
 62
7
  6
BYLAYER
 10
107.9330294189
 20
88.2477587112
 11
107.9330294189
 21
87.7478984679
  0
LINE
  5
46B
100
AcDbEntity
  8
0
100
AcDbLine
 62
7
  6
BYLAYER
 10
107.9330294189
 20
86.68779081
 11
107.9330294189
 21
86.1879332771
  0
LINE
  5
46C
100
AcDbEntity
  8
0
100
AcDbLine
 62
7
  6
BYLAYER
 10
107.9330294189
 20
84.6777587112
 11
107.9330294189
 21
84.1778984679
  0
LINE
  5
46D
100
AcDbEntity
  8
0
100
AcDbLine
 62
7
  6
BYLAYER
 10
108.0370235753
 20
84.1628446389
 11
108.0370235753
 21
84.7128446389
  0
LINE
  5
46E
100
AcDbEntity
  8
0
100
AcDbLine
 62
7
  6
BYLAYER
 10
108.0370235753
 20
86.2228446389
 11
108.0370235753
 21
86.7728446389
  0
LINE
  5
46F
100
AcDbEntity
  8
0
100
AcDbLine
 62
7
  6
BYLAYER
 10
108.0370235753
 20
87.7411779723
 11
108.0370235753
 21
88.2928446389
  0
LINE
  5
470
100
AcDbEntity
  8
0
100
AcDbLine
 62
7
  6
BYLAYER
 10
108.0370235753
 20
89.7878446389
 11
108.0370235753
 21
90.3378446389
  0
LINE
  5
471
100
AcDbEntity
  8
0
100
AcDbLine
 62
7
  6
BYLAYER
 10
108.0370235753
 20
91.4728446389
 11
108.0370235753
 21
92.0228446389
  0
LINE
  5
472
100
AcDbEntity
  8
0
100
AcDbLine
 62
7
  6
BYLAYER
 10
108.0370235753
 20
93.5178446389
 11
108.0370235753
 21
94.0678446389
  0
LINE
  5
473
100
AcDbEntity
  8
0
100
AcDbLine
 62
7
  6
BYLAYER
 10
108.0370235753
 20
95.0378446389
 11
108.0370235753
 21
95.5860814287
  0
LINE
  5
474
100
AcDbEntity
  8
0
100
AcDbLine
 62
7
  6
BYLAYER
 10
108.0370235753
 20
97.0978445583
 11
108.0370235753
 21
97.6478471719
  0
LINE
  5
475
100
AcDbEntity
  8
0
100
AcDbLine
 62
7
  6
BYLAYER
 10
108.9330294189
 20
97.1828446389
 11
108.9330294189
 21
92.0028446389
  0
LINE
  5
476
100
AcDbEntity
  8
0
100
AcDbLine
 62
7
  6
BYLAYER
 10
108.9330294189
 20
89.8028446389
 11
108.9330294189
 21
84.6228446389
  0
LINE
  5
477
100
AcDbEntity
  8
0
100
AcDbLine
 62
7
  6
BYLAYER
 10
109.5332589704
 20
98.5778446389
 11
109.5332589704
 21
97.75416079
  0
LINE
  5
478
100
AcDbEntity
  8
0
100
AcDbLine
 62
7
  6
BYLAYER
 10
109.5332589704
 20
91.4315282145
 11
109.5332589704
 21
90.37416079
  0
LINE
  5
479
100
AcDbEntity
  8
0
100
AcDbLine
 62
7
  6
BYLAYER
 10
109.5332589704
 20
84.0515282145
 11
109.5332589704
 21
83.2278446389
  0
LINE
  5
47A
100
AcDbEntity
  8
0
100
AcDbLine
 62
7
  6
BYLAYER
 10
110.3260908004
 20
98.5778446389
 11
110.3260908004
 21
97.940766747
  0
LINE
  5
47B
100
AcDbEntity
  8
0
100
AcDbLine
 62
7
  6
BYLAYER
 10
110.3260908004
 20
91.2449225309
 11
110.3260908004
 21
90.560766747
  0
LINE
  5
47C
100
AcDbEntity
  8
0
100
AcDbLine
 62
7
  6
BYLAYER
 10
110.3260908004
 20
83.8649225309
 11
110.3260908004
 21
83.2278446389
  0
LINE
  5
47D
100
AcDbEntity
  8
0
100
AcDbLine
 62
7
  6
BYLAYER
 10
112.9330294189
 20
84.6228446389
 11
112.9330294189
 21
89.8028446389
  0
LINE
  5
47E
100
AcDbEntity
  8
0
100
AcDbLine
 62
7
  6
BYLAYER
 10
112.9330294189
 20
92.0028446389
 11
112.9330294189
 21
97.1828446389
  0
LINE
  5
47F
100
AcDbEntity
  8
0
100
AcDbLine
 62
7
  6
BYLAYER
 10
114.6098148974
 20
83.2278446389
 11
114.6098148974
 21
98.5778446389
  0
LINE
  5
480
100
AcDbEntity
  8
0
100
AcDbLine
 62
7
  6
BYLAYER
 10
114.7830294189
 20
98.5778446389
 11
114.7830294189
 21
83.2278446389
  0
ARC
  5
481
100
AcDbEntity
  8
0
100
AcDbCircle
 62
7
  6
BYLAYER
 10
21.9330638509
 20
86.2053466941
 40
4.3976608227
100
AcDbArc
 50
67.4225953128
 51
112.5437758452
  0
ARC
  5
482
100
AcDbEntity
  8
0
100
AcDbCircle
 62
7
  6
BYLAYER
 10
17.2043497625
 20
86.6278446389
 40
1.5
100
AcDbArc
 50
225.0
 51
257.6424333266
  0
CIRCLE
  5
483
100
AcDbEntity
  8
0
100
AcDbCircle
 62
7
  6
BYLAYER
 10
29.8830294189
 20
85.6628446389
 40
1.05
  0
ARC
  5
484
100
AcDbEntity
  8
0
100
AcDbCircle
 62
7
  6
BYLAYER
 10
26.6522568954
 20
85.4328446389
 40
0.8781050558
100
AcDbArc
 50
295.6989611461
 51
64.3010388539
  0
ARC
  5
485
100
AcDbEntity
  8
0
100
AcDbCircle
 62
7
  6
BYLAYER
 10
24.4792533772
 20
85.4628446389
 40
0.8337760417
100
AcDbArc
 50
295.1067331003
 51
64.8932668997
  0
ARC
  5
486
100
AcDbEntity
  8
0
100
AcDbCircle
 62
7
  6
BYLAYER
 10
24.6130044189
 20
85.4328446389
 40
0.820025
100
AcDbArc
 50
292.9582358797
 51
67.0412781075
  0
ARC
  5
487
100
AcDbEntity
  8
0
100
AcDbCircle
 62
7
  6
BYLAYER
 10
26.6330294189
 20
85.4328446389
 40
0.6
100
AcDbArc
 50
311.8103148958
 51
48.1896851042
  0
ARC
  5
488
100
AcDbEntity
  8
0
100
AcDbCircle
 62
7
  6
BYLAYER
 10
26.6330294189
 20
85.4328446389
 40
0.6
100
AcDbArc
 50
131.8103148958
 51
228.1896851042
  0
ARC
  5
489
100
AcDbEntity
  8
0
100
AcDbCircle
 62
7
  6
BYLAYER
 10
20.4330294189
 20
84.6278446389
 40
0.5
100
AcDbArc
 50
180.0
 51
248.1633042497
  0
ARC
  5
48A
100
AcDbEntity
  8
0
100
AcDbCircle
 62
7
  6
BYLAYER
 10
23.4330294189
 20
84.6278446389
 40
0.5
100
AcDbArc
 50
292.139775073
 51
360.0
  0
ARC
  5
48B
100
AcDbEntity
  8
0
100
AcDbCircle
 62
7
  6
BYLAYER
 10
17.1330294189
 20
83.2278446389
 40
0.25
100
AcDbArc
 50
180.0
 51
270.0
  0
ARC
  5
48C
100
AcDbEntity
  8
0
100
AcDbCircle
 62
7
  6
BYLAYER
 10
18.3330294189
 20
83.2278446389
 40
0.25
100
AcDbArc
 50
180.0
 51
270.0
  0
ARC
  5
48D
100
AcDbEntity
  8
0
100
AcDbCircle
 62
7
  6
BYLAYER
 10
31.3330294189
 20
83.2278446389
 40
0.25
100
AcDbArc
 50
270.0
 51
360.0
  0
ARC
  5
48E
100
AcDbEntity
  8
0
100
AcDbCircle
 62
7
  6
BYLAYER
 10
27.9630294189
 20
84.3778446389
 40
0.2
100
AcDbArc
 50
270.0
 51
360.0
  0
ARC
  5
48F
100
AcDbEntity
  8
0
100
AcDbCircle
 62
7
  6
BYLAYER
 10
27.9630294189
 20
86.4878446389
 40
0.2
100
AcDbArc
 50
0.0
 51
90.0
  0
ARC
  5
490
100
AcDbEntity
  8
0
100
AcDbCircle
 62
7
  6
BYLAYER
 10
21.9330638509
 20
88.2253425838
 40
4.3976608227
100
AcDbArc
 50
247.4562241548
 51
292.5774046899
  0
ARC
  5
491
100
AcDbEntity
  8
0
100
AcDbCircle
 62
7
  6
BYLAYER
 10
35.0830294189
 20
89.5528446389
 40
2.2
100
AcDbArc
 50
59.9586360744
 51
239.9586360733
  0
ARC
  5
492
100
AcDbEntity
  8
0
100
AcDbCircle
 62
7
  6
BYLAYER
 10
16.8830294189
 20
90.8778446389
 40
2.1
100
AcDbArc
 50
90.0
 51
270.0
  0
ARC
  5
493
100
AcDbEntity
  8
0
100
AcDbCircle
 62
7
  6
BYLAYER
 10
35.0830294189
 20
89.5528446389
 40
1.9
100
AcDbArc
 50
59.9586360737
 51
239.9586360737
  0
ARC
  5
494
100
AcDbEntity
  8
0
100
AcDbCircle
 62
7
  6
BYLAYER
 10
15.0830294189
 20
88.7491649825
 40
1.5
100
AcDbArc
 50
180.0
 51
225.0000000001
  0
ARC
  5
495
100
AcDbEntity
  8
0
100
AcDbCircle
 62
7
  6
BYLAYER
 10
26.6522568955
 20
89.0028446389
 40
0.8781050556
100
AcDbArc
 50
295.6989611348
 51
64.3010388652
  0
ARC
  5
496
100
AcDbEntity
  8
0
100
AcDbCircle
 62
7
  6
BYLAYER
 10
24.4870919189
 20
89.0378446389
 40
0.8259375
100
AcDbArc
 50
294.7615138576
 51
65.2384861424
  0
ARC
  5
497
100
AcDbEntity
  8
0
100
AcDbCircle
 62
7
  6
BYLAYER
 10
24.6130044189
 20
89.0028446389
 40
0.820025
100
AcDbArc
 50
292.9582358797
 51
67.0412781075
  0
ARC
  5
498
100
AcDbEntity
  8
0
100
AcDbCircle
 62
7
  6
BYLAYER
 10
26.6330294189
 20
89.0028446389
 40
0.6
100
AcDbArc
 50
131.8103148958
 51
228.1896851042
  0
ARC
  5
499
100
AcDbEntity
  8
0
100
AcDbCircle
 62
7
  6
BYLAYER
 10
26.6330294189
 20
89.0028446389
 40
0.6
100
AcDbArc
 50
311.8103148958
 51
48.1896851042
  0
ARC
  5
49A
100
AcDbEntity
  8
0
100
AcDbCircle
 62
7
  6
BYLAYER
 10
23.4330294189
 20
89.8028446389
 40
0.5
100
AcDbArc
 50
0.0
 51
67.8602249505
  0
ARC
  5
49B
100
AcDbEntity
  8
0
100
AcDbCircle
 62
7
  6
BYLAYER
 10
20.4330294189
 20
89.8028446389
 40
0.5
100
AcDbArc
 50
111.8366957503
 51
180.0
  0
ARC
  5
49C
100
AcDbEntity
  8
0
100
AcDbCircle
 62
7
  6
BYLAYER
 10
27.9630294189
 20
90.0578446389
 40
0.2
100
AcDbArc
 50
0.0
 51
90.0
  0
ARC
  5
49D
100
AcDbEntity
  8
0
100
AcDbCircle
 62
7
  6
BYLAYER
 10
27.9630294189
 20
87.9478446389
 40
0.2
100
AcDbArc
 50
270.0
 51
360.0
  0
ARC
  5
49E
100
AcDbEntity
  8
0
100
AcDbCircle
 62
7
  6
BYLAYER
 10
63.0142186697
 20
82.6528446389
 40
1.0
100
AcDbArc
 50
90.0422184891
 51
126.9036400565
  0
ARC
  5
49F
100
AcDbEntity
  8
0
100
AcDbCircle
 62
7
  6
BYLAYER
 10
59.0330294189
 20
84.7778446389
 40
0.25
100
AcDbArc
 50
180.0
 51
270.0
  0
ARC
  5
4A0
100
AcDbEntity
  8
0
100
AcDbCircle
 62
7
  6
BYLAYER
 10
44.1330294189
 20
83.2278446389
 40
0.25
100
AcDbArc
 50
270.0
 51
360.0
  0
ARC
  5
4A1
100
AcDbEntity
  8
0
100
AcDbCircle
 62
7
  6
BYLAYER
 10
42.8330294189
 20
83.2278446389
 40
0.25
100
AcDbArc
 50
180.0
 51
270.0
  0
ARC
  5
4A2
100
AcDbEntity
  8
0
100
AcDbCircle
 62
7
  6
BYLAYER
 10
39.2330294189
 20
87.1528446389
 40
2.2
100
AcDbArc
 50
239.9586360744
 51
59.9586360733
  0
ARC
  5
4A3
100
AcDbEntity
  8
0
100
AcDbCircle
 62
7
  6
BYLAYER
 10
39.2330294189
 20
87.1528446389
 40
1.9
100
AcDbArc
 50
239.9586360737
 51
59.9586360737
  0
ARC
  5
4A4
100
AcDbEntity
  8
0
100
AcDbCircle
 62
7
  6
BYLAYER
 10
21.9330638509
 20
93.5802273114
 40
4.3976608227
100
AcDbArc
 50
67.5228601507
 51
112.4625568423
  0
ARC
  5
4A5
100
AcDbEntity
  8
0
100
AcDbCircle
 62
7
  6
BYLAYER
 10
17.2043497625
 20
95.1278446389
 40
1.5
100
AcDbArc
 50
102.1100901919
 51
135.0
  0
ARC
  5
4A6
100
AcDbEntity
  8
0
100
AcDbCircle
 62
7
  6
BYLAYER
 10
15.0830294189
 20
93.0065242954
 40
1.5
100
AcDbArc
 50
134.9999999999
 51
180.0
  0
ARC
  5
4A7
100
AcDbEntity
  8
0
100
AcDbCircle
 62
7
  6
BYLAYER
 10
26.6522568953
 20
92.7528446389
 40
0.8781050559
100
AcDbArc
 50
295.6989611513
 51
64.3010388487
  0
ARC
  5
4A8
100
AcDbEntity
  8
0
100
AcDbCircle
 62
7
  6
BYLAYER
 10
24.4909916585
 20
92.7703446389
 40
0.8220377604
100
AcDbArc
 50
294.5876764121
 51
65.4123235879
  0
ARC
  5
4A9
100
AcDbEntity
  8
0
100
AcDbCircle
 62
7
  6
BYLAYER
 10
24.6130044189
 20
92.7528446389
 40
0.820025
100
AcDbArc
 50
292.9582358797
 51
67.0412781075
  0
ARC
  5
4AA
100
AcDbEntity
  8
0
100
AcDbCircle
 62
7
  6
BYLAYER
 10
26.6330294189
 20
92.7528446389
 40
0.6
100
AcDbArc
 50
311.8103148958
 51
48.1896851042
  0
ARC
  5
4AB
100
AcDbEntity
  8
0
100
AcDbCircle
 62
7
  6
BYLAYER
 10
26.6330294189
 20
92.7528446389
 40
0.6
100
AcDbArc
 50
131.8103148958
 51
228.1896851042
  0
ARC
  5
4AC
100
AcDbEntity
  8
0
100
AcDbCircle
 62
7
  6
BYLAYER
 10
23.4330294189
 20
92.0028446389
 40
0.5
100
AcDbArc
 50
291.263055257
 51
360.0
  0
ARC
  5
4AD
100
AcDbEntity
  8
0
100
AcDbCircle
 62
7
  6
BYLAYER
 10
20.4330294189
 20
92.0028446389
 40
0.5
100
AcDbArc
 50
180.0
 51
248.872532688
  0
ARC
  5
4AE
100
AcDbEntity
  8
0
100
AcDbCircle
 62
7
  6
BYLAYER
 10
27.9630294189
 20
91.6978446389
 40
0.2
100
AcDbArc
 50
270.0
 51
360.0
  0
ARC
  5
4AF
100
AcDbEntity
  8
0
100
AcDbCircle
 62
7
  6
BYLAYER
 10
27.9630294189
 20
93.8078446389
 40
0.2
100
AcDbArc
 50
0.0
 51
90.0
  0
ARC
  5
4B0
100
AcDbEntity
  8
0
100
AcDbCircle
 62
7
  6
BYLAYER
 10
27.9630294189
 20
95.2678446389
 40
0.2
100
AcDbArc
 50
270.0
 51
360.0
  0
ARC
  5
4B1
100
AcDbEntity
  8
0
100
AcDbCircle
 62
7
  6
BYLAYER
 10
21.9330638509
 20
95.6004619665
 40
4.3976608227
100
AcDbArc
 50
247.5374431577
 51
292.477139849
  0
CIRCLE
  5
4B2
100
AcDbEntity
  8
0
100
AcDbCircle
 62
7
  6
BYLAYER
 10
29.8830294189
 20
96.1428446389
 40
1.05
  0
ARC
  5
4B3
100
AcDbEntity
  8
0
100
AcDbCircle
 62
7
  6
BYLAYER
 10
26.6522568955
 20
96.3228446389
 40
0.8781050556
100
AcDbArc
 50
295.6989611375
 51
64.3010388625
  0
ARC
  5
4B4
100
AcDbEntity
  8
0
100
AcDbCircle
 62
7
  6
BYLAYER
 10
24.4792533772
 20
96.3428446389
 40
0.8337760417
100
AcDbArc
 50
295.1067331003
 51
64.8932668997
  0
ARC
  5
4B5
100
AcDbEntity
  8
0
100
AcDbCircle
 62
7
  6
BYLAYER
 10
24.6130044189
 20
96.3228446389
 40
0.820025
100
AcDbArc
 50
292.9582358797
 51
67.0412781075
  0
ARC
  5
4B6
100
AcDbEntity
  8
0
100
AcDbCircle
 62
7
  6
BYLAYER
 10
26.6330294189
 20
96.3228446389
 40
0.6
100
AcDbArc
 50
311.8103148958
 51
48.1896851042
  0
ARC
  5
4B7
100
AcDbEntity
  8
0
100
AcDbCircle
 62
7
  6
BYLAYER
 10
26.6330294189
 20
96.3228446389
 40
0.6
100
AcDbArc
 50
131.8103148958
 51
228.1896851042
  0
ARC
  5
4B8
100
AcDbEntity
  8
0
100
AcDbCircle
 62
7
  6
BYLAYER
 10
23.4330294189
 20
97.1778446389
 40
0.5
100
AcDbArc
 50
0.0
 51
68.7369447405
  0
ARC
  5
4B9
100
AcDbEntity
  8
0
100
AcDbCircle
 62
7
  6
BYLAYER
 10
20.4330294189
 20
97.1778446389
 40
0.5
100
AcDbArc
 50
111.127467312
 51
180.0
  0
ARC
  5
4BA
100
AcDbEntity
  8
0
100
AcDbCircle
 62
7
  6
BYLAYER
 10
17.1330294189
 20
98.5778446389
 40
0.25
100
AcDbArc
 50
90.0
 51
180.0
  0
ARC
  5
4BB
100
AcDbEntity
  8
0
100
AcDbCircle
 62
7
  6
BYLAYER
 10
18.3330294189
 20
98.5778446389
 40
0.25
100
AcDbArc
 50
90.0
 51
180.0
  0
ARC
  5
4BC
100
AcDbEntity
  8
0
100
AcDbCircle
 62
7
  6
BYLAYER
 10
31.3330294189
 20
98.5778446389
 40
0.25
100
AcDbArc
 50
0.0
 51
90.0
  0
ARC
  5
4BD
100
AcDbEntity
  8
0
100
AcDbCircle
 62
7
  6
BYLAYER
 10
27.9630294189
 20
97.3778446389
 40
0.2
100
AcDbArc
 50
0.0
 51
90.0
  0
ARC
  5
4BE
100
AcDbEntity
  8
0
100
AcDbCircle
 62
7
  6
BYLAYER
 10
37.5875811517
 20
95.6028446389
 40
0.15
100
AcDbArc
 50
242.2622632672
 51
57.737736733
  0
CIRCLE
  5
4BF
100
AcDbEntity
  8
0
100
AcDbCircle
 62
7
  6
BYLAYER
 10
39.2330294189
 20
94.6528446389
 40
2.2
  0
CIRCLE
  5
4C0
100
AcDbEntity
  8
0
100
AcDbCircle
 62
7
  6
BYLAYER
 10
39.2330294189
 20
94.6528446389
 40
1.9
  0
ARC
  5
4C1
100
AcDbEntity
  8
0
100
AcDbCircle
 62
7
  6
BYLAYER
 10
39.2330294189
 20
92.7528446389
 40
0.15
100
AcDbArc
 50
2.262263266
 51
177.737736734
  0
ARC
  5
4C2
100
AcDbEntity
  8
0
100
AcDbCircle
 62
7
  6
BYLAYER
 10
63.0142186783
 20
99.1528446389
 40
1.0
100
AcDbArc
 50
233.0963595497
 51
269.9577810181
  0
ARC
  5
4C3
100
AcDbEntity
  8
0
100
AcDbCircle
 62
7
  6
BYLAYER
 10
59.0330294189
 20
97.0278446389
 40
0.25
100
AcDbArc
 50
90.0
 51
180.0
  0
ARC
  5
4C4
100
AcDbEntity
  8
0
100
AcDbCircle
 62
7
  6
BYLAYER
 10
44.1330294189
 20
98.5778446389
 40
0.25
100
AcDbArc
 50
0.0
 51
90.0
  0
ARC
  5
4C5
100
AcDbEntity
  8
0
100
AcDbCircle
 62
7
  6
BYLAYER
 10
42.8330294189
 20
98.5778446389
 40
0.25
100
AcDbArc
 50
90.0
 51
180.0
  0
ARC
  5
4C6
100
AcDbEntity
  8
0
100
AcDbCircle
 62
7
  6
BYLAYER
 10
40.8784776861
 20
95.6028446389
 40
0.15
100
AcDbArc
 50
122.262263267
 51
297.7377367328
  0
ARC
  5
4C7
100
AcDbEntity
  8
0
100
AcDbCircle
 62
7
  6
BYLAYER
 10
84.9330638509
 20
86.2053466941
 40
4.3976608227
100
AcDbArc
 50
67.42259531
 51
112.5437758451
  0
CIRCLE
  5
4C8
100
AcDbEntity
  8
0
100
AcDbCircle
 62
7
  6
BYLAYER
 10
76.9830294189
 20
85.6628446389
 40
1.05
  0
CIRCLE
  5
4C9
100
AcDbEntity
  8
0
100
AcDbCircle
 62
7
  6
BYLAYER
 10
89.9830294189
 20
85.6628446389
 40
1.05
  0
ARC
  5
4CA
100
AcDbEntity
  8
0
100
AcDbCircle
 62
7
  6
BYLAYER
 10
80.2138068753
 20
85.3970380499
 40
0.8781089905
100
AcDbArc
 50
115.6991944001
 51
244.3008055999
  0
ARC
  5
4CB
100
AcDbEntity
  8
0
100
AcDbCircle
 62
7
  6
BYLAYER
 10
82.3868054606
 20
85.4628446389
 40
0.8337760417
100
AcDbArc
 50
126.6185472923
 51
244.8932668995
  0
ARC
  5
4CC
100
AcDbEntity
  8
0
100
AcDbCircle
 62
7
  6
BYLAYER
 10
82.3868054606
 20
85.4628446389
 40
0.8337760417
100
AcDbArc
 50
115.1067331005
 51
123.1662109436
  0
ARC
  5
4CD
100
AcDbEntity
  8
0
100
AcDbCircle
 62
7
  6
BYLAYER
 10
82.2530544189
 20
85.3970380499
 40
0.820025
100
AcDbArc
 50
112.9642184592
 51
247.0412781074
  0
ARC
  5
4CE
100
AcDbEntity
  8
0
100
AcDbCircle
 62
7
  6
BYLAYER
 10
80.2330294189
 20
85.3970380499
 40
0.6
100
AcDbArc
 50
131.8103148958
 51
228.1896851042
  0
ARC
  5
4CF
100
AcDbEntity
  8
0
100
AcDbCircle
 62
7
  6
BYLAYER
 10
80.2330294189
 20
85.3970380499
 40
0.6
100
AcDbArc
 50
311.8103148958
 51
48.1896851042
  0
ARC
  5
4D0
100
AcDbEntity
  8
0
100
AcDbCircle
 62
7
  6
BYLAYER
 10
83.4330294189
 20
84.6278446389
 40
0.5
100
AcDbArc
 50
180.0
 51
248.1633042498
  0
ARC
  5
4D1
100
AcDbEntity
  8
0
100
AcDbCircle
 62
7
  6
BYLAYER
 10
86.4330294189
 20
84.6278446389
 40
0.5
100
AcDbArc
 50
292.1397750734
 51
360.0
  0
ARC
  5
4D2
100
AcDbEntity
  8
0
100
AcDbCircle
 62
7
  6
BYLAYER
 10
88.5330294189
 20
83.227844639
 40
0.25
100
AcDbArc
 50
270.0
 51
359.9999999999
  0
ARC
  5
4D3
100
AcDbEntity
  8
0
100
AcDbCircle
 62
7
  6
BYLAYER
 10
74.0330294189
 20
83.2278446389
 40
0.25
100
AcDbArc
 50
180.0
 51
270.0
  0
ARC
  5
4D4
100
AcDbEntity
  8
0
100
AcDbCircle
 62
7
  6
BYLAYER
 10
68.1847071779
 20
84.2528446389
 40
0.2
100
AcDbArc
 50
0.0000000006
 51
89.9999999998
  0
ARC
  5
4D5
100
AcDbEntity
  8
0
100
AcDbCircle
 62
7
  6
BYLAYER
 10
78.9030294189
 20
84.3420380499
 40
0.2
100
AcDbArc
 50
180.0
 51
247.0678707163
  0
ARC
  5
4D6
100
AcDbEntity
  8
0
100
AcDbCircle
 62
7
  6
BYLAYER
 10
78.9030294189
 20
86.4520380499
 40
0.2
100
AcDbArc
 50
90.0000000004
 51
180.0
  0
ARC
  5
4D7
100
AcDbEntity
  8
0
100
AcDbCircle
 62
7
  6
BYLAYER
 10
84.9330638509
 20
88.2253425838
 40
4.3976608227
100
AcDbArc
 50
247.4562241549
 51
292.57740469
  0
ARC
  5
4D8
100
AcDbEntity
  8
0
100
AcDbCircle
 62
7
  6
BYLAYER
 10
80.2138068754
 20
88.9670380499
 40
0.8781089905
100
AcDbArc
 50
115.6991944017
 51
244.3008055983
  0
ARC
  5
4D9
100
AcDbEntity
  8
0
100
AcDbCircle
 62
7
  6
BYLAYER
 10
82.3750671793
 20
89.0353446389
 40
0.8220377604
100
AcDbArc
 50
114.5876764123
 51
122.6494493211
  0
ARC
  5
4DA
100
AcDbEntity
  8
0
100
AcDbCircle
 62
7
  6
BYLAYER
 10
82.3750671793
 20
89.0353446389
 40
0.8220377604
100
AcDbArc
 50
124.9477340052
 51
245.4123235877
  0
ARC
  5
4DB
100
AcDbEntity
  8
0
100
AcDbCircle
 62
7
  6
BYLAYER
 10
82.2530544189
 20
88.9670380499
 40
0.820025
100
AcDbArc
 50
112.9619458548
 51
247.0412781074
  0
ARC
  5
4DC
100
AcDbEntity
  8
0
100
AcDbCircle
 62
7
  6
BYLAYER
 10
80.2330294189
 20
88.9670380499
 40
0.6
100
AcDbArc
 50
131.8103148958
 51
228.1896851042
  0
ARC
  5
4DD
100
AcDbEntity
  8
0
100
AcDbCircle
 62
7
  6
BYLAYER
 10
80.2330294189
 20
88.9670380499
 40
0.6
100
AcDbArc
 50
311.8103148958
 51
48.1896851042
  0
ARC
  5
4DE
100
AcDbEntity
  8
0
100
AcDbCircle
 62
7
  6
BYLAYER
 10
83.4330294189
 20
89.8028446389
 40
0.5
100
AcDbArc
 50
111.8366957502
 51
180.0
  0
ARC
  5
4DF
100
AcDbEntity
  8
0
100
AcDbCircle
 62
7
  6
BYLAYER
 10
86.4330294189
 20
89.8028446389
 40
0.5
100
AcDbArc
 50
0.0
 51
67.8602249266
  0
ARC
  5
4E0
100
AcDbEntity
  8
0
100
AcDbCircle
 62
7
  6
BYLAYER
 10
78.9030294189
 20
87.9120380499
 40
0.2
100
AcDbArc
 50
180.0
 51
235.5908973034
  0
ARC
  5
4E1
100
AcDbEntity
  8
0
100
AcDbCircle
 62
7
  6
BYLAYER
 10
78.9030294189
 20
90.0220380499
 40
0.2
100
AcDbArc
 50
90.0000000004
 51
180.0
  0
ARC
  5
4E2
100
AcDbEntity
  8
0
100
AcDbCircle
 62
7
  6
BYLAYER
 10
99.4330294189
 20
84.6228446389
 40
0.5
100
AcDbArc
 50
291.2500422053
 51
360.0
  0
ARC
  5
4E3
100
AcDbEntity
  8
0
100
AcDbCircle
 62
7
  6
BYLAYER
 10
96.4330294189
 20
84.6228446389
 40
0.5
100
AcDbArc
 50
180.0
 51
248.7499577947
  0
ARC
  5
4E4
100
AcDbEntity
  8
0
100
AcDbCircle
 62
7
  6
BYLAYER
 10
101.5330294189
 20
83.227844639
 40
0.25
100
AcDbArc
 50
270.0
 51
359.9999999999
  0
ARC
  5
4E5
100
AcDbEntity
  8
0
100
AcDbCircle
 62
7
  6
BYLAYER
 10
91.9080294189
 20
84.3778446389
 40
0.2
100
AcDbArc
 50
180.0
 51
270.0
  0
ARC
  5
4E6
100
AcDbEntity
  8
0
100
AcDbCircle
 62
7
  6
BYLAYER
 10
97.9330294189
 20
86.2045131377
 40
4.3983315013
100
AcDbArc
 50
67.5274814724
 51
112.4725185273
  0
CIRCLE
  5
4E7
100
AcDbEntity
  8
0
100
AcDbCircle
 62
7
  6
BYLAYER
 10
102.9830294189
 20
85.6678446389
 40
1.05
  0
ARC
  5
4E8
100
AcDbEntity
  8
0
100
AcDbCircle
 62
7
  6
BYLAYER
 10
93.2188068753
 20
85.4328446389
 40
0.8781089905
100
AcDbArc
 50
115.6991944007
 51
244.3008055993
  0
ARC
  5
4E9
100
AcDbEntity
  8
0
100
AcDbCircle
 62
7
  6
BYLAYER
 10
95.3868054606
 20
85.4628446389
 40
0.8337760417
100
AcDbArc
 50
115.1067331005
 51
244.8932668995
  0
ARC
  5
4EA
100
AcDbEntity
  8
0
100
AcDbCircle
 62
7
  6
BYLAYER
 10
95.2580544189
 20
85.4328446389
 40
0.820025
100
AcDbArc
 50
112.9582358797
 51
247.0412781074
  0
ARC
  5
4EB
100
AcDbEntity
  8
0
100
AcDbCircle
 62
7
  6
BYLAYER
 10
93.2380294189
 20
85.4328446389
 40
0.6
100
AcDbArc
 50
311.8103148958
 51
48.1896851042
  0
ARC
  5
4EC
100
AcDbEntity
  8
0
100
AcDbCircle
 62
7
  6
BYLAYER
 10
93.2380294189
 20
85.4328446389
 40
0.6
100
AcDbArc
 50
131.8103148958
 51
228.1896851042
  0
ARC
  5
4ED
100
AcDbEntity
  8
0
100
AcDbCircle
 62
7
  6
BYLAYER
 10
91.9080294189
 20
86.4878446389
 40
0.2
100
AcDbArc
 50
90.0
 51
180.0
  0
ARC
  5
4EE
100
AcDbEntity
  8
0
100
AcDbCircle
 62
7
  6
BYLAYER
 10
109.4330294189
 20
84.6228446389
 40
0.5
100
AcDbArc
 50
180.0
 51
248.7499577947
  0
ARC
  5
4EF
100
AcDbEntity
  8
0
100
AcDbCircle
 62
7
  6
BYLAYER
 10
112.4330294189
 20
84.6228446389
 40
0.5
100
AcDbArc
 50
291.2500422053
 51
360.0
  0
ARC
  5
4F0
100
AcDbEntity
  8
0
100
AcDbCircle
 62
7
  6
BYLAYER
 10
114.5330294189
 20
83.227844639
 40
0.25
100
AcDbArc
 50
270.0
 51
359.9999999999
  0
ARC
  5
4F1
100
AcDbEntity
  8
0
100
AcDbCircle
 62
7
  6
BYLAYER
 10
104.9030294189
 20
84.3778446389
 40
0.2
100
AcDbArc
 50
180.0
 51
270.0
  0
ARC
  5
4F2
100
AcDbEntity
  8
0
100
AcDbCircle
 62
7
  6
BYLAYER
 10
110.9330294189
 20
86.2045131377
 40
4.3983315013
100
AcDbArc
 50
67.5274814724
 51
112.4725185274
  0
ARC
  5
4F3
100
AcDbEntity
  8
0
100
AcDbCircle
 62
7
  6
BYLAYER
 10
106.2138068753
 20
85.4328446389
 40
0.8781089905
100
AcDbArc
 50
115.6991943959
 51
244.3008056041
  0
ARC
  5
4F4
100
AcDbEntity
  8
0
100
AcDbCircle
 62
7
  6
BYLAYER
 10
108.3907996169
 20
85.4678446389
 40
0.8337760417
100
AcDbArc
 50
115.1067330999
 51
244.8932669001
  0
ARC
  5
4F5
100
AcDbEntity
  8
0
100
AcDbCircle
 62
7
  6
BYLAYER
 10
108.2530544189
 20
85.4328446389
 40
0.820025
100
AcDbArc
 50
112.9582358797
 51
247.0412781074
  0
ARC
  5
4F6
100
AcDbEntity
  8
0
100
AcDbCircle
 62
7
  6
BYLAYER
 10
106.2330294189
 20
85.4328446389
 40
0.6
100
AcDbArc
 50
131.8103148958
 51
228.1896851042
  0
ARC
  5
4F7
100
AcDbEntity
  8
0
100
AcDbCircle
 62
7
  6
BYLAYER
 10
106.2330294189
 20
85.4328446389
 40
0.6
100
AcDbArc
 50
311.8103148958
 51
48.1896851042
  0
ARC
  5
4F8
100
AcDbEntity
  8
0
100
AcDbCircle
 62
7
  6
BYLAYER
 10
104.9030294189
 20
86.4878446389
 40
0.2
100
AcDbArc
 50
90.0
 51
180.0
  0
ARC
  5
4F9
100
AcDbEntity
  8
0
100
AcDbCircle
 62
7
  6
BYLAYER
 10
97.9330294189
 20
88.2211761402
 40
4.3983315013
100
AcDbArc
 50
247.5274814724
 51
292.4725185276
  0
ARC
  5
4FA
100
AcDbEntity
  8
0
100
AcDbCircle
 62
7
  6
BYLAYER
 10
91.9080294189
 20
87.9478446389
 40
0.2
100
AcDbArc
 50
180.0
 51
270.0
  0
ARC
  5
4FB
100
AcDbEntity
  8
0
100
AcDbCircle
 62
7
  6
BYLAYER
 10
93.2188068756
 20
89.0028446389
 40
0.8781089908
100
AcDbArc
 50
115.6991944146
 51
244.3008055854
  0
ARC
  5
4FC
100
AcDbEntity
  8
0
100
AcDbCircle
 62
7
  6
BYLAYER
 10
95.3750671793
 20
89.0353446389
 40
0.8220377604
100
AcDbArc
 50
114.5876764123
 51
245.4123235877
  0
ARC
  5
4FD
100
AcDbEntity
  8
0
100
AcDbCircle
 62
7
  6
BYLAYER
 10
95.2580544189
 20
89.0028446389
 40
0.820025
100
AcDbArc
 50
112.9582358797
 51
247.0412781074
  0
ARC
  5
4FE
100
AcDbEntity
  8
0
100
AcDbCircle
 62
7
  6
BYLAYER
 10
93.2380294189
 20
89.0028446389
 40
0.6
100
AcDbArc
 50
311.8103148958
 51
48.1896851042
  0
ARC
  5
4FF
100
AcDbEntity
  8
0
100
AcDbCircle
 62
7
  6
BYLAYER
 10
93.2380294189
 20
89.0028446389
 40
0.6
100
AcDbArc
 50
131.8103148958
 51
228.1896851042
  0
ARC
  5
500
100
AcDbEntity
  8
0
100
AcDbCircle
 62
7
  6
BYLAYER
 10
99.4330294189
 20
89.8028446389
 40
0.5
100
AcDbArc
 50
0.0
 51
68.7499577947
  0
ARC
  5
501
100
AcDbEntity
  8
0
100
AcDbCircle
 62
7
  6
BYLAYER
 10
96.4330294189
 20
89.8028446389
 40
0.5
100
AcDbArc
 50
111.250042203
 51
180.0
  0
ARC
  5
502
100
AcDbEntity
  8
0
100
AcDbCircle
 62
7
  6
BYLAYER
 10
91.9080294189
 20
90.0578446389
 40
0.2
100
AcDbArc
 50
90.0
 51
180.0
  0
ARC
  5
503
100
AcDbEntity
  8
0
100
AcDbCircle
 62
7
  6
BYLAYER
 10
110.9330294189
 20
88.2211761402
 40
4.3983315013
100
AcDbArc
 50
247.5274814724
 51
292.4725185276
  0
ARC
  5
504
100
AcDbEntity
  8
0
100
AcDbCircle
 62
7
  6
BYLAYER
 10
104.9030294189
 20
87.9478446389
 40
0.2
100
AcDbArc
 50
180.0
 51
270.0
  0
ARC
  5
505
100
AcDbEntity
  8
0
100
AcDbCircle
 62
7
  6
BYLAYER
 10
106.2138068754
 20
89.0028446389
 40
0.8781089906
100
AcDbArc
 50
115.6991944045
 51
244.3008055955
  0
ARC
  5
506
100
AcDbEntity
  8
0
100
AcDbCircle
 62
7
  6
BYLAYER
 10
108.3790613357
 20
89.0403446389
 40
0.8220377604
100
AcDbArc
 50
114.5876764117
 51
245.4123235883
  0
ARC
  5
507
100
AcDbEntity
  8
0
100
AcDbCircle
 62
7
  6
BYLAYER
 10
108.2530544189
 20
89.0028446389
 40
0.820025
100
AcDbArc
 50
112.9582358797
 51
247.0412781074
  0
ARC
  5
508
100
AcDbEntity
  8
0
100
AcDbCircle
 62
7
  6
BYLAYER
 10
106.2330294189
 20
89.0028446389
 40
0.6
100
AcDbArc
 50
311.8103148958
 51
48.1896851042
  0
ARC
  5
509
100
AcDbEntity
  8
0
100
AcDbCircle
 62
7
  6
BYLAYER
 10
106.2330294189
 20
89.0028446389
 40
0.6
100
AcDbArc
 50
131.8103148958
 51
228.1896851042
  0
ARC
  5
50A
100
AcDbEntity
  8
0
100
AcDbCircle
 62
7
  6
BYLAYER
 10
109.4330294189
 20
89.8028446389
 40
0.5
100
AcDbArc
 50
111.2500422037
 51
180.0
  0
ARC
  5
50B
100
AcDbEntity
  8
0
100
AcDbCircle
 62
7
  6
BYLAYER
 10
112.4330294189
 20
89.8028446389
 40
0.5
100
AcDbArc
 50
0.0
 51
68.7499577947
  0
ARC
  5
50C
100
AcDbEntity
  8
0
100
AcDbCircle
 62
7
  6
BYLAYER
 10
104.9030294189
 20
90.0578446389
 40
0.2
100
AcDbArc
 50
90.0
 51
180.0
  0
ARC
  5
50D
100
AcDbEntity
  8
0
100
AcDbCircle
 62
7
  6
BYLAYER
 10
84.9330638509
 20
93.5802273114
 40
4.3976608227
100
AcDbArc
 50
67.5228601506
 51
112.4625568422
  0
ARC
  5
50E
100
AcDbEntity
  8
0
100
AcDbCircle
 62
7
  6
BYLAYER
 10
80.2138068754
 20
92.7528446389
 40
0.8781089905
100
AcDbArc
 50
115.699194401
 51
244.300805599
  0
ARC
  5
50F
100
AcDbEntity
  8
0
100
AcDbCircle
 62
7
  6
BYLAYER
 10
82.3750671793
 20
92.7703446389
 40
0.8220377604
100
AcDbArc
 50
114.5876764123
 51
245.4123235877
  0
ARC
  5
510
100
AcDbEntity
  8
0
100
AcDbCircle
 62
7
  6
BYLAYER
 10
82.2530544189
 20
92.7528446389
 40
0.820025
100
AcDbArc
 50
112.9582358797
 51
247.0412781074
  0
ARC
  5
511
100
AcDbEntity
  8
0
100
AcDbCircle
 62
7
  6
BYLAYER
 10
80.2330294189
 20
92.7528446389
 40
0.6
100
AcDbArc
 50
311.8103148958
 51
48.1896851042
  0
ARC
  5
512
100
AcDbEntity
  8
0
100
AcDbCircle
 62
7
  6
BYLAYER
 10
80.2330294189
 20
92.7528446389
 40
0.6
100
AcDbArc
 50
131.8103148958
 51
228.1896851042
  0
ARC
  5
513
100
AcDbEntity
  8
0
100
AcDbCircle
 62
7
  6
BYLAYER
 10
83.4330294189
 20
92.0028446389
 40
0.5
100
AcDbArc
 50
180.0
 51
248.8725326889
  0
ARC
  5
514
100
AcDbEntity
  8
0
100
AcDbCircle
 62
7
  6
BYLAYER
 10
86.4330294189
 20
92.0028446389
 40
0.5
100
AcDbArc
 50
291.2630552598
 51
360.0
  0
ARC
  5
515
100
AcDbEntity
  8
0
100
AcDbCircle
 62
7
  6
BYLAYER
 10
78.9030294189
 20
93.8078446389
 40
0.2
100
AcDbArc
 50
90.0000000004
 51
180.0
  0
ARC
  5
516
100
AcDbEntity
  8
0
100
AcDbCircle
 62
7
  6
BYLAYER
 10
78.9030294189
 20
91.6978446389
 40
0.2
100
AcDbArc
 50
180.0
 51
269.9999999996
  0
ARC
  5
517
100
AcDbEntity
  8
0
100
AcDbCircle
 62
7
  6
BYLAYER
 10
84.9330638509
 20
95.6004619665
 40
4.3976608227
100
AcDbArc
 50
247.5374431578
 51
292.4771398494
  0
CIRCLE
  5
518
100
AcDbEntity
  8
0
100
AcDbCircle
 62
7
  6
BYLAYER
 10
76.9830294189
 20
96.1428446389
 40
1.05
  0
CIRCLE
  5
519
100
AcDbEntity
  8
0
100
AcDbCircle
 62
7
  6
BYLAYER
 10
89.9830294189
 20
96.1407585222
 40
1.05
  0
ARC
  5
51A
100
AcDbEntity
  8
0
100
AcDbCircle
 62
7
  6
BYLAYER
 10
80.2138068755
 20
96.3228446389
 40
0.8781089907
100
AcDbArc
 50
115.6991944087
 51
244.3008055913
  0
ARC
  5
51B
100
AcDbEntity
  8
0
100
AcDbCircle
 62
7
  6
BYLAYER
 10
82.3868054606
 20
96.3428446389
 40
0.8337760417
100
AcDbArc
 50
115.1067331005
 51
244.8932668995
  0
ARC
  5
51C
100
AcDbEntity
  8
0
100
AcDbCircle
 62
7
  6
BYLAYER
 10
82.2530544189
 20
96.3228446389
 40
0.820025
100
AcDbArc
 50
112.9582358797
 51
247.0412781074
  0
ARC
  5
51D
100
AcDbEntity
  8
0
100
AcDbCircle
 62
7
  6
BYLAYER
 10
80.2330294189
 20
96.3228446389
 40
0.6
100
AcDbArc
 50
311.8103148958
 51
48.1896851042
  0
ARC
  5
51E
100
AcDbEntity
  8
0
100
AcDbCircle
 62
7
  6
BYLAYER
 10
80.2330294189
 20
96.3228446389
 40
0.6
100
AcDbArc
 50
131.8103148958
 51
228.1896851042
  0
ARC
  5
51F
100
AcDbEntity
  8
0
100
AcDbCircle
 62
7
  6
BYLAYER
 10
83.4330294189
 20
97.1778446389
 40
0.5
100
AcDbArc
 50
111.1274673118
 51
180.0
  0
ARC
  5
520
100
AcDbEntity
  8
0
100
AcDbCircle
 62
7
  6
BYLAYER
 10
86.4330294189
 20
97.1778446389
 40
0.5
100
AcDbArc
 50
0.0
 51
68.7369447403
  0
ARC
  5
521
100
AcDbEntity
  8
0
100
AcDbCircle
 62
7
  6
BYLAYER
 10
88.5330294189
 20
98.5778446389
 40
0.25
100
AcDbArc
 50
0.0
 51
90.0000000001
  0
ARC
  5
522
100
AcDbEntity
  8
0
100
AcDbCircle
 62
7
  6
BYLAYER
 10
74.0330294189
 20
98.5778446389
 40
0.25
100
AcDbArc
 50
90.0
 51
180.0
  0
ARC
  5
523
100
AcDbEntity
  8
0
100
AcDbCircle
 62
7
  6
BYLAYER
 10
68.185834409
 20
97.5528446389
 40
0.2
100
AcDbArc
 50
270.0
 51
360.0
  0
ARC
  5
524
100
AcDbEntity
  8
0
100
AcDbCircle
 62
7
  6
BYLAYER
 10
78.9030294189
 20
95.2678446389
 40
0.2
100
AcDbArc
 50
180.0
 51
269.9999999996
  0
ARC
  5
525
100
AcDbEntity
  8
0
100
AcDbCircle
 62
7
  6
BYLAYER
 10
78.9030294189
 20
97.3778446389
 40
0.2
100
AcDbArc
 50
90.0000000004
 51
180.0
  0
ARC
  5
526
100
AcDbEntity
  8
0
100
AcDbCircle
 62
7
  6
BYLAYER
 10
99.4330294189
 20
92.0028446389
 40
0.5
100
AcDbArc
 50
291.2500422053
 51
360.0
  0
ARC
  5
527
100
AcDbEntity
  8
0
100
AcDbCircle
 62
7
  6
BYLAYER
 10
96.4330294189
 20
92.0028446389
 40
0.5
100
AcDbArc
 50
180.0
 51
248.749957797
  0
ARC
  5
528
100
AcDbEntity
  8
0
100
AcDbCircle
 62
7
  6
BYLAYER
 10
91.9080294189
 20
91.6978446389
 40
0.2
100
AcDbArc
 50
180.0
 51
270.0
  0
ARC
  5
529
100
AcDbEntity
  8
0
100
AcDbCircle
 62
7
  6
BYLAYER
 10
97.9330294189
 20
93.5845131377
 40
4.3983315013
100
AcDbArc
 50
67.5274814724
 51
112.4725185276
  0
ARC
  5
52A
100
AcDbEntity
  8
0
100
AcDbCircle
 62
7
  6
BYLAYER
 10
93.2188068754
 20
92.7528446389
 40
0.8781089905
100
AcDbArc
 50
115.699194401
 51
244.300805599
  0
ARC
  5
52B
100
AcDbEntity
  8
0
100
AcDbCircle
 62
7
  6
BYLAYER
 10
95.3750671793
 20
92.7703446389
 40
0.8220377604
100
AcDbArc
 50
114.5876764123
 51
245.4123235877
  0
ARC
  5
52C
100
AcDbEntity
  8
0
100
AcDbCircle
 62
7
  6
BYLAYER
 10
95.2580544189
 20
92.7528446389
 40
0.820025
100
AcDbArc
 50
112.9582358797
 51
247.0412781074
  0
ARC
  5
52D
100
AcDbEntity
  8
0
100
AcDbCircle
 62
7
  6
BYLAYER
 10
93.2380294189
 20
92.7528446389
 40
0.6
100
AcDbArc
 50
311.8103148958
 51
48.1896851042
  0
ARC
  5
52E
100
AcDbEntity
  8
0
100
AcDbCircle
 62
7
  6
BYLAYER
 10
93.2380294189
 20
92.7528446389
 40
0.6
100
AcDbArc
 50
131.8103148958
 51
228.1896851042
  0
ARC
  5
52F
100
AcDbEntity
  8
0
100
AcDbCircle
 62
7
  6
BYLAYER
 10
91.9080294189
 20
93.8078446389
 40
0.2
100
AcDbArc
 50
90.0
 51
180.0
  0
ARC
  5
530
100
AcDbEntity
  8
0
100
AcDbCircle
 62
7
  6
BYLAYER
 10
109.4330294189
 20
92.0028446389
 40
0.5
100
AcDbArc
 50
180.0
 51
248.749957797
  0
ARC
  5
531
100
AcDbEntity
  8
0
100
AcDbCircle
 62
7
  6
BYLAYER
 10
112.4330294189
 20
92.0028446389
 40
0.5
100
AcDbArc
 50
291.2500422053
 51
360.0
  0
ARC
  5
532
100
AcDbEntity
  8
0
100
AcDbCircle
 62
7
  6
BYLAYER
 10
104.9030294189
 20
91.6978446389
 40
0.2
100
AcDbArc
 50
180.0
 51
270.0
  0
ARC
  5
533
100
AcDbEntity
  8
0
100
AcDbCircle
 62
7
  6
BYLAYER
 10
110.9330294189
 20
93.5845131377
 40
4.3983315013
100
AcDbArc
 50
67.5274814724
 51
112.4725185276
  0
ARC
  5
534
100
AcDbEntity
  8
0
100
AcDbCircle
 62
7
  6
BYLAYER
 10
106.2138068754
 20
92.7528446389
 40
0.8781089906
100
AcDbArc
 50
115.6991944042
 51
244.3008055958
  0
ARC
  5
535
100
AcDbEntity
  8
0
100
AcDbCircle
 62
7
  6
BYLAYER
 10
108.3790613357
 20
92.7703446389
 40
0.8220377604
100
AcDbArc
 50
114.5876764117
 51
245.4123235883
  0
ARC
  5
536
100
AcDbEntity
  8
0
100
AcDbCircle
 62
7
  6
BYLAYER
 10
108.2530544189
 20
92.7528446389
 40
0.820025
100
AcDbArc
 50
112.9582358797
 51
247.0412781074
  0
ARC
  5
537
100
AcDbEntity
  8
0
100
AcDbCircle
 62
7
  6
BYLAYER
 10
106.2330294189
 20
92.7528446389
 40
0.6
100
AcDbArc
 50
311.8103148958
 51
48.1896851042
  0
ARC
  5
538
100
AcDbEntity
  8
0
100
AcDbCircle
 62
7
  6
BYLAYER
 10
106.2330294189
 20
92.7528446389
 40
0.6
100
AcDbArc
 50
131.8103148958
 51
228.1896851042
  0
ARC
  5
539
100
AcDbEntity
  8
0
100
AcDbCircle
 62
7
  6
BYLAYER
 10
104.9030294189
 20
93.8078446389
 40
0.2
100
AcDbArc
 50
90.0
 51
180.0
  0
ARC
  5
53A
100
AcDbEntity
  8
0
100
AcDbCircle
 62
7
  6
BYLAYER
 10
97.9330294189
 20
95.6011761402
 40
4.3983315013
100
AcDbArc
 50
247.5274814727
 51
292.4725185276
  0
CIRCLE
  5
53B
100
AcDbEntity
  8
0
100
AcDbCircle
 62
7
  6
BYLAYER
 10
102.9830294189
 20
96.1407567153
 40
1.05
  0
ARC
  5
53C
100
AcDbEntity
  8
0
100
AcDbCircle
 62
7
  6
BYLAYER
 10
93.2188068754
 20
96.3228446389
 40
0.8781089906
100
AcDbArc
 50
115.6991944064
 51
244.3008055936
  0
ARC
  5
53D
100
AcDbEntity
  8
0
100
AcDbCircle
 62
7
  6
BYLAYER
 10
95.3868054606
 20
96.3428446389
 40
0.8337786514
100
AcDbArc
 50
115.1067178001
 51
245.0619405754
  0
ARC
  5
53E
100
AcDbEntity
  8
0
100
AcDbCircle
 62
7
  6
BYLAYER
 10
95.2580544189
 20
96.3228446389
 40
0.820025
100
AcDbArc
 50
112.9582358797
 51
247.0412781074
  0
ARC
  5
53F
100
AcDbEntity
  8
0
100
AcDbCircle
 62
7
  6
BYLAYER
 10
93.2380294189
 20
96.3228446389
 40
0.6
100
AcDbArc
 50
311.8103148958
 51
48.1896851042
  0
ARC
  5
540
100
AcDbEntity
  8
0
100
AcDbCircle
 62
7
  6
BYLAYER
 10
93.2380294189
 20
96.3228446389
 40
0.6
100
AcDbArc
 50
131.8103148958
 51
228.1896851042
  0
ARC
  5
541
100
AcDbEntity
  8
0
100
AcDbCircle
 62
7
  6
BYLAYER
 10
91.9080294189
 20
95.2678446389
 40
0.2
100
AcDbArc
 50
180.0
 51
270.0
  0
ARC
  5
542
100
AcDbEntity
  8
0
100
AcDbCircle
 62
7
  6
BYLAYER
 10
99.4330294189
 20
97.1828446389
 40
0.5
100
AcDbArc
 50
0.0
 51
68.7499577947
  0
ARC
  5
543
100
AcDbEntity
  8
0
100
AcDbCircle
 62
7
  6
BYLAYER
 10
96.4330294189
 20
97.1828446389
 40
0.5
100
AcDbArc
 50
111.2500422053
 51
180.0
  0
ARC
  5
544
100
AcDbEntity
  8
0
100
AcDbCircle
 62
7
  6
BYLAYER
 10
101.5330294189
 20
98.5778446389
 40
0.25
100
AcDbArc
 50
0.0
 51
90.0000000001
  0
ARC
  5
545
100
AcDbEntity
  8
0
100
AcDbCircle
 62
7
  6
BYLAYER
 10
91.9080294189
 20
97.3778446389
 40
0.2
100
AcDbArc
 50
90.0
 51
180.0
  0
ARC
  5
546
100
AcDbEntity
  8
0
100
AcDbCircle
 62
7
  6
BYLAYER
 10
110.9330294189
 20
95.6011761402
 40
4.3983315013
100
AcDbArc
 50
247.5274814727
 51
292.4725185276
  0
ARC
  5
547
100
AcDbEntity
  8
0
100
AcDbCircle
 62
7
  6
BYLAYER
 10
106.2138068755
 20
96.3228446389
 40
0.8781089907
100
AcDbArc
 50
115.6991944081
 51
244.3008055919
  0
ARC
  5
548
100
AcDbEntity
  8
0
100
AcDbCircle
 62
7
  6
BYLAYER
 10
108.3907996169
 20
96.3428446389
 40
0.8337786584
100
AcDbArc
 50
115.106743066
 51
245.0621652998
  0
ARC
  5
549
100
AcDbEntity
  8
0
100
AcDbCircle
 62
7
  6
BYLAYER
 10
108.2530544189
 20
96.3228446389
 40
0.820025
100
AcDbArc
 50
112.9582358797
 51
247.0412781074
  0
ARC
  5
54A
100
AcDbEntity
  8
0
100
AcDbCircle
 62
7
  6
BYLAYER
 10
106.2330294189
 20
96.3228446389
 40
0.6
100
AcDbArc
 50
311.8103148958
 51
48.1896851042
  0
ARC
  5
54B
100
AcDbEntity
  8
0
100
AcDbCircle
 62
7
  6
BYLAYER
 10
106.2330294189
 20
96.3228446389
 40
0.6
100
AcDbArc
 50
131.8103148958
 51
228.1896851042
  0
ARC
  5
54C
100
AcDbEntity
  8
0
100
AcDbCircle
 62
7
  6
BYLAYER
 10
104.9030294189
 20
95.2678446389
 40
0.2
100
AcDbArc
 50
180.0
 51
270.0
  0
ARC
  5
54D
100
AcDbEntity
  8
0
100
AcDbCircle
 62
7
  6
BYLAYER
 10
109.4330294189
 20
97.1828446389
 40
0.5
100
AcDbArc
 50
111.2500422054
 51
180.0
  0
ARC
  5
54E
100
AcDbEntity
  8
0
100
AcDbCircle
 62
7
  6
BYLAYER
 10
112.4330294189
 20
97.1828446389
 40
0.5
100
AcDbArc
 50
0.0
 51
68.7499577947
  0
ARC
  5
54F
100
AcDbEntity
  8
0
100
AcDbCircle
 62
7
  6
BYLAYER
 10
114.5330294189
 20
98.5778446389
 40
0.25
100
AcDbArc
 50
0.0
 51
90.0000000001
  0
ARC
  5
550
100
AcDbEntity
  8
0
100
AcDbCircle
 62
7
  6
BYLAYER
 10
104.9030294189
 20
97.3778446389
 40
0.2
100
AcDbArc
 50
90.0
 51
180.0
  0
SPLINE
  5
551
100
AcDbEntity
  8
0
100
AcDbSpline
 62
7
  6
BYLAYER
 70
0
 71
3
 72
12
 73
8
 74
0
 42
0.0000001
 43
0.0000001
 44
0.0000000001
 40
0.0
 40
0.0
 40
0.0
 40
0.0
 40
0.0877757902
 40
0.1901417048
 40
0.430798182
 40
0.7063376073
 40
1.0
 40
1.0
 40
1.0
 40
1.0
 10
52.0877553809
 20
93.1462328482
 30
0.0
 10
52.0871475774
 20
93.1709579943
 30
0.0
 10
52.0833176452
 20
93.2244452693
 30
0.0
 10
52.0695757255
 20
93.3450521339
 30
0.0
 10
52.0457314453
 20
93.5177165715
 30
0.0
 10
52.0222206791
 20
93.7447816906
 30
0.0
 10
52.016076142
 20
93.9052236632
 30
0.0
 10
52.0160761207
 20
93.98796902
 30
0.0
  0
SPLINE
  5
552
100
AcDbEntity
  8
0
100
AcDbSpline
 62
7
  6
BYLAYER
 70
0
 71
3
 72
12
 73
8
 74
0
 42
0.0000001
 43
0.0000001
 44
0.0000000001
 40
0.0
 40
0.0
 40
0.0
 40
0.0
 40
0.2936622115
 40
0.5692012319
 40
0.8098582141
 40
0.9122242252
 40
1.0
 40
1.0
 40
1.0
 40
1.0
 10
52.0160761207
 20
87.8177202577
 30
0.0
 10
52.016076142
 20
87.9004655646
 30
0.0
 10
52.0222206594
 20
88.0609073669
 30
0.0
 10
52.0457310093
 20
88.2879725132
 30
0.0
 10
52.0695756303
 20
88.460636966
 30
0.0
 10
52.0833176354
 20
88.5812439892
 30
0.0
 10
52.0871475775
 20
88.6347312876
 30
0.0
 10
52.0877553809
 20
88.6594564297
 30
0.0
  0
LINE
  5
553
100
AcDbEntity
  8
0
100
AcDbLine
 62
7
  6
BYLAYER
 10
79.0182441485
 20
87.7120380499
 11
78.9423573313
 21
87.7120482581
  0
LINE
  5
554
100
AcDbEntity
  8
0
100
AcDbLine
 62
7
  6
BYLAYER
 10
79.0182441485
 20
84.1420380499
 11
78.9423573313
 21
84.1420482581
  0
SPLINE
  5
555
100
AcDbEntity
  8
0
100
AcDbSpline
 62
7
  6
BYLAYER
 70
0
 71
3
 72
14
 73
10
 74
0
 42
0.0000001
 43
0.0000001
 44
0.0000000001
 40
0.0
 40
0.0
 40
0.0
 40
0.0
 40
0.0201900537
 40
0.0744333063
 40
0.1611873928
 40
0.2782587393
 40
0.4233189276
 40
0.5937592394
 40
1.0
 40
1.0
 40
1.0
 40
1.0
 10
94.9380093041
 20
95.5681627407
 30
0.0
 10
94.9382453615
 20
95.5678017163
 30
0.0
 10
94.9364150504
 20
95.5663834802
 30
0.0
 10
94.9345354085
 20
95.5642899542
 30
0.0
 10
94.9298767551
 20
95.5607112107
 30
0.0
 10
94.9240920336
 20
95.5562544543
 30
0.0
 10
94.9165392079
 20
95.5508300343
 30
0.0
 10
94.9039146159
 20
95.5420205617
 30
0.0
 10
94.8936604032
 20
95.5351683613
 30
0.0
 10
94.8864089021
 20
95.5303994554
 30
0.0
  0
SPLINE
  5
556
100
AcDbEntity
  8
0
100
AcDbSpline
 62
7
  6
BYLAYER
 70
0
 71
3
 72
9
 73
5
 74
0
 42
0.0000001
 43
0.0000001
 44
0.0000000001
 40
0.0
 40
0.0
 40
0.0
 40
0.0
 40
0.4642705686
 40
1.0
 40
1.0
 40
1.0
 40
1.0
 10
94.8864089021
 20
95.5303994554
 30
0.0
 10
94.8653236763
 20
95.5165328839
 30
0.0
 10
94.8193138686
 20
95.4875843568
 30
0.0
 10
94.7727629504
 20
95.4594755669
 30
0.0
 10
94.7473079892
 20
95.4453316589
 30
0.0
  0
SPLINE
  5
557
100
AcDbEntity
  8
0
100
AcDbSpline
 62
7
  6
BYLAYER
 70
0
 71
3
 72
9
 73
5
 74
0
 42
0.0000001
 43
0.0000001
 44
0.0000000001
 40
0.0
 40
0.0
 40
0.0
 40
0.0
 40
0.5251776487
 40
1.0
 40
1.0
 40
1.0
 40
1.0
 10
94.7473073454
 20
95.2678446389
 30
0.0
 10
94.7718671599
 20
95.2432583536
 30
0.0
 10
94.8181422824
 20
95.1959610268
 30
0.0
 10
94.8646530624
 20
95.1488823879
 30
0.0
 10
94.8862010646
 20
95.1260160906
 30
0.0
  0
SPLINE
  5
558
100
AcDbEntity
  8
0
100
AcDbSpline
 62
7
  6
BYLAYER
 70
0
 71
3
 72
14
 73
10
 74
0
 42
0.0000001
 43
0.0000001
 44
0.0000000001
 40
0.0
 40
0.0
 40
0.0
 40
0.0
 40
0.3881198676
 40
0.5562078929
 40
0.7029272509
 40
0.8250592074
 40
0.918286433
 40
0.977918251
 40
1.0
 40
1.0
 40
1.0
 40
1.0
 10
94.8862010646
 20
95.1260160906
 30
0.0
 10
94.8931435097
 20
95.1186489104
 30
0.0
 10
94.9030049334
 20
95.1079897603
 30
0.0
 10
94.9153139448
 20
95.0944455861
 30
0.0
 10
94.9230402046
 20
95.0859678382
 30
0.0
 10
94.9292071732
 20
95.0790947302
 30
0.0
 10
94.9345396763
 20
95.0735492002
 30
0.0
 10
94.936551196
 20
95.0705441718
 30
0.0
 10
94.9388855039
 20
95.0683049155
 30
0.0
 10
94.9384774822
 20
95.0678984461
 30
0.0
  0
SPLINE
  5
559
100
AcDbEntity
  8
0
100
AcDbSpline
 62
7
  6
BYLAYER
 70
0
 71
3
 72
11
 73
7
 74
0
 42
0.0000001
 43
0.0000001
 44
0.0000000001
 40
0.0
 40
0.0
 40
0.0
 40
0.0
 40
0.3368405521
 40
0.4923681714
 40
0.6329834276
 40
1.0
 40
1.0
 40
1.0
 40
1.0
 10
110.3260908004
 20
83.2278446389
 30
0.0
 10
110.3260908004
 20
83.1958418709
 30
0.0
 10
110.3225568362
 20
83.1491230569
 30
0.0
 10
110.3092041033
 20
83.0897616484
 30
0.0
 10
110.2902354645
 20
83.0322120913
 30
0.0
 10
110.2553059862
 20
82.977844639
 30
0.0
 10
110.220436235
 20
82.9778446389
 30
0.0
  0
SPLINE
  5
55A
100
AcDbEntity
  8
0
100
AcDbSpline
 62
7
  6
BYLAYER
 70
0
 71
3
 72
12
 73
8
 74
0
 42
0.0000001
 43
0.0000001
 44
0.0000000001
 40
0.0
 40
0.0
 40
0.0
 40
0.0
 40
0.3708541129
 40
0.6868470731
 40
0.9026299624
 40
0.9647857632
 40
1.0
 40
1.0
 40
1.0
 40
1.0
 10
109.5332589704
 20
83.2278446389
 30
0.0
 10
109.5332589704
 20
83.1959385393
 30
0.0
 10
109.5314913614
 20
83.1367353801
 30
0.0
 10
109.5241897928
 20
83.0596863441
 30
0.0
 10
109.5139624023
 20
83.008784252
 30
0.0
 10
109.5039068355
 20
82.9842953977
 30
0.0
 10
109.4967033492
 20
82.9778446389
 30
0.0
 10
109.4936737241
 20
82.9778446389
 30
0.0
  0
SPLINE
  5
55B
100
AcDbEntity
  8
0
100
AcDbSpline
 62
7
  6
BYLAYER
 70
0
 71
3
 72
11
 73
7
 74
0
 42
0.0000001
 43
0.0000001
 44
0.0000000001
 40
0.0
 40
0.0
 40
0.0
 40
0.0
 40
0.1509542707
 40
0.3313818907
 40
0.5416776919
 40
1.0
 40
1.0
 40
1.0
 40
1.0
 10
43.9188092932
 20
97.2742096679
 30
0.0
 10
43.9064126184
 20
97.2618129931
 30
0.0
 10
43.8796101833
 20
97.2341896872
 30
0.0
 10
43.8345992848
 20
97.1902337598
 30
0.0
 10
43.7651970002
 20
97.1201851128
 30
0.0
 10
43.7100826336
 20
97.0654830083
 30
0.0
 10
43.6724442643
 20
97.0278446389
 30
0.0
  0
SPLINE
  5
55C
100
AcDbEntity
  8
0
100
AcDbSpline
 62
7
  6
BYLAYER
 70
0
 71
3
 72
12
 73
8
 74
0
 42
0.0000001
 43
0.0000001
 44
0.0000000001
 40
0.0
 40
0.0
 40
0.0
 40
0.0
 40
0.0352142368
 40
0.0973700376
 40
0.3131529269
 40
0.6291458871
 40
1.0
 40
1.0
 40
1.0
 40
1.0
 10
109.4936737241
 20
98.8278446389
 30
0.0
 10
109.4967033492
 20
98.8278446389
 30
0.0
 10
109.5039068355
 20
98.8213938802
 30
0.0
 10
109.5139624023
 20
98.7969050259
 30
0.0
 10
109.5241897928
 20
98.7460029338
 30
0.0
 10
109.5314913614
 20
98.6689538978
 30
0.0
 10
109.5332589704
 20
98.6097507386
 30
0.0
 10
109.5332589704
 20
98.5778446389
 30
0.0
  0
SPLINE
  5
55D
100
AcDbEntity
  8
0
100
AcDbSpline
 62
7
  6
BYLAYER
 70
0
 71
3
 72
8
 73
4
 74
0
 42
0.0000001
 43
0.0000001
 44
0.0000000001
 40
0.0
 40
0.0
 40
0.0
 40
0.0
 40
1.0
 40
1.0
 40
1.0
 40
1.0
 10
79.8330294314
 20
84.1430772847
 30
0.0
 10
79.5614343013
 20
84.1427602512
 30
0.0
 10
79.2898394638
 20
84.1420381347
 30
0.0
 10
79.0182441485
 20
84.1420380499
 30
0.0
  0
SPLINE
  5
55E
100
AcDbEntity
  8
0
100
AcDbSpline
 62
7
  6
BYLAYER
 70
0
 71
3
 72
10
 73
6
 74
0
 42
0.0000001
 43
0.0000001
 44
0.0000000001
 40
0.0
 40
0.0
 40
0.0
 40
0.0
 40
0.3633789239
 40
0.6452291689
 40
1.0
 40
1.0
 40
1.0
 40
1.0
 10
78.9423572279
 20
84.1418276983
 30
0.0
 10
78.9515573246
 20
84.1415181752
 30
0.0
 10
78.9660531181
 20
84.1548277728
 30
0.0
 10
78.9772830151
 20
84.1766993313
 30
0.0
 10
78.982877588
 20
84.1920905142
 30
0.0
 10
78.9854611633
 20
84.2006983928
 30
0.0
  0
SPLINE
  5
55F
100
AcDbEntity
  8
0
100
AcDbSpline
 62
7
  6
BYLAYER
 70
0
 71
3
 72
9
 73
5
 74
0
 42
0.0000001
 43
0.0000001
 44
0.0000000001
 40
0.0
 40
0.0
 40
0.0
 40
0.0
 40
0.4612827991
 40
1.0
 40
1.0
 40
1.0
 40
1.0
 10
78.9854611633
 20
84.2006983928
 30
0.0
 10
78.9917717181
 20
84.2217237098
 30
0.0
 10
79.0003446507
 20
84.2687972899
 30
0.0
 10
79.0030294189
 20
84.3164011084
 30
0.0
 10
79.0030294189
 20
84.3420380499
 30
0.0
  0
SPLINE
  5
560
100
AcDbEntity
  8
0
100
AcDbSpline
 62
7
  6
BYLAYER
 70
0
 71
3
 72
11
 73
7
 74
0
 42
0.0000001
 43
0.0000001
 44
0.0000000001
 40
0.0
 40
0.0
 40
0.0
 40
0.0
 40
0.3188765441
 40
0.605501148
 40
0.8346172262
 40
1.0
 40
1.0
 40
1.0
 40
1.0
 10
101.6098148974
 20
98.5778446389
 30
0.0
 10
101.6098148974
 20
98.6070135176
 30
0.0
 10
101.6058696671
 20
98.6624911391
 30
0.0
 10
101.5880512716
 20
98.7372331936
 30
0.0
 10
101.5617208232
 20
98.7940241645
 30
0.0
 10
101.5336002276
 20
98.8203058291
 30
0.0
 10
101.5192974141
 20
98.8252345353
 30
0.0
  0
SPLINE
  5
561
100
AcDbEntity
  8
0
100
AcDbSpline
 62
7
  6
BYLAYER
 70
0
 71
3
 72
8
 73
4
 74
0
 42
0.0000001
 43
0.0000001
 44
0.0000000001
 40
0.0
 40
0.0
 40
0.0
 40
0.0
 40
1.0
 40
1.0
 40
1.0
 40
1.0
 10
101.5192974141
 20
98.8252345353
 30
0.0
 10
101.5144566139
 20
98.8269026604
 30
0.0
 10
101.5092804871
 20
98.8278446389
 30
0.0
 10
101.504160332
 20
98.8278446389
 30
0.0
  0
SPLINE
  5
562
100
AcDbEntity
  8
0
100
AcDbSpline
 62
7
  6
BYLAYER
 70
0
 71
3
 72
11
 73
7
 74
0
 42
0.0000001
 43
0.0000001
 44
0.0000000001
 40
0.0
 40
0.0
 40
0.0
 40
0.0
 40
0.3670165724
 40
0.5076318286
 40
0.6631594479
 40
1.0
 40
1.0
 40
1.0
 40
1.0
 10
97.220436235
 20
98.8278446389
 30
0.0
 10
97.2553059862
 20
98.8278446389
 30
0.0
 10
97.2902354645
 20
98.7734771866
 30
0.0
 10
97.3092041033
 20
98.7159276295
 30
0.0
 10
97.3225568362
 20
98.656566221
 30
0.0
 10
97.3260908004
 20
98.609847407
 30
0.0
 10
97.3260908004
 20
98.5778446389
 30
0.0
  0
SPLINE
  5
563
100
AcDbEntity
  8
0
100
AcDbSpline
 62
7
  6
BYLAYER
 70
0
 71
3
 72
12
 73
8
 74
0
 42
0.0000001
 43
0.0000001
 44
0.0000000001
 40
0.0
 40
0.0
 40
0.0
 40
0.0
 40
0.0352142368
 40
0.0973700376
 40
0.3131529269
 40
0.6291458871
 40
1.0
 40
1.0
 40
1.0
 40
1.0
 10
96.4936737241
 20
98.8278446389
 30
0.0
 10
96.4967033492
 20
98.8278446389
 30
0.0
 10
96.5039068355
 20
98.8213938802
 30
0.0
 10
96.5139624023
 20
98.7969050259
 30
0.0
 10
96.5241897928
 20
98.7460029338
 30
0.0
 10
96.5314913614
 20
98.6689538978
 30
0.0
 10
96.5332589704
 20
98.6097507386
 30
0.0
 10
96.5332589704
 20
98.5778446389
 30
0.0
  0
SPLINE
  5
564
100
AcDbEntity
  8
0
100
AcDbSpline
 62
7
  6
BYLAYER
 70
0
 71
3
 72
11
 73
7
 74
0
 42
0.0000001
 43
0.0000001
 44
0.0000000001
 40
0.0
 40
0.0
 40
0.0
 40
0.0
 40
0.3188765441
 40
0.605501148
 40
0.8346172262
 40
1.0
 40
1.0
 40
1.0
 40
1.0
 10
88.6098148974
 20
98.5778446389
 30
0.0
 10
88.6098148974
 20
98.6070135176
 30
0.0
 10
88.6058696671
 20
98.6624911391
 30
0.0
 10
88.5880512716
 20
98.7372331936
 30
0.0
 10
88.5617208232
 20
98.7940241645
 30
0.0
 10
88.5336002276
 20
98.8203058291
 30
0.0
 10
88.5192974141
 20
98.8252345353
 30
0.0
  0
SPLINE
  5
565
100
AcDbEntity
  8
0
100
AcDbSpline
 62
7
  6
BYLAYER
 70
0
 71
3
 72
8
 73
4
 74
0
 42
0.0000001
 43
0.0000001
 44
0.0000000001
 40
0.0
 40
0.0
 40
0.0
 40
0.0
 40
1.0
 40
1.0
 40
1.0
 40
1.0
 10
88.5192974141
 20
98.8252345353
 30
0.0
 10
88.5144566139
 20
98.8269026604
 30
0.0
 10
88.5092804871
 20
98.8278446389
 30
0.0
 10
88.504160332
 20
98.8278446389
 30
0.0
  0
SPLINE
  5
566
100
AcDbEntity
  8
0
100
AcDbSpline
 62
7
  6
BYLAYER
 70
0
 71
3
 72
14
 73
10
 74
0
 42
0.0000001
 43
0.0000001
 44
0.0000000001
 40
0.0
 40
0.0
 40
0.0
 40
0.0
 40
0.0196727006
 40
0.0729174393
 40
0.1586764252
 40
0.2751825709
 40
0.4203515428
 40
0.5914450347
 40
1.0
 40
1.0
 40
1.0
 40
1.0
 10
81.9330092793
 20
86.1519072232
 30
0.0
 10
81.9332338076
 20
86.1522498443
 30
0.0
 10
81.9314624659
 20
86.1535911306
 30
0.0
 10
81.9296212888
 20
86.1555463553
 30
0.0
 10
81.9250776446
 20
86.158945861
 30
0.0
 10
81.9194322484
 20
86.1632260239
 30
0.0
 10
81.9120642004
 20
86.1685117713
 30
0.0
 10
81.8997318155
 20
86.1771683595
 30
0.0
 10
81.8897197091
 20
86.1839311647
 30
0.0
 10
81.8826306617
 20
86.1886340809
 30
0.0
  0
SPLINE
  5
567
100
AcDbEntity
  8
0
100
AcDbSpline
 62
7
  6
BYLAYER
 70
0
 71
3
 72
9
 73
5
 74
0
 42
0.0000001
 43
0.0000001
 44
0.0000000001
 40
0.0
 40
0.0
 40
0.0
 40
0.0
 40
0.2179288848
 40
1.0
 40
1.0
 40
1.0
 40
1.0
 10
81.8826306617
 20
86.1886340809
 30
0.0
 10
81.872669759
 20
86.1952422029
 30
0.0
 10
81.8265703452
 20
86.2249611009
 30
0.0
 10
81.7798053568
 20
86.253715825
 30
0.0
 10
81.7423079892
 20
86.2745510293
 30
0.0
  0
SPLINE
  5
568
100
AcDbEntity
  8
0
100
AcDbSpline
 62
7
  6
BYLAYER
 70
0
 71
3
 72
17
 73
13
 74
0
 42
0.0000001
 43
0.0000001
 44
0.0000000001
 40
0.0
 40
0.0
 40
0.0
 40
0.0
 40
0.3352407624
 40
0.4958503262
 40
0.6464483764
 40
0.7815573349
 40
0.8409417581
 40
0.8931082814
 40
0.9367075584
 40
0.9702249907
 40
0.9918645855
 40
1.0
 40
1.0
 40
1.0
 40
1.0
 10
81.7423079892
 20
86.4520386755
 30
0.0
 10
81.7641468309
 20
86.4739010554
 30
0.0
 10
81.7964836825
 20
86.506201989
 30
0.0
 10
81.8380908012
 20
86.5488633831
 30
0.0
 10
81.8665639689
 20
86.5785475657
 30
0.0
 10
81.8886233285
 20
86.601494905
 30
0.0
 10
81.9042961385
 20
86.6179148721
 30
0.0
 10
81.9141656367
 20
86.6283884015
 30
0.0
 10
81.9218899231
 20
86.6371311084
 30
0.0
 10
81.9283702163
 20
86.6443900486
 30
0.0
 10
81.9306962266
 20
86.6484907223
 30
0.0
 10
81.9335063311
 20
86.6514547455
 30
0.0
 10
81.9329752936
 20
86.651984221
 30
0.0
  0
SPLINE
  5
569
100
AcDbEntity
  8
0
100
AcDbSpline
 62
7
  6
BYLAYER
 70
0
 71
3
 72
9
 73
5
 74
0
 42
0.0000001
 43
0.0000001
 44
0.0000000001
 40
0.0
 40
0.0
 40
0.0
 40
0.0
 40
0.536597412
 40
1.0
 40
1.0
 40
1.0
 40
1.0
 10
81.7423079892
 20
84.5195250699
 30
0.0
 10
81.7680600231
 20
84.5338340448
 30
0.0
 10
81.8150768904
 20
84.5622265143
 30
0.0
 10
81.8615458026
 20
84.5914707887
 30
0.0
 10
81.8827878355
 20
84.6054730174
 30
0.0
  0
SPLINE
  5
56A
100
AcDbEntity
  8
0
100
AcDbSpline
 62
7
  6
BYLAYER
 70
0
 71
3
 72
14
 73
10
 74
0
 42
0.0000001
 43
0.0000001
 44
0.0000000001
 40
0.0
 40
0.0
 40
0.0
 40
0.0
 40
0.4084502989
 40
0.5794155305
 40
0.7245119712
 40
0.8410483994
 40
0.9268899859
 40
0.9802380734
 40
1.0
 40
1.0
 40
1.0
 40
1.0
 10
81.8827878355
 20
84.6054730174
 30
0.0
 10
81.8898588358
 20
84.6101340479
 30
0.0
 10
81.8998493612
 20
84.6168284536
 30
0.0
 10
81.9121548825
 20
84.6254015936
 30
0.0
 10
81.919502382
 20
84.6306434028
 30
0.0
 10
81.9251279491
 20
84.6349036502
 30
0.0
 10
81.9296454353
 20
84.6383011948
 30
0.0
 10
81.931478577
 20
84.6402626088
 30
0.0
 10
81.9332335815
 20
84.6416092103
 30
0.0
 10
81.9330092833
 20
84.6419521222
 30
0.0
  0
SPLINE
  5
56B
100
AcDbEntity
  8
0
100
AcDbSpline
 62
7
  6
BYLAYER
 70
0
 71
3
 72
14
 73
10
 74
0
 42
0.0000001
 43
0.0000001
 44
0.0000000001
 40
0.0
 40
0.0
 40
0.0
 40
0.0
 40
0.0224491533
 40
0.0816122461
 40
0.1739935241
 40
0.2953933133
 40
0.4418941722
 40
0.6102782229
 40
1.0
 40
1.0
 40
1.0
 40
1.0
 10
81.9329752984
 20
84.1420918789
 30
0.0
 10
81.9333835094
 20
84.1424989071
 30
0.0
 10
81.931401905
 20
84.1448253169
 30
0.0
 10
81.9295861371
 20
84.1479927503
 30
0.0
 10
81.9247317479
 20
84.1536634448
 30
0.0
 10
81.9188252449
 20
84.1605429922
 30
0.0
 10
81.911186148
 20
84.1688297035
 30
0.0
 10
81.8988006096
 20
84.181979901
 30
0.0
 10
81.8888486608
 20
84.1923097375
 30
0.0
 10
81.8819197953
 20
84.1995305903
 30
0.0
  0
SPLINE
  5
56C
100
AcDbEntity
  8
0
100
AcDbSpline
 62
7
  6
BYLAYER
 70
0
 71
3
 72
9
 73
5
 74
0
 42
0.0000001
 43
0.0000001
 44
0.0000000001
 40
0.0
 40
0.0
 40
0.0
 40
0.0
 40
0.2263912379
 40
1.0
 40
1.0
 40
1.0
 40
1.0
 10
81.8819197953
 20
84.1995305903
 30
0.0
 10
81.8714961026
 20
84.2103935448
 30
0.0
 10
81.8255529465
 20
84.2584729841
 30
0.0
 10
81.7786657758
 20
84.3056404509
 30
0.0
 10
81.7423079892
 20
84.3420374244
 30
0.0
  0
SPLINE
  5
56D
100
AcDbEntity
  8
0
100
AcDbSpline
 62
7
  6
BYLAYER
 70
0
 71
3
 72
11
 73
7
 74
0
 42
0.0000001
 43
0.0000001
 44
0.0000000001
 40
0.0
 40
0.0
 40
0.0
 40
0.0
 40
0.2498176334
 40
0.4998888217
 40
0.7500203454
 40
1.0
 40
1.0
 40
1.0
 40
1.0
 10
81.7423086329
 20
86.2745506623
 30
0.0
 10
81.6672325722
 20
86.229168152
 30
0.0
 10
81.5271213428
 20
86.11995992
 30
0.0
 10
81.3656950612
 20
85.9080553584
 30
0.0
 10
81.2656814383
 20
85.6610970029
 30
0.0
 10
81.2431132217
 20
85.4848180222
 30
0.0
 10
81.242307348
 20
85.3970380499
 30
0.0
  0
SPLINE
  5
56E
100
AcDbEntity
  8
0
100
AcDbSpline
 62
7
  6
BYLAYER
 70
0
 71
3
 72
11
 73
7
 74
0
 42
0.0000001
 43
0.0000001
 44
0.0000000001
 40
0.0
 40
0.0
 40
0.0
 40
0.0
 40
0.2499796546
 40
0.5001111783
 40
0.7501823666
 40
1.0
 40
1.0
 40
1.0
 40
1.0
 10
81.242307348
 20
85.3970380499
 30
0.0
 10
81.2431132217
 20
85.3092580777
 30
0.0
 10
81.2656814383
 20
85.132979097
 30
0.0
 10
81.3656950612
 20
84.8860207415
 30
0.0
 10
81.5271213428
 20
84.6741161799
 30
0.0
 10
81.6672325722
 20
84.5649079478
 30
0.0
 10
81.7423086329
 20
84.5195254376
 30
0.0
  0
SPLINE
  5
56F
100
AcDbEntity
  8
0
100
AcDbSpline
 62
7
  6
BYLAYER
 70
0
 71
3
 72
11
 73
7
 74
0
 42
0.0000001
 43
0.0000001
 44
0.0000000001
 40
0.0
 40
0.0
 40
0.0
 40
0.0
 40
0.3670165724
 40
0.5076318286
 40
0.6631594479
 40
1.0
 40
1.0
 40
1.0
 40
1.0
 10
84.220436235
 20
98.8278446389
 30
0.0
 10
84.2553059862
 20
98.8278446389
 30
0.0
 10
84.2902354645
 20
98.7734771866
 30
0.0
 10
84.3092041033
 20
98.7159276295
 30
0.0
 10
84.3225568362
 20
98.656566221
 30
0.0
 10
84.3260908004
 20
98.609847407
 30
0.0
 10
84.3260908004
 20
98.5778446389
 30
0.0
  0
SPLINE
  5
570
100
AcDbEntity
  8
0
100
AcDbSpline
 62
7
  6
BYLAYER
 70
0
 71
3
 72
12
 73
8
 74
0
 42
0.0000001
 43
0.0000001
 44
0.0000000001
 40
0.0
 40
0.0
 40
0.0
 40
0.0
 40
0.0352142368
 40
0.0973700376
 40
0.3131529269
 40
0.6291458871
 40
1.0
 40
1.0
 40
1.0
 40
1.0
 10
83.4936737241
 20
98.8278446389
 30
0.0
 10
83.4967033492
 20
98.8278446389
 30
0.0
 10
83.5039068355
 20
98.8213938802
 30
0.0
 10
83.5139624023
 20
98.7969050259
 30
0.0
 10
83.5241897928
 20
98.7460029338
 30
0.0
 10
83.5314913614
 20
98.6689538978
 30
0.0
 10
83.5332589704
 20
98.6097507386
 30
0.0
 10
83.5332589704
 20
98.5778446389
 30
0.0
  0
SPLINE
  5
571
100
AcDbEntity
  8
0
100
AcDbSpline
 62
7
  6
BYLAYER
 70
0
 71
3
 72
11
 73
7
 74
0
 42
0.0000001
 43
0.0000001
 44
0.0000000001
 40
0.0
 40
0.0
 40
0.0
 40
0.0
 40
0.2499796546
 40
0.5001111783
 40
0.7501823666
 40
1.0
 40
1.0
 40
1.0
 40
1.0
 10
107.242307348
 20
96.3228446389
 30
0.0
 10
107.2431132217
 20
96.2350646667
 30
0.0
 10
107.2656814383
 20
96.058785686
 30
0.0
 10
107.3656950612
 20
95.8118273305
 30
0.0
 10
107.5271213428
 20
95.5999227689
 30
0.0
 10
107.6672325722
 20
95.4907145368
 30
0.0
 10
107.7423086329
 20
95.4453320266
 30
0.0
  0
SPLINE
  5
572
100
AcDbEntity
  8
0
100
AcDbSpline
 62
7
  6
BYLAYER
 70
0
 71
3
 72
9
 73
5
 74
0
 42
0.0000001
 43
0.0000001
 44
0.0000000001
 40
0.0
 40
0.0
 40
0.0
 40
0.0
 40
0.5251776487
 40
1.0
 40
1.0
 40
1.0
 40
1.0
 10
107.7423073454
 20
87.9478446389
 30
0.0
 10
107.7668671599
 20
87.9232583536
 30
0.0
 10
107.8131422824
 20
87.8759610268
 30
0.0
 10
107.8596530624
 20
87.8288823879
 30
0.0
 10
107.8812010646
 20
87.8060160906
 30
0.0
  0
SPLINE
  5
573
100
AcDbEntity
  8
0
100
AcDbSpline
 62
7
  6
BYLAYER
 70
0
 71
3
 72
14
 73
10
 74
0
 42
0.0000001
 43
0.0000001
 44
0.0000000001
 40
0.0
 40
0.0
 40
0.0
 40
0.0
 40
0.3881198676
 40
0.5562078929
 40
0.7029272509
 40
0.8250592074
 40
0.918286433
 40
0.977918251
 40
1.0
 40
1.0
 40
1.0
 40
1.0
 10
107.8812010646
 20
87.8060160906
 30
0.0
 10
107.8881435097
 20
87.7986489104
 30
0.0
 10
107.8980049334
 20
87.7879897603
 30
0.0
 10
107.9103139448
 20
87.7744455861
 30
0.0
 10
107.9180402046
 20
87.7659678382
 30
0.0
 10
107.9242071732
 20
87.7590947302
 30
0.0
 10
107.9295396763
 20
87.7535492002
 30
0.0
 10
107.931551196
 20
87.7505441718
 30
0.0
 10
107.9338855039
 20
87.7483049155
 30
0.0
 10
107.9334774822
 20
87.7478984461
 30
0.0
  0
SPLINE
  5
574
100
AcDbEntity
  8
0
100
AcDbSpline
 62
7
  6
BYLAYER
 70
0
 71
3
 72
11
 73
7
 74
0
 42
0.0000001
 43
0.0000001
 44
0.0000000001
 40
0.0
 40
0.0
 40
0.0
 40
0.0
 40
0.2499796546
 40
0.5001111783
 40
0.7501823666
 40
1.0
 40
1.0
 40
1.0
 40
1.0
 10
107.242307348
 20
92.7528446389
 30
0.0
 10
107.2431132217
 20
92.6650646667
 30
0.0
 10
107.2656814383
 20
92.488785686
 30
0.0
 10
107.3656950612
 20
92.2418273305
 30
0.0
 10
107.5271213428
 20
92.0299227689
 30
0.0
 10
107.6672325722
 20
91.9207145368
 30
0.0
 10
107.7423086329
 20
91.8753320266
 30
0.0
  0
SPLINE
  5
575
100
AcDbEntity
  8
0
100
AcDbSpline
 62
7
  6
BYLAYER
 70
0
 71
3
 72
18
 73
14
 74
0
 42
0.0000001
 43
0.0000001
 44
0.0000000001
 40
0.0
 40
0.0
 40
0.0
 40
0.0
 40
0.0080377677
 40
0.0298537385
 40
0.0636380382
 40
0.107414538
 40
0.1596176601
 40
0.2189393619
 40
0.3538598911
 40
0.5043711866
 40
0.6649288838
 40
0.8311138799
 40
1.0
 40
1.0
 40
1.0
 40
1.0
 10
107.9334690136
 20
90.2577908317
 30
0.0
 10
107.9339943
 20
90.2572675173
 30
0.0
 10
107.9307793612
 20
90.2544739202
 30
0.0
 10
107.9282706663
 20
90.25060606
 30
0.0
 10
107.9213637739
 20
90.2435667841
 30
0.0
 10
107.9136027599
 20
90.2348152621
 30
0.0
 10
107.9038766926
 20
90.2241663008
 30
0.0
 10
107.8885607775
 20
90.2074188996
 30
0.0
 10
107.8666918725
 20
90.1842933405
 30
0.0
 10
107.8379515949
 20
90.154865333
 30
0.0
 10
107.8070992222
 20
90.1234545386
 30
0.0
 10
107.7750732152
 20
90.0908248881
 30
0.0
 10
107.7533178039
 20
90.0688669647
 30
0.0
 10
107.7423073454
 20
90.0578446389
 30
0.0
  0
SPLINE
  5
576
100
AcDbEntity
  8
0
100
AcDbSpline
 62
7
  6
BYLAYER
 70
0
 71
3
 72
11
 73
7
 74
0
 42
0.0000001
 43
0.0000001
 44
0.0000000001
 40
0.0
 40
0.0
 40
0.0
 40
0.0
 40
0.2498176334
 40
0.4998888217
 40
0.7500203454
 40
1.0
 40
1.0
 40
1.0
 40
1.0
 10
107.7423086329
 20
93.6303572513
 30
0.0
 10
107.6672325722
 20
93.5849747411
 30
0.0
 10
107.5271213428
 20
93.475766509
 30
0.0
 10
107.3656950612
 20
93.2638619474
 30
0.0
 10
107.2656814383
 20
93.0169035919
 30
0.0
 10
107.2431132217
 20
92.8406246112
 30
0.0
 10
107.242307348
 20
92.7528446389
 30
0.0
  0
SPLINE
  5
577
100
AcDbEntity
  8
0
100
AcDbSpline
 62
7
  6
BYLAYER
 70
0
 71
3
 72
14
 73
10
 74
0
 42
0.0000001
 43
0.0000001
 44
0.0000000001
 40
0.0
 40
0.0
 40
0.0
 40
0.0
 40
0.0199801515
 40
0.0738438063
 40
0.1602287457
 40
0.2771001185
 40
0.4222295734
 40
0.5929445605
 40
1.0
 40
1.0
 40
1.0
 40
1.0
 10
107.9330092998
 20
89.7575349016
 30
0.0
 10
107.9332420782
 20
89.7578908806
 30
0.0
 10
107.9314184133
 20
89.7592843938
 30
0.0
 10
107.9295410146
 20
89.7613344403
 30
0.0
 10
107.924892749
 20
89.7648617069
 30
0.0
 10
107.9191239209
 20
89.7692763542
 30
0.0
 10
107.911595332
 20
89.7746831899
 30
0.0
 10
107.8990106512
 20
89.783495724
 30
0.0
 10
107.888793489
 20
89.7903653844
 30
0.0
 10
107.881565708
 20
89.7951451484
 30
0.0
  0
SPLINE
  5
578
100
AcDbEntity
  8
0
100
AcDbSpline
 62
7
  6
BYLAYER
 70
0
 71
3
 72
9
 73
5
 74
0
 42
0.0000001
 43
0.0000001
 44
0.0000000001
 40
0.0
 40
0.0
 40
0.0
 40
0.0
 40
0.2185657717
 40
1.0
 40
1.0
 40
1.0
 40
1.0
 10
107.881565708
 20
89.7951451484
 30
0.0
 10
107.8716436107
 20
89.8017066759
 30
0.0
 10
107.8258894424
 20
89.8311750893
 30
0.0
 10
107.7794841239
 20
89.8597009053
 30
0.0
 10
107.7423079892
 20
89.8803576184
 30
0.0
  0
SPLINE
  5
579
100
AcDbEntity
  8
0
100
AcDbSpline
 62
7
  6
BYLAYER
 70
0
 71
3
 72
14
 73
10
 74
0
 42
0.0000001
 43
0.0000001
 44
0.0000000001
 40
0.0
 40
0.0
 40
0.0
 40
0.0
 40
0.0201900537
 40
0.0744333063
 40
0.1611873928
 40
0.2782587393
 40
0.4233189276
 40
0.5937592394
 40
1.0
 40
1.0
 40
1.0
 40
1.0
 10
107.9330093041
 20
88.2481627407
 30
0.0
 10
107.9332453615
 20
88.2478017163
 30
0.0
 10
107.9314150504
 20
88.2463834802
 30
0.0
 10
107.9295354085
 20
88.2442899542
 30
0.0
 10
107.9248767551
 20
88.2407112107
 30
0.0
 10
107.9190920336
 20
88.2362544543
 30
0.0
 10
107.9115392079
 20
88.2308300343
 30
0.0
 10
107.8989146159
 20
88.2220205617
 30
0.0
 10
107.8886604032
 20
88.2151683613
 30
0.0
 10
107.8814089021
 20
88.2103994554
 30
0.0
  0
SPLINE
  5
57A
100
AcDbEntity
  8
0
100
AcDbSpline
 62
7
  6
BYLAYER
 70
0
 71
3
 72
9
 73
5
 74
0
 42
0.0000001
 43
0.0000001
 44
0.0000000001
 40
0.0
 40
0.0
 40
0.0
 40
0.0
 40
0.4642705686
 40
1.0
 40
1.0
 40
1.0
 40
1.0
 10
107.8814089021
 20
88.2103994554
 30
0.0
 10
107.8603236763
 20
88.1965328839
 30
0.0
 10
107.8143138686
 20
88.1675843568
 30
0.0
 10
107.7677629504
 20
88.1394755669
 30
0.0
 10
107.7423079892
 20
88.1253316589
 30
0.0
  0
SPLINE
  5
57B
100
AcDbEntity
  8
0
100
AcDbSpline
 62
7
  6
BYLAYER
 70
0
 71
3
 72
11
 73
7
 74
0
 42
0.0000001
 43
0.0000001
 44
0.0000000001
 40
0.0
 40
0.0
 40
0.0
 40
0.0
 40
0.2498176334
 40
0.4998888217
 40
0.7500203454
 40
1.0
 40
1.0
 40
1.0
 40
1.0
 10
107.7423086329
 20
89.8803572513
 30
0.0
 10
107.6672325722
 20
89.8349747411
 30
0.0
 10
107.5271213428
 20
89.725766509
 30
0.0
 10
107.3656950612
 20
89.5138619474
 30
0.0
 10
107.2656814383
 20
89.2669035919
 30
0.0
 10
107.2431132217
 20
89.0906246112
 30
0.0
 10
107.242307348
 20
89.0028446389
 30
0.0
  0
SPLINE
  5
57C
100
AcDbEntity
  8
0
100
AcDbSpline
 62
7
  6
BYLAYER
 70
0
 71
3
 72
11
 73
7
 74
0
 42
0.0000001
 43
0.0000001
 44
0.0000000001
 40
0.0
 40
0.0
 40
0.0
 40
0.0
 40
0.2499796546
 40
0.5001111783
 40
0.7501823666
 40
1.0
 40
1.0
 40
1.0
 40
1.0
 10
107.242307348
 20
89.0028446389
 30
0.0
 10
107.2431132217
 20
88.9150646667
 30
0.0
 10
107.2656814383
 20
88.738785686
 30
0.0
 10
107.3656950612
 20
88.4918273305
 30
0.0
 10
107.5271213428
 20
88.2799227689
 30
0.0
 10
107.6672325722
 20
88.1707145368
 30
0.0
 10
107.7423086329
 20
88.1253320266
 30
0.0
  0
SPLINE
  5
57D
100
AcDbEntity
  8
0
100
AcDbSpline
 62
7
  6
BYLAYER
 70
0
 71
3
 72
14
 73
10
 74
0
 42
0.0000001
 43
0.0000001
 44
0.0000000001
 40
0.0
 40
0.0
 40
0.0
 40
0.0
 40
0.0224491533
 40
0.0816122461
 40
0.173993524
 40
0.2953933132
 40
0.4418941722
 40
0.6102782229
 40
1.0
 40
1.0
 40
1.0
 40
1.0
 10
107.9329752984
 20
91.4978984679
 30
0.0
 10
107.9333835094
 20
91.4983054961
 30
0.0
 10
107.931401905
 20
91.5006319059
 30
0.0
 10
107.9295861371
 20
91.5037993393
 30
0.0
 10
107.9247317479
 20
91.5094700338
 30
0.0
 10
107.9188252449
 20
91.5163495813
 30
0.0
 10
107.911186148
 20
91.5246362925
 30
0.0
 10
107.8988006096
 20
91.53778649
 30
0.0
 10
107.8888486608
 20
91.5481163265
 30
0.0
 10
107.8819197953
 20
91.5553371793
 30
0.0
  0
SPLINE
  5
57E
100
AcDbEntity
  8
0
100
AcDbSpline
 62
7
  6
BYLAYER
 70
0
 71
3
 72
9
 73
5
 74
0
 42
0.0000001
 43
0.0000001
 44
0.0000000001
 40
0.0
 40
0.0
 40
0.0
 40
0.0
 40
0.2263912379
 40
1.0
 40
1.0
 40
1.0
 40
1.0
 10
107.8819197953
 20
91.5553371793
 30
0.0
 10
107.8714961026
 20
91.5662001338
 30
0.0
 10
107.8255529465
 20
91.6142795732
 30
0.0
 10
107.7786657758
 20
91.6614470399
 30
0.0
 10
107.7423079892
 20
91.6978440135
 30
0.0
  0
SPLINE
  5
57F
100
AcDbEntity
  8
0
100
AcDbSpline
 62
7
  6
BYLAYER
 70
0
 71
3
 72
11
 73
7
 74
0
 42
0.0000001
 43
0.0000001
 44
0.0000000001
 40
0.0
 40
0.0
 40
0.0
 40
0.0
 40
0.2498176334
 40
0.4998888217
 40
0.7500203454
 40
1.0
 40
1.0
 40
1.0
 40
1.0
 10
107.7423086329
 20
97.2003572513
 30
0.0
 10
107.6672325722
 20
97.1549747411
 30
0.0
 10
107.5271213428
 20
97.045766509
 30
0.0
 10
107.3656950612
 20
96.8338619474
 30
0.0
 10
107.2656814383
 20
96.5869035919
 30
0.0
 10
107.2431132217
 20
96.4106246112
 30
0.0
 10
107.242307348
 20
96.3228446389
 30
0.0
  0
SPLINE
  5
580
100
AcDbEntity
  8
0
100
AcDbSpline
 62
7
  6
BYLAYER
 70
0
 71
3
 72
14
 73
10
 74
0
 42
0.0000001
 43
0.0000001
 44
0.0000000001
 40
0.0
 40
0.0
 40
0.0
 40
0.0
 40
0.0224491533
 40
0.0816122461
 40
0.173993524
 40
0.2953933132
 40
0.4418941722
 40
0.6102782229
 40
1.0
 40
1.0
 40
1.0
 40
1.0
 10
107.9329752984
 20
84.1778984679
 30
0.0
 10
107.9333835094
 20
84.1783054961
 30
0.0
 10
107.931401905
 20
84.1806319059
 30
0.0
 10
107.9295861371
 20
84.1837993393
 30
0.0
 10
107.9247317479
 20
84.1894700338
 30
0.0
 10
107.9188252449
 20
84.1963495813
 30
0.0
 10
107.911186148
 20
84.2046362925
 30
0.0
 10
107.8988006096
 20
84.21778649
 30
0.0
 10
107.8888486608
 20
84.2281163265
 30
0.0
 10
107.8819197953
 20
84.2353371793
 30
0.0
  0
SPLINE
  5
581
100
AcDbEntity
  8
0
100
AcDbSpline
 62
7
  6
BYLAYER
 70
0
 71
3
 72
9
 73
5
 74
0
 42
0.0000001
 43
0.0000001
 44
0.0000000001
 40
0.0
 40
0.0
 40
0.0
 40
0.0
 40
0.2263912379
 40
1.0
 40
1.0
 40
1.0
 40
1.0
 10
107.8819197953
 20
84.2353371793
 30
0.0
 10
107.8714961026
 20
84.2462001338
 30
0.0
 10
107.8255529465
 20
84.2942795732
 30
0.0
 10
107.7786657758
 20
84.3414470399
 30
0.0
 10
107.7423079892
 20
84.3778440135
 30
0.0
  0
SPLINE
  5
582
100
AcDbEntity
  8
0
100
AcDbSpline
 62
7
  6
BYLAYER
 70
0
 71
3
 72
9
 73
5
 74
0
 42
0.0000001
 43
0.0000001
 44
0.0000000001
 40
0.0
 40
0.0
 40
0.0
 40
0.0
 40
0.536597412
 40
1.0
 40
1.0
 40
1.0
 40
1.0
 10
107.7423079892
 20
91.875331659
 30
0.0
 10
107.7680600231
 20
91.8896406338
 30
0.0
 10
107.8150768904
 20
91.9180331033
 30
0.0
 10
107.8615458026
 20
91.9472773777
 30
0.0
 10
107.8827878355
 20
91.9612796064
 30
0.0
  0
SPLINE
  5
583
100
AcDbEntity
  8
0
100
AcDbSpline
 62
7
  6
BYLAYER
 70
0
 71
3
 72
14
 73
10
 74
0
 42
0.0000001
 43
0.0000001
 44
0.0000000001
 40
0.0
 40
0.0
 40
0.0
 40
0.0
 40
0.4084502989
 40
0.5794155305
 40
0.7245119712
 40
0.8410483994
 40
0.9268899859
 40
0.9802380734
 40
1.0
 40
1.0
 40
1.0
 40
1.0
 10
107.8827878355
 20
91.9612796064
 30
0.0
 10
107.8898588358
 20
91.9659406369
 30
0.0
 10
107.8998493612
 20
91.9726350426
 30
0.0
 10
107.9121548825
 20
91.9812081826
 30
0.0
 10
107.919502382
 20
91.9864499919
 30
0.0
 10
107.9251279491
 20
91.9907102392
 30
0.0
 10
107.9296454353
 20
91.9941077839
 30
0.0
 10
107.931478577
 20
91.9960691978
 30
0.0
 10
107.9332335815
 20
91.9974157994
 30
0.0
 10
107.9330092833
 20
91.9977587112
 30
0.0
  0
SPLINE
  5
584
100
AcDbEntity
  8
0
100
AcDbSpline
 62
7
  6
BYLAYER
 70
0
 71
3
 72
14
 73
10
 74
0
 42
0.0000001
 43
0.0000001
 44
0.0000000001
 40
0.0
 40
0.0
 40
0.0
 40
0.0
 40
0.0201900537
 40
0.0744333063
 40
0.1611873928
 40
0.2782587393
 40
0.4233189277
 40
0.5937592394
 40
1.0
 40
1.0
 40
1.0
 40
1.0
 10
24.9330495338
 20
93.5075265372
 30
0.0
 10
24.9328134763
 20
93.5078875616
 30
0.0
 10
24.9346437874
 20
93.5093057977
 30
0.0
 10
24.9365234294
 20
93.5113993237
 30
0.0
 10
24.9411820827
 20
93.5149780672
 30
0.0
 10
24.9469668043
 20
93.5194348236
 30
0.0
 10
24.95451963
 20
93.5248592436
 30
0.0
 10
24.9671442219
 20
93.5336687162
 30
0.0
 10
24.9773984347
 20
93.5405209166
 30
0.0
 10
24.9846499357
 20
93.5452898225
 30
0.0
  0
SPLINE
  5
585
100
AcDbEntity
  8
0
100
AcDbSpline
 62
7
  6
BYLAYER
 70
0
 71
3
 72
9
 73
5
 74
0
 42
0.0000001
 43
0.0000001
 44
0.0000000001
 40
0.0
 40
0.0
 40
0.0
 40
0.0
 40
0.4642705686
 40
1.0
 40
1.0
 40
1.0
 40
1.0
 10
24.9846499357
 20
93.5452898225
 30
0.0
 10
25.0057351615
 20
93.559156394
 30
0.0
 10
25.0517449692
 20
93.5881049211
 30
0.0
 10
25.0982958874
 20
93.616213711
 30
0.0
 10
25.1237508486
 20
93.630357619
 30
0.0
  0
SPLINE
  5
586
100
AcDbEntity
  8
0
100
AcDbSpline
 62
7
  6
BYLAYER
 70
0
 71
3
 72
18
 73
14
 74
0
 42
0.0000001
 43
0.0000001
 44
0.0000000001
 40
0.0
 40
0.0
 40
0.0
 40
0.0
 40
0.1688805868
 40
0.3350576732
 40
0.4955981071
 40
0.6460897006
 40
0.7810096322
 40
0.840330871
 40
0.8925402783
 40
0.9363361388
 40
0.9701355803
 40
0.9919588289
 40
1.0
 40
1.0
 40
1.0
 40
1.0
 10
25.1237514924
 20
93.8078446389
 30
0.0
 10
25.1127411443
 20
93.8188668541
 30
0.0
 10
25.090986403
 20
93.8408246848
 30
0.0
 10
25.0589618437
 20
93.8734532478
 30
0.0
 10
25.0281103664
 20
93.9048605035
 30
0.0
 10
24.9993710292
 20
93.9342859579
 30
0.0
 10
24.9775064713
 20
93.9574139267
 30
0.0
 10
24.9621875199
 20
93.9741599171
 30
0.0
 10
24.9524569857
 20
93.9848083423
 30
0.0
 10
24.9446872507
 20
93.993557443
 30
0.0
 10
24.9377775226
 20
94.0005995434
 30
0.0
 10
24.9352684124
 20
94.0044707387
 30
0.0
 10
24.9320558216
 20
94.0072672972
 30
0.0
 10
24.9325813556
 20
94.0077908317
 30
0.0
  0
SPLINE
  5
587
100
AcDbEntity
  8
0
100
AcDbSpline
 62
7
  6
BYLAYER
 70
0
 71
3
 72
9
 73
5
 74
0
 42
0.0000001
 43
0.0000001
 44
0.0000000001
 40
0.0
 40
0.0
 40
0.0
 40
0.0
 40
0.5251776487
 40
1.0
 40
1.0
 40
1.0
 40
1.0
 10
107.7423073454
 20
95.2678446389
 30
0.0
 10
107.7668671599
 20
95.2432583536
 30
0.0
 10
107.8131422824
 20
95.1959610268
 30
0.0
 10
107.8596530624
 20
95.1488823879
 30
0.0
 10
107.8812010646
 20
95.1260160906
 30
0.0
  0
SPLINE
  5
588
100
AcDbEntity
  8
0
100
AcDbSpline
 62
7
  6
BYLAYER
 70
0
 71
3
 72
14
 73
10
 74
0
 42
0.0000001
 43
0.0000001
 44
0.0000000001
 40
0.0
 40
0.0
 40
0.0
 40
0.0
 40
0.3881198676
 40
0.5562078929
 40
0.7029272509
 40
0.8250592074
 40
0.918286433
 40
0.977918251
 40
1.0
 40
1.0
 40
1.0
 40
1.0
 10
107.8812010646
 20
95.1260160906
 30
0.0
 10
107.8881435097
 20
95.1186489104
 30
0.0
 10
107.8980049334
 20
95.1079897603
 30
0.0
 10
107.9103139448
 20
95.0944455861
 30
0.0
 10
107.9180402046
 20
95.0859678382
 30
0.0
 10
107.9242071732
 20
95.0790947302
 30
0.0
 10
107.9295396763
 20
95.0735492002
 30
0.0
 10
107.931551196
 20
95.0705441718
 30
0.0
 10
107.9338855039
 20
95.0683049155
 30
0.0
 10
107.9334774822
 20
95.0678984461
 30
0.0
  0
SPLINE
  5
589
100
AcDbEntity
  8
0
100
AcDbSpline
 62
7
  6
BYLAYER
 70
0
 71
3
 72
17
 73
13
 74
0
 42
0.0000001
 43
0.0000001
 44
0.0000000001
 40
0.0
 40
0.0
 40
0.0
 40
0.0
 40
0.3352407624
 40
0.4958503263
 40
0.6464483764
 40
0.7815573349
 40
0.8409417581
 40
0.8931082814
 40
0.9367075584
 40
0.9702249907
 40
0.9918645855
 40
1.0
 40
1.0
 40
1.0
 40
1.0
 10
107.7423079892
 20
93.8078452645
 30
0.0
 10
107.7641468309
 20
93.8297076444
 30
0.0
 10
107.7964836825
 20
93.862008578
 30
0.0
 10
107.8380908012
 20
93.9046699721
 30
0.0
 10
107.8665639689
 20
93.9343541547
 30
0.0
 10
107.8886233285
 20
93.957301494
 30
0.0
 10
107.9042961385
 20
93.9737214611
 30
0.0
 10
107.9141656367
 20
93.9841949905
 30
0.0
 10
107.9218899231
 20
93.9929376974
 30
0.0
 10
107.9283702163
 20
94.0001966376
 30
0.0
 10
107.9306962266
 20
94.0042973113
 30
0.0
 10
107.9335063311
 20
94.0072613345
 30
0.0
 10
107.9329752936
 20
94.00779081
 30
0.0
  0
SPLINE
  5
58A
100
AcDbEntity
  8
0
100
AcDbSpline
 62
7
  6
BYLAYER
 70
0
 71
3
 72
14
 73
10
 74
0
 42
0.0000001
 43
0.0000001
 44
0.0000000001
 40
0.0
 40
0.0
 40
0.0
 40
0.0
 40
0.0193853186
 40
0.0721214589
 40
0.1573852632
 40
0.2736181967
 40
0.4188671931
 40
0.5903180293
 40
1.0
 40
1.0
 40
1.0
 40
1.0
 10
107.9330092793
 20
93.5079332771
 30
0.0
 10
107.933229339
 20
93.5082696821
 30
0.0
 10
107.9314626115
 20
93.5095767406
 30
0.0
 10
107.9296200882
 20
93.5114711259
 30
0.0
 10
107.9250804493
 20
93.5147971403
 30
0.0
 10
107.9194451016
 20
93.5190150599
 30
0.0
 10
107.9120943165
 20
93.5242677041
 30
0.0
 10
107.8997873659
 20
93.5329080183
 30
0.0
 10
107.8898000614
 20
93.5396737682
 30
0.0
 10
107.882724239
 20
93.5443754391
 30
0.0
  0
SPLINE
  5
58B
100
AcDbEntity
  8
0
100
AcDbSpline
 62
7
  6
BYLAYER
 70
0
 71
3
 72
9
 73
5
 74
0
 42
0.0000001
 43
0.0000001
 44
0.0000000001
 40
0.0
 40
0.0
 40
0.0
 40
0.0
 40
0.4634190168
 40
1.0
 40
1.0
 40
1.0
 40
1.0
 10
107.882724239
 20
93.5443754391
 30
0.0
 10
107.861537495
 20
93.5584533928
 30
0.0
 10
107.8150998604
 20
93.5877320628
 30
0.0
 10
107.768053956
 20
93.6160520147
 30
0.0
 10
107.7423079892
 20
93.6303576183
 30
0.0
  0
SPLINE
  5
58C
100
AcDbEntity
  8
0
100
AcDbSpline
 62
7
  6
BYLAYER
 70
0
 71
3
 72
11
 73
7
 74
0
 42
0.0000001
 43
0.0000001
 44
0.0000000001
 40
0.0
 40
0.0
 40
0.0
 40
0.0
 40
0.2499796546
 40
0.5001111783
 40
0.7501823666
 40
1.0
 40
1.0
 40
1.0
 40
1.0
 10
25.6237514899
 20
92.7528446389
 30
0.0
 10
25.6229456161
 20
92.8406246112
 30
0.0
 10
25.6003773995
 20
93.0169035919
 30
0.0
 10
25.5003637766
 20
93.2638619474
 30
0.0
 10
25.338937495
 20
93.475766509
 30
0.0
 10
25.1988262657
 20
93.5849747411
 30
0.0
 10
25.1237502049
 20
93.6303572513
 30
0.0
  0
SPLINE
  5
58D
100
AcDbEntity
  8
0
100
AcDbSpline
 62
7
  6
BYLAYER
 70
0
 71
3
 72
11
 73
7
 74
0
 42
0.0000001
 43
0.0000001
 44
0.0000000001
 40
0.0
 40
0.0
 40
0.0
 40
0.0
 40
0.2498176334
 40
0.4998888217
 40
0.7500203454
 40
1.0
 40
1.0
 40
1.0
 40
1.0
 10
25.1237502049
 20
91.8753320266
 30
0.0
 10
25.1988262657
 20
91.9207145368
 30
0.0
 10
25.338937495
 20
92.0299227689
 30
0.0
 10
25.5003637766
 20
92.2418273305
 30
0.0
 10
25.6003773995
 20
92.488785686
 30
0.0
 10
25.6229456161
 20
92.6650646667
 30
0.0
 10
25.6237514899
 20
92.7528446389
 30
0.0
  0
SPLINE
  5
58E
100
AcDbEntity
  8
0
100
AcDbSpline
 62
7
  6
BYLAYER
 70
0
 71
3
 72
14
 73
10
 74
0
 42
0.0000001
 43
0.0000001
 44
0.0000000001
 40
0.0
 40
0.0
 40
0.0
 40
0.0
 40
0.0201900537
 40
0.0744333063
 40
0.1611873928
 40
0.2782587393
 40
0.4233189276
 40
0.5937592394
 40
1.0
 40
1.0
 40
1.0
 40
1.0
 10
107.9330093041
 20
95.5681627407
 30
0.0
 10
107.9332453615
 20
95.5678017163
 30
0.0
 10
107.9314150504
 20
95.5663834802
 30
0.0
 10
107.9295354085
 20
95.5642899542
 30
0.0
 10
107.9248767551
 20
95.5607112107
 30
0.0
 10
107.9190920336
 20
95.5562544543
 30
0.0
 10
107.9115392079
 20
95.5508300343
 30
0.0
 10
107.8989146159
 20
95.5420205617
 30
0.0
 10
107.8886604032
 20
95.5351683613
 30
0.0
 10
107.8814089021
 20
95.5303994554
 30
0.0
  0
SPLINE
  5
58F
100
AcDbEntity
  8
0
100
AcDbSpline
 62
7
  6
BYLAYER
 70
0
 71
3
 72
9
 73
5
 74
0
 42
0.0000001
 43
0.0000001
 44
0.0000000001
 40
0.0
 40
0.0
 40
0.0
 40
0.0
 40
0.4642705686
 40
1.0
 40
1.0
 40
1.0
 40
1.0
 10
107.8814089021
 20
95.5303994554
 30
0.0
 10
107.8603236763
 20
95.5165328839
 30
0.0
 10
107.8143138686
 20
95.4875843568
 30
0.0
 10
107.7677629504
 20
95.4594755669
 30
0.0
 10
107.7423079892
 20
95.4453316589
 30
0.0
  0
SPLINE
  5
590
100
AcDbEntity
  8
0
100
AcDbSpline
 62
7
  6
BYLAYER
 70
0
 71
3
 72
14
 73
10
 74
0
 42
0.0000001
 43
0.0000001
 44
0.0000000001
 40
0.0
 40
0.0
 40
0.0
 40
0.0
 40
0.0220576966
 40
0.0816175279
 40
0.1747511428
 40
0.2967900998
 40
0.4434695913
 40
0.611591967
 40
1.0
 40
1.0
 40
1.0
 40
1.0
 10
24.9325898242
 20
91.4978984461
 30
0.0
 10
24.9321855092
 20
91.4983012434
 30
0.0
 10
24.9344957861
 20
91.5005213156
 30
0.0
 10
24.9364921738
 20
91.5034975114
 30
0.0
 10
24.9417758555
 20
91.5089942263
 30
0.0
 10
24.947887193
 20
91.5158108191
 30
0.0
 10
24.9555462398
 20
91.5242224533
 30
0.0
 10
24.9677575357
 20
91.5376679943
 30
0.0
 10
24.977543081
 20
91.5482508829
 30
0.0
 10
24.9844333124
 20
91.5555665298
 30
0.0
  0
SPLINE
  5
591
100
AcDbEntity
  8
0
100
AcDbSpline
 62
7
  6
BYLAYER
 70
0
 71
3
 72
9
 73
5
 74
0
 42
0.0000001
 43
0.0000001
 44
0.0000000001
 40
0.0
 40
0.0
 40
0.0
 40
0.0
 40
0.4746027155
 40
1.0
 40
1.0
 40
1.0
 40
1.0
 10
24.9844333124
 20
91.5555665298
 30
0.0
 10
25.0060323595
 20
91.5784991413
 30
0.0
 10
25.0526858325
 20
91.6257267533
 30
0.0
 10
25.0991048886
 20
91.6731714707
 30
0.0
 10
25.1237514924
 20
91.6978446389
 30
0.0
  0
SPLINE
  5
592
100
AcDbEntity
  8
0
100
AcDbSpline
 62
7
  6
BYLAYER
 70
0
 71
3
 72
14
 73
10
 74
0
 42
0.0000001
 43
0.0000001
 44
0.0000000001
 40
0.0
 40
0.0
 40
0.0
 40
0.0
 40
0.0201900537
 40
0.0744333063
 40
0.1611873928
 40
0.2782587393
 40
0.4233189276
 40
0.5937592393
 40
1.0
 40
1.0
 40
1.0
 40
1.0
 10
81.9330093041
 20
95.5681627407
 30
0.0
 10
81.9332453615
 20
95.5678017163
 30
0.0
 10
81.9314150504
 20
95.5663834802
 30
0.0
 10
81.9295354085
 20
95.5642899542
 30
0.0
 10
81.9248767551
 20
95.5607112107
 30
0.0
 10
81.9190920336
 20
95.5562544543
 30
0.0
 10
81.9115392079
 20
95.5508300343
 30
0.0
 10
81.8989146159
 20
95.5420205617
 30
0.0
 10
81.8886604032
 20
95.5351683613
 30
0.0
 10
81.8814089021
 20
95.5303994554
 30
0.0
  0
SPLINE
  5
593
100
AcDbEntity
  8
0
100
AcDbSpline
 62
7
  6
BYLAYER
 70
0
 71
3
 72
9
 73
5
 74
0
 42
0.0000001
 43
0.0000001
 44
0.0000000001
 40
0.0
 40
0.0
 40
0.0
 40
0.0
 40
0.4642705686
 40
1.0
 40
1.0
 40
1.0
 40
1.0
 10
81.8814089021
 20
95.5303994554
 30
0.0
 10
81.8603236763
 20
95.5165328839
 30
0.0
 10
81.8143138686
 20
95.4875843568
 30
0.0
 10
81.7677629504
 20
95.4594755669
 30
0.0
 10
81.7423079892
 20
95.4453316589
 30
0.0
  0
SPLINE
  5
594
100
AcDbEntity
  8
0
100
AcDbSpline
 62
7
  6
BYLAYER
 70
0
 71
3
 72
14
 73
10
 74
0
 42
0.0000001
 43
0.0000001
 44
0.0000000001
 40
0.0
 40
0.0
 40
0.0
 40
0.0
 40
0.0199801515
 40
0.0738438063
 40
0.1602287457
 40
0.2771001185
 40
0.4222295734
 40
0.5929445605
 40
1.0
 40
1.0
 40
1.0
 40
1.0
 10
24.933049538
 20
91.9981543763
 30
0.0
 10
24.9328167597
 20
91.9977983973
 30
0.0
 10
24.9346404246
 20
91.9964048841
 30
0.0
 10
24.9365178233
 20
91.9943548376
 30
0.0
 10
24.9411660888
 20
91.990827571
 30
0.0
 10
24.946934917
 20
91.9864129237
 30
0.0
 10
24.9544635058
 20
91.981006088
 30
0.0
 10
24.9670481867
 20
91.9721935539
 30
0.0
 10
24.9772653489
 20
91.9653238935
 30
0.0
 10
24.9844931298
 20
91.9605441295
 30
0.0
  0
SPLINE
  5
595
100
AcDbEntity
  8
0
100
AcDbSpline
 62
7
  6
BYLAYER
 70
0
 71
3
 72
9
 73
5
 74
0
 42
0.0000001
 43
0.0000001
 44
0.0000000001
 40
0.0
 40
0.0
 40
0.0
 40
0.0
 40
0.2185657717
 40
1.0
 40
1.0
 40
1.0
 40
1.0
 10
24.9844931298
 20
91.9605441295
 30
0.0
 10
24.9944152272
 20
91.953982602
 30
0.0
 10
25.0401693954
 20
91.9245141886
 30
0.0
 10
25.0865747139
 20
91.8959883726
 30
0.0
 10
25.1237508486
 20
91.8753316595
 30
0.0
  0
SPLINE
  5
596
100
AcDbEntity
  8
0
100
AcDbSpline
 62
7
  6
BYLAYER
 70
0
 71
3
 72
9
 73
5
 74
0
 42
0.0000001
 43
0.0000001
 44
0.0000000001
 40
0.0
 40
0.0
 40
0.0
 40
0.0
 40
0.5251776487
 40
1.0
 40
1.0
 40
1.0
 40
1.0
 10
81.7423073454
 20
95.2678446389
 30
0.0
 10
81.7668671599
 20
95.2432583536
 30
0.0
 10
81.8131422824
 20
95.1959610268
 30
0.0
 10
81.8596530624
 20
95.1488823879
 30
0.0
 10
81.8812010646
 20
95.1260160906
 30
0.0
  0
SPLINE
  5
597
100
AcDbEntity
  8
0
100
AcDbSpline
 62
7
  6
BYLAYER
 70
0
 71
3
 72
14
 73
10
 74
0
 42
0.0000001
 43
0.0000001
 44
0.0000000001
 40
0.0
 40
0.0
 40
0.0
 40
0.0
 40
0.3881198676
 40
0.5562078929
 40
0.7029272509
 40
0.8250592074
 40
0.918286433
 40
0.977918251
 40
1.0
 40
1.0
 40
1.0
 40
1.0
 10
81.8812010646
 20
95.1260160906
 30
0.0
 10
81.8881435097
 20
95.1186489104
 30
0.0
 10
81.8980049334
 20
95.1079897603
 30
0.0
 10
81.9103139448
 20
95.0944455861
 30
0.0
 10
81.9180402046
 20
95.0859678382
 30
0.0
 10
81.9242071732
 20
95.0790947302
 30
0.0
 10
81.9295396763
 20
95.0735492002
 30
0.0
 10
81.931551196
 20
95.0705441718
 30
0.0
 10
81.9338855039
 20
95.0683049155
 30
0.0
 10
81.9334774822
 20
95.0678984461
 30
0.0
  0
SPLINE
  5
598
100
AcDbEntity
  8
0
100
AcDbSpline
 62
7
  6
BYLAYER
 70
0
 71
3
 72
14
 73
10
 74
0
 42
0.0000001
 43
0.0000001
 44
0.0000000001
 40
0.0
 40
0.0
 40
0.0
 40
0.0
 40
0.0199801515
 40
0.0738438063
 40
0.1602287457
 40
0.2771001185
 40
0.4222295734
 40
0.5929445605
 40
1.0
 40
1.0
 40
1.0
 40
1.0
 10
107.9330092998
 20
97.0775349016
 30
0.0
 10
107.9332420782
 20
97.0778908806
 30
0.0
 10
107.9314184133
 20
97.0792843938
 30
0.0
 10
107.9295410146
 20
97.0813344403
 30
0.0
 10
107.924892749
 20
97.0848617069
 30
0.0
 10
107.9191239209
 20
97.0892763542
 30
0.0
 10
107.911595332
 20
97.0946831899
 30
0.0
 10
107.8990106512
 20
97.103495724
 30
0.0
 10
107.888793489
 20
97.1103653844
 30
0.0
 10
107.881565708
 20
97.1151451484
 30
0.0
  0
SPLINE
  5
599
100
AcDbEntity
  8
0
100
AcDbSpline
 62
7
  6
BYLAYER
 70
0
 71
3
 72
9
 73
5
 74
0
 42
0.0000001
 43
0.0000001
 44
0.0000000001
 40
0.0
 40
0.0
 40
0.0
 40
0.0
 40
0.2185657717
 40
1.0
 40
1.0
 40
1.0
 40
1.0
 10
107.881565708
 20
97.1151451484
 30
0.0
 10
107.8716436107
 20
97.1217066759
 30
0.0
 10
107.8258894424
 20
97.1511750893
 30
0.0
 10
107.7794841239
 20
97.1797009053
 30
0.0
 10
107.7423079892
 20
97.2003576184
 30
0.0
  0
SPLINE
  5
59A
100
AcDbEntity
  8
0
100
AcDbSpline
 62
7
  6
BYLAYER
 70
0
 71
3
 72
9
 73
5
 74
0
 42
0.0000001
 43
0.0000001
 44
0.0000000001
 40
0.0
 40
0.0
 40
0.0
 40
0.0
 40
0.536597412
 40
1.0
 40
1.0
 40
1.0
 40
1.0
 10
107.7423079892
 20
84.555331659
 30
0.0
 10
107.7680600231
 20
84.5696406338
 30
0.0
 10
107.8150768904
 20
84.5980331033
 30
0.0
 10
107.8615458026
 20
84.6272773777
 30
0.0
 10
107.8827878355
 20
84.6412796064
 30
0.0
  0
SPLINE
  5
59B
100
AcDbEntity
  8
0
100
AcDbSpline
 62
7
  6
BYLAYER
 70
0
 71
3
 72
14
 73
10
 74
0
 42
0.0000001
 43
0.0000001
 44
0.0000000001
 40
0.0
 40
0.0
 40
0.0
 40
0.0
 40
0.4084502989
 40
0.5794155305
 40
0.7245119712
 40
0.8410483994
 40
0.9268899859
 40
0.9802380734
 40
1.0
 40
1.0
 40
1.0
 40
1.0
 10
107.8827878355
 20
84.6412796064
 30
0.0
 10
107.8898588358
 20
84.6459406369
 30
0.0
 10
107.8998493612
 20
84.6526350426
 30
0.0
 10
107.9121548825
 20
84.6612081826
 30
0.0
 10
107.919502382
 20
84.6664499919
 30
0.0
 10
107.9251279491
 20
84.6707102392
 30
0.0
 10
107.9296454353
 20
84.6741077839
 30
0.0
 10
107.931478577
 20
84.6760691978
 30
0.0
 10
107.9332335815
 20
84.6774157994
 30
0.0
 10
107.9330092833
 20
84.6777587112
 30
0.0
  0
SPLINE
  5
59C
100
AcDbEntity
  8
0
100
AcDbSpline
 62
7
  6
BYLAYER
 70
0
 71
3
 72
18
 73
14
 74
0
 42
0.0000001
 43
0.0000001
 44
0.0000000001
 40
0.0
 40
0.0
 40
0.0
 40
0.0
 40
0.0080377677
 40
0.0298537385
 40
0.0636380382
 40
0.107414538
 40
0.1596176601
 40
0.2189393619
 40
0.3538598911
 40
0.5043711866
 40
0.6649288838
 40
0.8311138799
 40
1.0
 40
1.0
 40
1.0
 40
1.0
 10
81.9334690136
 20
97.5777908317
 30
0.0
 10
81.9339943
 20
97.5772675173
 30
0.0
 10
81.9307793612
 20
97.5744739202
 30
0.0
 10
81.9282706663
 20
97.57060606
 30
0.0
 10
81.9213637739
 20
97.5635667841
 30
0.0
 10
81.9136027599
 20
97.5548152621
 30
0.0
 10
81.9038766926
 20
97.5441663008
 30
0.0
 10
81.8885607775
 20
97.5274188996
 30
0.0
 10
81.8666918725
 20
97.5042933405
 30
0.0
 10
81.8379515949
 20
97.474865333
 30
0.0
 10
81.8070992222
 20
97.4434545386
 30
0.0
 10
81.7750732152
 20
97.4108248881
 30
0.0
 10
81.7533178039
 20
97.3888669647
 30
0.0
 10
81.7423073454
 20
97.3778446389
 30
0.0
  0
SPLINE
  5
59D
100
AcDbEntity
  8
0
100
AcDbSpline
 62
7
  6
BYLAYER
 70
0
 71
3
 72
10
 73
6
 74
0
 42
0.0000001
 43
0.0000001
 44
0.0000000001
 40
0.0
 40
0.0
 40
0.0
 40
0.0
 40
0.4116204198
 40
0.6810456871
 40
1.0
 40
1.0
 40
1.0
 40
1.0
 10
101.504160332
 20
82.9778446389
 30
0.0
 10
101.5186747747
 20
82.9778446389
 30
0.0
 10
101.5421159617
 20
82.9911708453
 30
0.0
 10
101.5633217469
 20
83.0190986115
 30
0.0
 10
101.573016849
 20
83.0376482535
 30
0.0
 10
101.5775283059
 20
83.0479506315
 30
0.0
  0
SPLINE
  5
59E
100
AcDbEntity
  8
0
100
AcDbSpline
 62
7
  6
BYLAYER
 70
0
 71
3
 72
9
 73
5
 74
0
 42
0.0000001
 43
0.0000001
 44
0.0000000001
 40
0.0
 40
0.0
 40
0.0
 40
0.0
 40
0.4658651712
 40
1.0
 40
1.0
 40
1.0
 40
1.0
 10
101.5775283059
 20
83.0479506315
 30
0.0
 10
101.5889682931
 20
83.074075024
 30
0.0
 10
101.6048692906
 20
83.1338704053
 30
0.0
 10
101.6098148974
 20
83.1951458771
 30
0.0
 10
101.6098148974
 20
83.2278446389
 30
0.0
  0
SPLINE
  5
59F
100
AcDbEntity
  8
0
100
AcDbSpline
 62
7
  6
BYLAYER
 70
0
 71
3
 72
11
 73
7
 74
0
 42
0.0000001
 43
0.0000001
 44
0.0000000001
 40
0.0
 40
0.0
 40
0.0
 40
0.0
 40
0.3368405521
 40
0.4923681714
 40
0.6329834276
 40
1.0
 40
1.0
 40
1.0
 40
1.0
 10
97.3260908004
 20
83.2278446389
 30
0.0
 10
97.3260908004
 20
83.1958418709
 30
0.0
 10
97.3225568362
 20
83.1491230569
 30
0.0
 10
97.3092041033
 20
83.0897616484
 30
0.0
 10
97.2902354645
 20
83.0322120913
 30
0.0
 10
97.2553059862
 20
82.9778446389
 30
0.0
 10
97.220436235
 20
82.9778446389
 30
0.0
  0
SPLINE
  5
5A0
100
AcDbEntity
  8
0
100
AcDbSpline
 62
7
  6
BYLAYER
 70
0
 71
3
 72
12
 73
8
 74
0
 42
0.0000001
 43
0.0000001
 44
0.0000000001
 40
0.0
 40
0.0
 40
0.0
 40
0.0
 40
0.3708541129
 40
0.6868470731
 40
0.9026299624
 40
0.9647857632
 40
1.0
 40
1.0
 40
1.0
 40
1.0
 10
96.5332589704
 20
83.2278446389
 30
0.0
 10
96.5332589704
 20
83.1959385393
 30
0.0
 10
96.5314913614
 20
83.1367353801
 30
0.0
 10
96.5241897928
 20
83.0596863441
 30
0.0
 10
96.5139624023
 20
83.008784252
 30
0.0
 10
96.5039068355
 20
82.9842953977
 30
0.0
 10
96.4967033492
 20
82.9778446389
 30
0.0
 10
96.4936737241
 20
82.9778446389
 30
0.0
  0
SPLINE
  5
5A1
100
AcDbEntity
  8
0
100
AcDbSpline
 62
7
  6
BYLAYER
 70
0
 71
3
 72
14
 73
10
 74
0
 42
0.0000001
 43
0.0000001
 44
0.0000000001
 40
0.0
 40
0.0
 40
0.0
 40
0.0
 40
0.0199801515
 40
0.0738438063
 40
0.1602287457
 40
0.2771001185
 40
0.4222295734
 40
0.5929445605
 40
1.0
 40
1.0
 40
1.0
 40
1.0
 10
81.9330092998
 20
97.0775349016
 30
0.0
 10
81.9332420782
 20
97.0778908806
 30
0.0
 10
81.9314184133
 20
97.0792843938
 30
0.0
 10
81.9295410146
 20
97.0813344403
 30
0.0
 10
81.924892749
 20
97.0848617069
 30
0.0
 10
81.9191239209
 20
97.0892763542
 30
0.0
 10
81.911595332
 20
97.0946831899
 30
0.0
 10
81.8990106512
 20
97.103495724
 30
0.0
 10
81.888793489
 20
97.1103653844
 30
0.0
 10
81.881565708
 20
97.1151451484
 30
0.0
  0
SPLINE
  5
5A2
100
AcDbEntity
  8
0
100
AcDbSpline
 62
7
  6
BYLAYER
 70
0
 71
3
 72
9
 73
5
 74
0
 42
0.0000001
 43
0.0000001
 44
0.0000000001
 40
0.0
 40
0.0
 40
0.0
 40
0.0
 40
0.2185657717
 40
1.0
 40
1.0
 40
1.0
 40
1.0
 10
81.881565708
 20
97.1151451484
 30
0.0
 10
81.8716436107
 20
97.1217066759
 30
0.0
 10
81.8258894424
 20
97.1511750893
 30
0.0
 10
81.7794841239
 20
97.1797009053
 30
0.0
 10
81.7423079892
 20
97.2003576184
 30
0.0
  0
SPLINE
  5
5A3
100
AcDbEntity
  8
0
100
AcDbSpline
 62
7
  6
BYLAYER
 70
0
 71
3
 72
10
 73
6
 74
0
 42
0.0000001
 43
0.0000001
 44
0.0000000001
 40
0.0
 40
0.0
 40
0.0
 40
0.0
 40
0.4116204198
 40
0.6810456871
 40
1.0
 40
1.0
 40
1.0
 40
1.0
 10
88.504160332
 20
82.9778446389
 30
0.0
 10
88.5186747747
 20
82.9778446389
 30
0.0
 10
88.5421159617
 20
82.9911708453
 30
0.0
 10
88.5633217469
 20
83.0190986115
 30
0.0
 10
88.573016849
 20
83.0376482535
 30
0.0
 10
88.5775283059
 20
83.0479506315
 30
0.0
  0
SPLINE
  5
5A4
100
AcDbEntity
  8
0
100
AcDbSpline
 62
7
  6
BYLAYER
 70
0
 71
3
 72
9
 73
5
 74
0
 42
0.0000001
 43
0.0000001
 44
0.0000000001
 40
0.0
 40
0.0
 40
0.0
 40
0.0
 40
0.4658651712
 40
1.0
 40
1.0
 40
1.0
 40
1.0
 10
88.5775283059
 20
83.0479506315
 30
0.0
 10
88.5889682931
 20
83.074075024
 30
0.0
 10
88.6048692906
 20
83.1338704053
 30
0.0
 10
88.6098148974
 20
83.1951458771
 30
0.0
 10
88.6098148974
 20
83.2278446389
 30
0.0
  0
SPLINE
  5
5A5
100
AcDbEntity
  8
0
100
AcDbSpline
 62
7
  6
BYLAYER
 70
0
 71
3
 72
11
 73
7
 74
0
 42
0.0000001
 43
0.0000001
 44
0.0000000001
 40
0.0
 40
0.0
 40
0.0
 40
0.0
 40
0.3368405521
 40
0.4923681714
 40
0.6329834276
 40
1.0
 40
1.0
 40
1.0
 40
1.0
 10
84.3260908004
 20
83.2278446389
 30
0.0
 10
84.3260908004
 20
83.1958418709
 30
0.0
 10
84.3225568362
 20
83.1491230569
 30
0.0
 10
84.3092041033
 20
83.0897616484
 30
0.0
 10
84.2902354645
 20
83.0322120913
 30
0.0
 10
84.2553059862
 20
82.9778446389
 30
0.0
 10
84.220436235
 20
82.9778446389
 30
0.0
  0
SPLINE
  5
5A6
100
AcDbEntity
  8
0
100
AcDbSpline
 62
7
  6
BYLAYER
 70
0
 71
3
 72
12
 73
8
 74
0
 42
0.0000001
 43
0.0000001
 44
0.0000000001
 40
0.0
 40
0.0
 40
0.0
 40
0.0
 40
0.3708541129
 40
0.6868470731
 40
0.9026299624
 40
0.9647857632
 40
1.0
 40
1.0
 40
1.0
 40
1.0
 10
83.5332589704
 20
83.2278446389
 30
0.0
 10
83.5332589704
 20
83.1959385393
 30
0.0
 10
83.5314913614
 20
83.1367353801
 30
0.0
 10
83.5241897928
 20
83.0596863441
 30
0.0
 10
83.5139624023
 20
83.008784252
 30
0.0
 10
83.5039068355
 20
82.9842953977
 30
0.0
 10
83.4967033492
 20
82.9778446389
 30
0.0
 10
83.4936737241
 20
82.9778446389
 30
0.0
  0
SPLINE
  5
5A7
100
AcDbEntity
  8
0
100
AcDbSpline
 62
7
  6
BYLAYER
 70
0
 71
3
 72
11
 73
7
 74
0
 42
0.0000001
 43
0.0000001
 44
0.0000000001
 40
0.0
 40
0.0
 40
0.0
 40
0.0
 40
0.2498176334
 40
0.4998888217
 40
0.7500203454
 40
1.0
 40
1.0
 40
1.0
 40
1.0
 10
81.7423086329
 20
97.2003572513
 30
0.0
 10
81.6672325722
 20
97.1549747411
 30
0.0
 10
81.5271213428
 20
97.045766509
 30
0.0
 10
81.3656950612
 20
96.8338619474
 30
0.0
 10
81.2656814383
 20
96.5869035919
 30
0.0
 10
81.2431132217
 20
96.4106246112
 30
0.0
 10
81.242307348
 20
96.3228446389
 30
0.0
  0
SPLINE
  5
5A8
100
AcDbEntity
  8
0
100
AcDbSpline
 62
7
  6
BYLAYER
 70
0
 71
3
 72
11
 73
7
 74
0
 42
0.0000001
 43
0.0000001
 44
0.0000000001
 40
0.0
 40
0.0
 40
0.0
 40
0.0
 40
0.2499796546
 40
0.5001111783
 40
0.7501823666
 40
1.0
 40
1.0
 40
1.0
 40
1.0
 10
81.242307348
 20
96.3228446389
 30
0.0
 10
81.2431132217
 20
96.2350646667
 30
0.0
 10
81.2656814383
 20
96.058785686
 30
0.0
 10
81.3656950612
 20
95.8118273305
 30
0.0
 10
81.5271213428
 20
95.5999227689
 30
0.0
 10
81.6672325722
 20
95.4907145368
 30
0.0
 10
81.7423086329
 20
95.4453320266
 30
0.0
  0
SPLINE
  5
5A9
100
AcDbEntity
  8
0
100
AcDbSpline
 62
7
  6
BYLAYER
 70
0
 71
3
 72
11
 73
7
 74
0
 42
0.0000001
 43
0.0000001
 44
0.0000000001
 40
0.0
 40
0.0
 40
0.0
 40
0.0
 40
0.248306225
 40
0.4976080054
 40
0.748310965
 40
1.0
 40
1.0
 40
1.0
 40
1.0
 10
44.1330294189
 20
82.9778446389
 30
0.0
 10
44.1650898286
 20
82.977844639
 30
0.0
 10
44.2300561833
 20
82.9909217379
 30
0.0
 10
44.3119486777
 20
83.0466979949
 30
0.0
 10
44.3666383144
 20
83.1297845309
 30
0.0
 10
44.3793944478
 20
83.1953474529
 30
0.0
 10
44.3793944478
 20
83.2278446389
 30
0.0
  0
SPLINE
  5
5AA
100
AcDbEntity
  8
0
100
AcDbSpline
 62
7
  6
BYLAYER
 70
0
 71
3
 72
18
 73
14
 74
0
 42
0.0000001
 43
0.0000001
 44
0.0000000001
 40
0.0
 40
0.0
 40
0.0
 40
0.0
 40
0.0080377677
 40
0.0298537385
 40
0.0636380382
 40
0.107414538
 40
0.1596176601
 40
0.2189393619
 40
0.3538598911
 40
0.5043711866
 40
0.6649288838
 40
0.8311138799
 40
1.0
 40
1.0
 40
1.0
 40
1.0
 10
107.9334690136
 20
97.5777908317
 30
0.0
 10
107.9339943
 20
97.5772675173
 30
0.0
 10
107.9307793612
 20
97.5744739202
 30
0.0
 10
107.9282706663
 20
97.57060606
 30
0.0
 10
107.9213637739
 20
97.5635667841
 30
0.0
 10
107.9136027599
 20
97.5548152621
 30
0.0
 10
107.9038766926
 20
97.5441663008
 30
0.0
 10
107.8885607775
 20
97.5274188996
 30
0.0
 10
107.8666918725
 20
97.5042933405
 30
0.0
 10
107.8379515949
 20
97.474865333
 30
0.0
 10
107.8070992222
 20
97.4434545386
 30
0.0
 10
107.7750732152
 20
97.4108248881
 30
0.0
 10
107.7533178039
 20
97.3888669647
 30
0.0
 10
107.7423073454
 20
97.3778446389
 30
0.0
  0
SPLINE
  5
5AB
100
AcDbEntity
  8
0
100
AcDbSpline
 62
7
  6
BYLAYER
 70
0
 71
3
 72
9
 73
5
 74
0
 42
0.0000001
 43
0.0000001
 44
0.0000000001
 40
0.0
 40
0.0
 40
0.0
 40
0.0
 40
0.5251776487
 40
1.0
 40
1.0
 40
1.0
 40
1.0
 10
94.7473073454
 20
87.9478446389
 30
0.0
 10
94.7718671599
 20
87.9232583536
 30
0.0
 10
94.8181422824
 20
87.8759610268
 30
0.0
 10
94.8646530624
 20
87.8288823879
 30
0.0
 10
94.8862010646
 20
87.8060160906
 30
0.0
  0
SPLINE
  5
5AC
100
AcDbEntity
  8
0
100
AcDbSpline
 62
7
  6
BYLAYER
 70
0
 71
3
 72
14
 73
10
 74
0
 42
0.0000001
 43
0.0000001
 44
0.0000000001
 40
0.0
 40
0.0
 40
0.0
 40
0.0
 40
0.3881198676
 40
0.5562078929
 40
0.7029272509
 40
0.8250592074
 40
0.918286433
 40
0.977918251
 40
1.0
 40
1.0
 40
1.0
 40
1.0
 10
94.8862010646
 20
87.8060160906
 30
0.0
 10
94.8931435097
 20
87.7986489104
 30
0.0
 10
94.9030049334
 20
87.7879897603
 30
0.0
 10
94.9153139448
 20
87.7744455861
 30
0.0
 10
94.9230402046
 20
87.7659678382
 30
0.0
 10
94.9292071732
 20
87.7590947302
 30
0.0
 10
94.9345396763
 20
87.7535492002
 30
0.0
 10
94.936551196
 20
87.7505441718
 30
0.0
 10
94.9388855039
 20
87.7483049155
 30
0.0
 10
94.9384774822
 20
87.7478984461
 30
0.0
  0
SPLINE
  5
5AD
100
AcDbEntity
  8
0
100
AcDbSpline
 62
7
  6
BYLAYER
 70
0
 71
3
 72
18
 73
14
 74
0
 42
0.0000001
 43
0.0000001
 44
0.0000000001
 40
0.0
 40
0.0
 40
0.0
 40
0.0
 40
0.0080377677
 40
0.0298537385
 40
0.0636380382
 40
0.107414538
 40
0.1596176601
 40
0.2189393619
 40
0.3538598911
 40
0.5043711866
 40
0.6649288838
 40
0.8311138799
 40
1.0
 40
1.0
 40
1.0
 40
1.0
 10
94.9384690136
 20
90.2577908317
 30
0.0
 10
94.9389943
 20
90.2572675173
 30
0.0
 10
94.9357793612
 20
90.2544739202
 30
0.0
 10
94.9332706663
 20
90.25060606
 30
0.0
 10
94.9263637739
 20
90.2435667841
 30
0.0
 10
94.9186027599
 20
90.2348152621
 30
0.0
 10
94.9088766926
 20
90.2241663008
 30
0.0
 10
94.8935607775
 20
90.2074188996
 30
0.0
 10
94.8716918725
 20
90.1842933405
 30
0.0
 10
94.8429515949
 20
90.154865333
 30
0.0
 10
94.8120992222
 20
90.1234545386
 30
0.0
 10
94.7800732152
 20
90.0908248881
 30
0.0
 10
94.7583178039
 20
90.0688669647
 30
0.0
 10
94.7473073454
 20
90.0578446389
 30
0.0
  0
SPLINE
  5
5AE
100
AcDbEntity
  8
0
100
AcDbSpline
 62
7
  6
BYLAYER
 70
0
 71
3
 72
14
 73
10
 74
0
 42
0.0000001
 43
0.0000001
 44
0.0000000001
 40
0.0
 40
0.0
 40
0.0
 40
0.0
 40
0.0199801515
 40
0.0738438063
 40
0.1602287457
 40
0.2771001185
 40
0.4222295734
 40
0.5929445605
 40
1.0
 40
1.0
 40
1.0
 40
1.0
 10
94.9380092998
 20
89.7575349016
 30
0.0
 10
94.9382420782
 20
89.7578908806
 30
0.0
 10
94.9364184133
 20
89.7592843938
 30
0.0
 10
94.9345410146
 20
89.7613344403
 30
0.0
 10
94.929892749
 20
89.7648617069
 30
0.0
 10
94.9241239209
 20
89.7692763542
 30
0.0
 10
94.916595332
 20
89.7746831899
 30
0.0
 10
94.9040106512
 20
89.783495724
 30
0.0
 10
94.893793489
 20
89.7903653844
 30
0.0
 10
94.886565708
 20
89.7951451484
 30
0.0
  0
SPLINE
  5
5AF
100
AcDbEntity
  8
0
100
AcDbSpline
 62
7
  6
BYLAYER
 70
0
 71
3
 72
9
 73
5
 74
0
 42
0.0000001
 43
0.0000001
 44
0.0000000001
 40
0.0
 40
0.0
 40
0.0
 40
0.0
 40
0.2185657717
 40
1.0
 40
1.0
 40
1.0
 40
1.0
 10
94.886565708
 20
89.7951451484
 30
0.0
 10
94.8766436107
 20
89.8017066759
 30
0.0
 10
94.8308894424
 20
89.8311750893
 30
0.0
 10
94.7844841239
 20
89.8597009053
 30
0.0
 10
94.7473079892
 20
89.8803576184
 30
0.0
  0
SPLINE
  5
5B0
100
AcDbEntity
  8
0
100
AcDbSpline
 62
7
  6
BYLAYER
 70
0
 71
3
 72
14
 73
10
 74
0
 42
0.0000001
 43
0.0000001
 44
0.0000000001
 40
0.0
 40
0.0
 40
0.0
 40
0.0
 40
0.0201900537
 40
0.0744333063
 40
0.1611873928
 40
0.2782587393
 40
0.4233189276
 40
0.5937592394
 40
1.0
 40
1.0
 40
1.0
 40
1.0
 10
94.9380093041
 20
88.2481627407
 30
0.0
 10
94.9382453615
 20
88.2478017163
 30
0.0
 10
94.9364150504
 20
88.2463834802
 30
0.0
 10
94.9345354085
 20
88.2442899542
 30
0.0
 10
94.9298767551
 20
88.2407112107
 30
0.0
 10
94.9240920336
 20
88.2362544543
 30
0.0
 10
94.9165392079
 20
88.2308300343
 30
0.0
 10
94.9039146159
 20
88.2220205617
 30
0.0
 10
94.8936604032
 20
88.2151683613
 30
0.0
 10
94.8864089021
 20
88.2103994554
 30
0.0
  0
SPLINE
  5
5B1
100
AcDbEntity
  8
0
100
AcDbSpline
 62
7
  6
BYLAYER
 70
0
 71
3
 72
9
 73
5
 74
0
 42
0.0000001
 43
0.0000001
 44
0.0000000001
 40
0.0
 40
0.0
 40
0.0
 40
0.0
 40
0.4642705686
 40
1.0
 40
1.0
 40
1.0
 40
1.0
 10
94.8864089021
 20
88.2103994554
 30
0.0
 10
94.8653236763
 20
88.1965328839
 30
0.0
 10
94.8193138686
 20
88.1675843568
 30
0.0
 10
94.7727629504
 20
88.1394755669
 30
0.0
 10
94.7473079892
 20
88.1253316589
 30
0.0
  0
SPLINE
  5
5B2
100
AcDbEntity
  8
0
100
AcDbSpline
 62
7
  6
BYLAYER
 70
0
 71
3
 72
11
 73
7
 74
0
 42
0.0000001
 43
0.0000001
 44
0.0000000001
 40
0.0
 40
0.0
 40
0.0
 40
0.0
 40
0.2498176334
 40
0.4998888217
 40
0.7500203454
 40
1.0
 40
1.0
 40
1.0
 40
1.0
 10
94.7473086329
 20
89.8803572513
 30
0.0
 10
94.6722325722
 20
89.8349747411
 30
0.0
 10
94.5321213428
 20
89.725766509
 30
0.0
 10
94.3706950612
 20
89.5138619474
 30
0.0
 10
94.2706814383
 20
89.2669035919
 30
0.0
 10
94.2481132217
 20
89.0906246112
 30
0.0
 10
94.247307348
 20
89.0028446389
 30
0.0
  0
SPLINE
  5
5B3
100
AcDbEntity
  8
0
100
AcDbSpline
 62
7
  6
BYLAYER
 70
0
 71
3
 72
11
 73
7
 74
0
 42
0.0000001
 43
0.0000001
 44
0.0000000001
 40
0.0
 40
0.0
 40
0.0
 40
0.0
 40
0.2499796546
 40
0.5001111783
 40
0.7501823666
 40
1.0
 40
1.0
 40
1.0
 40
1.0
 10
94.247307348
 20
89.0028446389
 30
0.0
 10
94.2481132217
 20
88.9150646667
 30
0.0
 10
94.2706814383
 20
88.738785686
 30
0.0
 10
94.3706950612
 20
88.4918273305
 30
0.0
 10
94.5321213428
 20
88.2799227689
 30
0.0
 10
94.6722325722
 20
88.1707145368
 30
0.0
 10
94.7473086329
 20
88.1253320266
 30
0.0
  0
SPLINE
  5
5B4
100
AcDbEntity
  8
0
100
AcDbSpline
 62
7
  6
BYLAYER
 70
0
 71
3
 72
11
 73
7
 74
0
 42
0.0000001
 43
0.0000001
 44
0.0000000001
 40
0.0
 40
0.0
 40
0.0
 40
0.0
 40
0.2499796546
 40
0.5001111783
 40
0.7501823666
 40
1.0
 40
1.0
 40
1.0
 40
1.0
 10
25.6237514899
 20
85.4328446389
 30
0.0
 10
25.6229456161
 20
85.5206246112
 30
0.0
 10
25.6003773995
 20
85.6969035919
 30
0.0
 10
25.5003637766
 20
85.9438619474
 30
0.0
 10
25.338937495
 20
86.155766509
 30
0.0
 10
25.1988262657
 20
86.2649747411
 30
0.0
 10
25.1237502049
 20
86.3103572513
 30
0.0
  0
SPLINE
  5
5B5
100
AcDbEntity
  8
0
100
AcDbSpline
 62
7
  6
BYLAYER
 70
0
 71
3
 72
11
 73
7
 74
0
 42
0.0000001
 43
0.0000001
 44
0.0000000001
 40
0.0
 40
0.0
 40
0.0
 40
0.0
 40
0.2498176334
 40
0.4998888217
 40
0.7500203454
 40
1.0
 40
1.0
 40
1.0
 40
1.0
 10
25.1237502049
 20
84.5553320266
 30
0.0
 10
25.1988262657
 20
84.6007145368
 30
0.0
 10
25.338937495
 20
84.7099227689
 30
0.0
 10
25.5003637766
 20
84.9218273305
 30
0.0
 10
25.6003773995
 20
85.168785686
 30
0.0
 10
25.6229456161
 20
85.3450646667
 30
0.0
 10
25.6237514899
 20
85.4328446389
 30
0.0
  0
SPLINE
  5
5B6
100
AcDbEntity
  8
0
100
AcDbSpline
 62
7
  6
BYLAYER
 70
0
 71
3
 72
14
 73
10
 74
0
 42
0.0000001
 43
0.0000001
 44
0.0000000001
 40
0.0
 40
0.0
 40
0.0
 40
0.0
 40
0.0199801515
 40
0.0738438063
 40
0.1602287457
 40
0.2771001185
 40
0.4222295734
 40
0.5929445605
 40
1.0
 40
1.0
 40
1.0
 40
1.0
 10
24.933049538
 20
84.6781543763
 30
0.0
 10
24.9328167597
 20
84.6777983973
 30
0.0
 10
24.9346404246
 20
84.6764048841
 30
0.0
 10
24.9365178233
 20
84.6743548376
 30
0.0
 10
24.9411660888
 20
84.670827571
 30
0.0
 10
24.946934917
 20
84.6664129237
 30
0.0
 10
24.9544635058
 20
84.661006088
 30
0.0
 10
24.9670481867
 20
84.6521935539
 30
0.0
 10
24.9772653489
 20
84.6453238935
 30
0.0
 10
24.9844931298
 20
84.6405441295
 30
0.0
  0
SPLINE
  5
5B7
100
AcDbEntity
  8
0
100
AcDbSpline
 62
7
  6
BYLAYER
 70
0
 71
3
 72
9
 73
5
 74
0
 42
0.0000001
 43
0.0000001
 44
0.0000000001
 40
0.0
 40
0.0
 40
0.0
 40
0.0
 40
0.2185657717
 40
1.0
 40
1.0
 40
1.0
 40
1.0
 10
24.9844931298
 20
84.6405441295
 30
0.0
 10
24.9944152272
 20
84.633982602
 30
0.0
 10
25.0401693954
 20
84.6045141886
 30
0.0
 10
25.0865747139
 20
84.5759883726
 30
0.0
 10
25.1237508486
 20
84.5553316595
 30
0.0
  0
SPLINE
  5
5B8
100
AcDbEntity
  8
0
100
AcDbSpline
 62
7
  6
BYLAYER
 70
0
 71
3
 72
17
 73
13
 74
0
 42
0.0000001
 43
0.0000001
 44
0.0000000001
 40
0.0
 40
0.0
 40
0.0
 40
0.0
 40
0.3352407624
 40
0.4958503262
 40
0.6464483764
 40
0.7815573349
 40
0.8409417581
 40
0.8931082814
 40
0.9367075584
 40
0.9702249907
 40
0.9918645855
 40
1.0
 40
1.0
 40
1.0
 40
1.0
 10
107.7423079892
 20
86.4878452645
 30
0.0
 10
107.7641468309
 20
86.5097076444
 30
0.0
 10
107.7964836825
 20
86.542008578
 30
0.0
 10
107.8380908012
 20
86.5846699721
 30
0.0
 10
107.8665639689
 20
86.6143541547
 30
0.0
 10
107.8886233285
 20
86.637301494
 30
0.0
 10
107.9042961385
 20
86.6537214611
 30
0.0
 10
107.9141656367
 20
86.6641949905
 30
0.0
 10
107.9218899231
 20
86.6729376974
 30
0.0
 10
107.9283702163
 20
86.6801966376
 30
0.0
 10
107.9306962266
 20
86.6842973113
 30
0.0
 10
107.9335063311
 20
86.6872613345
 30
0.0
 10
107.9329752936
 20
86.68779081
 30
0.0
  0
SPLINE
  5
5B9
100
AcDbEntity
  8
0
100
AcDbSpline
 62
7
  6
BYLAYER
 70
0
 71
3
 72
14
 73
10
 74
0
 42
0.0000001
 43
0.0000001
 44
0.0000000001
 40
0.0
 40
0.0
 40
0.0
 40
0.0
 40
0.0220576966
 40
0.0816175279
 40
0.1747511428
 40
0.2967900998
 40
0.4434695913
 40
0.611591967
 40
1.0
 40
1.0
 40
1.0
 40
1.0
 10
24.9325898242
 20
84.1778984461
 30
0.0
 10
24.9321855092
 20
84.1783012434
 30
0.0
 10
24.9344957861
 20
84.1805213156
 30
0.0
 10
24.9364921738
 20
84.1834975114
 30
0.0
 10
24.9417758555
 20
84.1889942263
 30
0.0
 10
24.947887193
 20
84.1958108191
 30
0.0
 10
24.9555462398
 20
84.2042224533
 30
0.0
 10
24.9677575357
 20
84.2176679943
 30
0.0
 10
24.977543081
 20
84.2282508829
 30
0.0
 10
24.9844333124
 20
84.2355665298
 30
0.0
  0
SPLINE
  5
5BA
100
AcDbEntity
  8
0
100
AcDbSpline
 62
7
  6
BYLAYER
 70
0
 71
3
 72
9
 73
5
 74
0
 42
0.0000001
 43
0.0000001
 44
0.0000000001
 40
0.0
 40
0.0
 40
0.0
 40
0.0
 40
0.4746027155
 40
1.0
 40
1.0
 40
1.0
 40
1.0
 10
24.9844333124
 20
84.2355665298
 30
0.0
 10
25.0060323595
 20
84.2584991413
 30
0.0
 10
25.0526858325
 20
84.3057267533
 30
0.0
 10
25.0991048886
 20
84.3531714707
 30
0.0
 10
25.1237514924
 20
84.3778446389
 30
0.0
  0
SPLINE
  5
5BB
100
AcDbEntity
  8
0
100
AcDbSpline
 62
7
  6
BYLAYER
 70
0
 71
3
 72
8
 73
4
 74
0
 42
0.0000001
 43
0.0000001
 44
0.0000000001
 40
0.0
 40
0.0
 40
0.0
 40
0.0
 40
1.0
 40
1.0
 40
1.0
 40
1.0
 10
81.3290856969
 20
87.7120380499
 30
0.0
 10
81.0970667478
 20
87.7120380371
 30
0.0
 10
80.8650481184
 20
87.7125873279
 30
0.0
 10
80.6330294121
 20
87.7129230006
 30
0.0
  0
SPLINE
  5
5BC
100
AcDbEntity
  8
0
100
AcDbSpline
 62
7
  6
BYLAYER
 70
0
 71
3
 72
18
 73
14
 74
0
 42
0.0000001
 43
0.0000001
 44
0.0000000001
 40
0.0
 40
0.0
 40
0.0
 40
0.0
 40
0.1688805868
 40
0.3350576732
 40
0.4955981071
 40
0.6460897006
 40
0.7810096322
 40
0.840330871
 40
0.8925402783
 40
0.9363361388
 40
0.9701355803
 40
0.9919588289
 40
1.0
 40
1.0
 40
1.0
 40
1.0
 10
25.1237514924
 20
86.4878446389
 30
0.0
 10
25.1127411443
 20
86.4988668541
 30
0.0
 10
25.090986403
 20
86.5208246848
 30
0.0
 10
25.0589618437
 20
86.5534532478
 30
0.0
 10
25.0281103664
 20
86.5848605035
 30
0.0
 10
24.9993710292
 20
86.6142859579
 30
0.0
 10
24.9775064713
 20
86.6374139267
 30
0.0
 10
24.9621875199
 20
86.6541599171
 30
0.0
 10
24.9524569857
 20
86.6648083423
 30
0.0
 10
24.9446872507
 20
86.673557443
 30
0.0
 10
24.9377775226
 20
86.6805995434
 30
0.0
 10
24.9352684124
 20
86.6844707387
 30
0.0
 10
24.9320558216
 20
86.6872672972
 30
0.0
 10
24.9325813556
 20
86.6877908317
 30
0.0
  0
SPLINE
  5
5BD
100
AcDbEntity
  8
0
100
AcDbSpline
 62
7
  6
BYLAYER
 70
0
 71
3
 72
14
 73
10
 74
0
 42
0.0000001
 43
0.0000001
 44
0.0000000001
 40
0.0
 40
0.0
 40
0.0
 40
0.0
 40
0.0201900537
 40
0.0744333063
 40
0.1611873928
 40
0.2782587393
 40
0.4233189276
 40
0.5937592394
 40
1.0
 40
1.0
 40
1.0
 40
1.0
 10
24.9330495338
 20
86.1875265372
 30
0.0
 10
24.9328134763
 20
86.1878875616
 30
0.0
 10
24.9346437874
 20
86.1893057977
 30
0.0
 10
24.9365234294
 20
86.1913993237
 30
0.0
 10
24.9411820827
 20
86.1949780672
 30
0.0
 10
24.9469668043
 20
86.1994348236
 30
0.0
 10
24.95451963
 20
86.2048592436
 30
0.0
 10
24.9671442219
 20
86.2136687162
 30
0.0
 10
24.9773984347
 20
86.2205209166
 30
0.0
 10
24.9846499357
 20
86.2252898225
 30
0.0
  0
SPLINE
  5
5BE
100
AcDbEntity
  8
0
100
AcDbSpline
 62
7
  6
BYLAYER
 70
0
 71
3
 72
9
 73
5
 74
0
 42
0.0000001
 43
0.0000001
 44
0.0000000001
 40
0.0
 40
0.0
 40
0.0
 40
0.0
 40
0.4642705686
 40
1.0
 40
1.0
 40
1.0
 40
1.0
 10
24.9846499357
 20
86.2252898225
 30
0.0
 10
25.0057351615
 20
86.239156394
 30
0.0
 10
25.0517449692
 20
86.2681049211
 30
0.0
 10
25.0982958874
 20
86.296213711
 30
0.0
 10
25.1237508486
 20
86.310357619
 30
0.0
  0
SPLINE
  5
5BF
100
AcDbEntity
  8
0
100
AcDbSpline
 62
7
  6
BYLAYER
 70
0
 71
3
 72
9
 73
5
 74
0
 42
0.0000001
 43
0.0000001
 44
0.0000000001
 40
0.0
 40
0.0
 40
0.0
 40
0.0
 40
0.5251776487
 40
1.0
 40
1.0
 40
1.0
 40
1.0
 10
81.7423073454
 20
87.9120380499
 30
0.0
 10
81.7668671599
 20
87.8874517646
 30
0.0
 10
81.8131422824
 20
87.8401544378
 30
0.0
 10
81.8596530624
 20
87.7930757989
 30
0.0
 10
81.8812010646
 20
87.7702095015
 30
0.0
  0
SPLINE
  5
5C0
100
AcDbEntity
  8
0
100
AcDbSpline
 62
7
  6
BYLAYER
 70
0
 71
3
 72
9
 73
5
 74
0
 42
0.0000001
 43
0.0000001
 44
0.0000000001
 40
0.0
 40
0.0
 40
0.0
 40
0.0
 40
0.3258136363
 40
1.0
 40
1.0
 40
1.0
 40
1.0
 10
81.8812010646
 20
87.7702095015
 30
0.0
 10
81.8865963423
 20
87.7644841437
 30
0.0
 10
81.9029669933
 20
87.7467366585
 30
0.0
 10
81.9194284222
 20
87.7290636941
 30
0.0
 10
81.9301275838
 20
87.7167950294
 30
0.0
  0
SPLINE
  5
5C1
100
AcDbEntity
  8
0
100
AcDbSpline
 62
7
  6
BYLAYER
 70
0
 71
3
 72
9
 73
5
 74
0
 42
0.0000001
 43
0.0000001
 44
0.0000000001
 40
0.0
 40
0.0
 40
0.0
 40
0.0
 40
0.7291564881
 40
1.0
 40
1.0
 40
1.0
 40
1.0
 10
81.9301275838
 20
87.7167950294
 30
0.0
 10
81.9310559803
 20
87.7157304426
 30
0.0
 10
81.9317576105
 20
87.7145363923
 30
0.0
 10
81.9338491964
 20
87.7124621571
 30
0.0
 10
81.9334774822
 20
87.7120918571
 30
0.0
  0
SPLINE
  5
5C2
100
AcDbEntity
  8
0
100
AcDbSpline
 62
7
  6
BYLAYER
 70
0
 71
3
 72
14
 73
10
 74
0
 42
0.0000001
 43
0.0000001
 44
0.0000000001
 40
0.0
 40
0.0
 40
0.0
 40
0.0
 40
0.0193853186
 40
0.0721214589
 40
0.1573852632
 40
0.2736181967
 40
0.4188671931
 40
0.5903180293
 40
1.0
 40
1.0
 40
1.0
 40
1.0
 10
107.9330092793
 20
86.1879332771
 30
0.0
 10
107.933229339
 20
86.1882696821
 30
0.0
 10
107.9314626115
 20
86.1895767406
 30
0.0
 10
107.9296200882
 20
86.1914711259
 30
0.0
 10
107.9250804493
 20
86.1947971403
 30
0.0
 10
107.9194451016
 20
86.1990150599
 30
0.0
 10
107.9120943165
 20
86.2042677041
 30
0.0
 10
107.8997873659
 20
86.2129080183
 30
0.0
 10
107.8898000614
 20
86.2196737682
 30
0.0
 10
107.882724239
 20
86.2243754391
 30
0.0
  0
SPLINE
  5
5C3
100
AcDbEntity
  8
0
100
AcDbSpline
 62
7
  6
BYLAYER
 70
0
 71
3
 72
9
 73
5
 74
0
 42
0.0000001
 43
0.0000001
 44
0.0000000001
 40
0.0
 40
0.0
 40
0.0
 40
0.0
 40
0.4634190168
 40
1.0
 40
1.0
 40
1.0
 40
1.0
 10
107.882724239
 20
86.2243754391
 30
0.0
 10
107.861537495
 20
86.2384533928
 30
0.0
 10
107.8150998604
 20
86.2677320628
 30
0.0
 10
107.768053956
 20
86.2960520147
 30
0.0
 10
107.7423079892
 20
86.3103576183
 30
0.0
  0
SPLINE
  5
5C4
100
AcDbEntity
  8
0
100
AcDbSpline
 62
7
  6
BYLAYER
 70
0
 71
3
 72
8
 73
4
 74
0
 42
0.0000001
 43
0.0000001
 44
0.0000000001
 40
0.0
 40
0.0
 40
0.0
 40
0.0
 40
1.0
 40
1.0
 40
1.0
 40
1.0
 10
56.8840815793
 20
97.2677699281
 30
0.0
 10
56.8671445112
 20
97.2742501473
 30
0.0
 10
56.8487537053
 20
97.277844639
 30
0.0
 10
56.8306192762
 20
97.2778446389
 30
0.0
  0
SPLINE
  5
5C5
100
AcDbEntity
  8
0
100
AcDbSpline
 62
7
  6
BYLAYER
 70
0
 71
3
 72
8
 73
4
 74
0
 42
0.0000001
 43
0.0000001
 44
0.0000000001
 40
0.0
 40
0.0
 40
0.0
 40
0.0
 40
1.0
 40
1.0
 40
1.0
 40
1.0
 10
79.8330294314
 20
87.7130772847
 30
0.0
 10
79.5614343013
 20
87.7127602512
 30
0.0
 10
79.2898394638
 20
87.7120381347
 30
0.0
 10
79.0182441485
 20
87.7120380499
 30
0.0
  0
SPLINE
  5
5C6
100
AcDbEntity
  8
0
100
AcDbSpline
 62
7
  6
BYLAYER
 70
0
 71
3
 72
10
 73
6
 74
0
 42
0.0000001
 43
0.0000001
 44
0.0000000001
 40
0.0
 40
0.0
 40
0.0
 40
0.0
 40
0.3633789239
 40
0.6452291689
 40
1.0
 40
1.0
 40
1.0
 40
1.0
 10
78.9423572279
 20
87.7118276983
 30
0.0
 10
78.9515573246
 20
87.7115181752
 30
0.0
 10
78.9660531181
 20
87.7248277728
 30
0.0
 10
78.9772830151
 20
87.7466993313
 30
0.0
 10
78.982877588
 20
87.7620905142
 30
0.0
 10
78.9854611633
 20
87.7706983928
 30
0.0
  0
SPLINE
  5
5C7
100
AcDbEntity
  8
0
100
AcDbSpline
 62
7
  6
BYLAYER
 70
0
 71
3
 72
9
 73
5
 74
0
 42
0.0000001
 43
0.0000001
 44
0.0000000001
 40
0.0
 40
0.0
 40
0.0
 40
0.0
 40
0.4612827991
 40
1.0
 40
1.0
 40
1.0
 40
1.0
 10
78.9854611633
 20
87.7706983928
 30
0.0
 10
78.9917717181
 20
87.7917237098
 30
0.0
 10
79.0003446507
 20
87.8387972899
 30
0.0
 10
79.0030294189
 20
87.8864011084
 30
0.0
 10
79.0030294189
 20
87.9120380499
 30
0.0
  0
SPLINE
  5
5C8
100
AcDbEntity
  8
0
100
AcDbSpline
 62
7
  6
BYLAYER
 70
0
 71
3
 72
9
 73
5
 74
0
 42
0.0000001
 43
0.0000001
 44
0.0000000001
 40
0.0
 40
0.0
 40
0.0
 40
0.0
 40
0.536597412
 40
1.0
 40
1.0
 40
1.0
 40
1.0
 10
81.7423079892
 20
91.875331659
 30
0.0
 10
81.7680600231
 20
91.8896406338
 30
0.0
 10
81.8150768904
 20
91.9180331033
 30
0.0
 10
81.8615458026
 20
91.9472773777
 30
0.0
 10
81.8827878355
 20
91.9612796064
 30
0.0
  0
SPLINE
  5
5C9
100
AcDbEntity
  8
0
100
AcDbSpline
 62
7
  6
BYLAYER
 70
0
 71
3
 72
14
 73
10
 74
0
 42
0.0000001
 43
0.0000001
 44
0.0000000001
 40
0.0
 40
0.0
 40
0.0
 40
0.0
 40
0.4084502989
 40
0.5794155305
 40
0.7245119712
 40
0.8410483994
 40
0.9268899859
 40
0.9802380734
 40
1.0
 40
1.0
 40
1.0
 40
1.0
 10
81.8827878355
 20
91.9612796064
 30
0.0
 10
81.8898588358
 20
91.9659406369
 30
0.0
 10
81.8998493612
 20
91.9726350426
 30
0.0
 10
81.9121548825
 20
91.9812081826
 30
0.0
 10
81.919502382
 20
91.9864499919
 30
0.0
 10
81.9251279491
 20
91.9907102392
 30
0.0
 10
81.9296454353
 20
91.9941077839
 30
0.0
 10
81.931478577
 20
91.9960691978
 30
0.0
 10
81.9332335815
 20
91.9974157994
 30
0.0
 10
81.9330092833
 20
91.9977587112
 30
0.0
  0
SPLINE
  5
5CA
100
AcDbEntity
  8
0
100
AcDbSpline
 62
7
  6
BYLAYER
 70
0
 71
3
 72
11
 73
7
 74
0
 42
0.0000001
 43
0.0000001
 44
0.0000000001
 40
0.0
 40
0.0
 40
0.0
 40
0.0
 40
0.2499796546
 40
0.5001111783
 40
0.7501823666
 40
1.0
 40
1.0
 40
1.0
 40
1.0
 10
25.6237514899
 20
96.3228446389
 30
0.0
 10
25.6229456161
 20
96.4106246112
 30
0.0
 10
25.6003773995
 20
96.5869035919
 30
0.0
 10
25.5003637766
 20
96.8338619474
 30
0.0
 10
25.338937495
 20
97.045766509
 30
0.0
 10
25.1988262657
 20
97.1549747411
 30
0.0
 10
25.1237502049
 20
97.2003572513
 30
0.0
  0
SPLINE
  5
5CB
100
AcDbEntity
  8
0
100
AcDbSpline
 62
7
  6
BYLAYER
 70
0
 71
3
 72
11
 73
7
 74
0
 42
0.0000001
 43
0.0000001
 44
0.0000000001
 40
0.0
 40
0.0
 40
0.0
 40
0.0
 40
0.2498176334
 40
0.4998888217
 40
0.7500203454
 40
1.0
 40
1.0
 40
1.0
 40
1.0
 10
25.1237502049
 20
95.4453320266
 30
0.0
 10
25.1988262657
 20
95.4907145368
 30
0.0
 10
25.338937495
 20
95.5999227689
 30
0.0
 10
25.5003637766
 20
95.8118273305
 30
0.0
 10
25.6003773995
 20
96.058785686
 30
0.0
 10
25.6229456161
 20
96.2350646667
 30
0.0
 10
25.6237514899
 20
96.3228446389
 30
0.0
  0
SPLINE
  5
5CC
100
AcDbEntity
  8
0
100
AcDbSpline
 62
7
  6
BYLAYER
 70
0
 71
3
 72
9
 73
5
 74
0
 42
0.0000001
 43
0.0000001
 44
0.0000000001
 40
0.0
 40
0.0
 40
0.0
 40
0.0
 40
0.2653718631
 40
1.0
 40
1.0
 40
1.0
 40
1.0
 10
25.1237508486
 20
95.2678440134
 30
0.0
 10
25.1113210252
 20
95.2554007929
 30
0.0
 10
25.0644120454
 20
95.2085800384
 30
0.0
 10
25.0183194698
 20
95.1609487585
 30
0.0
 10
24.984604456
 20
95.1258222578
 30
0.0
  0
SPLINE
  5
5CD
100
AcDbEntity
  8
0
100
AcDbSpline
 62
7
  6
BYLAYER
 70
0
 71
3
 72
14
 73
10
 74
0
 42
0.0000001
 43
0.0000001
 44
0.0000000001
 40
0.0
 40
0.0
 40
0.0
 40
0.0
 40
0.3894144866
 40
0.5577594633
 40
0.7042982892
 40
0.8257976027
 40
0.9182880629
 40
0.9775340346
 40
1.0
 40
1.0
 40
1.0
 40
1.0
 10
24.984604456
 20
95.1258222578
 30
0.0
 10
24.9776197643
 20
95.1185451503
 30
0.0
 10
24.9675852836
 20
95.108133701
 30
0.0
 10
24.9550944937
 20
95.094877462
 30
0.0
 10
24.94738515
 20
95.0865181882
 30
0.0
 10
24.9414226068
 20
95.0795751112
 30
0.0
 10
24.936514433
 20
95.0738523771
 30
0.0
 10
24.9346814728
 20
95.0706558048
 30
0.0
 10
24.9326714588
 20
95.0683093412
 30
0.0
 10
24.9330835442
 20
95.0678984679
 30
0.0
  0
SPLINE
  5
5CE
100
AcDbEntity
  8
0
100
AcDbSpline
 62
7
  6
BYLAYER
 70
0
 71
3
 72
14
 73
10
 74
0
 42
0.0000001
 43
0.0000001
 44
0.0000000001
 40
0.0
 40
0.0
 40
0.0
 40
0.0
 40
0.0193853186
 40
0.0721214589
 40
0.1573852632
 40
0.2736181967
 40
0.4188671931
 40
0.5903180293
 40
1.0
 40
1.0
 40
1.0
 40
1.0
 10
24.9330495585
 20
95.5677560008
 30
0.0
 10
24.9328294989
 20
95.5674195958
 30
0.0
 10
24.9345962264
 20
95.5661125373
 30
0.0
 10
24.9364387497
 20
95.564218152
 30
0.0
 10
24.9409783885
 20
95.5608921376
 30
0.0
 10
24.9466137362
 20
95.556674218
 30
0.0
 10
24.9539645214
 20
95.5514215738
 30
0.0
 10
24.9662714719
 20
95.5427812596
 30
0.0
 10
24.9762587765
 20
95.5360155097
 30
0.0
 10
24.9833345988
 20
95.5313138388
 30
0.0
  0
SPLINE
  5
5CF
100
AcDbEntity
  8
0
100
AcDbSpline
 62
7
  6
BYLAYER
 70
0
 71
3
 72
9
 73
5
 74
0
 42
0.0000001
 43
0.0000001
 44
0.0000000001
 40
0.0
 40
0.0
 40
0.0
 40
0.0
 40
0.4634190168
 40
1.0
 40
1.0
 40
1.0
 40
1.0
 10
24.9833345988
 20
95.5313138388
 30
0.0
 10
25.0045213429
 20
95.5172358851
 30
0.0
 10
25.0509589774
 20
95.4879572151
 30
0.0
 10
25.0980048819
 20
95.4596372632
 30
0.0
 10
25.1237508486
 20
95.4453316596
 30
0.0
  0
SPLINE
  5
5D0
100
AcDbEntity
  8
0
100
AcDbSpline
 62
7
  6
BYLAYER
 70
0
 71
3
 72
14
 73
10
 74
0
 42
0.0000001
 43
0.0000001
 44
0.0000000001
 40
0.0
 40
0.0
 40
0.0
 40
0.0
 40
0.0224491533
 40
0.0816122461
 40
0.1739935241
 40
0.2953933133
 40
0.4418941722
 40
0.6102782229
 40
1.0
 40
1.0
 40
1.0
 40
1.0
 10
81.9329752984
 20
91.4978984679
 30
0.0
 10
81.9333835094
 20
91.4983054961
 30
0.0
 10
81.931401905
 20
91.5006319059
 30
0.0
 10
81.9295861371
 20
91.5037993393
 30
0.0
 10
81.9247317479
 20
91.5094700338
 30
0.0
 10
81.9188252449
 20
91.5163495813
 30
0.0
 10
81.911186148
 20
91.5246362925
 30
0.0
 10
81.8988006096
 20
91.53778649
 30
0.0
 10
81.8888486608
 20
91.5481163265
 30
0.0
 10
81.8819197953
 20
91.5553371793
 30
0.0
  0
SPLINE
  5
5D1
100
AcDbEntity
  8
0
100
AcDbSpline
 62
7
  6
BYLAYER
 70
0
 71
3
 72
9
 73
5
 74
0
 42
0.0000001
 43
0.0000001
 44
0.0000000001
 40
0.0
 40
0.0
 40
0.0
 40
0.0
 40
0.2263912379
 40
1.0
 40
1.0
 40
1.0
 40
1.0
 10
81.8819197953
 20
91.5553371793
 30
0.0
 10
81.8714961026
 20
91.5662001338
 30
0.0
 10
81.8255529465
 20
91.6142795732
 30
0.0
 10
81.7786657758
 20
91.6614470399
 30
0.0
 10
81.7423079892
 20
91.6978440135
 30
0.0
  0
SPLINE
  5
5D2
100
AcDbEntity
  8
0
100
AcDbSpline
 62
7
  6
BYLAYER
 70
0
 71
3
 72
8
 73
4
 74
0
 42
0.0000001
 43
0.0000001
 44
0.0000000001
 40
0.0
 40
0.0
 40
0.0
 40
0.0
 40
1.0
 40
1.0
 40
1.0
 40
1.0
 10
56.8306192762
 20
84.5278446389
 30
0.0
 10
56.8487537053
 20
84.5278446389
 30
0.0
 10
56.8671445112
 20
84.5314391306
 30
0.0
 10
56.8840815793
 20
84.5379193498
 30
0.0
  0
SPLINE
  5
5D3
100
AcDbEntity
  8
0
100
AcDbSpline
 62
7
  6
BYLAYER
 70
0
 71
3
 72
17
 73
13
 74
0
 42
0.0000001
 43
0.0000001
 44
0.0000000001
 40
0.0
 40
0.0
 40
0.0
 40
0.0
 40
0.0081333355
 40
0.0297629156
 40
0.0632643405
 40
0.1068493573
 40
0.1590149462
 40
0.2184032282
 40
0.3535114358
 40
0.5041261937
 40
0.6647499426
 40
1.0
 40
1.0
 40
1.0
 40
1.0
 10
24.9330835394
 20
97.57779081
 30
0.0
 10
24.932552648
 20
97.5772614567
 30
0.0
 10
24.9353583611
 20
97.5742973304
 30
0.0
 10
24.9376831557
 20
97.5701972685
 30
0.0
 10
24.9441604573
 20
97.5629414919
 30
0.0
 10
24.9518870251
 20
97.5542043429
 30
0.0
 10
24.9617565112
 20
97.5437323045
 30
0.0
 10
24.9774291019
 20
97.5273117386
 30
0.0
 10
24.999485104
 20
97.5043585578
 30
0.0
 10
25.0279617292
 20
97.4746736849
 30
0.0
 10
25.0695741996
 20
97.4320121437
 30
0.0
 10
25.101911347
 20
97.399708305
 30
0.0
 10
25.1237508486
 20
97.3778452645
 30
0.0
  0
SPLINE
  5
5D4
100
AcDbEntity
  8
0
100
AcDbSpline
 62
7
  6
BYLAYER
 70
0
 71
3
 72
9
 73
5
 74
0
 42
0.0000001
 43
0.0000001
 44
0.0000000001
 40
0.0
 40
0.0
 40
0.0
 40
0.0
 40
0.536597412
 40
1.0
 40
1.0
 40
1.0
 40
1.0
 10
25.1237508486
 20
97.2003576189
 30
0.0
 10
25.0979988147
 20
97.1860486441
 30
0.0
 10
25.0509819475
 20
97.1576561746
 30
0.0
 10
25.0045130352
 20
97.1284119002
 30
0.0
 10
24.9832710023
 20
97.1144096715
 30
0.0
  0
SPLINE
  5
5D5
100
AcDbEntity
  8
0
100
AcDbSpline
 62
7
  6
BYLAYER
 70
0
 71
3
 72
14
 73
10
 74
0
 42
0.0000001
 43
0.0000001
 44
0.0000000001
 40
0.0
 40
0.0
 40
0.0
 40
0.0
 40
0.4084502989
 40
0.5794155305
 40
0.7245119712
 40
0.8410483994
 40
0.9268899859
 40
0.9802380734
 40
1.0
 40
1.0
 40
1.0
 40
1.0
 10
24.9832710023
 20
97.1144096715
 30
0.0
 10
24.976200002
 20
97.109748641
 30
0.0
 10
24.9662094766
 20
97.1030542353
 30
0.0
 10
24.9539039553
 20
97.0944810953
 30
0.0
 10
24.9465564559
 20
97.089239286
 30
0.0
 10
24.9409308887
 20
97.0849790387
 30
0.0
 10
24.9364134025
 20
97.081581494
 30
0.0
 10
24.9345802609
 20
97.0796200801
 30
0.0
 10
24.9328252564
 20
97.0782734785
 30
0.0
 10
24.9330495546
 20
97.0779305667
 30
0.0
  0
SPLINE
  5
5D6
100
AcDbEntity
  8
0
100
AcDbSpline
 62
7
  6
BYLAYER
 70
0
 71
3
 72
9
 73
5
 74
0
 42
0.0000001
 43
0.0000001
 44
0.0000000001
 40
0.0
 40
0.0
 40
0.0
 40
0.0
 40
0.536597412
 40
1.0
 40
1.0
 40
1.0
 40
1.0
 10
94.7473079892
 20
84.555331659
 30
0.0
 10
94.7730600231
 20
84.5696406338
 30
0.0
 10
94.8200768904
 20
84.5980331033
 30
0.0
 10
94.8665458026
 20
84.6272773777
 30
0.0
 10
94.8877878355
 20
84.6412796064
 30
0.0
  0
SPLINE
  5
5D7
100
AcDbEntity
  8
0
100
AcDbSpline
 62
7
  6
BYLAYER
 70
0
 71
3
 72
14
 73
10
 74
0
 42
0.0000001
 43
0.0000001
 44
0.0000000001
 40
0.0
 40
0.0
 40
0.0
 40
0.0
 40
0.4084502989
 40
0.5794155305
 40
0.7245119712
 40
0.8410483994
 40
0.9268899859
 40
0.9802380734
 40
1.0
 40
1.0
 40
1.0
 40
1.0
 10
94.8877878355
 20
84.6412796064
 30
0.0
 10
94.8948588358
 20
84.6459406369
 30
0.0
 10
94.9048493612
 20
84.6526350426
 30
0.0
 10
94.9171548825
 20
84.6612081826
 30
0.0
 10
94.924502382
 20
84.6664499919
 30
0.0
 10
94.9301279491
 20
84.6707102392
 30
0.0
 10
94.9346454353
 20
84.6741077839
 30
0.0
 10
94.936478577
 20
84.6760691978
 30
0.0
 10
94.9382335815
 20
84.6774157994
 30
0.0
 10
94.9380092833
 20
84.6777587112
 30
0.0
  0
SPLINE
  5
5D8
100
AcDbEntity
  8
0
100
AcDbSpline
 62
7
  6
BYLAYER
 70
0
 71
3
 72
14
 73
10
 74
0
 42
0.0000001
 43
0.0000001
 44
0.0000000001
 40
0.0
 40
0.0
 40
0.0
 40
0.0
 40
0.0224491533
 40
0.0816122461
 40
0.173993524
 40
0.2953933132
 40
0.4418941722
 40
0.6102782229
 40
1.0
 40
1.0
 40
1.0
 40
1.0
 10
94.9379752984
 20
84.1778984679
 30
0.0
 10
94.9383835094
 20
84.1783054961
 30
0.0
 10
94.936401905
 20
84.1806319059
 30
0.0
 10
94.9345861371
 20
84.1837993393
 30
0.0
 10
94.9297317479
 20
84.1894700338
 30
0.0
 10
94.9238252449
 20
84.1963495813
 30
0.0
 10
94.916186148
 20
84.2046362925
 30
0.0
 10
94.9038006096
 20
84.21778649
 30
0.0
 10
94.8938486608
 20
84.2281163265
 30
0.0
 10
94.8869197953
 20
84.2353371793
 30
0.0
  0
SPLINE
  5
5D9
100
AcDbEntity
  8
0
100
AcDbSpline
 62
7
  6
BYLAYER
 70
0
 71
3
 72
9
 73
5
 74
0
 42
0.0000001
 43
0.0000001
 44
0.0000000001
 40
0.0
 40
0.0
 40
0.0
 40
0.0
 40
0.2263912379
 40
1.0
 40
1.0
 40
1.0
 40
1.0
 10
94.8869197953
 20
84.2353371793
 30
0.0
 10
94.8764961026
 20
84.2462001338
 30
0.0
 10
94.8305529465
 20
84.2942795732
 30
0.0
 10
94.7836657758
 20
84.3414470399
 30
0.0
 10
94.7473079892
 20
84.3778440135
 30
0.0
  0
SPLINE
  5
5DA
100
AcDbEntity
  8
0
100
AcDbSpline
 62
7
  6
BYLAYER
 70
0
 71
3
 72
14
 73
10
 74
0
 42
0.0000001
 43
0.0000001
 44
0.0000000001
 40
0.0
 40
0.0
 40
0.0
 40
0.0
 40
0.0193853186
 40
0.0721214589
 40
0.1573852632
 40
0.2736181968
 40
0.4188671931
 40
0.5903180294
 40
1.0
 40
1.0
 40
1.0
 40
1.0
 10
81.9330092793
 20
93.5079332771
 30
0.0
 10
81.933229339
 20
93.5082696821
 30
0.0
 10
81.9314626115
 20
93.5095767406
 30
0.0
 10
81.9296200882
 20
93.5114711259
 30
0.0
 10
81.9250804493
 20
93.5147971403
 30
0.0
 10
81.9194451016
 20
93.5190150599
 30
0.0
 10
81.9120943165
 20
93.5242677041
 30
0.0
 10
81.8997873659
 20
93.5329080183
 30
0.0
 10
81.8898000614
 20
93.5396737682
 30
0.0
 10
81.882724239
 20
93.5443754391
 30
0.0
  0
SPLINE
  5
5DB
100
AcDbEntity
  8
0
100
AcDbSpline
 62
7
  6
BYLAYER
 70
0
 71
3
 72
9
 73
5
 74
0
 42
0.0000001
 43
0.0000001
 44
0.0000000001
 40
0.0
 40
0.0
 40
0.0
 40
0.0
 40
0.4634190168
 40
1.0
 40
1.0
 40
1.0
 40
1.0
 10
81.882724239
 20
93.5443754391
 30
0.0
 10
81.861537495
 20
93.5584533928
 30
0.0
 10
81.8150998604
 20
93.5877320628
 30
0.0
 10
81.768053956
 20
93.6160520147
 30
0.0
 10
81.7423079892
 20
93.6303576183
 30
0.0
  0
SPLINE
  5
5DC
100
AcDbEntity
  8
0
100
AcDbSpline
 62
7
  6
BYLAYER
 70
0
 71
3
 72
17
 73
13
 74
0
 42
0.0000001
 43
0.0000001
 44
0.0000000001
 40
0.0
 40
0.0
 40
0.0
 40
0.0
 40
0.3352407624
 40
0.4958503262
 40
0.6464483764
 40
0.7815573349
 40
0.8409417581
 40
0.8931082814
 40
0.9367075584
 40
0.9702249907
 40
0.9918645855
 40
1.0
 40
1.0
 40
1.0
 40
1.0
 10
81.7423079892
 20
93.8078452645
 30
0.0
 10
81.7641468309
 20
93.8297076444
 30
0.0
 10
81.7964836825
 20
93.862008578
 30
0.0
 10
81.8380908012
 20
93.9046699721
 30
0.0
 10
81.8665639689
 20
93.9343541547
 30
0.0
 10
81.8886233285
 20
93.957301494
 30
0.0
 10
81.9042961385
 20
93.9737214611
 30
0.0
 10
81.9141656367
 20
93.9841949905
 30
0.0
 10
81.9218899231
 20
93.9929376974
 30
0.0
 10
81.9283702163
 20
94.0001966376
 30
0.0
 10
81.9306962266
 20
94.0042973113
 30
0.0
 10
81.9335063311
 20
94.0072613345
 30
0.0
 10
81.9329752936
 20
94.00779081
 30
0.0
  0
SPLINE
  5
5DD
100
AcDbEntity
  8
0
100
AcDbSpline
 62
7
  6
BYLAYER
 70
0
 71
3
 72
14
 73
10
 74
0
 42
0.0000001
 43
0.0000001
 44
0.0000000001
 40
0.0
 40
0.0
 40
0.0
 40
0.0
 40
0.0193853186
 40
0.0721214589
 40
0.1573852632
 40
0.2736181967
 40
0.4188671931
 40
0.5903180293
 40
1.0
 40
1.0
 40
1.0
 40
1.0
 10
94.9380092793
 20
86.1879332771
 30
0.0
 10
94.938229339
 20
86.1882696821
 30
0.0
 10
94.9364626115
 20
86.1895767406
 30
0.0
 10
94.9346200882
 20
86.1914711259
 30
0.0
 10
94.9300804493
 20
86.1947971403
 30
0.0
 10
94.9244451016
 20
86.1990150599
 30
0.0
 10
94.9170943165
 20
86.2042677041
 30
0.0
 10
94.9047873659
 20
86.2129080183
 30
0.0
 10
94.8948000614
 20
86.2196737682
 30
0.0
 10
94.887724239
 20
86.2243754391
 30
0.0
  0
SPLINE
  5
5DE
100
AcDbEntity
  8
0
100
AcDbSpline
 62
7
  6
BYLAYER
 70
0
 71
3
 72
9
 73
5
 74
0
 42
0.0000001
 43
0.0000001
 44
0.0000000001
 40
0.0
 40
0.0
 40
0.0
 40
0.0
 40
0.4634190168
 40
1.0
 40
1.0
 40
1.0
 40
1.0
 10
94.887724239
 20
86.2243754391
 30
0.0
 10
94.866537495
 20
86.2384533928
 30
0.0
 10
94.8200998604
 20
86.2677320628
 30
0.0
 10
94.773053956
 20
86.2960520147
 30
0.0
 10
94.7473079892
 20
86.3103576183
 30
0.0
  0
SPLINE
  5
5DF
100
AcDbEntity
  8
0
100
AcDbSpline
 62
7
  6
BYLAYER
 70
0
 71
3
 72
17
 73
13
 74
0
 42
0.0000001
 43
0.0000001
 44
0.0000000001
 40
0.0
 40
0.0
 40
0.0
 40
0.0
 40
0.3352407624
 40
0.4958503263
 40
0.6464483764
 40
0.7815573349
 40
0.8409417581
 40
0.8931082814
 40
0.9367075584
 40
0.9702249907
 40
0.9918645855
 40
1.0
 40
1.0
 40
1.0
 40
1.0
 10
94.7473079892
 20
86.4878452645
 30
0.0
 10
94.7691468309
 20
86.5097076444
 30
0.0
 10
94.8014836825
 20
86.542008578
 30
0.0
 10
94.8430908012
 20
86.5846699721
 30
0.0
 10
94.8715639689
 20
86.6143541547
 30
0.0
 10
94.8936233285
 20
86.637301494
 30
0.0
 10
94.9092961385
 20
86.6537214611
 30
0.0
 10
94.9191656367
 20
86.6641949905
 30
0.0
 10
94.9268899231
 20
86.6729376974
 30
0.0
 10
94.9333702163
 20
86.6801966376
 30
0.0
 10
94.9356962266
 20
86.6842973113
 30
0.0
 10
94.9385063311
 20
86.6872613345
 30
0.0
 10
94.9379752936
 20
86.68779081
 30
0.0
  0
SPLINE
  5
5E0
100
AcDbEntity
  8
0
100
AcDbSpline
 62
7
  6
BYLAYER
 70
0
 71
3
 72
11
 73
7
 74
0
 42
0.0000001
 43
0.0000001
 44
0.0000000001
 40
0.0
 40
0.0
 40
0.0
 40
0.0
 40
0.2499796546
 40
0.5001111783
 40
0.7501823666
 40
1.0
 40
1.0
 40
1.0
 40
1.0
 10
25.6237514899
 20
89.0028446389
 30
0.0
 10
25.6229456161
 20
89.0906246112
 30
0.0
 10
25.6003773995
 20
89.2669035919
 30
0.0
 10
25.5003637766
 20
89.5138619474
 30
0.0
 10
25.338937495
 20
89.725766509
 30
0.0
 10
25.1988262657
 20
89.8349747411
 30
0.0
 10
25.1237502049
 20
89.8803572513
 30
0.0
  0
SPLINE
  5
5E1
100
AcDbEntity
  8
0
100
AcDbSpline
 62
7
  6
BYLAYER
 70
0
 71
3
 72
11
 73
7
 74
0
 42
0.0000001
 43
0.0000001
 44
0.0000000001
 40
0.0
 40
0.0
 40
0.0
 40
0.0
 40
0.2498176334
 40
0.4998888217
 40
0.7500203454
 40
1.0
 40
1.0
 40
1.0
 40
1.0
 10
25.1237502049
 20
88.1253320266
 30
0.0
 10
25.1988262657
 20
88.1707145368
 30
0.0
 10
25.338937495
 20
88.2799227689
 30
0.0
 10
25.5003637766
 20
88.4918273305
 30
0.0
 10
25.6003773995
 20
88.738785686
 30
0.0
 10
25.6229456161
 20
88.9150646667
 30
0.0
 10
25.6237514899
 20
89.0028446389
 30
0.0
  0
SPLINE
  5
5E2
100
AcDbEntity
  8
0
100
AcDbSpline
 62
7
  6
BYLAYER
 70
0
 71
3
 72
17
 73
13
 74
0
 42
0.0000001
 43
0.0000001
 44
0.0000000001
 40
0.0
 40
0.0
 40
0.0
 40
0.0
 40
0.0081333355
 40
0.0297629156
 40
0.0632643405
 40
0.1068493573
 40
0.1590149462
 40
0.2184032282
 40
0.3535114358
 40
0.5041261937
 40
0.6647499426
 40
1.0
 40
1.0
 40
1.0
 40
1.0
 10
24.9330835394
 20
90.25779081
 30
0.0
 10
24.932552648
 20
90.2572614567
 30
0.0
 10
24.9353583611
 20
90.2542973304
 30
0.0
 10
24.9376831557
 20
90.2501972685
 30
0.0
 10
24.9441604573
 20
90.2429414919
 30
0.0
 10
24.9518870251
 20
90.2342043429
 30
0.0
 10
24.9617565112
 20
90.2237323045
 30
0.0
 10
24.9774291019
 20
90.2073117386
 30
0.0
 10
24.999485104
 20
90.1843585578
 30
0.0
 10
25.0279617292
 20
90.1546736849
 30
0.0
 10
25.0695741996
 20
90.1120121437
 30
0.0
 10
25.101911347
 20
90.079708305
 30
0.0
 10
25.1237508486
 20
90.0578452645
 30
0.0
  0
SPLINE
  5
5E3
100
AcDbEntity
  8
0
100
AcDbSpline
 62
7
  6
BYLAYER
 70
0
 71
3
 72
11
 73
7
 74
0
 42
0.0000001
 43
0.0000001
 44
0.0000000001
 40
0.0
 40
0.0
 40
0.0
 40
0.0
 40
0.2498176334
 40
0.4998888217
 40
0.7500203454
 40
1.0
 40
1.0
 40
1.0
 40
1.0
 10
94.7473086329
 20
86.3103572513
 30
0.0
 10
94.6722325722
 20
86.2649747411
 30
0.0
 10
94.5321213428
 20
86.155766509
 30
0.0
 10
94.3706950612
 20
85.9438619474
 30
0.0
 10
94.2706814383
 20
85.6969035919
 30
0.0
 10
94.2481132217
 20
85.5206246112
 30
0.0
 10
94.247307348
 20
85.4328446389
 30
0.0
  0
SPLINE
  5
5E4
100
AcDbEntity
  8
0
100
AcDbSpline
 62
7
  6
BYLAYER
 70
0
 71
3
 72
9
 73
5
 74
0
 42
0.0000001
 43
0.0000001
 44
0.0000000001
 40
0.0
 40
0.0
 40
0.0
 40
0.0
 40
0.536597412
 40
1.0
 40
1.0
 40
1.0
 40
1.0
 10
25.1237508486
 20
89.8803576189
 30
0.0
 10
25.0979988147
 20
89.8660486441
 30
0.0
 10
25.0509819475
 20
89.8376561746
 30
0.0
 10
25.0045130352
 20
89.8084119002
 30
0.0
 10
24.9832710023
 20
89.7944096715
 30
0.0
  0
SPLINE
  5
5E5
100
AcDbEntity
  8
0
100
AcDbSpline
 62
7
  6
BYLAYER
 70
0
 71
3
 72
14
 73
10
 74
0
 42
0.0000001
 43
0.0000001
 44
0.0000000001
 40
0.0
 40
0.0
 40
0.0
 40
0.0
 40
0.4084502989
 40
0.5794155305
 40
0.7245119712
 40
0.8410483994
 40
0.9268899859
 40
0.9802380734
 40
1.0
 40
1.0
 40
1.0
 40
1.0
 10
24.9832710023
 20
89.7944096715
 30
0.0
 10
24.976200002
 20
89.789748641
 30
0.0
 10
24.9662094766
 20
89.7830542353
 30
0.0
 10
24.9539039553
 20
89.7744810953
 30
0.0
 10
24.9465564559
 20
89.769239286
 30
0.0
 10
24.9409308887
 20
89.7649790387
 30
0.0
 10
24.9364134025
 20
89.761581494
 30
0.0
 10
24.9345802609
 20
89.7596200801
 30
0.0
 10
24.9328252564
 20
89.7582734785
 30
0.0
 10
24.9330495546
 20
89.7579305667
 30
0.0
  0
SPLINE
  5
5E6
100
AcDbEntity
  8
0
100
AcDbSpline
 62
7
  6
BYLAYER
 70
0
 71
3
 72
11
 73
7
 74
0
 42
0.0000001
 43
0.0000001
 44
0.0000000001
 40
0.0
 40
0.0
 40
0.0
 40
0.0
 40
0.2499796546
 40
0.5001111783
 40
0.7501823666
 40
1.0
 40
1.0
 40
1.0
 40
1.0
 10
94.247307348
 20
85.4328446389
 30
0.0
 10
94.2481132217
 20
85.3450646667
 30
0.0
 10
94.2706814383
 20
85.168785686
 30
0.0
 10
94.3706950612
 20
84.9218273305
 30
0.0
 10
94.5321213428
 20
84.7099227689
 30
0.0
 10
94.6722325722
 20
84.6007145368
 30
0.0
 10
94.7473086329
 20
84.5553320266
 30
0.0
  0
SPLINE
  5
5E7
100
AcDbEntity
  8
0
100
AcDbSpline
 62
7
  6
BYLAYER
 70
0
 71
3
 72
9
 73
5
 74
0
 42
0.0000001
 43
0.0000001
 44
0.0000000001
 40
0.0
 40
0.0
 40
0.0
 40
0.0
 40
0.2653718631
 40
1.0
 40
1.0
 40
1.0
 40
1.0
 10
25.1237508486
 20
87.9478440134
 30
0.0
 10
25.1113210252
 20
87.9354007929
 30
0.0
 10
25.0644120454
 20
87.8885800384
 30
0.0
 10
25.0183194698
 20
87.8409487585
 30
0.0
 10
24.984604456
 20
87.8058222578
 30
0.0
  0
SPLINE
  5
5E8
100
AcDbEntity
  8
0
100
AcDbSpline
 62
7
  6
BYLAYER
 70
0
 71
3
 72
14
 73
10
 74
0
 42
0.0000001
 43
0.0000001
 44
0.0000000001
 40
0.0
 40
0.0
 40
0.0
 40
0.0
 40
0.3894144866
 40
0.5577594633
 40
0.7042982892
 40
0.8257976027
 40
0.9182880629
 40
0.9775340346
 40
1.0
 40
1.0
 40
1.0
 40
1.0
 10
24.984604456
 20
87.8058222578
 30
0.0
 10
24.9776197643
 20
87.7985451503
 30
0.0
 10
24.9675852836
 20
87.788133701
 30
0.0
 10
24.9550944937
 20
87.774877462
 30
0.0
 10
24.94738515
 20
87.7665181882
 30
0.0
 10
24.9414226068
 20
87.7595751112
 30
0.0
 10
24.936514433
 20
87.7538523771
 30
0.0
 10
24.9346814728
 20
87.7506558048
 30
0.0
 10
24.9326714588
 20
87.7483093412
 30
0.0
 10
24.9330835442
 20
87.7478984679
 30
0.0
  0
SPLINE
  5
5E9
100
AcDbEntity
  8
0
100
AcDbSpline
 62
7
  6
BYLAYER
 70
0
 71
3
 72
14
 73
10
 74
0
 42
0.0000001
 43
0.0000001
 44
0.0000000001
 40
0.0
 40
0.0
 40
0.0
 40
0.0
 40
0.0193853186
 40
0.0721214589
 40
0.1573852632
 40
0.2736181967
 40
0.4188671931
 40
0.5903180293
 40
1.0
 40
1.0
 40
1.0
 40
1.0
 10
24.9330495585
 20
88.2477560008
 30
0.0
 10
24.9328294989
 20
88.2474195958
 30
0.0
 10
24.9345962264
 20
88.2461125373
 30
0.0
 10
24.9364387497
 20
88.244218152
 30
0.0
 10
24.9409783885
 20
88.2408921376
 30
0.0
 10
24.9466137362
 20
88.236674218
 30
0.0
 10
24.9539645214
 20
88.2314215738
 30
0.0
 10
24.9662714719
 20
88.2227812596
 30
0.0
 10
24.9762587765
 20
88.2160155097
 30
0.0
 10
24.9833345988
 20
88.2113138388
 30
0.0
  0
SPLINE
  5
5EA
100
AcDbEntity
  8
0
100
AcDbSpline
 62
7
  6
BYLAYER
 70
0
 71
3
 72
9
 73
5
 74
0
 42
0.0000001
 43
0.0000001
 44
0.0000000001
 40
0.0
 40
0.0
 40
0.0
 40
0.0
 40
0.4634190168
 40
1.0
 40
1.0
 40
1.0
 40
1.0
 10
24.9833345988
 20
88.2113138388
 30
0.0
 10
25.0045213429
 20
88.1972358851
 30
0.0
 10
25.0509589774
 20
88.1679572151
 30
0.0
 10
25.0980048819
 20
88.1396372632
 30
0.0
 10
25.1237508486
 20
88.1253316596
 30
0.0
  0
SPLINE
  5
5EB
100
AcDbEntity
  8
0
100
AcDbSpline
 62
7
  6
BYLAYER
 70
0
 71
3
 72
11
 73
7
 74
0
 42
0.0000001
 43
0.0000001
 44
0.0000000001
 40
0.0
 40
0.0
 40
0.0
 40
0.0
 40
0.3368405521
 40
0.4923681714
 40
0.6329834276
 40
1.0
 40
1.0
 40
1.0
 40
1.0
 10
18.2273748535
 20
83.2278446389
 30
0.0
 10
18.2273748535
 20
83.1958418709
 30
0.0
 10
18.2309088177
 20
83.1491230569
 30
0.0
 10
18.2442615506
 20
83.0897616484
 30
0.0
 10
18.2632301894
 20
83.0322120913
 30
0.0
 10
18.2981596677
 20
82.9778446389
 30
0.0
 10
18.3330294189
 20
82.9778446389
 30
0.0
  0
SPLINE
  5
5EC
100
AcDbEntity
  8
0
100
AcDbSpline
 62
7
  6
BYLAYER
 70
0
 71
3
 72
11
 73
7
 74
0
 42
0.0000001
 43
0.0000001
 44
0.0000000001
 40
0.0
 40
0.0
 40
0.0
 40
0.0
 40
0.2498176334
 40
0.4998888217
 40
0.7500203454
 40
1.0
 40
1.0
 40
1.0
 40
1.0
 10
81.7423086329
 20
93.6303572513
 30
0.0
 10
81.6672325722
 20
93.5849747411
 30
0.0
 10
81.5271213428
 20
93.475766509
 30
0.0
 10
81.3656950612
 20
93.2638619474
 30
0.0
 10
81.2656814383
 20
93.0169035919
 30
0.0
 10
81.2431132217
 20
92.8406246112
 30
0.0
 10
81.242307348
 20
92.7528446389
 30
0.0
  0
SPLINE
  5
5ED
100
AcDbEntity
  8
0
100
AcDbSpline
 62
7
  6
BYLAYER
 70
0
 71
3
 72
11
 73
7
 74
0
 42
0.0000001
 43
0.0000001
 44
0.0000000001
 40
0.0
 40
0.0
 40
0.0
 40
0.0
 40
0.2499796546
 40
0.5001111783
 40
0.7501823666
 40
1.0
 40
1.0
 40
1.0
 40
1.0
 10
81.242307348
 20
92.7528446389
 30
0.0
 10
81.2431132217
 20
92.6650646667
 30
0.0
 10
81.2656814383
 20
92.488785686
 30
0.0
 10
81.3656950612
 20
92.2418273305
 30
0.0
 10
81.5271213428
 20
92.0299227689
 30
0.0
 10
81.6672325722
 20
91.9207145368
 30
0.0
 10
81.7423086329
 20
91.8753320266
 30
0.0
  0
SPLINE
  5
5EE
100
AcDbEntity
  8
0
100
AcDbSpline
 62
7
  6
BYLAYER
 70
0
 71
3
 72
11
 73
7
 74
0
 42
0.0000001
 43
0.0000001
 44
0.0000000001
 40
0.0
 40
0.0
 40
0.0
 40
0.0
 40
0.3670165724
 40
0.5076318286
 40
0.6631594479
 40
1.0
 40
1.0
 40
1.0
 40
1.0
 10
18.3330294189
 20
98.8278446389
 30
0.0
 10
18.2981596677
 20
98.8278446389
 30
0.0
 10
18.2632301894
 20
98.7734771866
 30
0.0
 10
18.2442615506
 20
98.7159276295
 30
0.0
 10
18.2309088177
 20
98.656566221
 30
0.0
 10
18.2273748535
 20
98.609847407
 30
0.0
 10
18.2273748535
 20
98.5778446389
 30
0.0
  0
SPLINE
  5
5EF
100
AcDbEntity
  8
0
100
AcDbSpline
 62
7
  6
BYLAYER
 70
0
 71
3
 72
11
 73
7
 74
0
 42
0.0000001
 43
0.0000001
 44
0.0000000001
 40
0.0
 40
0.0
 40
0.0
 40
0.0
 40
0.3368405521
 40
0.4923681714
 40
0.6329834276
 40
1.0
 40
1.0
 40
1.0
 40
1.0
 10
22.7017526255
 20
98.5778446389
 30
0.0
 10
22.7017526255
 20
98.609847407
 30
0.0
 10
22.7052865897
 20
98.656566221
 30
0.0
 10
22.7186393226
 20
98.7159276295
 30
0.0
 10
22.7376079614
 20
98.7734771866
 30
0.0
 10
22.7725374397
 20
98.8278446389
 30
0.0
 10
22.8074071909
 20
98.8278446389
 30
0.0
  0
SPLINE
  5
5F0
100
AcDbEntity
  8
0
100
AcDbSpline
 62
7
  6
BYLAYER
 70
0
 71
3
 72
12
 73
8
 74
0
 42
0.0000001
 43
0.0000001
 44
0.0000000001
 40
0.0
 40
0.0
 40
0.0
 40
0.0
 40
0.0343307515
 40
0.0961128634
 40
0.3119055654
 40
0.6284084043
 40
1.0
 40
1.0
 40
1.0
 40
1.0
 10
23.5506477617
 20
98.8278446389
 30
0.0
 10
23.5477001168
 20
98.8278446389
 30
0.0
 10
23.540728736
 20
98.8212684553
 30
0.0
 10
23.5311483945
 20
98.7968710754
 30
0.0
 10
23.5212602848
 20
98.7459383315
 30
0.0
 10
23.5142691452
 20
98.6689475602
 30
0.0
 10
23.5125605209
 20
98.6097495647
 30
0.0
 10
23.5125605209
 20
98.5778446389
 30
0.0
  0
SPLINE
  5
5F1
100
AcDbEntity
  8
0
100
AcDbSpline
 62
7
  6
BYLAYER
 70
0
 71
3
 72
18
 73
14
 74
0
 42
0.0000001
 43
0.0000001
 44
0.0000000001
 40
0.0
 40
0.0
 40
0.0
 40
0.0
 40
0.0048524986
 40
0.0192770242
 40
0.0430946861
 40
0.0761242481
 40
0.118124269
 40
0.1686133751
 40
0.2928933349
 40
0.4443597972
 40
0.6173150007
 40
0.8053119364
 40
1.0
 40
1.0
 40
1.0
 40
1.0
 10
28.3473415355
 20
98.8278446389
 30
0.0
 10
28.3477459134
 20
98.8278451838
 30
0.0
 10
28.3468892407
 20
98.8252608733
 30
0.0
 10
28.3477832241
 20
98.8226070567
 30
0.0
 10
28.3473416714
 20
98.8161392489
 30
0.0
 10
28.3475923763
 20
98.8081326682
 30
0.0
 10
28.3475530461
 20
98.797584851
 30
0.0
 10
28.3476475761
 20
98.7795612401
 30
0.0
 10
28.3476876561
 20
98.7523493371
 30
0.0
 10
28.3477555037
 20
98.7149676707
 30
0.0
 10
28.3477947444
 20
98.6722623681
 30
0.0
 10
28.347819606
 20
98.6259597045
 30
0.0
 10
28.3478258339
 20
98.5940687772
 30
0.0
 10
28.3478273695
 20
98.5778446389
 30
0.0
  0
SPLINE
  5
5F2
100
AcDbEntity
  8
0
100
AcDbSpline
 62
7
  6
BYLAYER
 70
0
 71
3
 72
18
 73
14
 74
0
 42
0.0000001
 43
0.0000001
 44
0.0000000001
 40
0.0
 40
0.0
 40
0.0
 40
0.0
 40
0.1946785115
 40
0.3826666374
 40
0.5556145799
 40
0.7070758481
 40
0.8313531694
 40
0.8818420686
 40
0.9238427556
 40
0.9568740829
 40
0.9806951355
 40
0.9951262934
 40
1.0
 40
1.0
 40
1.0
 40
1.0
 10
28.5830293949
 20
98.5778446389
 30
0.0
 10
28.5830305796
 20
98.5940686562
 30
0.0
 10
28.5830463823
 20
98.6259593779
 30
0.0
 10
28.5831133968
 20
98.6722618122
 30
0.0
 10
28.583220941
 20
98.7149669623
 30
0.0
 10
28.5833776212
 20
98.7523488266
 30
0.0
 10
28.5835157183
 20
98.779560488
 30
0.0
 10
28.5836948206
 20
98.797584714
 30
0.0
 10
28.5837312467
 20
98.808131525
 30
0.0
 10
28.5840227329
 20
98.8161414078
 30
0.0
 10
28.5837109795
 20
98.822602676
 30
0.0
 10
28.5845578472
 20
98.8252697948
 30
0.0
 10
28.5838654335
 20
98.8278446389
 30
0.0
 10
28.584271596
 20
98.8278446389
 30
0.0
  0
SPLINE
  5
5F3
100
AcDbEntity
  8
0
100
AcDbSpline
 62
7
  6
BYLAYER
 70
0
 71
3
 72
11
 73
7
 74
0
 42
0.0000001
 43
0.0000001
 44
0.0000000001
 40
0.0
 40
0.0
 40
0.0
 40
0.0
 40
0.2499796546
 40
0.5001111783
 40
0.7501823666
 40
1.0
 40
1.0
 40
1.0
 40
1.0
 10
107.242307348
 20
85.4328446389
 30
0.0
 10
107.2431132217
 20
85.3450646667
 30
0.0
 10
107.2656814383
 20
85.168785686
 30
0.0
 10
107.3656950612
 20
84.9218273305
 30
0.0
 10
107.5271213428
 20
84.7099227689
 30
0.0
 10
107.6672325722
 20
84.6007145368
 30
0.0
 10
107.7423086329
 20
84.5553320266
 30
0.0
  0
SPLINE
  5
5F4
100
AcDbEntity
  8
0
100
AcDbSpline
 62
7
  6
BYLAYER
 70
0
 71
3
 72
18
 73
14
 74
0
 42
0.0000001
 43
0.0000001
 44
0.0000000001
 40
0.0
 40
0.0
 40
0.0
 40
0.0
 40
0.0080377678
 40
0.0298537386
 40
0.0636380382
 40
0.1074145379
 40
0.15961766
 40
0.2189393619
 40
0.3538598911
 40
0.5043711866
 40
0.6649288838
 40
0.8311138799
 40
1.0
 40
1.0
 40
1.0
 40
1.0
 10
81.9334690136
 20
90.2219842427
 30
0.0
 10
81.9339942999
 20
90.2214609283
 30
0.0
 10
81.9307793611
 20
90.2186673312
 30
0.0
 10
81.9282706662
 20
90.214799471
 30
0.0
 10
81.9213637739
 20
90.2077601951
 30
0.0
 10
81.9136027599
 20
90.1990086731
 30
0.0
 10
81.9038766926
 20
90.1883597118
 30
0.0
 10
81.8885607775
 20
90.1716123106
 30
0.0
 10
81.8666918725
 20
90.1484867515
 30
0.0
 10
81.8379515949
 20
90.119058744
 30
0.0
 10
81.8070992222
 20
90.0876479496
 30
0.0
 10
81.7750732152
 20
90.0550182991
 30
0.0
 10
81.7533178039
 20
90.0330603756
 30
0.0
 10
81.7423073454
 20
90.0220380499
 30
0.0
  0
SPLINE
  5
5F5
100
AcDbEntity
  8
0
100
AcDbSpline
 62
7
  6
BYLAYER
 70
0
 71
3
 72
9
 73
5
 74
0
 42
0.0000001
 43
0.0000001
 44
0.0000000001
 40
0.0
 40
0.0
 40
0.0
 40
0.0
 40
0.3086634949
 40
1.0
 40
1.0
 40
1.0
 40
1.0
 10
43.6724442643
 20
84.7778446389
 30
0.0
 10
43.6977922374
 20
84.7524966659
 30
0.0
 10
43.7801442673
 20
84.6706055388
 30
0.0
 10
43.8620355593
 20
84.5882533439
 30
0.0
 10
43.9188092932
 20
84.53147961
 30
0.0
  0
SPLINE
  5
5F6
100
AcDbEntity
  8
0
100
AcDbSpline
 62
7
  6
BYLAYER
 70
0
 71
3
 72
11
 73
7
 74
0
 42
0.0000001
 43
0.0000001
 44
0.0000000001
 40
0.0
 40
0.0
 40
0.0
 40
0.0
 40
0.2516887388
 40
0.5023918189
 40
0.7516938217
 40
1.0
 40
1.0
 40
1.0
 40
1.0
 10
43.9188092932
 20
83.2278446389
 30
0.0
 10
43.9188092932
 20
83.195347491
 30
0.0
 10
43.9060531897
 20
83.1297845909
 30
0.0
 10
43.8513635685
 20
83.046698032
 30
0.0
 10
43.7694710467
 20
82.9909217379
 30
0.0
 10
43.7045046682
 20
82.9778446389
 30
0.0
 10
43.6724442643
 20
82.9778446389
 30
0.0
  0
SPLINE
  5
5F7
100
AcDbEntity
  8
0
100
AcDbSpline
 62
7
  6
BYLAYER
 70
0
 71
3
 72
14
 73
10
 74
0
 42
0.0000001
 43
0.0000001
 44
0.0000000001
 40
0.0
 40
0.0
 40
0.0
 40
0.0
 40
0.0201562291
 40
0.0743282332
 40
0.1610107279
 40
0.2780440779
 40
0.4231179753
 40
0.5936092923
 40
1.0
 40
1.0
 40
1.0
 40
1.0
 10
81.9330093
 20
89.7215883426
 30
0.0
 10
81.9332444566
 20
89.72194756
 30
0.0
 10
81.9314227414
 20
89.7233604552
 30
0.0
 10
81.9295505062
 20
89.7254448669
 30
0.0
 10
81.924910449
 20
89.7290124512
 30
0.0
 10
81.9191478155
 20
89.7334588294
 30
0.0
 10
81.9116237413
 20
89.7388767512
 30
0.0
 10
81.8990472203
 20
89.7476828802
 30
0.0
 10
81.8888337749
 20
89.7545375531
 30
0.0
 10
81.8816113777
 20
89.7593094418
 30
0.0
  0
SPLINE
  5
5F8
100
AcDbEntity
  8
0
100
AcDbSpline
 62
7
  6
BYLAYER
 70
0
 71
3
 72
9
 73
5
 74
0
 42
0.0000001
 43
0.0000001
 44
0.0000000001
 40
0.0
 40
0.0
 40
0.0
 40
0.0
 40
0.2185243901
 40
1.0
 40
1.0
 40
1.0
 40
1.0
 10
81.8816113777
 20
89.7593094418
 30
0.0
 10
81.8716851489
 20
89.7658677711
 30
0.0
 10
81.8259172748
 20
89.7953478665
 30
0.0
 10
81.7794983936
 20
89.8238863874
 30
0.0
 10
81.7423079892
 20
89.8445510294
 30
0.0
  0
SPLINE
  5
5F9
100
AcDbEntity
  8
0
100
AcDbSpline
 62
7
  6
BYLAYER
 70
0
 71
3
 72
17
 73
13
 74
0
 42
0.0000001
 43
0.0000001
 44
0.0000000001
 40
0.0
 40
0.0
 40
0.0
 40
0.0
 40
0.0065348109
 40
0.0242198527
 40
0.0524568387
 40
0.090462054
 40
0.1373852727
 40
0.192287347
 40
0.3222195167
 40
0.4734112819
 40
0.6403723709
 40
1.0
 40
1.0
 40
1.0
 40
1.0
 10
81.9330093041
 20
88.2123561517
 30
0.0
 10
81.9332800978
 20
88.2119420017
 30
0.0
 10
81.9311003296
 20
88.2103502024
 30
0.0
 10
81.9289520095
 20
88.2079444311
 30
0.0
 10
81.9235274442
 20
88.2038686357
 30
0.0
 10
81.9168479387
 20
88.1987925482
 30
0.0
 10
81.9081506629
 20
88.192636369
 30
0.0
 10
81.8937256924
 20
88.182693015
 30
0.0
 10
81.8724788034
 20
88.1686578771
 30
0.0
 10
81.8438749512
 20
88.1504192971
 30
0.0
 10
81.800316132
 20
88.1232778164
 30
0.0
 10
81.7661115939
 20
88.1027514108
 30
0.0
 10
81.7423079892
 20
88.0895250699
 30
0.0
  0
SPLINE
  5
5FA
100
AcDbEntity
  8
0
100
AcDbSpline
 62
7
  6
BYLAYER
 70
0
 71
3
 72
11
 73
7
 74
0
 42
0.0000001
 43
0.0000001
 44
0.0000000001
 40
0.0
 40
0.0
 40
0.0
 40
0.0
 40
0.2802150671
 40
0.543783138
 40
0.7818201525
 40
1.0
 40
1.0
 40
1.0
 40
1.0
 10
55.3979039535
 20
84.7778446389
 30
0.0
 10
55.3979039535
 20
84.74559134
 30
0.0
 10
55.3886993713
 20
84.6825577479
 30
0.0
 10
55.3483284759
 20
84.6003187675
 30
0.0
 10
55.2857208822
 20
84.5424719994
 30
0.0
 10
55.2325348496
 20
84.5278446389
 30
0.0
 10
55.207421925
 20
84.5278446389
 30
0.0
  0
SPLINE
  5
5FB
100
AcDbEntity
  8
0
100
AcDbSpline
 62
7
  6
BYLAYER
 70
0
 71
3
 72
11
 73
7
 74
0
 42
0.0000001
 43
0.0000001
 44
0.0000000001
 40
0.0
 40
0.0
 40
0.0
 40
0.0
 40
0.2498176334
 40
0.4998888217
 40
0.7500203454
 40
1.0
 40
1.0
 40
1.0
 40
1.0
 10
107.7423086329
 20
86.3103572513
 30
0.0
 10
107.6672325722
 20
86.2649747411
 30
0.0
 10
107.5271213428
 20
86.155766509
 30
0.0
 10
107.3656950612
 20
85.9438619474
 30
0.0
 10
107.2656814383
 20
85.6969035919
 30
0.0
 10
107.2431132217
 20
85.5206246112
 30
0.0
 10
107.242307348
 20
85.4328446389
 30
0.0
  0
SPLINE
  5
5FC
100
AcDbEntity
  8
0
100
AcDbSpline
 62
7
  6
BYLAYER
 70
0
 71
3
 72
9
 73
5
 74
0
 42
0.0000001
 43
0.0000001
 44
0.0000000001
 40
0.0
 40
0.0
 40
0.0
 40
0.0
 40
0.536597412
 40
1.0
 40
1.0
 40
1.0
 40
1.0
 10
94.7473079892
 20
91.875331659
 30
0.0
 10
94.7730600231
 20
91.8896406338
 30
0.0
 10
94.8200768904
 20
91.9180331033
 30
0.0
 10
94.8665458026
 20
91.9472773777
 30
0.0
 10
94.8877878355
 20
91.9612796064
 30
0.0
  0
SPLINE
  5
5FD
100
AcDbEntity
  8
0
100
AcDbSpline
 62
7
  6
BYLAYER
 70
0
 71
3
 72
14
 73
10
 74
0
 42
0.0000001
 43
0.0000001
 44
0.0000000001
 40
0.0
 40
0.0
 40
0.0
 40
0.0
 40
0.4084502989
 40
0.5794155305
 40
0.7245119712
 40
0.8410483994
 40
0.9268899859
 40
0.9802380734
 40
1.0
 40
1.0
 40
1.0
 40
1.0
 10
94.8877878355
 20
91.9612796064
 30
0.0
 10
94.8948588358
 20
91.9659406369
 30
0.0
 10
94.9048493612
 20
91.9726350426
 30
0.0
 10
94.9171548825
 20
91.9812081826
 30
0.0
 10
94.924502382
 20
91.9864499919
 30
0.0
 10
94.9301279491
 20
91.9907102392
 30
0.0
 10
94.9346454353
 20
91.9941077839
 30
0.0
 10
94.936478577
 20
91.9960691978
 30
0.0
 10
94.9382335815
 20
91.9974157994
 30
0.0
 10
94.9380092833
 20
91.9977587112
 30
0.0
  0
SPLINE
  5
5FE
100
AcDbEntity
  8
0
100
AcDbSpline
 62
7
  6
BYLAYER
 70
0
 71
3
 72
14
 73
10
 74
0
 42
0.0000001
 43
0.0000001
 44
0.0000000001
 40
0.0
 40
0.0
 40
0.0
 40
0.0
 40
0.0224491533
 40
0.0816122461
 40
0.173993524
 40
0.2953933132
 40
0.4418941722
 40
0.6102782229
 40
1.0
 40
1.0
 40
1.0
 40
1.0
 10
94.9379752984
 20
91.4978984679
 30
0.0
 10
94.9383835094
 20
91.4983054961
 30
0.0
 10
94.936401905
 20
91.5006319059
 30
0.0
 10
94.9345861371
 20
91.5037993393
 30
0.0
 10
94.9297317479
 20
91.5094700338
 30
0.0
 10
94.9238252449
 20
91.5163495813
 30
0.0
 10
94.916186148
 20
91.5246362925
 30
0.0
 10
94.9038006096
 20
91.53778649
 30
0.0
 10
94.8938486608
 20
91.5481163265
 30
0.0
 10
94.8869197953
 20
91.5553371793
 30
0.0
  0
SPLINE
  5
5FF
100
AcDbEntity
  8
0
100
AcDbSpline
 62
7
  6
BYLAYER
 70
0
 71
3
 72
9
 73
5
 74
0
 42
0.0000001
 43
0.0000001
 44
0.0000000001
 40
0.0
 40
0.0
 40
0.0
 40
0.0
 40
0.2263912379
 40
1.0
 40
1.0
 40
1.0
 40
1.0
 10
94.8869197953
 20
91.5553371793
 30
0.0
 10
94.8764961026
 20
91.5662001338
 30
0.0
 10
94.8305529465
 20
91.6142795732
 30
0.0
 10
94.7836657758
 20
91.6614470399
 30
0.0
 10
94.7473079892
 20
91.6978440135
 30
0.0
  0
SPLINE
  5
600
100
AcDbEntity
  8
0
100
AcDbSpline
 62
7
  6
BYLAYER
 70
0
 71
3
 72
11
 73
7
 74
0
 42
0.0000001
 43
0.0000001
 44
0.0000000001
 40
0.0
 40
0.0
 40
0.0
 40
0.0
 40
0.2498176334
 40
0.4998888217
 40
0.7500203454
 40
1.0
 40
1.0
 40
1.0
 40
1.0
 10
81.7423086329
 20
89.8445506623
 30
0.0
 10
81.6672325722
 20
89.799168152
 30
0.0
 10
81.5271213428
 20
89.68995992
 30
0.0
 10
81.3656950612
 20
89.4780553584
 30
0.0
 10
81.2656814383
 20
89.2310970029
 30
0.0
 10
81.2431132217
 20
89.0548180222
 30
0.0
 10
81.242307348
 20
88.9670380499
 30
0.0
  0
SPLINE
  5
601
100
AcDbEntity
  8
0
100
AcDbSpline
 62
7
  6
BYLAYER
 70
0
 71
3
 72
11
 73
7
 74
0
 42
0.0000001
 43
0.0000001
 44
0.0000000001
 40
0.0
 40
0.0
 40
0.0
 40
0.0
 40
0.2499796546
 40
0.5001111783
 40
0.7501823666
 40
1.0
 40
1.0
 40
1.0
 40
1.0
 10
81.242307348
 20
88.9670380499
 30
0.0
 10
81.2431132217
 20
88.8792580777
 30
0.0
 10
81.2656814383
 20
88.702979097
 30
0.0
 10
81.3656950612
 20
88.4560207415
 30
0.0
 10
81.5271213428
 20
88.2441161799
 30
0.0
 10
81.6672325722
 20
88.1349079478
 30
0.0
 10
81.7423086329
 20
88.0895254376
 30
0.0
  0
SPLINE
  5
602
100
AcDbEntity
  8
0
100
AcDbSpline
 62
7
  6
BYLAYER
 70
0
 71
3
 72
14
 73
10
 74
0
 42
0.0000001
 43
0.0000001
 44
0.0000000001
 40
0.0
 40
0.0
 40
0.0
 40
0.0
 40
0.0193853186
 40
0.0721214589
 40
0.1573852632
 40
0.2736181967
 40
0.4188671931
 40
0.5903180293
 40
1.0
 40
1.0
 40
1.0
 40
1.0
 10
94.9380092793
 20
93.5079332771
 30
0.0
 10
94.938229339
 20
93.5082696821
 30
0.0
 10
94.9364626115
 20
93.5095767406
 30
0.0
 10
94.9346200882
 20
93.5114711259
 30
0.0
 10
94.9300804493
 20
93.5147971403
 30
0.0
 10
94.9244451016
 20
93.5190150599
 30
0.0
 10
94.9170943165
 20
93.5242677041
 30
0.0
 10
94.9047873659
 20
93.5329080183
 30
0.0
 10
94.8948000614
 20
93.5396737682
 30
0.0
 10
94.887724239
 20
93.5443754391
 30
0.0
  0
SPLINE
  5
603
100
AcDbEntity
  8
0
100
AcDbSpline
 62
7
  6
BYLAYER
 70
0
 71
3
 72
9
 73
5
 74
0
 42
0.0000001
 43
0.0000001
 44
0.0000000001
 40
0.0
 40
0.0
 40
0.0
 40
0.0
 40
0.4634190168
 40
1.0
 40
1.0
 40
1.0
 40
1.0
 10
94.887724239
 20
93.5443754391
 30
0.0
 10
94.866537495
 20
93.5584533928
 30
0.0
 10
94.8200998604
 20
93.5877320628
 30
0.0
 10
94.773053956
 20
93.6160520147
 30
0.0
 10
94.7473079892
 20
93.6303576183
 30
0.0
  0
SPLINE
  5
604
100
AcDbEntity
  8
0
100
AcDbSpline
 62
7
  6
BYLAYER
 70
0
 71
3
 72
17
 73
13
 74
0
 42
0.0000001
 43
0.0000001
 44
0.0000000001
 40
0.0
 40
0.0
 40
0.0
 40
0.0
 40
0.3352407624
 40
0.4958503262
 40
0.6464483764
 40
0.7815573349
 40
0.8409417581
 40
0.8931082814
 40
0.9367075584
 40
0.9702249907
 40
0.9918645855
 40
1.0
 40
1.0
 40
1.0
 40
1.0
 10
94.7473079892
 20
93.8078452645
 30
0.0
 10
94.7691468309
 20
93.8297076444
 30
0.0
 10
94.8014836825
 20
93.862008578
 30
0.0
 10
94.8430908012
 20
93.9046699721
 30
0.0
 10
94.8715639689
 20
93.9343541547
 30
0.0
 10
94.8936233285
 20
93.957301494
 30
0.0
 10
94.9092961385
 20
93.9737214611
 30
0.0
 10
94.9191656367
 20
93.9841949905
 30
0.0
 10
94.9268899231
 20
93.9929376974
 30
0.0
 10
94.9333702163
 20
94.0001966376
 30
0.0
 10
94.9356962266
 20
94.0042973113
 30
0.0
 10
94.9385063311
 20
94.0072613345
 30
0.0
 10
94.9379752936
 20
94.00779081
 30
0.0
  0
SPLINE
  5
605
100
AcDbEntity
  8
0
100
AcDbSpline
 62
7
  6
BYLAYER
 70
0
 71
3
 72
18
 73
14
 74
0
 42
0.0000001
 43
0.0000001
 44
0.0000000001
 40
0.0
 40
0.0
 40
0.0
 40
0.0
 40
0.1946804151
 40
0.3826700103
 40
0.5556192871
 40
0.7070816718
 40
0.831359709
 40
0.8818486863
 40
0.9238492108
 40
0.9568800907
 40
0.9807003159
 40
0.9951300238
 40
1.0
 40
1.0
 40
1.0
 40
1.0
 10
28.5830294472
 20
83.2278446389
 30
0.0
 10
28.5829449516
 20
83.2116209082
 30
0.0
 10
28.5828008302
 20
83.1797306627
 30
0.0
 10
28.5826453304
 20
83.1334286977
 30
0.0
 10
28.5825419947
 20
83.0907237863
 30
0.0
 10
28.5825109834
 20
83.0533419215
 30
0.0
 10
28.5825114891
 20
83.0261299834
 30
0.0
 10
28.5826014659
 20
83.0081055126
 30
0.0
 10
28.5825857686
 20
82.9975583572
 30
0.0
 10
28.5828424898
 20
82.9895486554
 30
0.0
 10
28.5824961025
 20
82.9830864554
 30
0.0
 10
28.5833395829
 20
82.9804207709
 30
0.0
 10
28.5826235931
 20
82.9778448948
 30
0.0
 10
28.5830294389
 20
82.977844639
 30
0.0
  0
SPLINE
  5
606
100
AcDbEntity
  8
0
100
AcDbSpline
 62
7
  6
BYLAYER
 70
0
 71
3
 72
18
 73
14
 74
0
 42
0.0000001
 43
0.0000001
 44
0.0000000001
 40
0.0
 40
0.0
 40
0.0
 40
0.0
 40
0.1946873179
 40
0.3826835954
 40
0.5556383087
 40
0.7071045137
 40
0.8313845078
 40
0.8818737527
 40
0.9238740019
 40
0.9569038793
 40
0.9807219378
 40
0.9951469417
 40
1.0
 40
1.0
 40
1.0
 40
1.0
 10
28.3478273383
 20
83.2278446389
 30
0.0
 10
28.3478258
 20
83.2116205628
 30
0.0
 10
28.3478195677
 20
83.1797297532
 30
0.0
 10
28.3477947012
 20
83.1334272446
 30
0.0
 10
28.347755457
 20
83.0907220687
 30
0.0
 10
28.3476876078
 20
83.0533404334
 30
0.0
 10
28.3476475276
 20
83.0261286068
 30
0.0
 10
28.3475529989
 20
83.0081048521
 30
0.0
 10
28.3475923301
 20
82.997557217
 30
0.0
 10
28.347341626
 20
82.9895499321
 30
0.0
 10
28.3477831872
 20
82.9830834538
 30
0.0
 10
28.3468891732
 20
82.9804270068
 30
0.0
 10
28.3477459234
 20
82.9778451838
 30
0.0
 10
28.3473414989
 20
82.977844639
 30
0.0
  0
SPLINE
  5
607
100
AcDbEntity
  8
0
100
AcDbSpline
 62
7
  6
BYLAYER
 70
0
 71
3
 72
11
 73
7
 74
0
 42
0.0000001
 43
0.0000001
 44
0.0000000001
 40
0.0
 40
0.0
 40
0.0
 40
0.0
 40
0.3670165724
 40
0.5076318286
 40
0.6631594479
 40
1.0
 40
1.0
 40
1.0
 40
1.0
 10
22.8074071909
 20
82.9778446389
 30
0.0
 10
22.7725374397
 20
82.9778446389
 30
0.0
 10
22.7376079614
 20
83.0322120913
 30
0.0
 10
22.7186393226
 20
83.0897616484
 30
0.0
 10
22.7052865897
 20
83.1491230569
 30
0.0
 10
22.7017526255
 20
83.1958418709
 30
0.0
 10
22.7017526255
 20
83.2278446389
 30
0.0
  0
SPLINE
  5
608
100
AcDbEntity
  8
0
100
AcDbSpline
 62
7
  6
BYLAYER
 70
0
 71
3
 72
12
 73
8
 74
0
 42
0.0000001
 43
0.0000001
 44
0.0000000001
 40
0.0
 40
0.0
 40
0.0
 40
0.0
 40
0.3715915957
 40
0.6880944346
 40
0.9038871366
 40
0.9656692485
 40
1.0
 40
1.0
 40
1.0
 40
1.0
 10
23.5125605209
 20
83.2278446389
 30
0.0
 10
23.5125605209
 20
83.1959397132
 30
0.0
 10
23.5142691452
 20
83.1367417177
 30
0.0
 10
23.5212602848
 20
83.0597509464
 30
0.0
 10
23.5311483945
 20
83.0088182025
 30
0.0
 10
23.540728736
 20
82.9844208226
 30
0.0
 10
23.5477001168
 20
82.9778446389
 30
0.0
 10
23.5506477617
 20
82.9778446389
 30
0.0
  0
SPLINE
  5
609
100
AcDbEntity
  8
0
100
AcDbSpline
 62
7
  6
BYLAYER
 70
0
 71
3
 72
11
 73
7
 74
0
 42
0.0000001
 43
0.0000001
 44
0.0000000001
 40
0.0
 40
0.0
 40
0.0
 40
0.0
 40
0.2498176334
 40
0.4998888217
 40
0.7500203454
 40
1.0
 40
1.0
 40
1.0
 40
1.0
 10
94.7473086329
 20
93.6303572513
 30
0.0
 10
94.6722325722
 20
93.5849747411
 30
0.0
 10
94.5321213428
 20
93.475766509
 30
0.0
 10
94.3706950612
 20
93.2638619474
 30
0.0
 10
94.2706814383
 20
93.0169035919
 30
0.0
 10
94.2481132217
 20
92.8406246112
 30
0.0
 10
94.247307348
 20
92.7528446389
 30
0.0
  0
SPLINE
  5
60A
100
AcDbEntity
  8
0
100
AcDbSpline
 62
7
  6
BYLAYER
 70
0
 71
3
 72
11
 73
7
 74
0
 42
0.0000001
 43
0.0000001
 44
0.0000000001
 40
0.0
 40
0.0
 40
0.0
 40
0.0
 40
0.2499796546
 40
0.5001111783
 40
0.7501823666
 40
1.0
 40
1.0
 40
1.0
 40
1.0
 10
94.247307348
 20
92.7528446389
 30
0.0
 10
94.2481132217
 20
92.6650646667
 30
0.0
 10
94.2706814383
 20
92.488785686
 30
0.0
 10
94.3706950612
 20
92.2418273305
 30
0.0
 10
94.5321213428
 20
92.0299227689
 30
0.0
 10
94.6722325722
 20
91.9207145368
 30
0.0
 10
94.7473086329
 20
91.8753320266
 30
0.0
  0
SPLINE
  5
60B
100
AcDbEntity
  8
0
100
AcDbSpline
 62
7
  6
BYLAYER
 70
0
 71
3
 72
11
 73
7
 74
0
 42
0.0000001
 43
0.0000001
 44
0.0000000001
 40
0.0
 40
0.0
 40
0.0
 40
0.0
 40
0.2181763218
 40
0.4562117843
 40
0.7197822124
 40
1.0
 40
1.0
 40
1.0
 40
1.0
 10
55.207421925
 20
97.2778446389
 30
0.0
 10
55.2325344463
 20
97.2778446389
 30
0.0
 10
55.285719921
 20
97.2632178242
 30
0.0
 10
55.3483276828
 20
97.2053716462
 30
0.0
 10
55.3886991407
 20
97.1231324447
 30
0.0
 10
55.3979039535
 20
97.0600982544
 30
0.0
 10
55.3979039535
 20
97.0278446389
 30
0.0
  0
SPLINE
  5
60C
100
AcDbEntity
  8
0
100
AcDbSpline
 62
7
  6
BYLAYER
 70
0
 71
3
 72
10
 73
6
 74
0
 42
0.0000001
 43
0.0000001
 44
0.0000000001
 40
0.0
 40
0.0
 40
0.0
 40
0.0
 40
0.4116204198
 40
0.6810456871
 40
1.0
 40
1.0
 40
1.0
 40
1.0
 10
114.504160332
 20
82.9778446389
 30
0.0
 10
114.5186747747
 20
82.9778446389
 30
0.0
 10
114.5421159617
 20
82.9911708453
 30
0.0
 10
114.5633217469
 20
83.0190986115
 30
0.0
 10
114.573016849
 20
83.0376482535
 30
0.0
 10
114.5775283059
 20
83.0479506315
 30
0.0
  0
SPLINE
  5
60D
100
AcDbEntity
  8
0
100
AcDbSpline
 62
7
  6
BYLAYER
 70
0
 71
3
 72
9
 73
5
 74
0
 42
0.0000001
 43
0.0000001
 44
0.0000000001
 40
0.0
 40
0.0
 40
0.0
 40
0.0
 40
0.4658651712
 40
1.0
 40
1.0
 40
1.0
 40
1.0
 10
114.5775283059
 20
83.0479506315
 30
0.0
 10
114.5889682931
 20
83.074075024
 30
0.0
 10
114.6048692906
 20
83.1338704053
 30
0.0
 10
114.6098148974
 20
83.1951458771
 30
0.0
 10
114.6098148974
 20
83.2278446389
 30
0.0
  0
SPLINE
  5
60E
100
AcDbEntity
  8
0
100
AcDbSpline
 62
7
  6
BYLAYER
 70
0
 71
3
 72
11
 73
7
 74
0
 42
0.0000001
 43
0.0000001
 44
0.0000000001
 40
0.0
 40
0.0
 40
0.0
 40
0.0
 40
0.251689035
 40
0.5023919946
 40
0.751693775
 40
1.0
 40
1.0
 40
1.0
 40
1.0
 10
44.3793944478
 20
98.5778446389
 30
0.0
 10
44.3793944478
 20
98.610341825
 30
0.0
 10
44.3666383144
 20
98.675904747
 30
0.0
 10
44.3119486777
 20
98.758991283
 30
0.0
 10
44.2300561833
 20
98.81476754
 30
0.0
 10
44.1650898286
 20
98.8278446389
 30
0.0
 10
44.1330294189
 20
98.8278446389
 30
0.0
  0
SPLINE
  5
60F
100
AcDbEntity
  8
0
100
AcDbSpline
 62
7
  6
BYLAYER
 70
0
 71
3
 72
14
 73
10
 74
0
 42
0.0000001
 43
0.0000001
 44
0.0000000001
 40
0.0
 40
0.0
 40
0.0
 40
0.0
 40
0.0199801515
 40
0.0738438063
 40
0.1602287457
 40
0.2771001185
 40
0.4222295734
 40
0.5929445605
 40
1.0
 40
1.0
 40
1.0
 40
1.0
 10
94.9380092998
 20
97.0775349016
 30
0.0
 10
94.9382420782
 20
97.0778908806
 30
0.0
 10
94.9364184133
 20
97.0792843938
 30
0.0
 10
94.9345410146
 20
97.0813344403
 30
0.0
 10
94.929892749
 20
97.0848617069
 30
0.0
 10
94.9241239209
 20
97.0892763542
 30
0.0
 10
94.916595332
 20
97.0946831899
 30
0.0
 10
94.9040106512
 20
97.103495724
 30
0.0
 10
94.893793489
 20
97.1103653844
 30
0.0
 10
94.886565708
 20
97.1151451484
 30
0.0
  0
SPLINE
  5
610
100
AcDbEntity
  8
0
100
AcDbSpline
 62
7
  6
BYLAYER
 70
0
 71
3
 72
9
 73
5
 74
0
 42
0.0000001
 43
0.0000001
 44
0.0000000001
 40
0.0
 40
0.0
 40
0.0
 40
0.0
 40
0.2185657717
 40
1.0
 40
1.0
 40
1.0
 40
1.0
 10
94.886565708
 20
97.1151451484
 30
0.0
 10
94.8766436107
 20
97.1217066759
 30
0.0
 10
94.8308894424
 20
97.1511750893
 30
0.0
 10
94.7844841239
 20
97.1797009053
 30
0.0
 10
94.7473079892
 20
97.2003576184
 30
0.0
  0
SPLINE
  5
611
100
AcDbEntity
  8
0
100
AcDbSpline
 62
7
  6
BYLAYER
 70
0
 71
3
 72
18
 73
14
 74
0
 42
0.0000001
 43
0.0000001
 44
0.0000000001
 40
0.0
 40
0.0
 40
0.0
 40
0.0
 40
0.0080377677
 40
0.0298537385
 40
0.0636380382
 40
0.107414538
 40
0.1596176601
 40
0.2189393619
 40
0.3538598911
 40
0.5043711866
 40
0.6649288838
 40
0.8311138799
 40
1.0
 40
1.0
 40
1.0
 40
1.0
 10
94.9384690136
 20
97.5777908317
 30
0.0
 10
94.9389943
 20
97.5772675173
 30
0.0
 10
94.9357793612
 20
97.5744739202
 30
0.0
 10
94.9332706663
 20
97.57060606
 30
0.0
 10
94.9263637739
 20
97.5635667841
 30
0.0
 10
94.9186027599
 20
97.5548152621
 30
0.0
 10
94.9088766926
 20
97.5441663008
 30
0.0
 10
94.8935607775
 20
97.5274188996
 30
0.0
 10
94.8716918725
 20
97.5042933405
 30
0.0
 10
94.8429515949
 20
97.474865333
 30
0.0
 10
94.8120992222
 20
97.4434545386
 30
0.0
 10
94.7800732152
 20
97.4108248881
 30
0.0
 10
94.7583178039
 20
97.3888669647
 30
0.0
 10
94.7473073454
 20
97.3778446389
 30
0.0
  0
SPLINE
  5
612
100
AcDbEntity
  8
0
100
AcDbSpline
 62
7
  6
BYLAYER
 70
0
 71
3
 72
11
 73
7
 74
0
 42
0.0000001
 43
0.0000001
 44
0.0000000001
 40
0.0
 40
0.0
 40
0.0
 40
0.0
 40
0.3188765441
 40
0.605501148
 40
0.8346172262
 40
1.0
 40
1.0
 40
1.0
 40
1.0
 10
114.6098148974
 20
98.5778446389
 30
0.0
 10
114.6098148974
 20
98.6070135176
 30
0.0
 10
114.6058696671
 20
98.6624911391
 30
0.0
 10
114.5880512716
 20
98.7372331936
 30
0.0
 10
114.5617208232
 20
98.7940241645
 30
0.0
 10
114.5336002276
 20
98.8203058291
 30
0.0
 10
114.5192974141
 20
98.8252345353
 30
0.0
  0
SPLINE
  5
613
100
AcDbEntity
  8
0
100
AcDbSpline
 62
7
  6
BYLAYER
 70
0
 71
3
 72
8
 73
4
 74
0
 42
0.0000001
 43
0.0000001
 44
0.0000000001
 40
0.0
 40
0.0
 40
0.0
 40
0.0
 40
1.0
 40
1.0
 40
1.0
 40
1.0
 10
114.5192974141
 20
98.8252345353
 30
0.0
 10
114.5144566139
 20
98.8269026604
 30
0.0
 10
114.5092804871
 20
98.8278446389
 30
0.0
 10
114.504160332
 20
98.8278446389
 30
0.0
  0
SPLINE
  5
614
100
AcDbEntity
  8
0
100
AcDbSpline
 62
7
  6
BYLAYER
 70
0
 71
3
 72
8
 73
4
 74
0
 42
0.0000001
 43
0.0000001
 44
0.0000000001
 40
0.0
 40
0.0
 40
0.0
 40
0.0
 40
1.0
 40
1.0
 40
1.0
 40
1.0
 10
81.3290856971
 20
84.1420380499
 30
0.0
 10
81.0970667479
 20
84.1420380371
 30
0.0
 10
80.8650481184
 20
84.1425873279
 30
0.0
 10
80.6330294121
 20
84.1429230006
 30
0.0
  0
SPLINE
  5
615
100
AcDbEntity
  8
0
100
AcDbSpline
 62
7
  6
BYLAYER
 70
0
 71
3
 72
11
 73
7
 74
0
 42
0.0000001
 43
0.0000001
 44
0.0000000001
 40
0.0
 40
0.0
 40
0.0
 40
0.0
 40
0.2483061397
 40
0.4976081739
 40
0.7483112911
 40
1.0
 40
1.0
 40
1.0
 40
1.0
 10
43.6724442643
 20
98.8278446389
 30
0.0
 10
43.7045046632
 20
98.8278446389
 30
0.0
 10
43.769471041
 20
98.8147675436
 30
0.0
 10
43.8513635679
 20
98.7589912484
 30
0.0
 10
43.9060531922
 20
98.6759046842
 30
0.0
 10
43.9188092932
 20
98.6103417831
 30
0.0
 10
43.9188092932
 20
98.5778446389
 30
0.0
  0
SPLINE
  5
616
100
AcDbEntity
  8
0
100
AcDbSpline
 62
7
  6
BYLAYER
 70
0
 71
3
 72
11
 73
7
 74
0
 42
0.0000001
 43
0.0000001
 44
0.0000000001
 40
0.0
 40
0.0
 40
0.0
 40
0.0
 40
0.3670165724
 40
0.5076318286
 40
0.6631594479
 40
1.0
 40
1.0
 40
1.0
 40
1.0
 10
110.220436235
 20
98.8278446389
 30
0.0
 10
110.2553059862
 20
98.8278446389
 30
0.0
 10
110.2902354645
 20
98.7734771866
 30
0.0
 10
110.3092041033
 20
98.7159276295
 30
0.0
 10
110.3225568362
 20
98.656566221
 30
0.0
 10
110.3260908004
 20
98.609847407
 30
0.0
 10
110.3260908004
 20
98.5778446389
 30
0.0
  0
SPLINE
  5
617
100
AcDbEntity
  8
0
100
AcDbSpline
 62
7
  6
BYLAYER
 70
0
 71
3
 72
11
 73
7
 74
0
 42
0.0000001
 43
0.0000001
 44
0.0000000001
 40
0.0
 40
0.0
 40
0.0
 40
0.0
 40
0.2498176334
 40
0.4998888217
 40
0.7500203454
 40
1.0
 40
1.0
 40
1.0
 40
1.0
 10
94.7473086329
 20
97.2003572513
 30
0.0
 10
94.6722325722
 20
97.1549747411
 30
0.0
 10
94.5321213428
 20
97.045766509
 30
0.0
 10
94.3706950612
 20
96.8338619474
 30
0.0
 10
94.2706814383
 20
96.5869035919
 30
0.0
 10
94.2481132217
 20
96.4106246112
 30
0.0
 10
94.247307348
 20
96.3228446389
 30
0.0
  0
SPLINE
  5
618
100
AcDbEntity
  8
0
100
AcDbSpline
 62
7
  6
BYLAYER
 70
0
 71
3
 72
11
 73
7
 74
0
 42
0.0000001
 43
0.0000001
 44
0.0000000001
 40
0.0
 40
0.0
 40
0.0
 40
0.0
 40
0.2499796546
 40
0.5001111783
 40
0.7501823666
 40
1.0
 40
1.0
 40
1.0
 40
1.0
 10
94.247307348
 20
96.3228446389
 30
0.0
 10
94.2481132217
 20
96.2350646667
 30
0.0
 10
94.2706814383
 20
96.058785686
 30
0.0
 10
94.3706950612
 20
95.8118273305
 30
0.0
 10
94.5321213428
 20
95.5999227689
 30
0.0
 10
94.6722325722
 20
95.4907145368
 30
0.0
 10
94.7473086329
 20
95.4453320266
 30
0.0
  0
ELLIPSE
  5
619
100
AcDbEntity
  8
0
100
AcDbEllipse
 62
7
  6
BYLAYER
 10
64.1735555548
 20
97.5528446389
 30
0.0
 11
0.0
 21
0.2
 31
0.0
 40
0.445919707
 41
-4.7123889804
 42
-3.1415926536
  0
ELLIPSE
  5
61A
100
AcDbEntity
  8
0
100
AcDbEllipse
 62
7
  6
BYLAYER
 10
64.1735555548
 20
84.2528446389
 30
0.0
 11
0.0
 21
0.2
 31
0.0
 40
0.445919707
 41
0.0
 42
1.5707963268
  0
ELLIPSE
  5
61B
100
AcDbEntity
  8
0
100
AcDbEllipse
 62
7
  6
BYLAYER
 10
43.9261328672
 20
97.0278446389
 30
0.0
 11
-0.0
 21
0.25
 31
0.0
 40
0.1724137931
 41
-0.0
 42
0.1707352115
  0
ELLIPSE
  5
61C
100
AcDbEntity
  8
0
100
AcDbEllipse
 62
7
  6
BYLAYER
 10
91.9479647546
 20
97.3778446389
 30
0.0
 11
-0.0
 21
0.2
 31
0.0
 40
0.3003233216
 41
-1.5707963268
 42
0.0
  0
ELLIPSE
  5
61D
100
AcDbEntity
  8
0
100
AcDbEllipse
 62
7
  6
BYLAYER
 10
91.9479647546
 20
95.2678446389
 30
0.0
 11
0.0
 21
0.2
 31
0.0
 40
0.3003233216
 41
-3.1415926536
 42
-1.5707963268
  0
ELLIPSE
  5
61E
100
AcDbEntity
  8
0
100
AcDbEllipse
 62
7
  6
BYLAYER
 10
104.9429647546
 20
84.3778446389
 30
0.0
 11
-0.0
 21
0.2
 31
0.0
 40
0.3003233216
 41
-3.1415926536
 42
-1.5707963268
  0
ELLIPSE
  5
61F
100
AcDbEntity
  8
0
100
AcDbEllipse
 62
7
  6
BYLAYER
 10
47.5830294189
 20
82.8778446389
 30
0.0
 11
1.0
 21
0.0
 31
0.0
 40
0.75
 41
0.2013579208
 42
0.2364203872
  0
ELLIPSE
  5
620
100
AcDbEntity
  8
0
100
AcDbEllipse
 62
7
  6
BYLAYER
 10
47.5830294189
 20
82.8778446389
 30
0.0
 11
1.0
 21
0.0
 31
0.0
 40
0.75
 41
2.8997149666
 42
2.9402347328
  0
ELLIPSE
  5
621
100
AcDbEntity
  8
0
100
AcDbEllipse
 62
7
  6
BYLAYER
 10
78.9429647546
 20
86.4520380499
 30
0.0
 11
-0.0
 21
0.2
 31
0.0
 40
0.3003233216
 41
-1.5707963268
 42
-0.0
  0
ELLIPSE
  5
622
100
AcDbEntity
  8
0
100
AcDbEllipse
 62
7
  6
BYLAYER
 10
80.2140083319
 20
85.3970380499
 30
0.0
 11
0.8783630297
 21
-0.0
 31
0.0
 40
0.9997654996
 41
5.2096814778
 42
7.3566891365
  0
ELLIPSE
  5
623
100
AcDbEntity
  8
0
100
AcDbEllipse
 62
7
  6
BYLAYER
 10
27.9230940832
 20
91.6978446389
 30
0.0
 11
-0.0
 21
0.2
 31
0.0
 40
0.3003233216
 41
-4.7123889804
 42
-3.1415926536
  0
ELLIPSE
  5
624
100
AcDbEntity
  8
0
100
AcDbEllipse
 62
7
  6
BYLAYER
 10
27.9230940832
 20
93.8078446389
 30
0.0
 11
0.0
 21
0.2
 31
0.0
 40
0.3003233216
 41
0.0
 42
1.5707963268
  0
ELLIPSE
  5
625
100
AcDbEntity
  8
0
100
AcDbEllipse
 62
7
  6
BYLAYER
 10
47.5830294189
 20
98.9278446389
 30
0.0
 11
1.0
 21
0.0
 31
0.0
 40
0.75
 41
-2.9402347328
 42
-2.8997154868
  0
ELLIPSE
  5
626
100
AcDbEntity
  8
0
100
AcDbEllipse
 62
7
  6
BYLAYER
 10
47.5830294189
 20
98.9278446389
 30
0.0
 11
1.0
 21
-0.0
 31
0.0
 40
0.75
 41
-0.2364203853
 42
-0.2013579208
  0
ELLIPSE
  5
627
100
AcDbEntity
  8
0
100
AcDbEllipse
 62
7
  6
BYLAYER
 10
106.2140083319
 20
89.0028446389
 30
0.0
 11
0.8783630297
 21
0.0
 31
0.0
 40
0.9997654996
 41
5.2096814778
 42
7.3566891365
  0
ELLIPSE
  5
628
100
AcDbEntity
  8
0
100
AcDbEllipse
 62
7
  6
BYLAYER
 10
106.2140083319
 20
92.7528446389
 30
0.0
 11
0.8783630297
 21
0.0
 31
0.0
 40
0.9997654996
 41
-1.0735038294
 42
1.0735038294
  0
ELLIPSE
  5
629
100
AcDbEntity
  8
0
100
AcDbEllipse
 62
7
  6
BYLAYER
 10
104.9429647546
 20
87.9478446389
 30
0.0
 11
0.0
 21
0.2
 31
0.0
 40
0.3003233216
 41
-3.1415926536
 42
-1.5707963268
  0
ELLIPSE
  5
62A
100
AcDbEntity
  8
0
100
AcDbEllipse
 62
7
  6
BYLAYER
 10
104.9429647546
 20
90.0578446389
 30
0.0
 11
0.0
 21
0.2
 31
0.0
 40
0.3003233216
 41
-1.5707963268
 42
0.0
  0
ELLIPSE
  5
62B
100
AcDbEntity
  8
0
100
AcDbEllipse
 62
7
  6
BYLAYER
 10
106.2140083319
 20
96.3228446389
 30
0.0
 11
0.8783630297
 21
-0.0
 31
0.0
 40
0.9997654996
 41
-1.0735038294
 42
1.0735038294
  0
ELLIPSE
  5
62C
100
AcDbEntity
  8
0
100
AcDbEllipse
 62
7
  6
BYLAYER
 10
104.9429647546
 20
86.4878446389
 30
0.0
 11
-0.0
 21
0.2
 31
0.0
 40
0.3003233216
 41
-1.5707963268
 42
0.0
  0
ELLIPSE
  5
62D
100
AcDbEntity
  8
0
100
AcDbEllipse
 62
7
  6
BYLAYER
 10
26.6520505059
 20
92.7528446389
 30
0.0
 11
0.8783630297
 21
-0.0
 31
0.0
 40
0.9997654996
 41
2.0680888242
 42
4.2150964829
  0
ELLIPSE
  5
62E
100
AcDbEntity
  8
0
100
AcDbEllipse
 62
7
  6
BYLAYER
 10
80.2140083319
 20
96.3228446389
 30
0.0
 11
0.8783630297
 21
-0.0
 31
0.0
 40
0.9997654996
 41
5.2096814778
 42
7.3566891365
  0
ELLIPSE
  5
62F
100
AcDbEntity
  8
0
100
AcDbEllipse
 62
7
  6
BYLAYER
 10
78.9429647546
 20
95.2678446389
 30
0.0
 11
-0.0
 21
0.2
 31
0.0
 40
0.3003233216
 41
-3.1415926536
 42
-1.5707963268
  0
ELLIPSE
  5
630
100
AcDbEntity
  8
0
100
AcDbEllipse
 62
7
  6
BYLAYER
 10
78.9429647546
 20
97.3778446389
 30
0.0
 11
0.0
 21
0.2
 31
0.0
 40
0.3003233216
 41
-1.5707963268
 42
0.0
  0
ELLIPSE
  5
631
100
AcDbEntity
  8
0
100
AcDbEllipse
 62
7
  6
BYLAYER
 10
27.9230940832
 20
84.3778446389
 30
0.0
 11
0.0
 21
0.2
 31
0.0
 40
0.3003233216
 41
-4.7123889804
 42
-3.1415926536
  0
ELLIPSE
  5
632
100
AcDbEntity
  8
0
100
AcDbEllipse
 62
7
  6
BYLAYER
 10
27.9230940832
 20
86.4878446389
 30
0.0
 11
0.0
 21
0.2
 31
0.0
 40
0.3003233216
 41
0.0
 42
1.5707963268
  0
ELLIPSE
  5
633
100
AcDbEntity
  8
0
100
AcDbEllipse
 62
7
  6
BYLAYER
 10
93.2190083319
 20
89.0028446389
 30
0.0
 11
0.8783630297
 21
-0.0
 31
0.0
 40
0.9997654996
 41
5.2096814778
 42
7.3566891365
  0
ELLIPSE
  5
634
100
AcDbEntity
  8
0
100
AcDbEllipse
 62
7
  6
BYLAYER
 10
26.6520505059
 20
85.4328446389
 30
0.0
 11
0.8783630297
 21
-0.0
 31
0.0
 40
0.9997654996
 41
2.0680888242
 42
4.2150964829
  0
ELLIPSE
  5
635
100
AcDbEntity
  8
0
100
AcDbEllipse
 62
7
  6
BYLAYER
 10
104.9429647546
 20
91.6978446389
 30
0.0
 11
-0.0
 21
0.2
 31
0.0
 40
0.3003233216
 41
-3.1415926536
 42
-1.5707963268
  0
ELLIPSE
  5
636
100
AcDbEntity
  8
0
100
AcDbEllipse
 62
7
  6
BYLAYER
 10
91.9479647546
 20
87.9478446389
 30
0.0
 11
0.0
 21
0.2
 31
0.0
 40
0.3003233216
 41
-3.1415926536
 42
-1.5707963268
  0
ELLIPSE
  5
637
100
AcDbEntity
  8
0
100
AcDbEllipse
 62
7
  6
BYLAYER
 10
91.9479647546
 20
90.0578446389
 30
0.0
 11
0.0
 21
0.2
 31
0.0
 40
0.3003233216
 41
-1.5707963268
 42
0.0
  0
ELLIPSE
  5
638
100
AcDbEntity
  8
0
100
AcDbEllipse
 62
7
  6
BYLAYER
 10
104.9429647546
 20
93.8078446389
 30
0.0
 11
0.0
 21
0.2
 31
0.0
 40
0.3003233216
 41
-1.5707963268
 42
0.0
  0
ELLIPSE
  5
639
100
AcDbEntity
  8
0
100
AcDbEllipse
 62
7
  6
BYLAYER
 10
27.9230940832
 20
95.2678446389
 30
0.0
 11
0.0
 21
0.2
 31
0.0
 40
0.3003233216
 41
-4.7123889804
 42
-3.1415926536
  0
ELLIPSE
  5
63A
100
AcDbEntity
  8
0
100
AcDbEllipse
 62
7
  6
BYLAYER
 10
27.9230940832
 20
97.3778446389
 30
0.0
 11
-0.0
 21
0.2
 31
0.0
 40
0.3003233216
 41
0.0
 42
1.5707963268
  0
ELLIPSE
  5
63B
100
AcDbEntity
  8
0
100
AcDbEllipse
 62
7
  6
BYLAYER
 10
26.6520505059
 20
96.3228446389
 30
0.0
 11
0.8783630297
 21
-0.0
 31
0.0
 40
0.9997654996
 41
2.0680888242
 42
4.2150964829
  0
ELLIPSE
  5
63C
100
AcDbEntity
  8
0
100
AcDbEllipse
 62
7
  6
BYLAYER
 10
104.9429647546
 20
95.2678446389
 30
0.0
 11
0.0
 21
0.2
 31
0.0
 40
0.3003233216
 41
-3.1415926536
 42
-1.5707963268
  0
ELLIPSE
  5
63D
100
AcDbEntity
  8
0
100
AcDbEllipse
 62
7
  6
BYLAYER
 10
78.9429647546
 20
90.0220380499
 30
0.0
 11
-0.0
 21
0.2
 31
0.0
 40
0.3003233216
 41
-1.5707963268
 42
0.0
  0
ELLIPSE
  5
63E
100
AcDbEntity
  8
0
100
AcDbEllipse
 62
7
  6
BYLAYER
 10
26.6520505059
 20
89.0028446389
 30
0.0
 11
0.8783630297
 21
-0.0
 31
0.0
 40
0.9997654996
 41
2.0680888242
 42
4.2150964829
  0
ELLIPSE
  5
63F
100
AcDbEntity
  8
0
100
AcDbEllipse
 62
7
  6
BYLAYER
 10
93.2190083319
 20
85.4328446389
 30
0.0
 11
0.8783630297
 21
0.0
 31
0.0
 40
0.9997654996
 41
5.2096814778
 42
7.3566891365
  0
ELLIPSE
  5
640
100
AcDbEntity
  8
0
100
AcDbEllipse
 62
7
  6
BYLAYER
 10
80.2140083319
 20
92.7528446389
 30
0.0
 11
0.8783630297
 21
0.0
 31
0.0
 40
0.9997654996
 41
5.2096814778
 42
7.3566891365
  0
ELLIPSE
  5
641
100
AcDbEntity
  8
0
100
AcDbEllipse
 62
7
  6
BYLAYER
 10
91.9479647546
 20
84.3778446389
 30
0.0
 11
-0.0
 21
0.2
 31
0.0
 40
0.3003233216
 41
-3.1415926536
 42
-1.5707963268
  0
ELLIPSE
  5
642
100
AcDbEntity
  8
0
100
AcDbEllipse
 62
7
  6
BYLAYER
 10
91.9479647546
 20
86.4878446389
 30
0.0
 11
-0.0
 21
0.2
 31
0.0
 40
0.3003233216
 41
-1.5707963268
 42
0.0
  0
ELLIPSE
  5
643
100
AcDbEntity
  8
0
100
AcDbEllipse
 62
7
  6
BYLAYER
 10
78.9429647546
 20
91.6978446389
 30
0.0
 11
-0.0
 21
0.2
 31
0.0
 40
0.3003233216
 41
-3.1415926536
 42
-1.5707963268
  0
ELLIPSE
  5
644
100
AcDbEntity
  8
0
100
AcDbEllipse
 62
7
  6
BYLAYER
 10
43.9261328672
 20
84.7778446389
 30
0.0
 11
-0.0
 21
0.25
 31
0.0
 40
0.1724137931
 41
-3.3123278651
 42
-3.1415926536
  0
ELLIPSE
  5
645
100
AcDbEntity
  8
0
100
AcDbEllipse
 62
7
  6
BYLAYER
 10
104.9429647546
 20
97.3778446389
 30
0.0
 11
-0.0
 21
0.2
 31
0.0
 40
0.3003233216
 41
-1.5707963268
 42
0.0
  0
ELLIPSE
  5
646
100
AcDbEntity
  8
0
100
AcDbEllipse
 62
7
  6
BYLAYER
 10
27.9230940832
 20
90.0578446389
 30
0.0
 11
0.0
 21
0.2
 31
0.0
 40
0.3003233216
 41
0.0
 42
1.5707963268
  0
ELLIPSE
  5
647
100
AcDbEntity
  8
0
100
AcDbEllipse
 62
7
  6
BYLAYER
 10
78.9429647546
 20
93.8078446389
 30
0.0
 11
0.0
 21
0.2
 31
0.0
 40
0.3003233216
 41
-1.5707963268
 42
-0.0
  0
ELLIPSE
  5
648
100
AcDbEntity
  8
0
100
AcDbEllipse
 62
7
  6
BYLAYER
 10
27.9230940832
 20
87.9478446389
 30
0.0
 11
0.0
 21
0.2
 31
0.0
 40
0.3003233216
 41
-4.7123889804
 42
-3.1415926536
  0
ELLIPSE
  5
649
100
AcDbEntity
  8
0
100
AcDbEllipse
 62
7
  6
BYLAYER
 10
80.2140083319
 20
88.9670380499
 30
0.0
 11
0.8783630297
 21
0.0
 31
0.0
 40
0.9997654996
 41
5.2096814778
 42
7.3566891365
  0
ELLIPSE
  5
64A
100
AcDbEntity
  8
0
100
AcDbEllipse
 62
7
  6
BYLAYER
 10
93.2190083319
 20
92.7528446389
 30
0.0
 11
0.8783630297
 21
-0.0
 31
0.0
 40
0.9997654996
 41
5.2096814778
 42
7.3566891365
  0
ELLIPSE
  5
64B
100
AcDbEntity
  8
0
100
AcDbEllipse
 62
7
  6
BYLAYER
 10
106.2140083319
 20
85.4328446389
 30
0.0
 11
0.8783630297
 21
0.0
 31
0.0
 40
0.9997654996
 41
-1.0735038294
 42
1.0735038294
  0
ELLIPSE
  5
64C
100
AcDbEntity
  8
0
100
AcDbEllipse
 62
7
  6
BYLAYER
 10
91.9479647546
 20
91.6978446389
 30
0.0
 11
0.0
 21
0.2
 31
0.0
 40
0.3003233216
 41
-3.1415926536
 42
-1.5707963268
  0
ELLIPSE
  5
64D
100
AcDbEntity
  8
0
100
AcDbEllipse
 62
7
  6
BYLAYER
 10
91.9479647546
 20
93.8078446389
 30
0.0
 11
0.0
 21
0.2
 31
0.0
 40
0.3003233216
 41
-1.5707963268
 42
0.0
  0
ELLIPSE
  5
64E
100
AcDbEntity
  8
0
100
AcDbEllipse
 62
7
  6
BYLAYER
 10
93.2190083319
 20
96.3228446389
 30
0.0
 11
0.8783630297
 21
0.0
 31
0.0
 40
0.9997654996
 41
5.2096814778
 42
7.3566891365
  0
ENDSEC
  0
SECTION
  2
OBJECTS
  0
DICTIONARY
  5
C
100
AcDbDictionary
280
0
281
1
  3
ACAD_GROUP
350
D
  3
ACAD_MLINESTYLE
350
17
  3
ACAD_LAYOUT
350
1A
  3
ACAD_PLOTSETTINGS
350
19
  3
ACAD_PLOTSTYLENAME
350
E
  0
DICTIONARY
  5
D
102
{ACAD_REACTORS
330
C
102
}
100
AcDbDictionary
280
0
281
1
  0
ACDBDICTIONARYWDFLT
  5
E
102
{ACAD_REACTORS
330
C
102
}
100
AcDbDictionary
281
1
  3
Normal
350
F
100
AcDbDictionaryWithDefault
340
F
  0
DICTIONARY
  5
17
102
{ACAD_REACTORS
330
C
102
}
100
AcDbDictionary
280
0
281
1
  3
Standard
350
18
  0
DICTIONARY
  5
19
102
{ACAD_REACTORS
330
C
102
}
100
AcDbDictionary
281
1
  0
DICTIONARY
  5
1A
102
{ACAD_REACTORS
330
C
102
}
100
AcDbDictionary
281
1
  3
Model
350
64F
  3
Layout1
350
650
  0
ACDBPLACEHOLDER
  5
F
102
{ACAD_REACTORS
330
E
102
}
  0
MLINESTYLE
  5
18
102
{ACAD_REACTORS
330
17
102
}
100
AcDbMlineStyle
  2
STANDARD
 70
0
  3

 62
256
 51
90.0
 52
90.0
 71
2
 49
0.5
 62
256
  6
BYLAYER
 49
-0.5
 62
256
  6
BYLAYER
  0
LAYOUT
  5
64F
102
{ACAD_REACTORS
330
1A
102
}
100
AcDbPlotSettings
  1

  2
none_device
  4

  6

 40
0.0
 41
0.0
 42
0.0
 43
0.0
 44
210.0
 45
297.0
 46
0.0
 47
0.0
 48
0.0
 49
0.0
140
0.0
141
0.0
142
1.0
143
1.0
 70
1024
 72
1
 73
0
 74
0
  7

 75
0
147
1.0
148
0.0
149
0.0
100
AcDbLayout
  1
Model
 70
0
 71
0
 10
0.0
 20
0.0
 11
210.0
 21
297.0
 12
0.0
 22
0.0
 32
0.0
 14
0.0
 24
0.0
 34
0.0
 15
0.0
 25
0.0
 35
0.0
146
0.0
 13
0.0
 23
0.0
 33
0.0
 16
1.0
 26
0.0
 36
0.0
 17
0.0
 27
1.0
 37
0.0
 76
0
330
210
345
0
346
0
  0
LAYOUT
  5
650
102
{ACAD_REACTORS
330
1A
102
}
100
AcDbPlotSettings
  1

  2
none_device
  4

  6

 40
0.0
 41
0.0
 42
0.0
 43
0.0
 44
210.0
 45
297.0
 46
0.0
 47
0.0
 48
0.0
 49
0.0
140
0.0
141
0.0
142
1.0
143
1.0
 70
0
 72
1
 73
0
 74
0
  7

 75
0
147
1.0
148
0.0
149
0.0
100
AcDbLayout
  1
Layout1
 70
0
 71
1
 10
0.0
 20
0.0
 11
210.0
 21
297.0
 12
0.0
 22
0.0
 32
0.0
 14
0.0
 24
0.0
 34
0.0
 15
0.0
 25
0.0
 35
0.0
146
0.0
 13
0.0
 23
0.0
 33
0.0
 16
1.0
 26
0.0
 36
0.0
 17
0.0
 27
1.0
 37
0.0
 76
0
330
211
345
0
346
0
  0
ENDSEC
  0
EOF
