999
DXF file: C:\Users\sesa63760\Dev\_Creo\CAD\MCADID0002137_3D-CAD\drw0001_4.dxf
999
Pro/ENGINEER 2019471 by Parametric Technology Corporation
  0
SECTION
  2
HEADER
  9
$ACADVER
  1
AC1024
  9
$DWGCODEPAGE
  3
ANSI_1252
  9
$EXTMAX
 10
44.9257975438
 20
63.5379136691
 30
0.0
  9
$EXTMIN
 10
0.0
 20
0.0
 30
0.0
  9
$LIMMIN
 10
0.0
 20
0.0
  9
$LIMMAX
 10
44.9257975438
 20
63.5379136691
  9
$VIEWCTR
 10
22.4628987719
 20
31.7689568345
  9
$VIEWSIZE
 40
63.5379136691
  9
$CLAYER
  8
0
  9
$LTSCALE
 40
4.1417306688
  9
$CELTYPE
  6
BYLAYER
  9
$DIMSCALE
 40
1.0
  9
$DIMASZ
 40
0.5348309231
  9
$DIMEXO
 40
1.0
  9
$DIMDLI
 40
2.8615593712
  9
$DIMEXE
 40
1.0
  9
$DIMCEN
 40
0.6777377458
  9
$DIMLFAC
 40
1.0
  9
$DIMBLK
  1
_FILLED
  9
$DIMALT
 70
0
  9
$DIMALTF
 40
0.0393700787
  9
$DIMTXT
 40
0.7487632924
  9
$DIMTOL
 70
1
  9
$DIMLIM
 70
0
  9
$DIMTFAC
 40
1.0
  9
$DIMTP
 40
0.01
  9
$DIMTM
 40
0.01
  9
$DIMGAP
 40
0.625
  9
$DIMDSEP
 70
46
  9
$AUNITS
 70
0
  9
$PDMODE
 70
3
  9
$PDSIZE
 40
0.3125
  9
$HANDSEED
  5
2B9
  9
$TILEMODE
 70
1
  9
$MEASUREMENT
 70
1
  9
$INSUNITS
 70
4
  0
ENDSEC
  0
SECTION
  2
CLASSES
  0
CLASS
  1
ACDBDICTIONARYWDFLT
  2
AcDbDictionaryWithDefault
  3
AutoCAD 2000
 90
0
 91
1
280
0
281
0
  0
CLASS
  1
ACDBPLACEHOLDER
  2
AcDbPlaceHolder
  3
AutoCAD 2000
 90
0
 91
1
280
0
281
0
  0
CLASS
  1
LAYOUT
  2
AcDbLayout
  3
AutoCAD 2000
 90
0
 91
0
280
0
281
0
  0
ENDSEC
  0
SECTION
  2
TABLES
  0
TABLE
  2
VPORT
  5
8
100
AcDbSymbolTable
 70
2
  0
VPORT
  5
1F4
100
AcDbSymbolTableRecord
100
AcDbViewportTableRecord
  2
*ACTIVE
 70
0
 10
0.0
 20
0.0
 11
1.0
 21
1.0
 12
22.4628987719
 22
31.7689568345
 13
0.0
 23
0.0
 14
1.0
 24
1.0
 15
0.0
 25
0.0
 16
0.0
 26
0.0
 36
1.0
 17
0.0
 27
0.0
 37
0.0
 40
63.5379136691
 41
0.7070707071
 42
50.0
 43
0.0
 44
0.0
 50
0.0
 51
0.0
 71
0
 72
100
 73
1
 74
1
 75
0
 76
0
 77
0
 78
0
  0
ENDTAB
  0
TABLE
  2
LTYPE
  5
5
100
AcDbSymbolTable
 70
6
  0
LTYPE
  5
14
100
AcDbSymbolTableRecord
100
AcDbLinetypeTableRecord
  2
BYBLOCK
 70
0
  3

 72
65
 73
0
 40
0.0
  0
LTYPE
  5
15
100
AcDbSymbolTableRecord
100
AcDbLinetypeTableRecord
  2
BYLAYER
 70
0
  3

 72
65
 73
0
 40
0.0
  0
LTYPE
  5
16
100
AcDbSymbolTableRecord
100
AcDbLinetypeTableRecord
  2
CONTINUOUS
 70
64
  3
Solid line
 72
65
 73
0
 40
0.0
  0
LTYPE
  5
1F5
100
AcDbSymbolTableRecord
100
AcDbLinetypeTableRecord
  2
CENTER
 70
64
  3
____ _ ____ _ ____ _ ____ _ ____ _ ____ _ ____
 72
65
 73
4
 40
0.6
 49
0.375
 74
0
 49
-0.075
 74
0
 49
0.075
 74
0
 49
-0.075
 74
0
  0
LTYPE
  5
1F6
100
AcDbSymbolTableRecord
100
AcDbLinetypeTableRecord
  2
HIDDEN
 70
64
  3
- - - - - - - - - - - - - - - - - - - -
 72
65
 73
2
 40
0.2
 49
0.1
 74
0
 49
-0.1
 74
0
  0
LTYPE
  5
1F7
100
AcDbSymbolTableRecord
100
AcDbLinetypeTableRecord
  2
PHANTOM
 70
64
  3
_____ _ _ _____ _ _ _____ _ _ _____
 72
65
 73
6
 40
0.8
 49
0.45
 74
0
 49
-0.05
 74
0
 49
0.1
 74
0
 49
-0.05
 74
0
 49
0.1
 74
0
 49
-0.05
 74
0
  0
LTYPE
  5
1F8
100
AcDbSymbolTableRecord
100
AcDbLinetypeTableRecord
  2
DOT
 70
64
  3
. . . . . . . . . . . . . . . . . . . .
 72
65
 73
2
 40
0.2
 49
0.1
 74
0
 49
-0.1
 74
0
  0
LTYPE
  5
1F9
100
AcDbSymbolTableRecord
100
AcDbLinetypeTableRecord
  2
DASHED
 70
64
  3
- - - - - - - - - - - - - - - - - - - -
 72
65
 73
2
 40
0.2
 49
0.1
 74
0
 49
-0.1
 74
0
  0
ENDTAB
  0
TABLE
  2
LAYER
  5
2
100
AcDbSymbolTable
 70
36
  0
LAYER
  5
10
100
AcDbSymbolTableRecord
100
AcDbLayerTableRecord
  2
0
 70
0
 62
7
  6
CONTINUOUS
370
-3
390
F
  0
LAYER
  5
1FA
100
AcDbSymbolTableRecord
100
AcDbLayerTableRecord
  2
DEFAULT_1
 70
0
 62
7
  6
CENTER
370
-3
390
F
  0
LAYER
  5
1FB
100
AcDbSymbolTableRecord
100
AcDbLayerTableRecord
  2
DEFAULT_2
 70
0
 62
8
  6
HIDDEN
370
-3
390
F
  0
LAYER
  5
1FC
100
AcDbSymbolTableRecord
100
AcDbLayerTableRecord
  2
DEFAULT_3
 70
0
 62
7
  6
PHANTOM
370
-3
390
F
  0
LAYER
  5
1FD
100
AcDbSymbolTableRecord
100
AcDbLayerTableRecord
  2
00_COMPONENTS
 70
0
 62
7
  6
CONTINUOUS
370
-3
390
F
  0
LAYER
  5
1FE
100
AcDbSymbolTableRecord
100
AcDbLayerTableRecord
  2
01_1_DEFAULT_DATUMS
 70
0
 62
7
  6
CONTINUOUS
370
-3
390
F
  0
LAYER
  5
1FF
100
AcDbSymbolTableRecord
100
AcDbLayerTableRecord
  2
01_PLANES
 70
0
 62
7
  6
CONTINUOUS
370
-3
390
F
  0
LAYER
  5
200
100
AcDbSymbolTableRecord
100
AcDbLayerTableRecord
  2
02_COORD_SYS
 70
0
 62
7
  6
CONTINUOUS
370
-3
390
F
  0
LAYER
  5
201
100
AcDbSymbolTableRecord
100
AcDbLayerTableRecord
  2
03_AXES
 70
0
 62
7
  6
CONTINUOUS
370
-3
390
F
  0
LAYER
  5
202
100
AcDbSymbolTableRecord
100
AcDbLayerTableRecord
  2
04_POINTS
 70
0
 62
7
  6
CONTINUOUS
370
-3
390
F
  0
LAYER
  5
203
100
AcDbSymbolTableRecord
100
AcDbLayerTableRecord
  2
05_CURVES
 70
0
 62
7
  6
CONTINUOUS
370
-3
390
F
  0
LAYER
  5
204
100
AcDbSymbolTableRecord
100
AcDbLayerTableRecord
  2
06_SURFS
 70
0
 62
7
  6
CONTINUOUS
370
-3
390
F
  0
LAYER
  5
205
100
AcDbSymbolTableRecord
100
AcDbLayerTableRecord
  2
07_COSMETICS
 70
0
 62
7
  6
CONTINUOUS
370
-3
390
F
  0
LAYER
  5
206
100
AcDbSymbolTableRecord
100
AcDbLayerTableRecord
  2
10_NOTES
 70
0
 62
7
  6
CONTINUOUS
370
-3
390
F
  0
LAYER
  5
207
100
AcDbSymbolTableRecord
100
AcDbLayerTableRecord
  2
11_NOTES_PUB
 70
0
 62
7
  6
CONTINUOUS
370
-3
390
F
  0
LAYER
  5
208
100
AcDbSymbolTableRecord
100
AcDbLayerTableRecord
  2
13_REF_GTOL
 70
0
 62
7
  6
CONTINUOUS
370
-3
390
F
  0
LAYER
  5
209
100
AcDbSymbolTableRecord
100
AcDbLayerTableRecord
  2
16_MISC
 70
0
 62
7
  6
CONTINUOUS
370
-3
390
F
  0
LAYER
  5
20A
100
AcDbSymbolTableRecord
100
AcDbLayerTableRecord
  2
17_NO_PRINT
 70
0
 62
7
  6
CONTINUOUS
370
-3
390
F
  0
LAYER
  5
20B
100
AcDbSymbolTableRecord
100
AcDbLayerTableRecord
  2
18_DATUM_CAMS_JOINTS
 70
0
 62
7
  6
CONTINUOUS
370
-3
390
F
  0
LAYER
  5
20C
100
AcDbSymbolTableRecord
100
AcDbLayerTableRecord
  2
19_DATUM_FUNCTIONAL
 70
0
 62
7
  6
CONTINUOUS
370
-3
390
F
  0
LAYER
  5
20D
100
AcDbSymbolTableRecord
100
AcDbLayerTableRecord
  2
20_DATUM_KINEMATIC_SCHEME
 70
0
 62
7
  6
CONTINUOUS
370
-3
390
F
  0
ENDTAB
  0
TABLE
  2
STYLE
  5
3
100
AcDbSymbolTable
 70
1
  0
STYLE
  5
11
100
AcDbSymbolTableRecord
100
AcDbTextStyleTableRecord
  2
STANDARD
 70
0
 40
0.0
 41
0.8
 50
0.0
 71
0
 42
0.2
  3
txt
  4

  0
STYLE
  5
20E
100
AcDbSymbolTableRecord
100
AcDbTextStyleTableRecord
  2
TEXTSTYLE_1
 70
0
 40
0.0
 41
0.8
 50
0.0
 71
0
 42
0.2
  3
gdt
  4

  0
ENDTAB
  0
TABLE
  2
VIEW
  5
6
100
AcDbSymbolTable
 70
0
  0
ENDTAB
  0
TABLE
  2
UCS
  5
7
100
AcDbSymbolTable
 70
0
  0
ENDTAB
  0
TABLE
  2
APPID
  5
9
100
AcDbSymbolTable
 70
1
  0
APPID
  5
20F
100
AcDbSymbolTableRecord
100
AcDbRegAppTableRecord
  2
ACAD
 70
0
  0
ENDTAB
  0
TABLE
  2
BLOCK_RECORD
  5
1
100
AcDbSymbolTable
 70
0
  0
BLOCK_RECORD
  5
210
100
AcDbSymbolTableRecord
100
AcDbBlockTableRecord
  2
*Model_Space
  0
BLOCK_RECORD
  5
211
100
AcDbSymbolTableRecord
100
AcDbBlockTableRecord
  2
*Paper_Space
  0
BLOCK_RECORD
  5
212
100
AcDbSymbolTableRecord
100
AcDbBlockTableRecord
  2
_FILLED
  0
ENDTAB
  0
TABLE
  2
DIMSTYLE
  5
A
100
AcDbSymbolTable
 70
1
100
AcDbDimStyleTable
 71
0
  0
DIMSTYLE
105
213
100
AcDbSymbolTableRecord
100
AcDbDimStyleTableRecord
  2
STANDARD
 70
0
  3

  4

 40
1.0
 41
0.5348309231
 42
1.0
 43
0.38
 44
1.0
 45
0.0
 46
0.0
 47
0.01
 48
0.01
140
0.7487632924
141
0.09
142
0.0
143
25.4
144
1.0
145
0.0
146
1.0
147
0.625
 71
1
 72
0
 73
0
 74
0
 75
0
 76
0
 77
1
 78
8
 79
2
170
0
171
1
172
0
173
0
174
0
175
0
176
0
177
0
178
0
270
2
179
2
271
2
272
2
273
2
274
2
275
0
280
0
281
0
282
0
283
1
284
8
285
0
286
0
287
3
288
0
340
11
278
46
341
212
342
212
343
212
344
212
  0
ENDTAB
  0
ENDSEC
  0
SECTION
  2
BLOCKS
  0
BLOCK
  5
20
100
AcDbEntity
  8
0
100
AcDbBlockBegin
  2
*Model_Space
 70
0
 10
0.0
 20
0.0
 30
0.0
  3
*Model_Space
  1

  0
ENDBLK
  5
21
100
AcDbEntity
  8
0
100
AcDbBlockEnd
  0
BLOCK
  5
1C
100
AcDbEntity
  8
0
100
AcDbBlockBegin
  2
*Paper_Space
 70
0
 10
0.0
 20
0.0
 30
0.0
  3
*Paper_Space
  1

  0
ENDBLK
  5
1D
100
AcDbEntity
  8
0
100
AcDbBlockEnd
  0
BLOCK
  5
214
100
AcDbEntity
  8
0
100
AcDbBlockBegin
  2
_FILLED
 70
64
 10
0.0
 20
0.0
  3
_FILLED
  1

  0
SOLID
  5
215
100
AcDbEntity
  8
0
  6
BYBLOCK
 62
0
100
AcDbTrace
 10
0.0
 20
0.0
 11
-1.0
 21
0.25
 12
-1.0
 22
-0.25
 13
-1.0
 23
-0.25
  0
ENDBLK
  5
216
100
AcDbEntity
  8
0
  6
BYBLOCK
 62
0
100
AcDbBlockEnd
  0
ENDSEC
  0
SECTION
  2
ENTITIES
  0
LINE
  5
217
100
AcDbEntity
  8
0
100
AcDbLine
 62
7
  6
CONTINUOUS
 10
8.7961721532
 20
58.1095323741
 11
10.4361721532
 21
58.5995323741
  0
LINE
  5
218
100
AcDbEntity
  8
0
100
AcDbLine
 62
7
  6
CONTINUOUS
 10
37.9711721532
 20
4.5495323741
 11
28.1711721532
 21
4.5495323741
  0
LINE
  5
219
100
AcDbEntity
  8
0
100
AcDbLine
 62
7
  6
CONTINUOUS
 10
27.9461721532
 20
4.5495323741
 11
18.1461721532
 21
4.5495323741
  0
LINE
  5
21A
100
AcDbEntity
  8
0
100
AcDbLine
 62
7
  6
CONTINUOUS
 10
17.9211721532
 20
4.5495323741
 11
8.1211721532
 21
4.5495323741
  0
LINE
  5
21B
100
AcDbEntity
  8
0
100
AcDbLine
 62
7
  6
CONTINUOUS
 10
26.5461721532
 20
6.2931789943
 11
19.5461721532
 21
6.2931789943
  0
LINE
  5
21C
100
AcDbEntity
  8
0
100
AcDbLine
 62
7
  6
CONTINUOUS
 10
36.5711721532
 20
6.3260779871
 11
29.5711721532
 21
6.3260779871
  0
LINE
  5
21D
100
AcDbEntity
  8
0
100
AcDbLine
 62
7
  6
CONTINUOUS
 10
16.5211721532
 20
6.3260779871
 11
9.5211721532
 21
6.3260779871
  0
LINE
  5
21E
100
AcDbEntity
  8
0
100
AcDbLine
 62
7
  6
CONTINUOUS
 10
19.5461721532
 20
7.1995323741
 11
26.5461721532
 21
7.1995323741
  0
LINE
  5
21F
100
AcDbEntity
  8
0
100
AcDbLine
 62
7
  6
CONTINUOUS
 10
16.5211721532
 20
7.2495323741
 11
9.5211721532
 21
7.2495323741
  0
LINE
  5
220
100
AcDbEntity
  8
0
100
AcDbLine
 62
7
  6
CONTINUOUS
 10
29.5711721532
 20
7.2495323741
 11
36.5711721532
 21
7.2495323741
  0
LINE
  5
221
100
AcDbEntity
  8
0
100
AcDbLine
 62
7
  6
CONTINUOUS
 10
37.9711721532
 20
8.6707485033
 11
36.5711721532
 21
8.6707485033
  0
LINE
  5
222
100
AcDbEntity
  8
0
100
AcDbLine
 62
7
  6
CONTINUOUS
 10
29.5711721532
 20
8.6707485033
 11
28.1711721532
 21
8.6707485033
  0
LINE
  5
223
100
AcDbEntity
  8
0
100
AcDbLine
 62
7
  6
CONTINUOUS
 10
27.9461721532
 20
8.6707485033
 11
26.5461721532
 21
8.6707485033
  0
LINE
  5
224
100
AcDbEntity
  8
0
100
AcDbLine
 62
7
  6
CONTINUOUS
 10
19.5461721532
 20
8.6707485033
 11
18.1461721532
 21
8.6707485033
  0
LINE
  5
225
100
AcDbEntity
  8
0
100
AcDbLine
 62
7
  6
CONTINUOUS
 10
17.9211721532
 20
8.6707485033
 11
16.5211721532
 21
8.6707485033
  0
LINE
  5
226
100
AcDbEntity
  8
0
100
AcDbLine
 62
7
  6
CONTINUOUS
 10
9.5211721532
 20
8.6707485033
 11
8.1211721532
 21
8.6707485033
  0
LINE
  5
227
100
AcDbEntity
  8
0
100
AcDbLine
 62
7
  6
CONTINUOUS
 10
16.5211721532
 20
10.6978514966
 11
9.5211721532
 21
10.6978514966
  0
LINE
  5
228
100
AcDbEntity
  8
0
100
AcDbLine
 62
7
  6
CONTINUOUS
 10
29.5711721532
 20
10.6978514966
 11
36.5711721532
 21
10.6978514966
  0
LINE
  5
229
100
AcDbEntity
  8
0
100
AcDbLine
 62
7
  6
CONTINUOUS
 10
19.5461721532
 20
11.3230318534
 11
26.5461721532
 21
11.3230318534
  0
LINE
  5
22A
100
AcDbEntity
  8
0
100
AcDbLine
 62
7
  6
CONTINUOUS
 10
9.5211721532
 20
11.5889928975
 11
16.5211721532
 21
11.5889928975
  0
LINE
  5
22B
100
AcDbEntity
  8
0
100
AcDbLine
 62
7
  6
CONTINUOUS
 10
29.5711721532
 20
11.5889928975
 11
36.5711721532
 21
11.5889928975
  0
LINE
  5
22C
100
AcDbEntity
  8
0
100
AcDbLine
 62
7
  6
CONTINUOUS
 10
36.5711721532
 20
11.6997367808
 11
29.5711721532
 21
11.6997367808
  0
LINE
  5
22D
100
AcDbEntity
  8
0
100
AcDbLine
 62
7
  6
CONTINUOUS
 10
16.5211721532
 20
11.6997367808
 11
9.5211721532
 21
11.6997367808
  0
LINE
  5
22E
100
AcDbEntity
  8
0
100
AcDbLine
 62
7
  6
CONTINUOUS
 10
9.5211721532
 20
11.7023138568
 11
16.5211721532
 21
11.7023138568
  0
LINE
  5
22F
100
AcDbEntity
  8
0
100
AcDbLine
 62
7
  6
CONTINUOUS
 10
29.5711721532
 20
11.7023138568
 11
36.5711721532
 21
11.7023138568
  0
LINE
  5
230
100
AcDbEntity
  8
0
100
AcDbLine
 62
7
  6
CONTINUOUS
 10
36.5711721532
 20
11.7068715309
 11
29.5711721532
 21
11.7068715309
  0
LINE
  5
231
100
AcDbEntity
  8
0
100
AcDbLine
 62
7
  6
CONTINUOUS
 10
16.5211721532
 20
11.7068715309
 11
9.5211721532
 21
11.7068715309
  0
LINE
  5
232
100
AcDbEntity
  8
0
100
AcDbLine
 62
7
  6
CONTINUOUS
 10
19.5461721532
 20
12.3269965704
 11
26.5461721532
 21
12.3269965704
  0
LINE
  5
233
100
AcDbEntity
  8
0
100
AcDbLine
 62
7
  6
CONTINUOUS
 10
19.5461721532
 20
12.3443613881
 11
26.5461721532
 21
12.3443613881
  0
LINE
  5
234
100
AcDbEntity
  8
0
100
AcDbLine
 62
7
  6
CONTINUOUS
 10
26.5461721532
 20
12.3489190622
 11
19.5461721532
 21
12.3489190622
  0
LINE
  5
235
100
AcDbEntity
  8
0
100
AcDbLine
 62
7
  6
CONTINUOUS
 10
16.5211721532
 20
12.3692906999
 11
14.5711721532
 21
12.3692906999
  0
LINE
  5
236
100
AcDbEntity
  8
0
100
AcDbLine
 62
7
  6
CONTINUOUS
 10
11.5711721532
 20
12.3692906999
 11
9.5211721532
 21
12.3692906999
  0
LINE
  5
237
100
AcDbEntity
  8
0
100
AcDbLine
 62
7
  6
CONTINUOUS
 10
29.5711721532
 20
12.3692906999
 11
31.4711721532
 21
12.3692906999
  0
LINE
  5
238
100
AcDbEntity
  8
0
100
AcDbLine
 62
7
  6
CONTINUOUS
 10
34.4711721532
 20
12.3692906999
 11
36.5711721532
 21
12.3692906999
  0
LINE
  5
239
100
AcDbEntity
  8
0
100
AcDbLine
 62
7
  6
CONTINUOUS
 10
36.5711721532
 20
13.5646923913
 11
29.5711721532
 21
13.5646923913
  0
LINE
  5
23A
100
AcDbEntity
  8
0
100
AcDbLine
 62
7
  6
CONTINUOUS
 10
16.5211721532
 20
13.5646923913
 11
9.5211721532
 21
13.5646923913
  0
LINE
  5
23B
100
AcDbEntity
  8
0
100
AcDbLine
 62
7
  6
CONTINUOUS
 10
19.5461721532
 20
14.4782405876
 11
26.5461721532
 21
14.4782405876
  0
LINE
  5
23C
100
AcDbEntity
  8
0
100
AcDbLine
 62
7
  6
CONTINUOUS
 10
37.9711721532
 20
14.5365546803
 11
28.1711721532
 21
14.5365546803
  0
LINE
  5
23D
100
AcDbEntity
  8
0
100
AcDbLine
 62
7
  6
CONTINUOUS
 10
27.9461721532
 20
14.5365546803
 11
18.1461721532
 21
14.5365546803
  0
LINE
  5
23E
100
AcDbEntity
  8
0
100
AcDbLine
 62
7
  6
CONTINUOUS
 10
17.9211721532
 20
14.5365546803
 11
8.1211721532
 21
14.5365546803
  0
LINE
  5
23F
100
AcDbEntity
  8
0
100
AcDbLine
 62
7
  6
CONTINUOUS
 10
8.0961721532
 20
25.1495323741
 11
8.0961721532
 21
34.9495323741
  0
LINE
  5
240
100
AcDbEntity
  8
0
100
AcDbLine
 62
7
  6
CONTINUOUS
 10
8.1211721532
 20
4.5495323741
 11
8.1211721532
 21
25.1495323741
  0
LINE
  5
241
100
AcDbEntity
  8
0
100
AcDbLine
 62
7
  6
CONTINUOUS
 10
8.3821607744
 20
40.9495323741
 11
8.3821607744
 21
34.9495323741
  0
LINE
  5
242
100
AcDbEntity
  8
0
100
AcDbLine
 62
7
  6
CONTINUOUS
 10
8.7961721532
 20
48.5495323741
 11
8.7961721532
 21
58.1095323741
  0
LINE
  5
243
100
AcDbEntity
  8
0
100
AcDbLine
 62
7
  6
CONTINUOUS
 10
9.4761721532
 20
47.2995323741
 11
9.4761721532
 21
48.5495323741
  0
LINE
  5
244
100
AcDbEntity
  8
0
100
AcDbLine
 62
7
  6
CONTINUOUS
 10
9.5211721532
 20
6.3260779871
 11
9.5211721532
 21
13.5646923913
  0
LINE
  5
245
100
AcDbEntity
  8
0
100
AcDbLine
 62
7
  6
CONTINUOUS
 10
10.9211721532
 20
30.5663336886
 11
10.9211721532
 21
34.9495323741
  0
LINE
  5
246
100
AcDbEntity
  8
0
100
AcDbLine
 62
7
  6
CONTINUOUS
 10
10.9211721532
 20
40.9495323741
 11
10.9211721532
 21
41.1495323741
  0
LINE
  5
247
100
AcDbEntity
  8
0
100
AcDbLine
 62
7
  6
CONTINUOUS
 10
11.5711721532
 20
11.8653618776
 11
11.5711721532
 21
13.5646923913
  0
LINE
  5
248
100
AcDbEntity
  8
0
100
AcDbLine
 62
7
  6
CONTINUOUS
 10
12.1761721532
 20
44.3495323741
 11
12.1761721532
 21
47.2995323741
  0
LINE
  5
249
100
AcDbEntity
  8
0
100
AcDbLine
 62
7
  6
CONTINUOUS
 10
12.1821607744
 20
34.9495323741
 11
12.1821607744
 21
40.9495323741
  0
LINE
  5
24A
100
AcDbEntity
  8
0
100
AcDbLine
 62
7
  6
CONTINUOUS
 10
12.5461721532
 20
41.1495323741
 11
12.5461721532
 21
44.3495323741
  0
LINE
  5
24B
100
AcDbEntity
  8
0
100
AcDbLine
 62
7
  6
CONTINUOUS
 10
14.3961721532
 20
26.7083781009
 11
14.3961721532
 21
30.5663336886
  0
LINE
  5
24C
100
AcDbEntity
  8
0
100
AcDbLine
 62
7
  6
CONTINUOUS
 10
14.5086080978
 20
41.1495323741
 11
14.5086080978
 21
40.9495323741
  0
LINE
  5
24D
100
AcDbEntity
  8
0
100
AcDbLine
 62
7
  6
CONTINUOUS
 10
14.5711721532
 20
13.5646923913
 11
14.5711721532
 21
11.8653618776
  0
LINE
  5
24E
100
AcDbEntity
  8
0
100
AcDbLine
 62
7
  6
CONTINUOUS
 10
23.8502163983
 20
23.0726474973
 11
22.8644501767
 21
23.0434534445
  0
LINE
  5
24F
100
AcDbEntity
  8
0
100
AcDbLine
 62
7
  6
CONTINUOUS
 10
25.0766829559
 20
23.3732033385
 11
23.5980336236
 21
23.3294122593
  0
LINE
  5
250
100
AcDbEntity
  8
0
100
AcDbLine
 62
7
  6
CONTINUOUS
 10
22.612267402
 20
23.3002182064
 11
21.1336180696
 21
23.2564271272
  0
LINE
  5
251
100
AcDbEntity
  8
0
100
AcDbLine
 62
7
  6
CONTINUOUS
 10
20.9654962198
 20
23.4276036352
 11
22.4441455522
 21
23.4713947144
  0
LINE
  5
252
100
AcDbEntity
  8
0
100
AcDbLine
 62
7
  6
CONTINUOUS
 10
23.4299117738
 20
23.5005887673
 11
24.9085611061
 21
23.5443798465
  0
LINE
  5
253
100
AcDbEntity
  8
0
100
AcDbLine
 62
7
  6
CONTINUOUS
 10
23.3802689178
 20
23.5511335997
 11
22.8644501767
 21
23.535857321
  0
LINE
  5
254
100
AcDbEntity
  8
0
100
AcDbLine
 62
7
  6
CONTINUOUS
 10
15.8021607744
 20
40.9495323741
 11
15.8021607744
 21
34.9495323741
  0
LINE
  5
255
100
AcDbEntity
  8
0
100
AcDbLine
 62
7
  6
CONTINUOUS
 10
16.3009056954
 20
40.9495323741
 11
16.3009056954
 21
34.9495323741
  0
LINE
  5
256
100
AcDbEntity
  8
0
100
AcDbLine
 62
7
  6
CONTINUOUS
 10
16.5211721532
 20
6.3260779871
 11
16.5211721532
 21
13.5646923913
  0
LINE
  5
257
100
AcDbEntity
  8
0
100
AcDbLine
 62
7
  6
CONTINUOUS
 10
22.1919627775
 20
23.7281594764
 11
23.1777289991
 21
23.7573535292
  0
LINE
  5
258
100
AcDbEntity
  8
0
100
AcDbLine
 62
7
  6
CONTINUOUS
 10
37.9711721532
 20
24.3495323741
 11
28.1711721532
 21
24.3495323741
  0
LINE
  5
259
100
AcDbEntity
  8
0
100
AcDbLine
 62
7
  6
CONTINUOUS
 10
27.9461721532
 20
24.3495323741
 11
26.0461721532
 21
24.3495323741
  0
LINE
  5
25A
100
AcDbEntity
  8
0
100
AcDbLine
 62
7
  6
CONTINUOUS
 10
20.0461721532
 20
24.3495323741
 11
18.1461721532
 21
24.3495323741
  0
LINE
  5
25B
100
AcDbEntity
  8
0
100
AcDbLine
 62
7
  6
CONTINUOUS
 10
17.9211721532
 20
24.3495323741
 11
8.1211721532
 21
24.3495323741
  0
LINE
  5
25C
100
AcDbEntity
  8
0
100
AcDbLine
 62
7
  6
CONTINUOUS
 10
8.0961721532
 20
25.1495323741
 11
20.0461721532
 21
25.1495323741
  0
LINE
  5
25D
100
AcDbEntity
  8
0
100
AcDbLine
 62
7
  6
CONTINUOUS
 10
26.0461721532
 20
25.1495323741
 11
37.9961721532
 21
25.1495323741
  0
LINE
  5
25E
100
AcDbEntity
  8
0
100
AcDbLine
 62
7
  6
CONTINUOUS
 10
21.1336180696
 20
23.2564271272
 11
20.9654962198
 21
23.4276036352
  0
LINE
  5
25F
100
AcDbEntity
  8
0
100
AcDbLine
 62
7
  6
CONTINUOUS
 10
22.8644501767
 20
23.0434534445
 11
22.612267402
 21
23.3002182064
  0
LINE
  5
260
100
AcDbEntity
  8
0
100
AcDbLine
 62
7
  6
CONTINUOUS
 10
22.4441455522
 20
23.4713947144
 11
22.1919627775
 21
23.7281594764
  0
LINE
  5
261
100
AcDbEntity
  8
0
100
AcDbLine
 62
7
  6
CONTINUOUS
 10
20.0461734867
 20
23.4065501783
 11
20.0888734884
 21
23.3189680198
  0
LINE
  5
262
100
AcDbEntity
  8
0
100
AcDbLine
 62
7
  6
CONTINUOUS
 10
17.5815141577
 20
30.5663336886
 11
17.5815141577
 21
34.9495323741
  0
LINE
  5
263
100
AcDbEntity
  8
0
100
AcDbLine
 62
7
  6
CONTINUOUS
 10
17.5815141577
 20
40.9495323741
 11
17.5815141577
 21
41.1495323741
  0
LINE
  5
264
100
AcDbEntity
  8
0
100
AcDbLine
 62
7
  6
CONTINUOUS
 10
17.9211721532
 20
4.5495323741
 11
17.9211721532
 21
25.1495323741
  0
LINE
  5
265
100
AcDbEntity
  8
0
100
AcDbLine
 62
7
  6
CONTINUOUS
 10
18.1461721532
 20
4.5495323741
 11
18.1461721532
 21
25.1495323741
  0
LINE
  5
266
100
AcDbEntity
  8
0
100
AcDbLine
 62
7
  6
CONTINUOUS
 10
8.0961721532
 20
26.7083781009
 11
37.9961721532
 21
26.7083781009
  0
LINE
  5
267
100
AcDbEntity
  8
0
100
AcDbLine
 62
7
  6
CONTINUOUS
 10
22.8644501767
 20
23.535857321
 11
22.6619102579
 21
23.7420772505
  0
LINE
  5
268
100
AcDbEntity
  8
0
100
AcDbLine
 62
7
  6
CONTINUOUS
 10
23.1777289991
 20
23.7573535292
 11
23.4299117738
 21
23.5005887673
  0
LINE
  5
269
100
AcDbEntity
  8
0
100
AcDbLine
 62
7
  6
CONTINUOUS
 10
23.5980336236
 20
23.3294122593
 11
23.8502163983
 21
23.0726474973
  0
LINE
  5
26A
100
AcDbEntity
  8
0
100
AcDbLine
 62
7
  6
CONTINUOUS
 10
24.9085611061
 20
23.5443798465
 11
25.0766829559
 21
23.3732033385
  0
LINE
  5
26B
100
AcDbEntity
  8
0
100
AcDbLine
 62
7
  6
CONTINUOUS
 10
19.5461721532
 20
6.2931789943
 11
19.5461721532
 21
14.5365546803
  0
LINE
  5
26C
100
AcDbEntity
  8
0
100
AcDbLine
 62
7
  6
CONTINUOUS
 10
20.0461721532
 20
23.4065501783
 11
20.0461721532
 21
25.8685695608
  0
LINE
  5
26D
100
AcDbEntity
  8
0
100
AcDbLine
 62
7
  6
CONTINUOUS
 10
20.0635962534
 20
30.5663336886
 11
20.0635962534
 21
34.9495323741
  0
LINE
  5
26E
100
AcDbEntity
  8
0
100
AcDbLine
 62
7
  6
CONTINUOUS
 10
20.0635962534
 20
40.9495323741
 11
20.0635962534
 21
41.1495323741
  0
LINE
  5
26F
100
AcDbEntity
  8
0
100
AcDbLine
 62
7
  6
CONTINUOUS
 10
20.1009056954
 20
34.9495323741
 11
20.1009056954
 21
40.9495323741
  0
LINE
  5
270
100
AcDbEntity
  8
0
100
AcDbLine
 62
7
  6
CONTINUOUS
 10
20.3461721532
 20
12.3489190622
 11
20.3461721532
 21
14.4782405876
  0
LINE
  5
271
100
AcDbEntity
  8
0
100
AcDbLine
 62
7
  6
CONTINUOUS
 10
21.0461721532
 20
46.5495323741
 11
21.0461721532
 21
40.9495323741
  0
LINE
  5
272
100
AcDbEntity
  8
0
100
AcDbLine
 62
7
  6
CONTINUOUS
 10
21.0461721532
 20
34.9495323741
 11
21.0461721532
 21
30.5663336886
  0
LINE
  5
273
100
AcDbEntity
  8
0
100
AcDbLine
 62
7
  6
CONTINUOUS
 10
21.0461721532
 20
26.7083781009
 11
21.0461721532
 21
26.2521252934
  0
LINE
  5
274
100
AcDbEntity
  8
0
100
AcDbLine
 62
7
  6
CONTINUOUS
 10
21.1336180696
 20
23.4325826637
 11
21.1336180696
 21
23.2564271272
  0
LINE
  5
275
100
AcDbEntity
  8
0
100
AcDbLine
 62
7
  6
CONTINUOUS
 10
21.6790771407
 20
30.5663336886
 11
21.6790771407
 21
26.7083781009
  0
LINE
  5
276
100
AcDbEntity
  8
0
100
AcDbLine
 62
7
  6
CONTINUOUS
 10
22.4441455522
 20
23.7356280192
 11
22.4441455522
 21
23.4713947144
  0
LINE
  5
277
100
AcDbEntity
  8
0
100
AcDbLine
 62
7
  6
CONTINUOUS
 10
22.612267402
 20
23.7406070478
 11
22.612267402
 21
23.3002182064
  0
LINE
  5
278
100
AcDbEntity
  8
0
100
AcDbLine
 62
7
  6
CONTINUOUS
 10
22.8644501767
 20
23.535857321
 11
22.8644501767
 21
23.0434534445
  0
LINE
  5
279
100
AcDbEntity
  8
0
100
AcDbLine
 62
7
  6
CONTINUOUS
 10
8.0961721532
 20
30.5663336886
 11
37.9961721532
 21
30.5663336886
  0
LINE
  5
27A
100
AcDbEntity
  8
0
100
AcDbLine
 62
7
  6
CONTINUOUS
 10
26.0461708196
 20
23.4065501783
 11
26.0034708179
 21
23.4941323368
  0
LINE
  5
27B
100
AcDbEntity
  8
0
100
AcDbLine
 62
7
  6
CONTINUOUS
 10
26.0034708179
 20
25.9561517194
 11
26.0461742815
 21
25.8685695608
  0
LINE
  5
27C
100
AcDbEntity
  8
0
100
AcDbLine
 62
7
  6
CONTINUOUS
 10
23.5980336236
 20
23.5055677958
 11
23.5980336236
 21
23.3294122593
  0
LINE
  5
27D
100
AcDbEntity
  8
0
100
AcDbLine
 62
7
  6
CONTINUOUS
 10
24.4132674909
 20
26.7083781009
 11
24.4132674909
 21
30.5663336886
  0
LINE
  5
27E
100
AcDbEntity
  8
0
100
AcDbLine
 62
7
  6
CONTINUOUS
 10
25.0461721532
 20
46.5495323741
 11
25.0461721532
 21
40.9495323741
  0
LINE
  5
27F
100
AcDbEntity
  8
0
100
AcDbLine
 62
7
  6
CONTINUOUS
 10
25.0461721532
 20
34.9495323741
 11
25.0461721532
 21
30.5663336886
  0
LINE
  5
280
100
AcDbEntity
  8
0
100
AcDbLine
 62
7
  6
CONTINUOUS
 10
25.0461721532
 20
26.7083781009
 11
25.0461721532
 21
26.2533722367
  0
LINE
  5
281
100
AcDbEntity
  8
0
100
AcDbLine
 62
7
  6
CONTINUOUS
 10
25.9461721532
 20
14.4782405876
 11
25.9461721532
 21
12.3489190622
  0
LINE
  5
282
100
AcDbEntity
  8
0
100
AcDbLine
 62
7
  6
CONTINUOUS
 10
26.0021607744
 20
40.9495323741
 11
26.0021607744
 21
34.9495323741
  0
LINE
  5
283
100
AcDbEntity
  8
0
100
AcDbLine
 62
7
  6
CONTINUOUS
 10
26.028748053
 20
41.1495323741
 11
26.028748053
 21
40.9495323741
  0
LINE
  5
284
100
AcDbEntity
  8
0
100
AcDbLine
 62
7
  6
CONTINUOUS
 10
26.028748053
 20
34.9495323741
 11
26.028748053
 21
30.5663336886
  0
LINE
  5
285
100
AcDbEntity
  8
0
100
AcDbLine
 62
7
  6
CONTINUOUS
 10
26.0461721532
 20
23.4065501783
 11
26.0461721532
 21
25.8685695608
  0
LINE
  5
286
100
AcDbEntity
  8
0
100
AcDbLine
 62
7
  6
CONTINUOUS
 10
26.5461721532
 20
6.2931789943
 11
26.5461721532
 21
14.5365546803
  0
LINE
  5
287
100
AcDbEntity
  8
0
100
AcDbLine
 62
7
  6
CONTINUOUS
 10
8.0961721532
 20
34.9495323741
 11
37.9961721532
 21
34.9495323741
  0
LINE
  5
288
100
AcDbEntity
  8
0
100
AcDbLine
 62
7
  6
CONTINUOUS
 10
27.9461721532
 20
4.5495323741
 11
27.9461721532
 21
25.1495323741
  0
LINE
  5
289
100
AcDbEntity
  8
0
100
AcDbLine
 62
7
  6
CONTINUOUS
 10
28.1711721532
 20
4.5495323741
 11
28.1711721532
 21
25.1495323741
  0
LINE
  5
28A
100
AcDbEntity
  8
0
100
AcDbLine
 62
7
  6
CONTINUOUS
 10
28.5108301486
 20
30.5663336886
 11
28.5108301486
 21
34.9495323741
  0
LINE
  5
28B
100
AcDbEntity
  8
0
100
AcDbLine
 62
7
  6
CONTINUOUS
 10
28.5108301486
 20
40.9495323741
 11
28.5108301486
 21
41.1495323741
  0
LINE
  5
28C
100
AcDbEntity
  8
0
100
AcDbLine
 62
7
  6
CONTINUOUS
 10
29.5711721532
 20
6.3260779871
 11
29.5711721532
 21
13.5646923913
  0
LINE
  5
28D
100
AcDbEntity
  8
0
100
AcDbLine
 62
7
  6
CONTINUOUS
 10
29.8021607744
 20
34.9495323741
 11
29.8021607744
 21
40.9495323741
  0
LINE
  5
28E
100
AcDbEntity
  8
0
100
AcDbLine
 62
7
  6
CONTINUOUS
 10
30.3009056954
 20
34.9495323741
 11
30.3009056954
 21
40.9495323741
  0
LINE
  5
28F
100
AcDbEntity
  8
0
100
AcDbLine
 62
7
  6
CONTINUOUS
 10
31.4711721532
 20
11.8825801991
 11
31.4711721532
 21
13.5646923913
  0
LINE
  5
290
100
AcDbEntity
  8
0
100
AcDbLine
 62
7
  6
CONTINUOUS
 10
31.5837362086
 20
30.5663336886
 11
31.5837362086
 21
34.9495323741
  0
LINE
  5
291
100
AcDbEntity
  8
0
100
AcDbLine
 62
7
  6
CONTINUOUS
 10
31.5837362086
 20
40.9495323741
 11
31.5837362086
 21
41.1495323741
  0
LINE
  5
292
100
AcDbEntity
  8
0
100
AcDbLine
 62
7
  6
CONTINUOUS
 10
31.6961721532
 20
26.7083781009
 11
31.6961721532
 21
30.5663336886
  0
LINE
  5
293
100
AcDbEntity
  8
0
100
AcDbLine
 62
7
  6
CONTINUOUS
 10
33.5461721532
 20
44.3495323741
 11
33.5461721532
 21
41.1495323741
  0
LINE
  5
294
100
AcDbEntity
  8
0
100
AcDbLine
 62
7
  6
CONTINUOUS
 10
8.3821607744
 20
40.9495323741
 11
37.7209056954
 21
40.9495323741
  0
LINE
  5
295
100
AcDbEntity
  8
0
100
AcDbLine
 62
7
  6
CONTINUOUS
 10
10.9211721532
 20
41.1495323741
 11
21.0461721532
 21
41.1495323741
  0
LINE
  5
296
100
AcDbEntity
  8
0
100
AcDbLine
 62
7
  6
CONTINUOUS
 10
25.0461721532
 20
41.1495323741
 11
35.1737362086
 21
41.1495323741
  0
LINE
  5
297
100
AcDbEntity
  8
0
100
AcDbLine
 62
7
  6
CONTINUOUS
 10
33.9161721532
 20
47.2995323741
 11
33.9161721532
 21
44.3495323741
  0
LINE
  5
298
100
AcDbEntity
  8
0
100
AcDbLine
 62
7
  6
CONTINUOUS
 10
33.9209056954
 20
40.9495323741
 11
33.9209056954
 21
34.9495323741
  0
LINE
  5
299
100
AcDbEntity
  8
0
100
AcDbLine
 62
7
  6
CONTINUOUS
 10
34.4711721532
 20
13.5646923913
 11
34.4711721532
 21
11.8825801991
  0
LINE
  5
29A
100
AcDbEntity
  8
0
100
AcDbLine
 62
7
  6
CONTINUOUS
 10
35.1737362086
 20
30.5663336886
 11
35.1737362086
 21
34.9495323741
  0
LINE
  5
29B
100
AcDbEntity
  8
0
100
AcDbLine
 62
7
  6
CONTINUOUS
 10
35.1737362086
 20
40.9495323741
 11
35.1737362086
 21
41.1495323741
  0
LINE
  5
29C
100
AcDbEntity
  8
0
100
AcDbLine
 62
7
  6
CONTINUOUS
 10
36.5711721532
 20
6.3260779871
 11
36.5711721532
 21
13.5646923913
  0
LINE
  5
29D
100
AcDbEntity
  8
0
100
AcDbLine
 62
7
  6
CONTINUOUS
 10
36.6161721532
 20
48.5495323741
 11
36.6161721532
 21
47.2995323741
  0
LINE
  5
29E
100
AcDbEntity
  8
0
100
AcDbLine
 62
7
  6
CONTINUOUS
 10
37.2961721532
 20
58.1095323741
 11
37.2961721532
 21
48.5495323741
  0
LINE
  5
29F
100
AcDbEntity
  8
0
100
AcDbLine
 62
7
  6
CONTINUOUS
 10
37.7209056954
 20
34.9495323741
 11
37.7209056954
 21
40.9495323741
  0
LINE
  5
2A0
100
AcDbEntity
  8
0
100
AcDbLine
 62
7
  6
CONTINUOUS
 10
33.9161721532
 20
44.3495323741
 11
25.0461721532
 21
44.3495323741
  0
LINE
  5
2A1
100
AcDbEntity
  8
0
100
AcDbLine
 62
7
  6
CONTINUOUS
 10
21.0461721532
 20
44.3495323741
 11
12.1761721532
 21
44.3495323741
  0
LINE
  5
2A2
100
AcDbEntity
  8
0
100
AcDbLine
 62
7
  6
CONTINUOUS
 10
37.9711721532
 20
25.1495323741
 11
37.9711721532
 21
4.5495323741
  0
LINE
  5
2A3
100
AcDbEntity
  8
0
100
AcDbLine
 62
7
  6
CONTINUOUS
 10
37.9961721532
 20
25.1495323741
 11
37.9961721532
 21
34.9495323741
  0
LINE
  5
2A4
100
AcDbEntity
  8
0
100
AcDbLine
 62
7
  6
CONTINUOUS
 10
36.6161721532
 20
47.2995323741
 11
9.4761721532
 21
47.2995323741
  0
LINE
  5
2A5
100
AcDbEntity
  8
0
100
AcDbLine
 62
7
  6
CONTINUOUS
 10
37.2961721532
 20
48.5495323741
 11
8.7961721532
 21
48.5495323741
  0
LINE
  5
2A6
100
AcDbEntity
  8
0
100
AcDbLine
 62
7
  6
CONTINUOUS
 10
8.7961721532
 20
58.1095323741
 11
37.2961721532
 21
58.1095323741
  0
LINE
  5
2A7
100
AcDbEntity
  8
0
100
AcDbLine
 62
7
  6
CONTINUOUS
 10
10.4361721532
 20
58.5995323741
 11
35.6561721532
 21
58.5995323741
  0
LINE
  5
2A8
100
AcDbEntity
  8
0
100
AcDbLine
 62
7
  6
CONTINUOUS
 10
35.6561721532
 20
58.5995323741
 11
37.2961721532
 21
58.1095323741
  0
ARC
  5
2A9
100
AcDbEntity
  8
0
100
AcDbCircle
 62
7
  6
CONTINUOUS
 10
29.4258548106
 20
27.0557556135
 40
19.4557724937
100
AcDbArc
 50
265.5641121109
 51
266.2594675809
  0
ARC
  5
2AA
100
AcDbEntity
  8
0
100
AcDbCircle
 62
7
  6
CONTINUOUS
 10
16.6664894958
 20
27.0557556135
 40
19.4557724937
100
AcDbArc
 50
273.7405324191
 51
274.4358878891
  0
ARC
  5
2AB
100
AcDbEntity
  8
0
100
AcDbCircle
 62
7
  6
CONTINUOUS
 10
16.7663141586
 20
25.7748791887
 40
15.7710176678
100
AcDbArc
 50
274.2907018955
 51
275.1279558295
  0
ARC
  5
2AC
100
AcDbEntity
  8
0
100
AcDbCircle
 62
7
  6
CONTINUOUS
 10
29.3260301478
 20
25.7748791886
 40
15.7710176677
100
AcDbArc
 50
264.8720441705
 51
265.7092981045
  0
SPLINE
  5
2AD
100
AcDbEntity
  8
0
100
AcDbSpline
 62
7
  6
CONTINUOUS
 70
0
 71
3
 72
43
 73
39
 74
0
 42
0.0000001
 43
0.0000001
 44
0.0000000001
 40
0.0
 40
0.0
 40
0.0
 40
0.0
 40
0.0039752796
 40
0.0082119475
 40
0.0129264927
 40
0.0182748948
 40
0.0243607019
 40
0.0312469446
 40
0.0389716665
 40
0.0475573129
 40
0.0570134634
 40
0.0673387582
 40
0.0905643165
 40
0.1171305713
 40
0.146866329
 40
0.1795586643
 40
0.2149568378
 40
0.2527806517
 40
0.292724696
 40
0.3776427964
 40
0.4669089829
 40
0.5575504813
 40
0.646542669
 40
0.730923156
 40
0.7705056225
 40
0.8079107301
 40
0.8428366078
 40
0.8750090014
 40
0.9041834259
 40
0.9175814766
 40
0.9301566982
 40
0.9527612369
 40
0.9627713661
 40
0.9719123134
 40
0.9801859318
 40
0.987604914
 40
0.9941949764
 40
1.0
 40
1.0
 40
1.0
 40
1.0
 10
20.0461733685
 20
25.8685695609
 30
0.0
 10
20.0461699727
 20
25.8767057778
 30
0.0
 10
20.0485067792
 20
25.8935872424
 30
0.0
 10
20.058735054
 20
25.9182333524
 30
0.0
 10
20.0754249124
 20
25.9424809269
 30
0.0
 10
20.0984228047
 20
25.9663728264
 30
0.0
 10
20.1276670854
 20
25.9899610699
 30
0.0
 10
20.1631061466
 20
26.0132593677
 30
0.0
 10
20.2046898664
 20
26.0362445966
 30
0.0
 10
20.2523550621
 20
26.0588721537
 30
0.0
 10
20.3060136064
 20
26.0810980063
 30
0.0
 10
20.3887008937
 20
26.1113378588
 30
0.0
 10
20.5064820521
 20
26.1472377521
 30
0.0
 10
20.6644852751
 20
26.1865453545
 30
0.0
 10
20.8429425647
 20
26.2232273097
 30
0.0
 10
21.0403352085
 20
26.256946187
 30
0.0
 10
21.2549867014
 20
26.2873927156
 30
0.0
 10
21.4850571046
 20
26.3142966248
 30
0.0
 10
21.8165595472
 20
26.3457498643
 30
0.0
 10
22.2540115044
 20
26.3740595765
 30
0.0
 10
22.7958688693
 20
26.3906461435
 30
0.0
 10
23.3463228178
 20
26.3898531819
 30
0.0
 10
23.8864688179
 20
26.3717093205
 30
0.0
 10
24.3214323319
 20
26.3421288319
 30
0.0
 10
24.6501297476
 20
26.3096858213
 30
0.0
 10
24.877540076
 20
26.2821196456
 30
0.0
 10
25.0891865669
 20
26.2510582403
 30
0.0
 10
25.283254519
 20
26.2167779625
 30
0.0
 10
25.4329312695
 20
26.1849512403
 30
0.0
 10
25.5425060627
 20
26.1578245201
 30
0.0
 10
25.638402909
 20
26.1315638328
 30
0.0
 10
25.7266462788
 20
26.1035934252
 30
0.0
 10
25.8064985199
 20
26.0730805786
 30
0.0
 10
25.8579991379
 20
26.0507003163
 30
0.0
 10
25.9034730734
 20
26.0279300129
 30
0.0
 10
25.9428392774
 20
26.0048170897
 30
0.0
 10
25.9760244069
 20
25.9814187561
 30
0.0
 10
25.9951455414
 20
25.9646282604
 30
0.0
 10
26.0034708179
 20
25.9561517194
 30
0.0
  0
SPLINE
  5
2AE
100
AcDbEntity
  8
0
100
AcDbSpline
 62
7
  6
CONTINUOUS
 70
0
 71
3
 72
43
 73
39
 74
0
 42
0.0000001
 43
0.0000001
 44
0.0000000001
 40
0.0
 40
0.0
 40
0.0
 40
0.0
 40
0.0058049852
 40
0.0123949392
 40
0.0198137732
 40
0.0280872355
 40
0.0372279934
 40
0.0472379237
 40
0.0698422447
 40
0.0824173464
 40
0.0958152593
 40
0.124989593
 40
0.1571619453
 40
0.192088052
 40
0.229493494
 40
0.2690765065
 40
0.3534583257
 40
0.4424517489
 40
0.5330939103
 40
0.6223600411
 40
0.7072774273
 40
0.7472209565
 40
0.7850441716
 40
0.8204417881
 40
0.8531336537
 40
0.8828690448
 40
0.9094351345
 40
0.9326605991
 40
0.9429859509
 40
0.952442139
 40
0.9610277905
 40
0.9687526048
 40
0.9756389607
 40
0.9817248292
 40
0.9870732702
 40
0.9917878958
 40
0.9960246426
 40
1.0
 40
1.0
 40
1.0
 40
1.0
 10
20.0888734884
 20
23.3189680198
 30
0.0
 10
20.0971987098
 20
23.3104915349
 30
0.0
 10
20.1163195283
 20
23.2937011457
 30
0.0
 10
20.1495040394
 20
23.2703029799
 30
0.0
 10
20.18886945
 20
23.2471903647
 30
0.0
 10
20.2343425502
 20
23.2244206496
 30
0.0
 10
20.2858420875
 20
23.2020407143
 30
0.0
 10
20.3656930277
 20
23.1715279338
 30
0.0
 10
20.4539353343
 20
23.1435577984
 30
0.0
 10
20.5498311449
 20
23.1172970289
 30
0.0
 10
20.6594051399
 20
23.0901700454
 30
0.0
 10
20.8090813693
 20
23.0583435262
 30
0.0
 10
21.0031494102
 20
23.0240626389
 30
0.0
 10
21.214796971
 20
22.9930011494
 30
0.0
 10
21.4422095062
 20
22.9654343413
 30
0.0
 10
21.7709114406
 20
22.9329909981
 30
0.0
 10
22.2058813064
 20
22.903410042
 30
0.0
 10
22.7460339283
 20
22.8852663144
 30
0.0
 10
23.2964916444
 20
22.884473823
 30
0.0
 10
23.8383487711
 20
22.9010609291
 30
0.0
 10
24.2757980646
 20
22.9293709682
 30
0.0
 10
24.6072967584
 20
22.9608240703
 30
0.0
 10
24.8373637352
 20
22.9877278223
 30
0.0
 10
25.0520119097
 20
23.0181740178
 30
0.0
 10
25.2494017493
 20
23.0518923827
 30
0.0
 10
25.4278569893
 20
23.0885740843
 30
0.0
 10
25.5858590684
 20
23.1278809985
 30
0.0
 10
25.7036397831
 20
23.1637809066
 30
0.0
 10
25.7863272057
 20
23.1940203778
 30
0.0
 10
25.8399860187
 20
23.2162461331
 30
0.0
 10
25.8876513825
 20
23.2388739748
 30
0.0
 10
25.9292356193
 20
23.2618591373
 30
0.0
 10
25.9646754049
 20
23.2851573238
 30
0.0
 10
25.9939202171
 20
23.3087456326
 30
0.0
 10
26.0169183264
 20
23.332637828
 30
0.0
 10
26.0336087259
 20
23.356885494
 30
0.0
 10
26.043837539
 20
23.3815319448
 30
0.0
 10
26.046174185
 20
23.3984138022
 30
0.0
 10
26.0461706227
 20
23.4065501783
 30
0.0
  0
SPLINE
  5
2AF
100
AcDbEntity
  8
0
100
AcDbSpline
 62
7
  6
CONTINUOUS
 70
0
 71
3
 72
24
 73
20
 74
0
 42
0.0000001
 43
0.0000001
 44
0.0000000001
 40
0.0
 40
0.0
 40
0.0
 40
0.0
 40
0.0087917768
 40
0.0181029205
 40
0.0283686638
 40
0.0399100646
 40
0.0529485102
 40
0.0676308386
 40
0.1022209298
 40
0.1440372484
 40
0.19310118
 40
0.2492266576
 40
0.3121314141
 40
0.3814196275
 40
0.4566434882
 40
0.537269583
 40
0.6227175235
 40
0.8056385732
 40
1.0
 40
1.0
 40
1.0
 40
1.0
 10
21.0461776127
 20
46.5495323752
 30
0.0
 10
21.0461760256
 20
46.5546423005
 30
0.0
 10
21.0475490946
 20
46.5652064571
 30
0.0
 10
21.0535929223
 20
46.5806871601
 30
0.0
 10
21.0634798551
 20
46.5959511939
 30
0.0
 10
21.0771193277
 20
46.6110128361
 30
0.0
 10
21.0944738452
 20
46.6259029924
 30
0.0
 10
21.124203669
 20
46.6466646375
 30
0.0
 10
21.1711062473
 20
46.6715826593
 30
0.0
 10
21.2386665706
 20
46.6992120523
 30
0.0
 10
21.3199377986
 20
46.7257758588
 30
0.0
 10
21.4143365935
 20
46.7510875128
 30
0.0
 10
21.5211945961
 20
46.7749084781
 30
0.0
 10
21.6397145747
 20
46.7970677018
 30
0.0
 10
21.7690009757
 20
46.8173635601
 30
0.0
 10
21.908063048
 20
46.8356499846
 30
0.0
 10
22.1097225301
 20
46.8576447076
 30
0.0
 10
22.3779080845
 20
46.8787109232
 30
0.0
 10
22.5970118965
 20
46.8885412991
 30
0.0
 10
22.7099284536
 20
46.8918853901
 30
0.0
  0
SPLINE
  5
2B0
100
AcDbEntity
  8
0
100
AcDbSpline
 62
7
  6
CONTINUOUS
 70
0
 71
3
 72
25
 73
21
 74
0
 42
0.0000001
 43
0.0000001
 44
0.0000000001
 40
0.0
 40
0.0
 40
0.0
 40
0.0
 40
0.1793458414
 40
0.3568431139
 40
0.4423695559
 40
0.5244324844
 40
0.602104635
 40
0.6745188466
 40
0.7408885613
 40
0.8005004604
 40
0.8527712239
 40
0.8972426518
 40
0.9164755028
 40
0.9336858124
 40
0.948897709
 40
0.9621748518
 40
0.9736343685
 40
0.9834870407
 40
0.9920938334
 40
1.0
 40
1.0
 40
1.0
 40
1.0
 10
22.7099284536
 20
46.8918853901
 30
0.0
 10
22.8543069672
 20
46.8961612456
 30
0.0
 10
23.1417642183
 20
46.8990970628
 30
0.0
 10
23.4980041319
 20
46.8895228601
 30
0.0
 10
23.7754944301
 20
46.8736429351
 30
0.0
 10
23.9724283016
 20
46.8581014464
 30
0.0
 10
24.158436566
 20
46.8389836543
 30
0.0
 10
24.3313366834
 20
46.8165146828
 30
0.0
 10
24.4890996104
 20
46.790992262
 30
0.0
 10
24.6298959058
 20
46.7627224053
 30
0.0
 10
24.7520887139
 20
46.7320842127
 30
0.0
 10
24.8411891319
 20
46.7037035897
 30
0.0
 10
24.9017500824
 20
46.6795649868
 30
0.0
 10
24.9394793689
 20
46.661970872
 30
0.0
 10
24.9716744435
 20
46.6440538654
 30
0.0
 10
24.9982755223
 20
46.6258511737
 30
0.0
 10
25.0192416858
 20
46.6073693012
 30
0.0
 10
25.0345155828
 20
46.5885370613
 30
0.0
 10
25.0439655133
 20
46.5692700038
 30
0.0
 10
25.046164716
 20
46.5558998527
 30
0.0
 10
25.0461666936
 20
46.549532373
 30
0.0
  0
SPLINE
  5
2B1
100
AcDbEntity
  8
0
100
AcDbSpline
 62
7
  6
CONTINUOUS
 70
0
 71
3
 72
43
 73
39
 74
0
 42
0.0000001
 43
0.0000001
 44
0.0000000001
 40
0.0
 40
0.0
 40
0.0
 40
0.0
 40
0.0058049852
 40
0.0123949392
 40
0.0198137732
 40
0.0280872355
 40
0.0372279934
 40
0.0472379237
 40
0.0698422447
 40
0.0824173464
 40
0.0958152593
 40
0.124989593
 40
0.1571619453
 40
0.192088052
 40
0.229493494
 40
0.2690765065
 40
0.3534583257
 40
0.4424517489
 40
0.5330939103
 40
0.6223600411
 40
0.7072774273
 40
0.7472209565
 40
0.7850441716
 40
0.8204417881
 40
0.8531336537
 40
0.8828690448
 40
0.9094351345
 40
0.9326605991
 40
0.9429859509
 40
0.952442139
 40
0.9610277905
 40
0.9687526048
 40
0.9756389607
 40
0.9817248292
 40
0.9870732702
 40
0.9917878958
 40
0.9960246426
 40
1.0
 40
1.0
 40
1.0
 40
1.0
 10
26.0034708179
 20
23.4941323368
 30
0.0
 10
25.9951455966
 20
23.5026088217
 30
0.0
 10
25.9760247781
 20
23.5193992109
 30
0.0
 10
25.9428402669
 20
23.5427973767
 30
0.0
 10
25.9034748564
 20
23.565909992
 30
0.0
 10
25.8580017562
 20
23.588679707
 30
0.0
 10
25.8065022188
 20
23.6110596423
 30
0.0
 10
25.7266512787
 20
23.6415724228
 30
0.0
 10
25.638408972
 20
23.6695425582
 30
0.0
 10
25.5425131615
 20
23.6958033277
 30
0.0
 10
25.4329391665
 20
23.7229303112
 30
0.0
 10
25.2832629371
 20
23.7547568305
 30
0.0
 10
25.0891948961
 20
23.7890377177
 30
0.0
 10
24.8775473353
 20
23.8200992073
 30
0.0
 10
24.6501348002
 20
23.8476660153
 30
0.0
 10
24.3214328658
 20
23.8801093585
 30
0.0
 10
23.886463
 20
23.9096903146
 30
0.0
 10
23.3463103781
 20
23.9278340422
 30
0.0
 10
22.7958526619
 20
23.9286265336
 30
0.0
 10
22.2539955353
 20
23.9120394275
 30
0.0
 10
21.8165462417
 20
23.8837293884
 30
0.0
 10
21.485047548
 20
23.8522762863
 30
0.0
 10
21.2549805712
 20
23.8253725344
 30
0.0
 10
21.0403323967
 20
23.7949263388
 30
0.0
 10
20.8429425571
 20
23.7612079739
 30
0.0
 10
20.6644873171
 20
23.7245262724
 30
0.0
 10
20.5064852379
 20
23.6852193582
 30
0.0
 10
20.3887045232
 20
23.64931945
 30
0.0
 10
20.3060171006
 20
23.6190799788
 30
0.0
 10
20.2523582876
 20
23.5968542236
 30
0.0
 10
20.2046929239
 20
23.5742263819
 30
0.0
 10
20.1631086871
 20
23.5512412193
 30
0.0
 10
20.1276689015
 20
23.5279430328
 30
0.0
 10
20.0984240893
 20
23.5043547241
 30
0.0
 10
20.07542598
 20
23.4804625286
 30
0.0
 10
20.0587355805
 20
23.4562148626
 30
0.0
 10
20.0485067674
 20
23.4315684118
 30
0.0
 10
20.0461701214
 20
23.4146865544
 30
0.0
 10
20.0461736837
 20
23.4065501783
 30
0.0
  0
SPLINE
  5
2B2
100
AcDbEntity
  8
0
100
AcDbSpline
 62
7
  6
CONTINUOUS
 70
0
 71
3
 72
17
 73
13
 74
0
 42
0.0000001
 43
0.0000001
 44
0.0000000001
 40
0.0
 40
0.0
 40
0.0
 40
0.0
 40
0.026446414
 40
0.0547838898
 40
0.0865048264
 40
0.1226608007
 40
0.2106897999
 40
0.3218764497
 40
0.4569193151
 40
0.6156309233
 40
0.797074854
 40
1.0
 40
1.0
 40
1.0
 40
1.0
 10
34.4711721532
 20
11.8825801991
 30
0.0
 10
34.4711721532
 20
11.8783869462
 30
0.0
 10
34.4699134042
 20
11.869661465
 30
0.0
 10
34.4644480747
 20
11.8569482983
 30
0.0
 10
34.4555586326
 20
11.8444403203
 30
0.0
 10
34.438069918
 20
11.8268528151
 30
0.0
 10
34.4068927139
 20
11.8058270293
 30
0.0
 10
34.3590897479
 20
11.7827676935
 30
0.0
 10
34.2987811694
 20
11.7605037373
 30
0.0
 10
34.2264459545
 20
11.7392834333
 30
0.0
 10
34.1426628357
 20
11.7192779753
 30
0.0
 10
34.0828467376
 20
11.7075263262
 30
0.0
 10
34.0511812526
 20
11.701822365
 30
0.0
  0
SPLINE
  5
2B3
100
AcDbEntity
  8
0
100
AcDbSpline
 62
7
  6
CONTINUOUS
 70
0
 71
3
 72
17
 73
13
 74
0
 42
0.0000001
 43
0.0000001
 44
0.0000000001
 40
0.0
 40
0.0
 40
0.0
 40
0.0
 40
0.2029324212
 40
0.3843907654
 40
0.5431146754
 40
0.6781662148
 40
0.7893574378
 40
0.8773811255
 40
0.9135303936
 40
0.9452418513
 40
0.9735672922
 40
1.0
 40
1.0
 40
1.0
 40
1.0
 10
31.8917304878
 20
11.7017202608
 30
0.0
 10
31.8600244417
 20
11.7074253405
 30
0.0
 10
31.80013038
 20
11.7191808525
 30
0.0
 10
31.716236202
 20
11.7391933851
 30
0.0
 10
31.6438030011
 20
11.7604238841
 30
0.0
 10
31.5834119443
 20
11.78270072
 30
0.0
 10
31.5355429206
 20
11.8057737368
 30
0.0
 10
31.5043218275
 20
11.8268136135
 30
0.0
 10
31.4868080052
 20
11.8444136669
 30
0.0
 10
31.4779060627
 20
11.8569300713
 30
0.0
 10
31.472432815
 20
11.8696520623
 30
0.0
 10
31.4711721532
 20
11.8783840442
 30
0.0
 10
31.4711721532
 20
11.8825801991
 30
0.0
  0
SPLINE
  5
2B4
100
AcDbEntity
  8
0
100
AcDbSpline
 62
7
  6
CONTINUOUS
 70
0
 71
3
 72
17
 73
13
 74
0
 42
0.0000001
 43
0.0000001
 44
0.0000000001
 40
0.0
 40
0.0
 40
0.0
 40
0.0
 40
0.0288190356
 40
0.0592647378
 40
0.0926705314
 40
0.1300349295
 40
0.2191049792
 40
0.3298745244
 40
0.463443741
 40
0.620000246
 40
0.7991547171
 40
1.0
 40
1.0
 40
1.0
 40
1.0
 10
14.5711721532
 20
11.8653618776
 30
0.0
 10
14.5711721532
 20
11.8616730579
 30
0.0
 10
14.5702118017
 20
11.8540590553
 30
0.0
 10
14.5660012537
 20
11.8428757037
 30
0.0
 10
14.5591084915
 20
11.8318240625
 30
0.0
 10
14.5456126548
 20
11.8163581124
 30
0.0
 10
14.5214005797
 20
11.7976398564
 30
0.0
 10
14.4839827079
 20
11.7769565094
 30
0.0
 10
14.436700114
 20
11.7568356057
 30
0.0
 10
14.3798128851
 20
11.7374356803
 30
0.0
 10
14.313655855
 20
11.7188949681
 30
0.0
 10
14.2662832929
 20
11.7078036251
 30
0.0
 10
14.2411573622
 20
11.7023636889
 30
0.0
  0
SPLINE
  5
2B5
100
AcDbEntity
  8
0
100
AcDbSpline
 62
7
  6
CONTINUOUS
 70
0
 71
3
 72
17
 73
13
 74
0
 42
0.0000001
 43
0.0000001
 44
0.0000000001
 40
0.0
 40
0.0
 40
0.0
 40
0.0
 40
0.2008524007
 40
0.3800133168
 40
0.5365721747
 40
0.6701449824
 40
0.7809154744
 40
0.8699818773
 40
0.9073432193
 40
0.9407451078
 40
0.9711861393
 40
1.0
 40
1.0
 40
1.0
 40
1.0
 10
11.9013250538
 20
11.7023343561
 30
0.0
 10
11.8761886829
 20
11.7077749516
 30
0.0
 10
11.8287963022
 20
11.7188675082
 30
0.0
 10
11.7626115908
 20
11.7374104503
 30
0.0
 10
11.7057007059
 20
11.7568142269
 30
0.0
 10
11.658398222
 20
11.7769387001
 30
0.0
 10
11.6209644746
 20
11.7976260071
 30
0.0
 10
11.5967423671
 20
11.8163483999
 30
0.0
 10
11.5832408482
 20
11.8318175714
 30
0.0
 10
11.5763452544
 20
11.8428713265
 30
0.0
 10
11.5721329281
 20
11.8540568269
 30
0.0
 10
11.5711721532
 20
11.8616723672
 30
0.0
 10
11.5711721532
 20
11.8653618776
 30
0.0
  0
SPLINE
  5
2B6
100
AcDbEntity
  8
0
100
AcDbSpline
 62
7
  6
CONTINUOUS
 70
0
 71
3
 72
23
 73
19
 74
0
 42
0.0000001
 43
0.0000001
 44
0.0000000001
 40
0.0
 40
0.0
 40
0.0
 40
0.0
 40
0.0192564745
 40
0.0406318451
 40
0.0894419569
 40
0.1456829561
 40
0.208394111
 40
0.2764620632
 40
0.3486505507
 40
0.500017752
 40
0.6513817255
 40
0.7235663626
 40
0.7916295675
 40
0.8543353058
 40
0.9105704336
 40
0.9593746084
 40
0.9807466924
 40
1.0
 40
1.0
 40
1.0
 40
1.0
 10
20.6434084731
 20
14.4757307706
 30
0.0
 10
20.6740457614
 20
14.4651260614
 30
0.0
 10
20.7393157284
 20
14.4445378107
 30
0.0
 10
20.8847394866
 20
14.4053236088
 30
0.0
 10
21.0930602151
 20
14.3609250223
 30
0.0
 10
21.371928454
 20
14.3156277054
 30
0.0
 10
21.6845206079
 20
14.2772393619
 30
0.0
 10
22.0249111278
 20
14.2465341865
 30
0.0
 10
22.515014305
 20
14.2162406456
 30
0.0
 10
23.1463322748
 20
14.2016086636
 30
0.0
 10
23.7776434994
 20
14.2162530391
 30
0.0
 10
24.2677261175
 20
14.2465565467
 30
0.0
 10
24.608092403
 20
14.2772677532
 30
0.0
 10
24.9206566895
 20
14.3156617915
 30
0.0
 10
25.1994946228
 20
14.3609647218
 30
0.0
 10
25.4077887159
 20
14.4053667833
 30
0.0
 10
25.5531897123
 20
14.4445853162
 30
0.0
 10
25.6184478544
 20
14.465174973
 30
0.0
 10
25.6490792108
 20
14.4757805186
 30
0.0
  0
ENDSEC
  0
SECTION
  2
OBJECTS
  0
DICTIONARY
  5
C
100
AcDbDictionary
280
0
281
1
  3
ACAD_GROUP
350
D
  3
ACAD_MLINESTYLE
350
17
  3
ACAD_LAYOUT
350
1A
  3
ACAD_PLOTSETTINGS
350
19
  3
ACAD_PLOTSTYLENAME
350
E
  0
DICTIONARY
  5
D
102
{ACAD_REACTORS
330
C
102
}
100
AcDbDictionary
280
0
281
1
  0
ACDBDICTIONARYWDFLT
  5
E
102
{ACAD_REACTORS
330
C
102
}
100
AcDbDictionary
281
1
  3
Normal
350
F
100
AcDbDictionaryWithDefault
340
F
  0
DICTIONARY
  5
17
102
{ACAD_REACTORS
330
C
102
}
100
AcDbDictionary
280
0
281
1
  3
Standard
350
18
  0
DICTIONARY
  5
19
102
{ACAD_REACTORS
330
C
102
}
100
AcDbDictionary
281
1
  0
DICTIONARY
  5
1A
102
{ACAD_REACTORS
330
C
102
}
100
AcDbDictionary
281
1
  3
Model
350
2B7
  3
Layout1
350
2B8
  0
ACDBPLACEHOLDER
  5
F
102
{ACAD_REACTORS
330
E
102
}
  0
MLINESTYLE
  5
18
102
{ACAD_REACTORS
330
17
102
}
100
AcDbMlineStyle
  2
STANDARD
 70
0
  3

 62
256
 51
90.0
 52
90.0
 71
2
 49
0.5
 62
256
  6
BYLAYER
 49
-0.5
 62
256
  6
BYLAYER
  0
LAYOUT
  5
2B7
102
{ACAD_REACTORS
330
1A
102
}
100
AcDbPlotSettings
  1

  2
none_device
  4

  6

 40
0.0
 41
0.0
 42
0.0
 43
0.0
 44
210.0
 45
297.0
 46
0.0
 47
0.0
 48
0.0
 49
0.0
140
0.0
141
0.0
142
1.0
143
1.0
 70
1024
 72
1
 73
0
 74
0
  7

 75
0
147
1.0
148
0.0
149
0.0
100
AcDbLayout
  1
Model
 70
0
 71
0
 10
0.0
 20
0.0
 11
210.0
 21
297.0
 12
0.0
 22
0.0
 32
0.0
 14
0.0
 24
0.0
 34
0.0
 15
0.0
 25
0.0
 35
0.0
146
0.0
 13
0.0
 23
0.0
 33
0.0
 16
1.0
 26
0.0
 36
0.0
 17
0.0
 27
1.0
 37
0.0
 76
0
330
210
345
0
346
0
  0
LAYOUT
  5
2B8
102
{ACAD_REACTORS
330
1A
102
}
100
AcDbPlotSettings
  1

  2
none_device
  4

  6

 40
0.0
 41
0.0
 42
0.0
 43
0.0
 44
210.0
 45
297.0
 46
0.0
 47
0.0
 48
0.0
 49
0.0
140
0.0
141
0.0
142
1.0
143
1.0
 70
0
 72
1
 73
0
 74
0
  7

 75
0
147
1.0
148
0.0
149
0.0
100
AcDbLayout
  1
Layout1
 70
0
 71
1
 10
0.0
 20
0.0
 11
210.0
 21
297.0
 12
0.0
 22
0.0
 32
0.0
 14
0.0
 24
0.0
 34
0.0
 15
0.0
 25
0.0
 35
0.0
146
0.0
 13
0.0
 23
0.0
 33
0.0
 16
1.0
 26
0.0
 36
0.0
 17
0.0
 27
1.0
 37
0.0
 76
0
330
211
345
0
346
0
  0
ENDSEC
  0
EOF
