  0
SECTION
  2
HEADER
  9
$ACADVER
  1
AC1009
  9
$DWGCODEPAGE
  3
ansi_1250
  9
$INSBASE
 10
0.0
 20
0.0
 30
0.0
  9
$EXTMIN
 10
-1.48
 20
-0.844
 30
0.0
  9
$EXTMAX
 10
1.741
 20
0.968
 30
0.0
  9
$LIMMIN
 10
0.0
 20
0.0
  9
$LIMMAX
 10
0.0
 20
0.0
  9
$ORTHOMODE
 70
     0
  9
$REGENMODE
 70
     1
  9
$FILLMODE
 70
     1
  9
$QTEXTMODE
 70
     0
  9
$MIRRTEXT
 70
     1
  9
$DRAGMODE
 70
     2
  9
$LTSCALE
 40
1.0
  9
$OSMODE
 70
     0
  9
$ATTMODE
 70
     1
  9
$TEXTSIZE
 40
0.2
  9
$TRACEWID
 40
0.05
  9
$TEXTSTYLE
  7
STANDARD
  9
$CLAYER
  8
0
  9
$CELTYPE
  6
CONTINUOUS
  9
$CECOLOR
 62
   256
  9
$DIMSCALE
 40
1.0
  9
$DIMASZ
 40
0.18
  9
$DIMEXO
 40
0.0625
  9
$DIMDLI
 40
0.38
  9
$DIMRND
 40
0.0
  9
$DIMDLE
 40
0.0
  9
$DIMEXE
 40
0.18
  9
$DIMTP
 40
0.0
  9
$DIMTM
 40
0.0
  9
$DIMTXT
 40
0.18
  9
$DIMCEN
 40
0.09
  9
$DIMTSZ
 40
0.0
  9
$DIMTOL
 70
     0
  9
$DIMLIM
 70
     0
  9
$DIMTIH
 70
     1
  9
$DIMTOH
 70
     1
  9
$DIMSE1
 70
     0
  9
$DIMSE2
 70
     0
  9
$DIMTAD
 70
     0
  9
$DIMZIN
 70
     0
  9
$DIMBLK
  1

  9
$DIMASO
 70
     1
  9
$DIMSHO
 70
     1
  9
$DIMPOST
  1

  9
$DIMAPOST
  1

  9
$DIMALT
 70
     0
  9
$DIMALTD
 70
     2
  9
$DIMALTF
 40
25.4
  9
$DIMLFAC
 40
1.0
  9
$DIMTOFL
 70
     0
  9
$DIMTVP
 40
0.0
  9
$DIMTIX
 70
     0
  9
$DIMSOXD
 70
     0
  9
$DIMSAH
 70
     0
  9
$DIMBLK1
  1

  9
$DIMBLK2
  1

  9
$DIMSTYLE
  2
STANDARD
  9
$DIMCLRD
 70
     0
  9
$DIMCLRE
 70
     0
  9
$DIMCLRT
 70
     0
  9
$DIMTFAC
 40
1.0
  9
$DIMGAP
 40
0.09
  9
$LUNITS
 70
     2
  9
$LUPREC
 70
     4
  9
$AXISMODE
 70
     0
  9
$AXISUNIT
 10
0.0
 20
0.0
  9
$SKETCHINC
 40
0.1
  9
$FILLETRAD
 40
0.0
  9
$AUNITS
 70
     0
  9
$AUPREC
 70
     0
  9
$MENU
  1
acad
  9
$ELEVATION
 40
0.0
  9
$PELEVATION
 40
0.0
  9
$THICKNESS
 40
0.0
  9
$LIMCHECK
 70
     0
  9
$BLIPMODE
 70
     1
  9
$CHAMFERA
 40
0.0
  9
$CHAMFERB
 40
0.0
  9
$SKPOLY
 70
     0
  9
$TDCREATE
 40
0.000000000
  9
$TDUPDATE
 40
0.000000000
  9
$TDINDWG
 40
0.0000000000
  9
$TDUSRTIMER
 40
0.0000000000
  9
$USRTIMER
 70
     1
  9
$ANGBASE
 50
0.0
  9
$ANGDIR
 70
     0
  9
$PDMODE
 70
     0
  9
$PDSIZE
 40
0.0
  9
$PLINEWID
 40
0.0
  9
$COORDS
 70
     0
  9
$SPLFRAME
 70
     0
  9
$SPLINETYPE
 70
     6
  9
$SPLINESEGS
 70
     8
  9
$ATTDIA
 70
     0
  9
$ATTREQ
 70
     1
  9
$HANDLING
 70
     1
  9
$HANDSEED
  5
7C0
  9
$SURFTAB1
 70
     6
  9
$SURFTAB2
 70
     6
  9
$SURFTYPE
 70
     6
  9
$SURFU
 70
     6
  9
$SURFV
 70
     6
  9
$UCSNAME
  2

  9
$UCSORG
 10
0.0
 20
0.0
 30
0.0
  9
$UCSXDIR
 10
1.0
 20
0.0
 30
0.0
  9
$UCSYDIR
 10
0.0
 20
1.0
 30
0.0
  9
$PUCSNAME
  2

  9
$PUCSORG
 10
0.0
 20
0.0
 30
0.0
  9
$PUCSXDIR
 10
1.0
 20
0.0
 30
0.0
  9
$PUCSYDIR
 10
0.0
 20
1.0
 30
0.0
  9
$USERI1
 70
     0
  9
$USERI2
 70
     0
  9
$USERI3
 70
     0
  9
$USERI4
 70
     0
  9
$USERI5
 70
     0
  9
$USERR1
 40
0.0
  9
$USERR2
 40
0.0
  9
$USERR3
 40
0.0
  9
$USERR4
 40
0.0
  9
$USERR5
 40
0.0
  9
$WORLDVIEW
 70
     1
  9
$SHADEDGE
 70
     3
  9
$SHADEDIF
 70
    70
  9
$TILEMODE
 70
     1
  9
$MAXACTVP
 70
    16
  9
$PINSBASE
 10
0.0
 20
0.0
 30
0.0
  9
$PLIMCHECK
 70
     0
  9
$PEXTMIN
 10
1.000000E+20
 20
1.000000E+20
 30
1.000000E+20
  9
$PEXTMAX
 10
-1.000000E+20
 20
-1.000000E+20
 30
-1.000000E+20
  9
$PLIMMIN
 10
0.0
 20
0.0
  9
$PLIMMAX
 10
12.0
 20
9.0
  9
$UNITMODE
 70
     0
  9
$VISRETAIN
 70
     0
  9
$PLINEGEN
 70
     1
  9
$PSLTSCALE
 70
     0
  9
$TREEDEPTH
 70
  3020
  0
ENDSEC
  0
SECTION
  2
TABLES
  0
TABLE
  2
VPORT
 70
     1
  0
VPORT
  2
*ACTIVE
 70
     0
 10
0.0
 20
0.0
 11
1.0
 21
1.0
 12
6.591288
 22
4.579184
 13
0.0
 23
0.0
 14
1.0
 24
1.0
 15
0.0
 25
0.0
 16
0.0
 26
0.0
 36
1.0
 17
0.0
 27
0.0
 37
0.0
 40
9.158369
 41
0.688564
 42
50.0
 43
0.0
 44
0.0
 50
0.0
 51
0.0
 71
     0
 72
   100
 73
     1
 74
     1
 75
     0
 76
     0
 77
     0
 78
     0
  0
ENDTAB
  0
TABLE
  2
LTYPE
 70
     5
  0
LTYPE
  2
CONTINUOUS
 70
    64
  3
Solid line
 72
    65
 73
     0
 40
0.0
  0
LTYPE
  2
CENTER
 70
    64
  3
Center ____ _ ____ _ ____ _ ____ _ ____ _ ____
 72
    65
 73
     4
 40
50.8
 49
31.75
 49
-6.35
 49
6.35
 49
-6.35
  0
LTYPE
  2
HIDDEN
 70
    64
  3
Hidden __ __ __ __ __ __ __ __ __ __ __ __ __ __
 72
    65
 73
     2
 40
9.525
 49
6.35
 49
-3.175
  0
LTYPE
  2
CENTER2
 70
    64
  3
Center (.5x) ___ _ ___ _ ___ _ ___ _ ___ _ ___
 72
    65
 73
     4
 40
28.575
 49
19.05
 49
-3.175
 49
3.175
 49
-3.175
  0
LTYPE
  2
HIDDEN2
 70
    64
  3
Hidden (.5x) _ _ _ _ _ _ _ _ _ _ _ _ _ _ _ _ _
 72
    65
 73
     2
 40
4.7625
 49
3.175
 49
-1.5875
  0
ENDTAB
  0
TABLE
  2
LAYER
 70
     1
  0
LAYER
  2
0
 70
     0
 62
     7
  6
CONTINUOUS
  0
ENDTAB
  0
TABLE
  2
STYLE
 70
     1
  0
STYLE
  2
STANDARD
 70
     0
 40
0.0
 41
1.0
 50
0.0
 71
     0
 42
0.0
  3
txt
  4

  0
ENDTAB
  0
TABLE
  2
VIEW
 70
     0
  0
ENDTAB
  0
TABLE
  2
UCS
 70
     0
  0
ENDTAB
  0
TABLE
  2
APPID
 70
     1
  0
APPID
  2
ACAD
 70
     0
  0
ENDTAB
  0
TABLE
  2
DIMSTYLE
 70
     1
  0
DIMSTYLE
  2
STANDARD
 70
     0
  3

  4

  5

  6

  7

 40
1.0
 41
0.18
 42
0.0625
 43
0.38
 44
0.18
 45
0.0
 46
0.0
 47
0.0
 48
0.0
 71
     0
 72
     0
 73
     1
 74
     1
 75
     0
 76
     0
 77
     0
 78
     0
140
0.18
141
0.09
142
0.0
143
25.4
144
1.0
145
0.0
146
1.0
147
0.09
170
     0
171
     2
172
     0
173
     0
174
     0
175
     0
176
     0
177
     0
178
     0
  0
ENDTAB
  0
ENDSEC
  0
SECTION
  2
BLOCKS
  0
ENDSEC
  0
SECTION
  2
ENTITIES
  0
LINE
  8
0
  6
CONTINUOUS
 62
     7
  5
414
 10
0.3125
 20
0.799
 30
0.0
 11
0.3125
 21
0.0
 31
0.0
  0
LINE
  8
0
  6
CONTINUOUS
 62
     7
  5
415
 10
0.3125
 20
0.0
 30
0.0
 11
0.3125
 21
-0.799
 31
0.0
  0
LINE
  8
0
  6
CONTINUOUS
 62
     7
  5
416
 10
0.7
 20
0.896
 30
0.0
 11
0.7
 21
0.844
 31
0.0
  0
LINE
  8
0
  6
CONTINUOUS
 62
     7
  5
417
 10
0.7
 20
-0.844
 30
0.0
 11
0.7
 21
0.844
 31
0.0
  0
LINE
  8
0
  6
CONTINUOUS
 62
     7
  5
418
 10
0.602333
 20
0.844
 30
0.0
 11
0.602333
 21
0.230844
 31
0.0
  0
LINE
  8
0
  6
CONTINUOUS
 62
     7
  5
419
 10
0.602333
 20
-0.230844
 30
0.0
 11
0.602333
 21
-0.844
 31
0.0
  0
LINE
  8
0
  6
CONTINUOUS
 62
     7
  5
41A
 10
0.7
 20
0.844
 30
0.0
 11
0.602333
 21
0.844
 31
0.0
  0
LINE
  8
0
  6
CONTINUOUS
 62
     7
  5
41B
 10
0.407
 20
-0.844
 30
0.0
 11
0.602333
 21
-0.844
 31
0.0
  0
LINE
  8
0
  6
CONTINUOUS
 62
     7
  5
41C
 10
0.7
 20
-0.844
 30
0.0
 11
0.602333
 21
-0.844
 31
0.0
  0
LINE
  8
0
  6
CONTINUOUS
 62
     7
  5
41D
 10
0.602333
 20
-0.230844
 30
0.0
 11
0.407
 21
-0.230844
 31
0.0
  0
LINE
  8
0
  6
CONTINUOUS
 62
     7
  5
41E
 10
0.407
 20
-0.230844
 30
0.0
 11
0.407
 21
-0.844
 31
0.0
  0
LINE
  8
0
  6
CONTINUOUS
 62
     7
  5
41F
 10
0.407
 20
0.230844
 30
0.0
 11
0.602333
 21
0.230844
 31
0.0
  0
LINE
  8
0
  6
CONTINUOUS
 62
     7
  5
420
 10
0.407
 20
-0.230844
 30
0.0
 11
0.407
 21
0.230844
 31
0.0
  0
LINE
  8
0
  6
CONTINUOUS
 62
     7
  5
421
 10
0.407
 20
0.836612
 30
0.0
 11
0.407
 21
0.230844
 31
0.0
  0
LINE
  8
0
  6
CONTINUOUS
 62
     7
  5
422
 10
0.7
 20
0.896
 30
0.0
 11
0.407
 21
0.896
 31
0.0
  0
LINE
  8
0
  6
CONTINUOUS
 62
     7
  5
423
 10
0.407
 20
0.896
 30
0.0
 11
0.407
 21
0.836612
 31
0.0
  0
LINE
  8
0
  6
CONTINUOUS
 62
     7
  5
424
 10
0.997895
 20
0.406233
 30
0.0
 11
0.898193
 21
0.505935
 31
0.0
  0
LINE
  8
0
  6
CONTINUOUS
 62
     7
  5
425
 10
0.930366
 20
0.296985
 30
0.0
 11
1.004613
 21
0.371231
 31
0.0
  0
LINE
  8
0
  6
CONTINUOUS
 62
     7
  5
426
 10
1.02229
 20
0.353553
 30
0.0
 11
0.948044
 21
0.279307
 31
0.0
  0
LINE
  8
0
  6
CONTINUOUS
 62
     7
  5
427
 10
0.958285
 20
0.566051
 30
0.0
 11
1.058011
 21
0.466325
 31
0.0
  0
LINE
  8
0
  6
CONTINUOUS
 62
     7
  5
428
 10
0.99047
 20
0.357089
 30
0.0
 11
0.849049
 21
0.49851
 31
0.0
  0
LINE
  8
0
  6
CONTINUOUS
 62
     7
  5
429
 10
0.891122
 20
0.498864
 30
0.0
 11
0.990824
 21
0.399162
 31
0.0
  0
LINE
  8
0
  6
CONTINUOUS
 62
     7
  5
42A
 10
0.863191
 20
0.512652
 30
0.0
 11
0.788945
 21
0.438406
 31
0.0
  0
LINE
  8
0
  6
CONTINUOUS
 62
     7
  5
42B
 10
0.771267
 20
0.456084
 30
0.0
 11
0.845513
 21
0.53033
 31
0.0
  0
LINE
  8
0
  6
CONTINUOUS
 62
     7
  5
42C
 10
0.915871
 20
0.523613
 30
0.0
 11
1.015573
 21
0.423911
 31
0.0
  0
LINE
  8
0
  6
CONTINUOUS
 62
     7
  5
42D
 10
0.97823
 20
0.580047
 30
0.0
 11
1.003686
 21
0.605503
 31
0.0
  0
LINE
  8
0
  6
CONTINUOUS
 62
     7
  5
42E
 10
1.003686
 20
0.605503
 30
0.0
 11
1.028181
 21
0.581008
 31
0.0
  0
LINE
  8
0
  6
CONTINUOUS
 62
     7
  5
42F
 10
1.002725
 20
0.555552
 30
0.0
 11
0.97823
 21
0.580047
 31
0.0
  0
LINE
  8
0
  6
CONTINUOUS
 62
     7
  5
430
 10
1.028181
 20
0.581008
 30
0.0
 11
1.002725
 21
0.555552
 31
0.0
  0
LINE
  8
0
  6
CONTINUOUS
 62
     7
  5
431
 10
1.028181
 20
0.581008
 30
0.0
 11
1.100425
 21
0.508763
 31
0.0
  0
LINE
  8
0
  6
CONTINUOUS
 62
     7
  5
432
 10
1.000724
 20
0.608465
 30
0.0
 11
1.003686
 21
0.605503
 31
0.0
  0
LINE
  8
0
  6
CONTINUOUS
 62
     7
  5
433
 10
0.952287
 20
0.275065
 30
0.0
 11
0.767025
 21
0.460327
 31
0.0
  0
LINE
  8
0
  6
CONTINUOUS
 62
     7
  5
434
 10
0.898193
 20
-0.505935
 30
0.0
 11
0.997895
 21
-0.406233
 31
0.0
  0
LINE
  8
0
  6
CONTINUOUS
 62
     7
  5
435
 10
0.788945
 20
-0.438406
 30
0.0
 11
0.863191
 21
-0.512652
 31
0.0
  0
LINE
  8
0
  6
CONTINUOUS
 62
     7
  5
436
 10
0.845513
 20
-0.53033
 30
0.0
 11
0.771267
 21
-0.456084
 31
0.0
  0
LINE
  8
0
  6
CONTINUOUS
 62
     7
  5
437
 10
1.058011
 20
-0.466325
 30
0.0
 11
0.958285
 21
-0.566051
 31
0.0
  0
LINE
  8
0
  6
CONTINUOUS
 62
     7
  5
438
 10
0.849049
 20
-0.49851
 30
0.0
 11
0.99047
 21
-0.357089
 31
0.0
  0
LINE
  8
0
  6
CONTINUOUS
 62
     7
  5
439
 10
0.990824
 20
-0.399162
 30
0.0
 11
0.891122
 21
-0.498864
 31
0.0
  0
LINE
  8
0
  6
CONTINUOUS
 62
     7
  5
43A
 10
1.004613
 20
-0.371231
 30
0.0
 11
0.930366
 21
-0.296985
 31
0.0
  0
LINE
  8
0
  6
CONTINUOUS
 62
     7
  5
43B
 10
0.948044
 20
-0.279307
 30
0.0
 11
1.02229
 21
-0.353553
 31
0.0
  0
LINE
  8
0
  6
CONTINUOUS
 62
     7
  5
43C
 10
1.015573
 20
-0.423911
 30
0.0
 11
0.915871
 21
-0.523613
 31
0.0
  0
LINE
  8
0
  6
CONTINUOUS
 62
     7
  5
43D
 10
1.072007
 20
-0.48627
 30
0.0
 11
1.097463
 21
-0.511726
 31
0.0
  0
LINE
  8
0
  6
CONTINUOUS
 62
     7
  5
43E
 10
1.097463
 20
-0.511726
 30
0.0
 11
1.072968
 21
-0.536221
 31
0.0
  0
LINE
  8
0
  6
CONTINUOUS
 62
     7
  5
43F
 10
1.047512
 20
-0.510765
 30
0.0
 11
1.072007
 21
-0.48627
 31
0.0
  0
LINE
  8
0
  6
CONTINUOUS
 62
     7
  5
440
 10
1.072968
 20
-0.536221
 30
0.0
 11
1.047512
 21
-0.510765
 31
0.0
  0
LINE
  8
0
  6
CONTINUOUS
 62
     7
  5
441
 10
1.072968
 20
-0.536221
 30
0.0
 11
1.000724
 21
-0.608465
 31
0.0
  0
LINE
  8
0
  6
CONTINUOUS
 62
     7
  5
442
 10
1.100425
 20
-0.508764
 30
0.0
 11
1.097463
 21
-0.511726
 31
0.0
  0
LINE
  8
0
  6
CONTINUOUS
 62
     7
  5
443
 10
0.767025
 20
-0.460327
 30
0.0
 11
0.952287
 21
-0.275065
 31
0.0
  0
LINE
  8
0
  6
CONTINUOUS
 62
     7
  5
444
 10
1.346499
 20
0.252791
 30
0.0
 11
1.246797
 21
0.352493
 31
0.0
  0
LINE
  8
0
  6
CONTINUOUS
 62
     7
  5
445
 10
1.27897
 20
0.143543
 30
0.0
 11
1.353216
 21
0.217789
 31
0.0
  0
LINE
  8
0
  6
CONTINUOUS
 62
     7
  5
446
 10
1.370894
 20
0.200111
 30
0.0
 11
1.296648
 21
0.125865
 31
0.0
  0
LINE
  8
0
  6
CONTINUOUS
 62
     7
  5
447
 10
1.306888
 20
0.412609
 30
0.0
 11
1.406615
 21
0.312882
 31
0.0
  0
LINE
  8
0
  6
CONTINUOUS
 62
     7
  5
448
 10
1.339074
 20
0.203647
 30
0.0
 11
1.197653
 21
0.345068
 31
0.0
  0
LINE
  8
0
  6
CONTINUOUS
 62
     7
  5
449
 10
1.239726
 20
0.345422
 30
0.0
 11
1.339428
 21
0.24572
 31
0.0
  0
LINE
  8
0
  6
CONTINUOUS
 62
     7
  5
44A
 10
1.211795
 20
0.35921
 30
0.0
 11
1.137549
 21
0.284964
 31
0.0
  0
LINE
  8
0
  6
CONTINUOUS
 62
     7
  5
44B
 10
1.119871
 20
0.302642
 30
0.0
 11
1.194117
 21
0.376888
 31
0.0
  0
LINE
  8
0
  6
CONTINUOUS
 62
     7
  5
44C
 10
1.264474
 20
0.37017
 30
0.0
 11
1.364176
 21
0.270468
 31
0.0
  0
LINE
  8
0
  6
CONTINUOUS
 62
     7
  5
44D
 10
1.326834
 20
0.426605
 30
0.0
 11
1.35229
 21
0.452061
 31
0.0
  0
LINE
  8
0
  6
CONTINUOUS
 62
     7
  5
44E
 10
1.35229
 20
0.452061
 30
0.0
 11
1.376785
 21
0.427566
 31
0.0
  0
LINE
  8
0
  6
CONTINUOUS
 62
     7
  5
44F
 10
1.351329
 20
0.40211
 30
0.0
 11
1.326834
 21
0.426605
 31
0.0
  0
LINE
  8
0
  6
CONTINUOUS
 62
     7
  5
450
 10
1.376785
 20
0.427566
 30
0.0
 11
1.351329
 21
0.40211
 31
0.0
  0
LINE
  8
0
  6
CONTINUOUS
 62
     7
  5
451
 10
1.376785
 20
0.427566
 30
0.0
 11
1.449029
 21
0.355321
 31
0.0
  0
LINE
  8
0
  6
CONTINUOUS
 62
     7
  5
452
 10
1.349328
 20
0.455023
 30
0.0
 11
1.35229
 21
0.452061
 31
0.0
  0
LINE
  8
0
  6
CONTINUOUS
 62
     7
  5
453
 10
1.30089
 20
0.121622
 30
0.0
 11
1.115628
 21
0.306884
 31
0.0
  0
LINE
  8
0
  6
CONTINUOUS
 62
     7
  5
454
 10
1.246797
 20
-0.352493
 30
0.0
 11
1.346499
 21
-0.252791
 31
0.0
  0
LINE
  8
0
  6
CONTINUOUS
 62
     7
  5
455
 10
1.137549
 20
-0.284964
 30
0.0
 11
1.211795
 21
-0.35921
 31
0.0
  0
LINE
  8
0
  6
CONTINUOUS
 62
     7
  5
456
 10
1.194117
 20
-0.376888
 30
0.0
 11
1.119871
 21
-0.302642
 31
0.0
  0
LINE
  8
0
  6
CONTINUOUS
 62
     7
  5
457
 10
1.406615
 20
-0.312882
 30
0.0
 11
1.306888
 21
-0.412609
 31
0.0
  0
LINE
  8
0
  6
CONTINUOUS
 62
     7
  5
458
 10
1.197653
 20
-0.345068
 30
0.0
 11
1.339074
 21
-0.203647
 31
0.0
  0
LINE
  8
0
  6
CONTINUOUS
 62
     7
  5
459
 10
1.339428
 20
-0.24572
 30
0.0
 11
1.239726
 21
-0.345422
 31
0.0
  0
LINE
  8
0
  6
CONTINUOUS
 62
     7
  5
45A
 10
1.353216
 20
-0.217789
 30
0.0
 11
1.27897
 21
-0.143543
 31
0.0
  0
LINE
  8
0
  6
CONTINUOUS
 62
     7
  5
45B
 10
1.296648
 20
-0.125865
 30
0.0
 11
1.370894
 21
-0.200111
 31
0.0
  0
LINE
  8
0
  6
CONTINUOUS
 62
     7
  5
45C
 10
1.364176
 20
-0.270468
 30
0.0
 11
1.264474
 21
-0.37017
 31
0.0
  0
LINE
  8
0
  6
CONTINUOUS
 62
     7
  5
45D
 10
1.420611
 20
-0.332828
 30
0.0
 11
1.446067
 21
-0.358284
 31
0.0
  0
LINE
  8
0
  6
CONTINUOUS
 62
     7
  5
45E
 10
1.446067
 20
-0.358284
 30
0.0
 11
1.421572
 21
-0.382779
 31
0.0
  0
LINE
  8
0
  6
CONTINUOUS
 62
     7
  5
45F
 10
1.396116
 20
-0.357323
 30
0.0
 11
1.420611
 21
-0.332828
 31
0.0
  0
LINE
  8
0
  6
CONTINUOUS
 62
     7
  5
460
 10
1.421572
 20
-0.382779
 30
0.0
 11
1.396116
 21
-0.357323
 31
0.0
  0
LINE
  8
0
  6
CONTINUOUS
 62
     7
  5
461
 10
1.421572
 20
-0.382779
 30
0.0
 11
1.349327
 21
-0.455023
 31
0.0
  0
LINE
  8
0
  6
CONTINUOUS
 62
     7
  5
462
 10
1.449029
 20
-0.355322
 30
0.0
 11
1.446067
 21
-0.358284
 31
0.0
  0
LINE
  8
0
  6
CONTINUOUS
 62
     7
  5
463
 10
1.115628
 20
-0.306884
 30
0.0
 11
1.30089
 21
-0.121622
 31
0.0
  0
LINE
  8
0
  6
CONTINUOUS
 62
     7
  5
464
 10
1.67
 20
0.1275
 30
0.0
 11
1.741
 21
0.1275
 31
0.0
  0
LINE
  8
0
  6
CONTINUOUS
 62
     7
  5
465
 10
1.67
 20
-0.1275
 30
0.0
 11
1.741
 21
-0.1275
 31
0.0
  0
LINE
  8
0
  6
CONTINUOUS
 62
     7
  5
466
 10
1.741
 20
-0.1275
 30
0.0
 11
1.741
 21
0.1275
 31
0.0
  0
LINE
  8
0
  6
CONTINUOUS
 62
     7
  5
467
 10
1.54661
 20
-0.452902
 30
0.0
 11
1.526565
 21
-0.432857
 31
0.0
  0
LINE
  8
0
  6
CONTINUOUS
 62
     7
  5
468
 10
1.446908
 20
-0.552604
 30
0.0
 11
1.54661
 21
-0.452902
 31
0.0
  0
LINE
  8
0
  6
CONTINUOUS
 62
     7
  5
469
 10
1.426863
 20
-0.532559
 30
0.0
 11
1.446908
 21
-0.552604
 31
0.0
  0
LINE
  8
0
  6
CONTINUOUS
 62
     7
  5
46A
 10
1.412667
 20
-0.597559
 30
0.0
 11
1.411846
 21
-0.596668
 31
0.0
  0
LINE
  8
0
  6
CONTINUOUS
 62
     7
  5
46B
 10
1.411846
 20
-0.596668
 30
0.0
 11
1.411095
 21
-0.595707
 31
0.0
  0
LINE
  8
0
  6
CONTINUOUS
 62
     7
  5
46C
 10
1.411095
 20
-0.595707
 30
0.0
 11
1.410416
 21
-0.594678
 31
0.0
  0
LINE
  8
0
  6
CONTINUOUS
 62
     7
  5
46D
 10
1.410416
 20
-0.594678
 30
0.0
 11
1.409809
 21
-0.593581
 31
0.0
  0
LINE
  8
0
  6
CONTINUOUS
 62
     7
  5
46E
 10
1.409809
 20
-0.593581
 30
0.0
 11
1.409274
 21
-0.592417
 31
0.0
  0
LINE
  8
0
  6
CONTINUOUS
 62
     7
  5
46F
 10
1.409274
 20
-0.592417
 30
0.0
 11
1.408812
 21
-0.591187
 31
0.0
  0
LINE
  8
0
  6
CONTINUOUS
 62
     7
  5
470
 10
1.408812
 20
-0.591187
 30
0.0
 11
1.408422
 21
-0.589892
 31
0.0
  0
LINE
  8
0
  6
CONTINUOUS
 62
     7
  5
471
 10
1.408422
 20
-0.589892
 30
0.0
 11
1.408107
 21
-0.588532
 31
0.0
  0
LINE
  8
0
  6
CONTINUOUS
 62
     7
  5
472
 10
1.408107
 20
-0.588532
 30
0.0
 11
1.407865
 21
-0.58711
 31
0.0
  0
LINE
  8
0
  6
CONTINUOUS
 62
     7
  5
473
 10
1.407865
 20
-0.58711
 30
0.0
 11
1.407696
 21
-0.585626
 31
0.0
  0
LINE
  8
0
  6
CONTINUOUS
 62
     7
  5
474
 10
1.407696
 20
-0.585626
 30
0.0
 11
1.407602
 21
-0.584081
 31
0.0
  0
LINE
  8
0
  6
CONTINUOUS
 62
     7
  5
475
 10
1.407602
 20
-0.584081
 30
0.0
 11
1.407582
 21
-0.582477
 31
0.0
  0
LINE
  8
0
  6
CONTINUOUS
 62
     7
  5
476
 10
1.407582
 20
-0.582477
 30
0.0
 11
1.407635
 21
-0.580814
 31
0.0
  0
LINE
  8
0
  6
CONTINUOUS
 62
     7
  5
477
 10
1.407635
 20
-0.580814
 30
0.0
 11
1.407763
 21
-0.579095
 31
0.0
  0
LINE
  8
0
  6
CONTINUOUS
 62
     7
  5
478
 10
1.407763
 20
-0.579095
 30
0.0
 11
1.407965
 21
-0.57732
 31
0.0
  0
LINE
  8
0
  6
CONTINUOUS
 62
     7
  5
479
 10
1.407965
 20
-0.57732
 30
0.0
 11
1.40824
 21
-0.57549
 31
0.0
  0
LINE
  8
0
  6
CONTINUOUS
 62
     7
  5
47A
 10
1.40824
 20
-0.57549
 30
0.0
 11
1.408589
 21
-0.573608
 31
0.0
  0
LINE
  8
0
  6
CONTINUOUS
 62
     7
  5
47B
 10
1.408589
 20
-0.573608
 30
0.0
 11
1.409012
 21
-0.571675
 31
0.0
  0
LINE
  8
0
  6
CONTINUOUS
 62
     7
  5
47C
 10
1.409012
 20
-0.571675
 30
0.0
 11
1.409507
 21
-0.569691
 31
0.0
  0
LINE
  8
0
  6
CONTINUOUS
 62
     7
  5
47D
 10
1.409507
 20
-0.569691
 30
0.0
 11
1.410075
 21
-0.56766
 31
0.0
  0
LINE
  8
0
  6
CONTINUOUS
 62
     7
  5
47E
 10
1.410075
 20
-0.56766
 30
0.0
 11
1.410715
 21
-0.565582
 31
0.0
  0
LINE
  8
0
  6
CONTINUOUS
 62
     7
  5
47F
 10
1.410715
 20
-0.565582
 30
0.0
 11
1.411426
 21
-0.563459
 31
0.0
  0
LINE
  8
0
  6
CONTINUOUS
 62
     7
  5
480
 10
1.411426
 20
-0.563459
 30
0.0
 11
1.412209
 21
-0.561292
 31
0.0
  0
LINE
  8
0
  6
CONTINUOUS
 62
     7
  5
481
 10
1.412209
 20
-0.561292
 30
0.0
 11
1.413061
 21
-0.559084
 31
0.0
  0
LINE
  8
0
  6
CONTINUOUS
 62
     7
  5
482
 10
1.413061
 20
-0.559084
 30
0.0
 11
1.413984
 21
-0.556836
 31
0.0
  0
LINE
  8
0
  6
CONTINUOUS
 62
     7
  5
483
 10
1.413984
 20
-0.556836
 30
0.0
 11
1.414976
 21
-0.554549
 31
0.0
  0
LINE
  8
0
  6
CONTINUOUS
 62
     7
  5
484
 10
1.414976
 20
-0.554549
 30
0.0
 11
1.416036
 21
-0.552227
 31
0.0
  0
LINE
  8
0
  6
CONTINUOUS
 62
     7
  5
485
 10
1.416036
 20
-0.552227
 30
0.0
 11
1.417163
 21
-0.54987
 31
0.0
  0
LINE
  8
0
  6
CONTINUOUS
 62
     7
  5
486
 10
1.417163
 20
-0.54987
 30
0.0
 11
1.418357
 21
-0.54748
 31
0.0
  0
LINE
  8
0
  6
CONTINUOUS
 62
     7
  5
487
 10
1.418357
 20
-0.54748
 30
0.0
 11
1.419617
 21
-0.545059
 31
0.0
  0
LINE
  8
0
  6
CONTINUOUS
 62
     7
  5
488
 10
1.419617
 20
-0.545059
 30
0.0
 11
1.420941
 21
-0.542609
 31
0.0
  0
LINE
  8
0
  6
CONTINUOUS
 62
     7
  5
489
 10
1.420941
 20
-0.542609
 30
0.0
 11
1.422329
 21
-0.540132
 31
0.0
  0
LINE
  8
0
  6
CONTINUOUS
 62
     7
  5
48A
 10
1.422329
 20
-0.540132
 30
0.0
 11
1.423779
 21
-0.53763
 31
0.0
  0
LINE
  8
0
  6
CONTINUOUS
 62
     7
  5
48B
 10
1.423779
 20
-0.53763
 30
0.0
 11
1.425291
 21
-0.535105
 31
0.0
  0
LINE
  8
0
  6
CONTINUOUS
 62
     7
  5
48C
 10
1.425291
 20
-0.535105
 30
0.0
 11
1.426863
 21
-0.532559
 31
0.0
  0
LINE
  8
0
  6
CONTINUOUS
 62
     7
  5
48D
 10
1.514558
 20
-0.555665
 30
0.0
 11
1.510872
 21
-0.558833
 31
0.0
  0
LINE
  8
0
  6
CONTINUOUS
 62
     7
  5
48E
 10
1.510872
 20
-0.558833
 30
0.0
 11
1.507173
 21
-0.561923
 31
0.0
  0
LINE
  8
0
  6
CONTINUOUS
 62
     7
  5
48F
 10
1.507173
 20
-0.561923
 30
0.0
 11
1.503466
 21
-0.564931
 31
0.0
  0
LINE
  8
0
  6
CONTINUOUS
 62
     7
  5
490
 10
1.503466
 20
-0.564931
 30
0.0
 11
1.499757
 21
-0.567851
 31
0.0
  0
LINE
  8
0
  6
CONTINUOUS
 62
     7
  5
491
 10
1.499757
 20
-0.567851
 30
0.0
 11
1.496052
 21
-0.570679
 31
0.0
  0
LINE
  8
0
  6
CONTINUOUS
 62
     7
  5
492
 10
1.496052
 20
-0.570679
 30
0.0
 11
1.492356
 21
-0.57341
 31
0.0
  0
LINE
  8
0
  6
CONTINUOUS
 62
     7
  5
493
 10
1.492356
 20
-0.57341
 30
0.0
 11
1.488675
 21
-0.576041
 31
0.0
  0
LINE
  8
0
  6
CONTINUOUS
 62
     7
  5
494
 10
1.488675
 20
-0.576041
 30
0.0
 11
1.485015
 21
-0.578568
 31
0.0
  0
LINE
  8
0
  6
CONTINUOUS
 62
     7
  5
495
 10
1.485015
 20
-0.578568
 30
0.0
 11
1.481381
 21
-0.580986
 31
0.0
  0
LINE
  8
0
  6
CONTINUOUS
 62
     7
  5
496
 10
1.481381
 20
-0.580986
 30
0.0
 11
1.477779
 21
-0.583292
 31
0.0
  0
LINE
  8
0
  6
CONTINUOUS
 62
     7
  5
497
 10
1.477779
 20
-0.583292
 30
0.0
 11
1.474215
 21
-0.585482
 31
0.0
  0
LINE
  8
0
  6
CONTINUOUS
 62
     7
  5
498
 10
1.474215
 20
-0.585482
 30
0.0
 11
1.470693
 21
-0.587554
 31
0.0
  0
LINE
  8
0
  6
CONTINUOUS
 62
     7
  5
499
 10
1.470693
 20
-0.587554
 30
0.0
 11
1.46722
 21
-0.589502
 31
0.0
  0
LINE
  8
0
  6
CONTINUOUS
 62
     7
  5
49A
 10
1.46722
 20
-0.589502
 30
0.0
 11
1.463801
 21
-0.591326
 31
0.0
  0
LINE
  8
0
  6
CONTINUOUS
 62
     7
  5
49B
 10
1.463801
 20
-0.591326
 30
0.0
 11
1.46044
 21
-0.593021
 31
0.0
  0
LINE
  8
0
  6
CONTINUOUS
 62
     7
  5
49C
 10
1.46044
 20
-0.593021
 30
0.0
 11
1.457144
 21
-0.594586
 31
0.0
  0
LINE
  8
0
  6
CONTINUOUS
 62
     7
  5
49D
 10
1.457144
 20
-0.594586
 30
0.0
 11
1.453917
 21
-0.596018
 31
0.0
  0
LINE
  8
0
  6
CONTINUOUS
 62
     7
  5
49E
 10
1.453917
 20
-0.596018
 30
0.0
 11
1.450764
 21
-0.597314
 31
0.0
  0
LINE
  8
0
  6
CONTINUOUS
 62
     7
  5
49F
 10
1.450764
 20
-0.597314
 30
0.0
 11
1.44769
 21
-0.598473
 31
0.0
  0
LINE
  8
0
  6
CONTINUOUS
 62
     7
  5
4A0
 10
1.44769
 20
-0.598473
 30
0.0
 11
1.4447
 21
-0.599493
 31
0.0
  0
LINE
  8
0
  6
CONTINUOUS
 62
     7
  5
4A1
 10
1.4447
 20
-0.599493
 30
0.0
 11
1.441798
 21
-0.600373
 31
0.0
  0
LINE
  8
0
  6
CONTINUOUS
 62
     7
  5
4A2
 10
1.441798
 20
-0.600373
 30
0.0
 11
1.438989
 21
-0.60111
 31
0.0
  0
LINE
  8
0
  6
CONTINUOUS
 62
     7
  5
4A3
 10
1.438989
 20
-0.60111
 30
0.0
 11
1.436277
 21
-0.601704
 31
0.0
  0
LINE
  8
0
  6
CONTINUOUS
 62
     7
  5
4A4
 10
1.436277
 20
-0.601704
 30
0.0
 11
1.433667
 21
-0.602154
 31
0.0
  0
LINE
  8
0
  6
CONTINUOUS
 62
     7
  5
4A5
 10
1.433667
 20
-0.602154
 30
0.0
 11
1.431162
 21
-0.60246
 31
0.0
  0
LINE
  8
0
  6
CONTINUOUS
 62
     7
  5
4A6
 10
1.431162
 20
-0.60246
 30
0.0
 11
1.428766
 21
-0.60262
 31
0.0
  0
LINE
  8
0
  6
CONTINUOUS
 62
     7
  5
4A7
 10
1.428766
 20
-0.60262
 30
0.0
 11
1.426483
 21
-0.602635
 31
0.0
  0
LINE
  8
0
  6
CONTINUOUS
 62
     7
  5
4A8
 10
1.426483
 20
-0.602635
 30
0.0
 11
1.424317
 21
-0.602504
 31
0.0
  0
LINE
  8
0
  6
CONTINUOUS
 62
     7
  5
4A9
 10
1.424317
 20
-0.602504
 30
0.0
 11
1.42227
 21
-0.602228
 31
0.0
  0
LINE
  8
0
  6
CONTINUOUS
 62
     7
  5
4AA
 10
1.42227
 20
-0.602228
 30
0.0
 11
1.420346
 21
-0.601807
 31
0.0
  0
LINE
  8
0
  6
CONTINUOUS
 62
     7
  5
4AB
 10
1.420346
 20
-0.601807
 30
0.0
 11
1.418548
 21
-0.601241
 31
0.0
  0
LINE
  8
0
  6
CONTINUOUS
 62
     7
  5
4AC
 10
1.418548
 20
-0.601241
 30
0.0
 11
1.416879
 21
-0.600533
 31
0.0
  0
LINE
  8
0
  6
CONTINUOUS
 62
     7
  5
4AD
 10
1.416879
 20
-0.600533
 30
0.0
 11
1.41534
 21
-0.599682
 31
0.0
  0
LINE
  8
0
  6
CONTINUOUS
 62
     7
  5
4AE
 10
1.41534
 20
-0.599682
 30
0.0
 11
1.413936
 21
-0.59869
 31
0.0
  0
LINE
  8
0
  6
CONTINUOUS
 62
     7
  5
4AF
 10
1.413936
 20
-0.59869
 30
0.0
 11
1.412667
 21
-0.597559
 31
0.0
  0
LINE
  8
0
  6
CONTINUOUS
 62
     7
  5
4B0
 10
1.549671
 20
-0.520552
 30
0.0
 11
1.514558
 21
-0.555665
 31
0.0
  0
LINE
  8
0
  6
CONTINUOUS
 62
     7
  5
4B1
 10
1.591565
 20
-0.418661
 30
0.0
 11
1.592696
 21
-0.41993
 31
0.0
  0
LINE
  8
0
  6
CONTINUOUS
 62
     7
  5
4B2
 10
1.592696
 20
-0.41993
 30
0.0
 11
1.593688
 21
-0.421334
 31
0.0
  0
LINE
  8
0
  6
CONTINUOUS
 62
     7
  5
4B3
 10
1.593688
 20
-0.421334
 30
0.0
 11
1.594539
 21
-0.422873
 31
0.0
  0
LINE
  8
0
  6
CONTINUOUS
 62
     7
  5
4B4
 10
1.594539
 20
-0.422873
 30
0.0
 11
1.595247
 21
-0.424542
 31
0.0
  0
LINE
  8
0
  6
CONTINUOUS
 62
     7
  5
4B5
 10
1.595247
 20
-0.424542
 30
0.0
 11
1.595812
 21
-0.42634
 31
0.0
  0
LINE
  8
0
  6
CONTINUOUS
 62
     7
  5
4B6
 10
1.595812
 20
-0.42634
 30
0.0
 11
1.596233
 21
-0.428264
 31
0.0
  0
LINE
  8
0
  6
CONTINUOUS
 62
     7
  5
4B7
 10
1.596233
 20
-0.428264
 30
0.0
 11
1.59651
 21
-0.430311
 31
0.0
  0
LINE
  8
0
  6
CONTINUOUS
 62
     7
  5
4B8
 10
1.59651
 20
-0.430311
 30
0.0
 11
1.59664
 21
-0.432477
 31
0.0
  0
LINE
  8
0
  6
CONTINUOUS
 62
     7
  5
4B9
 10
1.59664
 20
-0.432477
 30
0.0
 11
1.596626
 21
-0.43476
 31
0.0
  0
LINE
  8
0
  6
CONTINUOUS
 62
     7
  5
4BA
 10
1.596626
 20
-0.43476
 30
0.0
 11
1.596466
 21
-0.437156
 31
0.0
  0
LINE
  8
0
  6
CONTINUOUS
 62
     7
  5
4BB
 10
1.596466
 20
-0.437156
 30
0.0
 11
1.59616
 21
-0.439661
 31
0.0
  0
LINE
  8
0
  6
CONTINUOUS
 62
     7
  5
4BC
 10
1.59616
 20
-0.439661
 30
0.0
 11
1.59571
 21
-0.442271
 31
0.0
  0
LINE
  8
0
  6
CONTINUOUS
 62
     7
  5
4BD
 10
1.59571
 20
-0.442271
 30
0.0
 11
1.595116
 21
-0.444983
 31
0.0
  0
LINE
  8
0
  6
CONTINUOUS
 62
     7
  5
4BE
 10
1.595116
 20
-0.444983
 30
0.0
 11
1.594379
 21
-0.447792
 31
0.0
  0
LINE
  8
0
  6
CONTINUOUS
 62
     7
  5
4BF
 10
1.594379
 20
-0.447792
 30
0.0
 11
1.593499
 21
-0.450694
 31
0.0
  0
LINE
  8
0
  6
CONTINUOUS
 62
     7
  5
4C0
 10
1.593499
 20
-0.450694
 30
0.0
 11
1.592479
 21
-0.453684
 31
0.0
  0
LINE
  8
0
  6
CONTINUOUS
 62
     7
  5
4C1
 10
1.592479
 20
-0.453684
 30
0.0
 11
1.59132
 21
-0.456758
 31
0.0
  0
LINE
  8
0
  6
CONTINUOUS
 62
     7
  5
4C2
 10
1.59132
 20
-0.456758
 30
0.0
 11
1.590024
 21
-0.459911
 31
0.0
  0
LINE
  8
0
  6
CONTINUOUS
 62
     7
  5
4C3
 10
1.590024
 20
-0.459911
 30
0.0
 11
1.588592
 21
-0.463138
 31
0.0
  0
LINE
  8
0
  6
CONTINUOUS
 62
     7
  5
4C4
 10
1.588592
 20
-0.463138
 30
0.0
 11
1.587027
 21
-0.466434
 31
0.0
  0
LINE
  8
0
  6
CONTINUOUS
 62
     7
  5
4C5
 10
1.587027
 20
-0.466434
 30
0.0
 11
1.585332
 21
-0.469795
 31
0.0
  0
LINE
  8
0
  6
CONTINUOUS
 62
     7
  5
4C6
 10
1.585332
 20
-0.469795
 30
0.0
 11
1.583508
 21
-0.473214
 31
0.0
  0
LINE
  8
0
  6
CONTINUOUS
 62
     7
  5
4C7
 10
1.583508
 20
-0.473214
 30
0.0
 11
1.581559
 21
-0.476687
 31
0.0
  0
LINE
  8
0
  6
CONTINUOUS
 62
     7
  5
4C8
 10
1.581559
 20
-0.476687
 30
0.0
 11
1.579488
 21
-0.480209
 31
0.0
  0
LINE
  8
0
  6
CONTINUOUS
 62
     7
  5
4C9
 10
1.579488
 20
-0.480209
 30
0.0
 11
1.577298
 21
-0.483773
 31
0.0
  0
LINE
  8
0
  6
CONTINUOUS
 62
     7
  5
4CA
 10
1.577298
 20
-0.483773
 30
0.0
 11
1.574992
 21
-0.487375
 31
0.0
  0
LINE
  8
0
  6
CONTINUOUS
 62
     7
  5
4CB
 10
1.574992
 20
-0.487375
 30
0.0
 11
1.572574
 21
-0.491009
 31
0.0
  0
LINE
  8
0
  6
CONTINUOUS
 62
     7
  5
4CC
 10
1.572574
 20
-0.491009
 30
0.0
 11
1.570047
 21
-0.494669
 31
0.0
  0
LINE
  8
0
  6
CONTINUOUS
 62
     7
  5
4CD
 10
1.570047
 20
-0.494669
 30
0.0
 11
1.567416
 21
-0.49835
 31
0.0
  0
LINE
  8
0
  6
CONTINUOUS
 62
     7
  5
4CE
 10
1.567416
 20
-0.49835
 30
0.0
 11
1.564685
 21
-0.502046
 31
0.0
  0
LINE
  8
0
  6
CONTINUOUS
 62
     7
  5
4CF
 10
1.564685
 20
-0.502046
 30
0.0
 11
1.561857
 21
-0.505751
 31
0.0
  0
LINE
  8
0
  6
CONTINUOUS
 62
     7
  5
4D0
 10
1.561857
 20
-0.505751
 30
0.0
 11
1.558937
 21
-0.50946
 31
0.0
  0
LINE
  8
0
  6
CONTINUOUS
 62
     7
  5
4D1
 10
1.558937
 20
-0.50946
 30
0.0
 11
1.555929
 21
-0.513167
 31
0.0
  0
LINE
  8
0
  6
CONTINUOUS
 62
     7
  5
4D2
 10
1.555929
 20
-0.513167
 30
0.0
 11
1.552839
 21
-0.516866
 31
0.0
  0
LINE
  8
0
  6
CONTINUOUS
 62
     7
  5
4D3
 10
1.552839
 20
-0.516866
 30
0.0
 11
1.549671
 21
-0.520552
 31
0.0
  0
LINE
  8
0
  6
CONTINUOUS
 62
     7
  5
4D4
 10
1.526565
 20
-0.432857
 30
0.0
 11
1.529111
 21
-0.431285
 31
0.0
  0
LINE
  8
0
  6
CONTINUOUS
 62
     7
  5
4D5
 10
1.529111
 20
-0.431285
 30
0.0
 11
1.531636
 21
-0.429774
 31
0.0
  0
LINE
  8
0
  6
CONTINUOUS
 62
     7
  5
4D6
 10
1.531636
 20
-0.429774
 30
0.0
 11
1.534138
 21
-0.428323
 31
0.0
  0
LINE
  8
0
  6
CONTINUOUS
 62
     7
  5
4D7
 10
1.534138
 20
-0.428323
 30
0.0
 11
1.536615
 21
-0.426935
 31
0.0
  0
LINE
  8
0
  6
CONTINUOUS
 62
     7
  5
4D8
 10
1.536615
 20
-0.426935
 30
0.0
 11
1.539065
 21
-0.425611
 31
0.0
  0
LINE
  8
0
  6
CONTINUOUS
 62
     7
  5
4D9
 10
1.539065
 20
-0.425611
 30
0.0
 11
1.541485
 21
-0.424352
 31
0.0
  0
LINE
  8
0
  6
CONTINUOUS
 62
     7
  5
4DA
 10
1.541485
 20
-0.424352
 30
0.0
 11
1.543875
 21
-0.423158
 31
0.0
  0
LINE
  8
0
  6
CONTINUOUS
 62
     7
  5
4DB
 10
1.543875
 20
-0.423158
 30
0.0
 11
1.546233
 21
-0.42203
 31
0.0
  0
LINE
  8
0
  6
CONTINUOUS
 62
     7
  5
4DC
 10
1.546233
 20
-0.42203
 30
0.0
 11
1.548555
 21
-0.42097
 31
0.0
  0
LINE
  8
0
  6
CONTINUOUS
 62
     7
  5
4DD
 10
1.548555
 20
-0.42097
 30
0.0
 11
1.550842
 21
-0.419978
 31
0.0
  0
LINE
  8
0
  6
CONTINUOUS
 62
     7
  5
4DE
 10
1.550842
 20
-0.419978
 30
0.0
 11
1.55309
 21
-0.419056
 31
0.0
  0
LINE
  8
0
  6
CONTINUOUS
 62
     7
  5
4DF
 10
1.55309
 20
-0.419056
 30
0.0
 11
1.555298
 21
-0.418203
 31
0.0
  0
LINE
  8
0
  6
CONTINUOUS
 62
     7
  5
4E0
 10
1.555298
 20
-0.418203
 30
0.0
 11
1.557465
 21
-0.41742
 31
0.0
  0
LINE
  8
0
  6
CONTINUOUS
 62
     7
  5
4E1
 10
1.557465
 20
-0.41742
 30
0.0
 11
1.559588
 21
-0.416709
 31
0.0
  0
LINE
  8
0
  6
CONTINUOUS
 62
     7
  5
4E2
 10
1.559588
 20
-0.416709
 30
0.0
 11
1.561666
 21
-0.416069
 31
0.0
  0
LINE
  8
0
  6
CONTINUOUS
 62
     7
  5
4E3
 10
1.561666
 20
-0.416069
 30
0.0
 11
1.563697
 21
-0.415501
 31
0.0
  0
LINE
  8
0
  6
CONTINUOUS
 62
     7
  5
4E4
 10
1.563697
 20
-0.415501
 30
0.0
 11
1.565681
 21
-0.415006
 31
0.0
  0
LINE
  8
0
  6
CONTINUOUS
 62
     7
  5
4E5
 10
1.565681
 20
-0.415006
 30
0.0
 11
1.567614
 21
-0.414584
 31
0.0
  0
LINE
  8
0
  6
CONTINUOUS
 62
     7
  5
4E6
 10
1.567614
 20
-0.414584
 30
0.0
 11
1.569496
 21
-0.414235
 31
0.0
  0
LINE
  8
0
  6
CONTINUOUS
 62
     7
  5
4E7
 10
1.569496
 20
-0.414235
 30
0.0
 11
1.571326
 21
-0.413959
 31
0.0
  0
LINE
  8
0
  6
CONTINUOUS
 62
     7
  5
4E8
 10
1.571326
 20
-0.413959
 30
0.0
 11
1.573101
 21
-0.413757
 31
0.0
  0
LINE
  8
0
  6
CONTINUOUS
 62
     7
  5
4E9
 10
1.573101
 20
-0.413757
 30
0.0
 11
1.57482
 21
-0.41363
 31
0.0
  0
LINE
  8
0
  6
CONTINUOUS
 62
     7
  5
4EA
 10
1.57482
 20
-0.41363
 30
0.0
 11
1.576483
 21
-0.413576
 31
0.0
  0
LINE
  8
0
  6
CONTINUOUS
 62
     7
  5
4EB
 10
1.576483
 20
-0.413576
 30
0.0
 11
1.578087
 21
-0.413596
 31
0.0
  0
LINE
  8
0
  6
CONTINUOUS
 62
     7
  5
4EC
 10
1.578087
 20
-0.413596
 30
0.0
 11
1.579632
 21
-0.41369
 31
0.0
  0
LINE
  8
0
  6
CONTINUOUS
 62
     7
  5
4ED
 10
1.579632
 20
-0.41369
 30
0.0
 11
1.581116
 21
-0.413859
 31
0.0
  0
LINE
  8
0
  6
CONTINUOUS
 62
     7
  5
4EE
 10
1.581116
 20
-0.413859
 30
0.0
 11
1.582538
 21
-0.414101
 31
0.0
  0
LINE
  8
0
  6
CONTINUOUS
 62
     7
  5
4EF
 10
1.582538
 20
-0.414101
 30
0.0
 11
1.583898
 21
-0.414417
 31
0.0
  0
LINE
  8
0
  6
CONTINUOUS
 62
     7
  5
4F0
 10
1.583898
 20
-0.414417
 30
0.0
 11
1.585193
 21
-0.414806
 31
0.0
  0
LINE
  8
0
  6
CONTINUOUS
 62
     7
  5
4F1
 10
1.585193
 20
-0.414806
 30
0.0
 11
1.586423
 21
-0.415268
 31
0.0
  0
LINE
  8
0
  6
CONTINUOUS
 62
     7
  5
4F2
 10
1.586423
 20
-0.415268
 30
0.0
 11
1.587587
 21
-0.415803
 31
0.0
  0
LINE
  8
0
  6
CONTINUOUS
 62
     7
  5
4F3
 10
1.587587
 20
-0.415803
 30
0.0
 11
1.588684
 21
-0.41641
 31
0.0
  0
LINE
  8
0
  6
CONTINUOUS
 62
     7
  5
4F4
 10
1.588684
 20
-0.41641
 30
0.0
 11
1.589713
 21
-0.417089
 31
0.0
  0
LINE
  8
0
  6
CONTINUOUS
 62
     7
  5
4F5
 10
1.589713
 20
-0.417089
 30
0.0
 11
1.590674
 21
-0.41784
 31
0.0
  0
LINE
  8
0
  6
CONTINUOUS
 62
     7
  5
4F6
 10
1.590674
 20
-0.41784
 30
0.0
 11
1.591565
 21
-0.418661
 31
0.0
  0
LINE
  8
0
  6
CONTINUOUS
 62
     7
  5
4F7
 10
1.403509
 20
-0.509205
 30
0.0
 11
1.232654
 21
-0.338351
 31
0.0
  0
LINE
  8
0
  6
CONTINUOUS
 62
     7
  5
4F8
 10
1.426863
 20
-0.532559
 30
0.0
 11
1.403509
 21
-0.509205
 31
0.0
  0
LINE
  8
0
  6
CONTINUOUS
 62
     7
  5
4F9
 10
1.67
 20
-0.400222
 30
0.0
 11
1.549671
 21
-0.520552
 31
0.0
  0
LINE
  8
0
  6
CONTINUOUS
 62
     7
  5
4FA
 10
1.67
 20
-0.242715
 30
0.0
 11
1.67
 21
-0.400222
 31
0.0
  0
LINE
  8
0
  6
CONTINUOUS
 62
     7
  5
4FB
 10
1.503211
 20
-0.409503
 30
0.0
 11
1.67
 21
-0.242715
 31
0.0
  0
LINE
  8
0
  6
CONTINUOUS
 62
     7
  5
4FC
 10
1.503211
 20
-0.409503
 30
0.0
 11
1.526565
 21
-0.432857
 31
0.0
  0
LINE
  8
0
  6
CONTINUOUS
 62
     7
  5
4FD
 10
1.446908
 20
0.552604
 30
0.0
 11
1.403509
 21
0.509205
 31
0.0
  0
LINE
  8
0
  6
CONTINUOUS
 62
     7
  5
4FE
 10
1.54661
 20
0.452902
 30
0.0
 11
1.446908
 21
0.552604
 31
0.0
  0
LINE
  8
0
  6
CONTINUOUS
 62
     7
  5
4FF
 10
1.526565
 20
0.432857
 30
0.0
 11
1.54661
 21
0.452902
 31
0.0
  0
LINE
  8
0
  6
CONTINUOUS
 62
     7
  5
500
 10
1.591565
 20
0.418661
 30
0.0
 11
1.590674
 21
0.41784
 31
0.0
  0
LINE
  8
0
  6
CONTINUOUS
 62
     7
  5
501
 10
1.590674
 20
0.41784
 30
0.0
 11
1.589713
 21
0.417089
 31
0.0
  0
LINE
  8
0
  6
CONTINUOUS
 62
     7
  5
502
 10
1.589713
 20
0.417089
 30
0.0
 11
1.588684
 21
0.41641
 31
0.0
  0
LINE
  8
0
  6
CONTINUOUS
 62
     7
  5
503
 10
1.588684
 20
0.41641
 30
0.0
 11
1.587587
 21
0.415803
 31
0.0
  0
LINE
  8
0
  6
CONTINUOUS
 62
     7
  5
504
 10
1.587587
 20
0.415803
 30
0.0
 11
1.586423
 21
0.415268
 31
0.0
  0
LINE
  8
0
  6
CONTINUOUS
 62
     7
  5
505
 10
1.586423
 20
0.415268
 30
0.0
 11
1.585193
 21
0.414806
 31
0.0
  0
LINE
  8
0
  6
CONTINUOUS
 62
     7
  5
506
 10
1.585193
 20
0.414806
 30
0.0
 11
1.583898
 21
0.414417
 31
0.0
  0
LINE
  8
0
  6
CONTINUOUS
 62
     7
  5
507
 10
1.583898
 20
0.414417
 30
0.0
 11
1.582538
 21
0.414101
 31
0.0
  0
LINE
  8
0
  6
CONTINUOUS
 62
     7
  5
508
 10
1.582538
 20
0.414101
 30
0.0
 11
1.581116
 21
0.413859
 31
0.0
  0
LINE
  8
0
  6
CONTINUOUS
 62
     7
  5
509
 10
1.581116
 20
0.413859
 30
0.0
 11
1.579632
 21
0.41369
 31
0.0
  0
LINE
  8
0
  6
CONTINUOUS
 62
     7
  5
50A
 10
1.579632
 20
0.41369
 30
0.0
 11
1.578087
 21
0.413596
 31
0.0
  0
LINE
  8
0
  6
CONTINUOUS
 62
     7
  5
50B
 10
1.578087
 20
0.413596
 30
0.0
 11
1.576483
 21
0.413576
 31
0.0
  0
LINE
  8
0
  6
CONTINUOUS
 62
     7
  5
50C
 10
1.576483
 20
0.413576
 30
0.0
 11
1.57482
 21
0.41363
 31
0.0
  0
LINE
  8
0
  6
CONTINUOUS
 62
     7
  5
50D
 10
1.57482
 20
0.41363
 30
0.0
 11
1.573101
 21
0.413757
 31
0.0
  0
LINE
  8
0
  6
CONTINUOUS
 62
     7
  5
50E
 10
1.573101
 20
0.413757
 30
0.0
 11
1.571326
 21
0.413959
 31
0.0
  0
LINE
  8
0
  6
CONTINUOUS
 62
     7
  5
50F
 10
1.571326
 20
0.413959
 30
0.0
 11
1.569496
 21
0.414235
 31
0.0
  0
LINE
  8
0
  6
CONTINUOUS
 62
     7
  5
510
 10
1.569496
 20
0.414235
 30
0.0
 11
1.567614
 21
0.414584
 31
0.0
  0
LINE
  8
0
  6
CONTINUOUS
 62
     7
  5
511
 10
1.567614
 20
0.414584
 30
0.0
 11
1.565681
 21
0.415006
 31
0.0
  0
LINE
  8
0
  6
CONTINUOUS
 62
     7
  5
512
 10
1.565681
 20
0.415006
 30
0.0
 11
1.563697
 21
0.415501
 31
0.0
  0
LINE
  8
0
  6
CONTINUOUS
 62
     7
  5
513
 10
1.563697
 20
0.415501
 30
0.0
 11
1.561666
 21
0.416069
 31
0.0
  0
LINE
  8
0
  6
CONTINUOUS
 62
     7
  5
514
 10
1.561666
 20
0.416069
 30
0.0
 11
1.559588
 21
0.416709
 31
0.0
  0
LINE
  8
0
  6
CONTINUOUS
 62
     7
  5
515
 10
1.559588
 20
0.416709
 30
0.0
 11
1.557465
 21
0.41742
 31
0.0
  0
LINE
  8
0
  6
CONTINUOUS
 62
     7
  5
516
 10
1.557465
 20
0.41742
 30
0.0
 11
1.555298
 21
0.418203
 31
0.0
  0
LINE
  8
0
  6
CONTINUOUS
 62
     7
  5
517
 10
1.555298
 20
0.418203
 30
0.0
 11
1.55309
 21
0.419056
 31
0.0
  0
LINE
  8
0
  6
CONTINUOUS
 62
     7
  5
518
 10
1.55309
 20
0.419056
 30
0.0
 11
1.550842
 21
0.419978
 31
0.0
  0
LINE
  8
0
  6
CONTINUOUS
 62
     7
  5
519
 10
1.550842
 20
0.419978
 30
0.0
 11
1.548555
 21
0.42097
 31
0.0
  0
LINE
  8
0
  6
CONTINUOUS
 62
     7
  5
51A
 10
1.548555
 20
0.42097
 30
0.0
 11
1.546233
 21
0.42203
 31
0.0
  0
LINE
  8
0
  6
CONTINUOUS
 62
     7
  5
51B
 10
1.546233
 20
0.42203
 30
0.0
 11
1.543875
 21
0.423158
 31
0.0
  0
LINE
  8
0
  6
CONTINUOUS
 62
     7
  5
51C
 10
1.543875
 20
0.423158
 30
0.0
 11
1.541485
 21
0.424352
 31
0.0
  0
LINE
  8
0
  6
CONTINUOUS
 62
     7
  5
51D
 10
1.541485
 20
0.424352
 30
0.0
 11
1.539065
 21
0.425611
 31
0.0
  0
LINE
  8
0
  6
CONTINUOUS
 62
     7
  5
51E
 10
1.539065
 20
0.425611
 30
0.0
 11
1.536615
 21
0.426935
 31
0.0
  0
LINE
  8
0
  6
CONTINUOUS
 62
     7
  5
51F
 10
1.536615
 20
0.426935
 30
0.0
 11
1.534138
 21
0.428323
 31
0.0
  0
LINE
  8
0
  6
CONTINUOUS
 62
     7
  5
520
 10
1.534138
 20
0.428323
 30
0.0
 11
1.531636
 21
0.429774
 31
0.0
  0
LINE
  8
0
  6
CONTINUOUS
 62
     7
  5
521
 10
1.531636
 20
0.429774
 30
0.0
 11
1.529111
 21
0.431285
 31
0.0
  0
LINE
  8
0
  6
CONTINUOUS
 62
     7
  5
522
 10
1.529111
 20
0.431285
 30
0.0
 11
1.526565
 21
0.432857
 31
0.0
  0
LINE
  8
0
  6
CONTINUOUS
 62
     7
  5
523
 10
1.549671
 20
0.520552
 30
0.0
 11
1.552839
 21
0.516866
 31
0.0
  0
LINE
  8
0
  6
CONTINUOUS
 62
     7
  5
524
 10
1.552839
 20
0.516866
 30
0.0
 11
1.555929
 21
0.513167
 31
0.0
  0
LINE
  8
0
  6
CONTINUOUS
 62
     7
  5
525
 10
1.555929
 20
0.513167
 30
0.0
 11
1.558937
 21
0.50946
 31
0.0
  0
LINE
  8
0
  6
CONTINUOUS
 62
     7
  5
526
 10
1.558937
 20
0.50946
 30
0.0
 11
1.561857
 21
0.505751
 31
0.0
  0
LINE
  8
0
  6
CONTINUOUS
 62
     7
  5
527
 10
1.561857
 20
0.505751
 30
0.0
 11
1.564685
 21
0.502046
 31
0.0
  0
LINE
  8
0
  6
CONTINUOUS
 62
     7
  5
528
 10
1.564685
 20
0.502046
 30
0.0
 11
1.567416
 21
0.49835
 31
0.0
  0
LINE
  8
0
  6
CONTINUOUS
 62
     7
  5
529
 10
1.567416
 20
0.49835
 30
0.0
 11
1.570047
 21
0.494669
 31
0.0
  0
LINE
  8
0
  6
CONTINUOUS
 62
     7
  5
52A
 10
1.570047
 20
0.494669
 30
0.0
 11
1.572574
 21
0.491009
 31
0.0
  0
LINE
  8
0
  6
CONTINUOUS
 62
     7
  5
52B
 10
1.572574
 20
0.491009
 30
0.0
 11
1.574992
 21
0.487375
 31
0.0
  0
LINE
  8
0
  6
CONTINUOUS
 62
     7
  5
52C
 10
1.574992
 20
0.487375
 30
0.0
 11
1.577298
 21
0.483773
 31
0.0
  0
LINE
  8
0
  6
CONTINUOUS
 62
     7
  5
52D
 10
1.577298
 20
0.483773
 30
0.0
 11
1.579488
 21
0.480209
 31
0.0
  0
LINE
  8
0
  6
CONTINUOUS
 62
     7
  5
52E
 10
1.579488
 20
0.480209
 30
0.0
 11
1.581559
 21
0.476687
 31
0.0
  0
LINE
  8
0
  6
CONTINUOUS
 62
     7
  5
52F
 10
1.581559
 20
0.476687
 30
0.0
 11
1.583508
 21
0.473214
 31
0.0
  0
LINE
  8
0
  6
CONTINUOUS
 62
     7
  5
530
 10
1.583508
 20
0.473214
 30
0.0
 11
1.585332
 21
0.469795
 31
0.0
  0
LINE
  8
0
  6
CONTINUOUS
 62
     7
  5
531
 10
1.585332
 20
0.469795
 30
0.0
 11
1.587027
 21
0.466434
 31
0.0
  0
LINE
  8
0
  6
CONTINUOUS
 62
     7
  5
532
 10
1.587027
 20
0.466434
 30
0.0
 11
1.588592
 21
0.463138
 31
0.0
  0
LINE
  8
0
  6
CONTINUOUS
 62
     7
  5
533
 10
1.588592
 20
0.463138
 30
0.0
 11
1.590024
 21
0.459911
 31
0.0
  0
LINE
  8
0
  6
CONTINUOUS
 62
     7
  5
534
 10
1.590024
 20
0.459911
 30
0.0
 11
1.59132
 21
0.456758
 31
0.0
  0
LINE
  8
0
  6
CONTINUOUS
 62
     7
  5
535
 10
1.59132
 20
0.456758
 30
0.0
 11
1.592479
 21
0.453684
 31
0.0
  0
LINE
  8
0
  6
CONTINUOUS
 62
     7
  5
536
 10
1.592479
 20
0.453684
 30
0.0
 11
1.593499
 21
0.450694
 31
0.0
  0
LINE
  8
0
  6
CONTINUOUS
 62
     7
  5
537
 10
1.593499
 20
0.450694
 30
0.0
 11
1.594379
 21
0.447792
 31
0.0
  0
LINE
  8
0
  6
CONTINUOUS
 62
     7
  5
538
 10
1.594379
 20
0.447792
 30
0.0
 11
1.595116
 21
0.444983
 31
0.0
  0
LINE
  8
0
  6
CONTINUOUS
 62
     7
  5
539
 10
1.595116
 20
0.444983
 30
0.0
 11
1.59571
 21
0.442271
 31
0.0
  0
LINE
  8
0
  6
CONTINUOUS
 62
     7
  5
53A
 10
1.59571
 20
0.442271
 30
0.0
 11
1.59616
 21
0.439661
 31
0.0
  0
LINE
  8
0
  6
CONTINUOUS
 62
     7
  5
53B
 10
1.59616
 20
0.439661
 30
0.0
 11
1.596466
 21
0.437156
 31
0.0
  0
LINE
  8
0
  6
CONTINUOUS
 62
     7
  5
53C
 10
1.596466
 20
0.437156
 30
0.0
 11
1.596626
 21
0.43476
 31
0.0
  0
LINE
  8
0
  6
CONTINUOUS
 62
     7
  5
53D
 10
1.596626
 20
0.43476
 30
0.0
 11
1.59664
 21
0.432477
 31
0.0
  0
LINE
  8
0
  6
CONTINUOUS
 62
     7
  5
53E
 10
1.59664
 20
0.432477
 30
0.0
 11
1.59651
 21
0.430311
 31
0.0
  0
LINE
  8
0
  6
CONTINUOUS
 62
     7
  5
53F
 10
1.59651
 20
0.430311
 30
0.0
 11
1.596233
 21
0.428264
 31
0.0
  0
LINE
  8
0
  6
CONTINUOUS
 62
     7
  5
540
 10
1.596233
 20
0.428264
 30
0.0
 11
1.595812
 21
0.42634
 31
0.0
  0
LINE
  8
0
  6
CONTINUOUS
 62
     7
  5
541
 10
1.595812
 20
0.42634
 30
0.0
 11
1.595247
 21
0.424542
 31
0.0
  0
LINE
  8
0
  6
CONTINUOUS
 62
     7
  5
542
 10
1.595247
 20
0.424542
 30
0.0
 11
1.594539
 21
0.422873
 31
0.0
  0
LINE
  8
0
  6
CONTINUOUS
 62
     7
  5
543
 10
1.594539
 20
0.422873
 30
0.0
 11
1.593688
 21
0.421334
 31
0.0
  0
LINE
  8
0
  6
CONTINUOUS
 62
     7
  5
544
 10
1.593688
 20
0.421334
 30
0.0
 11
1.592696
 21
0.41993
 31
0.0
  0
LINE
  8
0
  6
CONTINUOUS
 62
     7
  5
545
 10
1.592696
 20
0.41993
 30
0.0
 11
1.591565
 21
0.418661
 31
0.0
  0
LINE
  8
0
  6
CONTINUOUS
 62
     7
  5
546
 10
1.514558
 20
0.555665
 30
0.0
 11
1.549671
 21
0.520552
 31
0.0
  0
LINE
  8
0
  6
CONTINUOUS
 62
     7
  5
547
 10
1.412667
 20
0.597559
 30
0.0
 11
1.413936
 21
0.59869
 31
0.0
  0
LINE
  8
0
  6
CONTINUOUS
 62
     7
  5
548
 10
1.413936
 20
0.59869
 30
0.0
 11
1.41534
 21
0.599682
 31
0.0
  0
LINE
  8
0
  6
CONTINUOUS
 62
     7
  5
549
 10
1.41534
 20
0.599682
 30
0.0
 11
1.416879
 21
0.600533
 31
0.0
  0
LINE
  8
0
  6
CONTINUOUS
 62
     7
  5
54A
 10
1.416879
 20
0.600533
 30
0.0
 11
1.418548
 21
0.601241
 31
0.0
  0
LINE
  8
0
  6
CONTINUOUS
 62
     7
  5
54B
 10
1.418548
 20
0.601241
 30
0.0
 11
1.420346
 21
0.601807
 31
0.0
  0
LINE
  8
0
  6
CONTINUOUS
 62
     7
  5
54C
 10
1.420346
 20
0.601807
 30
0.0
 11
1.42227
 21
0.602228
 31
0.0
  0
LINE
  8
0
  6
CONTINUOUS
 62
     7
  5
54D
 10
1.42227
 20
0.602228
 30
0.0
 11
1.424317
 21
0.602504
 31
0.0
  0
LINE
  8
0
  6
CONTINUOUS
 62
     7
  5
54E
 10
1.424317
 20
0.602504
 30
0.0
 11
1.426483
 21
0.602635
 31
0.0
  0
LINE
  8
0
  6
CONTINUOUS
 62
     7
  5
54F
 10
1.426483
 20
0.602635
 30
0.0
 11
1.428766
 21
0.60262
 31
0.0
  0
LINE
  8
0
  6
CONTINUOUS
 62
     7
  5
550
 10
1.428766
 20
0.60262
 30
0.0
 11
1.431162
 21
0.60246
 31
0.0
  0
LINE
  8
0
  6
CONTINUOUS
 62
     7
  5
551
 10
1.431162
 20
0.60246
 30
0.0
 11
1.433667
 21
0.602154
 31
0.0
  0
LINE
  8
0
  6
CONTINUOUS
 62
     7
  5
552
 10
1.433667
 20
0.602154
 30
0.0
 11
1.436277
 21
0.601704
 31
0.0
  0
LINE
  8
0
  6
CONTINUOUS
 62
     7
  5
553
 10
1.436277
 20
0.601704
 30
0.0
 11
1.438989
 21
0.60111
 31
0.0
  0
LINE
  8
0
  6
CONTINUOUS
 62
     7
  5
554
 10
1.438989
 20
0.60111
 30
0.0
 11
1.441798
 21
0.600373
 31
0.0
  0
LINE
  8
0
  6
CONTINUOUS
 62
     7
  5
555
 10
1.441798
 20
0.600373
 30
0.0
 11
1.4447
 21
0.599493
 31
0.0
  0
LINE
  8
0
  6
CONTINUOUS
 62
     7
  5
556
 10
1.4447
 20
0.599493
 30
0.0
 11
1.44769
 21
0.598473
 31
0.0
  0
LINE
  8
0
  6
CONTINUOUS
 62
     7
  5
557
 10
1.44769
 20
0.598473
 30
0.0
 11
1.450764
 21
0.597314
 31
0.0
  0
LINE
  8
0
  6
CONTINUOUS
 62
     7
  5
558
 10
1.450764
 20
0.597314
 30
0.0
 11
1.453917
 21
0.596018
 31
0.0
  0
LINE
  8
0
  6
CONTINUOUS
 62
     7
  5
559
 10
1.453917
 20
0.596018
 30
0.0
 11
1.457144
 21
0.594586
 31
0.0
  0
LINE
  8
0
  6
CONTINUOUS
 62
     7
  5
55A
 10
1.457144
 20
0.594586
 30
0.0
 11
1.46044
 21
0.593021
 31
0.0
  0
LINE
  8
0
  6
CONTINUOUS
 62
     7
  5
55B
 10
1.46044
 20
0.593021
 30
0.0
 11
1.463801
 21
0.591326
 31
0.0
  0
LINE
  8
0
  6
CONTINUOUS
 62
     7
  5
55C
 10
1.463801
 20
0.591326
 30
0.0
 11
1.46722
 21
0.589502
 31
0.0
  0
LINE
  8
0
  6
CONTINUOUS
 62
     7
  5
55D
 10
1.46722
 20
0.589502
 30
0.0
 11
1.470693
 21
0.587554
 31
0.0
  0
LINE
  8
0
  6
CONTINUOUS
 62
     7
  5
55E
 10
1.470693
 20
0.587554
 30
0.0
 11
1.474215
 21
0.585482
 31
0.0
  0
LINE
  8
0
  6
CONTINUOUS
 62
     7
  5
55F
 10
1.474215
 20
0.585482
 30
0.0
 11
1.477779
 21
0.583292
 31
0.0
  0
LINE
  8
0
  6
CONTINUOUS
 62
     7
  5
560
 10
1.477779
 20
0.583292
 30
0.0
 11
1.481381
 21
0.580986
 31
0.0
  0
LINE
  8
0
  6
CONTINUOUS
 62
     7
  5
561
 10
1.481381
 20
0.580986
 30
0.0
 11
1.485015
 21
0.578568
 31
0.0
  0
LINE
  8
0
  6
CONTINUOUS
 62
     7
  5
562
 10
1.485015
 20
0.578568
 30
0.0
 11
1.488675
 21
0.576041
 31
0.0
  0
LINE
  8
0
  6
CONTINUOUS
 62
     7
  5
563
 10
1.488675
 20
0.576041
 30
0.0
 11
1.492356
 21
0.57341
 31
0.0
  0
LINE
  8
0
  6
CONTINUOUS
 62
     7
  5
564
 10
1.492356
 20
0.57341
 30
0.0
 11
1.496052
 21
0.570679
 31
0.0
  0
LINE
  8
0
  6
CONTINUOUS
 62
     7
  5
565
 10
1.496052
 20
0.570679
 30
0.0
 11
1.499757
 21
0.567851
 31
0.0
  0
LINE
  8
0
  6
CONTINUOUS
 62
     7
  5
566
 10
1.499757
 20
0.567851
 30
0.0
 11
1.503466
 21
0.564931
 31
0.0
  0
LINE
  8
0
  6
CONTINUOUS
 62
     7
  5
567
 10
1.503466
 20
0.564931
 30
0.0
 11
1.507173
 21
0.561923
 31
0.0
  0
LINE
  8
0
  6
CONTINUOUS
 62
     7
  5
568
 10
1.507173
 20
0.561923
 30
0.0
 11
1.510872
 21
0.558833
 31
0.0
  0
LINE
  8
0
  6
CONTINUOUS
 62
     7
  5
569
 10
1.510872
 20
0.558833
 30
0.0
 11
1.514558
 21
0.555665
 31
0.0
  0
LINE
  8
0
  6
CONTINUOUS
 62
     7
  5
56A
 10
1.426863
 20
0.532559
 30
0.0
 11
1.425291
 21
0.535105
 31
0.0
  0
LINE
  8
0
  6
CONTINUOUS
 62
     7
  5
56B
 10
1.425291
 20
0.535105
 30
0.0
 11
1.423779
 21
0.53763
 31
0.0
  0
LINE
  8
0
  6
CONTINUOUS
 62
     7
  5
56C
 10
1.423779
 20
0.53763
 30
0.0
 11
1.422329
 21
0.540132
 31
0.0
  0
LINE
  8
0
  6
CONTINUOUS
 62
     7
  5
56D
 10
1.422329
 20
0.540132
 30
0.0
 11
1.420941
 21
0.542609
 31
0.0
  0
LINE
  8
0
  6
CONTINUOUS
 62
     7
  5
56E
 10
1.420941
 20
0.542609
 30
0.0
 11
1.419617
 21
0.545059
 31
0.0
  0
LINE
  8
0
  6
CONTINUOUS
 62
     7
  5
56F
 10
1.419617
 20
0.545059
 30
0.0
 11
1.418357
 21
0.54748
 31
0.0
  0
LINE
  8
0
  6
CONTINUOUS
 62
     7
  5
570
 10
1.418357
 20
0.54748
 30
0.0
 11
1.417163
 21
0.54987
 31
0.0
  0
LINE
  8
0
  6
CONTINUOUS
 62
     7
  5
571
 10
1.417163
 20
0.54987
 30
0.0
 11
1.416036
 21
0.552227
 31
0.0
  0
LINE
  8
0
  6
CONTINUOUS
 62
     7
  5
572
 10
1.416036
 20
0.552227
 30
0.0
 11
1.414976
 21
0.554549
 31
0.0
  0
LINE
  8
0
  6
CONTINUOUS
 62
     7
  5
573
 10
1.414976
 20
0.554549
 30
0.0
 11
1.413984
 21
0.556836
 31
0.0
  0
LINE
  8
0
  6
CONTINUOUS
 62
     7
  5
574
 10
1.413984
 20
0.556836
 30
0.0
 11
1.413061
 21
0.559084
 31
0.0
  0
LINE
  8
0
  6
CONTINUOUS
 62
     7
  5
575
 10
1.413061
 20
0.559084
 30
0.0
 11
1.412209
 21
0.561292
 31
0.0
  0
LINE
  8
0
  6
CONTINUOUS
 62
     7
  5
576
 10
1.412209
 20
0.561292
 30
0.0
 11
1.411426
 21
0.563459
 31
0.0
  0
LINE
  8
0
  6
CONTINUOUS
 62
     7
  5
577
 10
1.411426
 20
0.563459
 30
0.0
 11
1.410715
 21
0.565582
 31
0.0
  0
LINE
  8
0
  6
CONTINUOUS
 62
     7
  5
578
 10
1.410715
 20
0.565582
 30
0.0
 11
1.410075
 21
0.56766
 31
0.0
  0
LINE
  8
0
  6
CONTINUOUS
 62
     7
  5
579
 10
1.410075
 20
0.56766
 30
0.0
 11
1.409507
 21
0.569691
 31
0.0
  0
LINE
  8
0
  6
CONTINUOUS
 62
     7
  5
57A
 10
1.409507
 20
0.569691
 30
0.0
 11
1.409012
 21
0.571675
 31
0.0
  0
LINE
  8
0
  6
CONTINUOUS
 62
     7
  5
57B
 10
1.409012
 20
0.571675
 30
0.0
 11
1.408589
 21
0.573608
 31
0.0
  0
LINE
  8
0
  6
CONTINUOUS
 62
     7
  5
57C
 10
1.408589
 20
0.573608
 30
0.0
 11
1.40824
 21
0.57549
 31
0.0
  0
LINE
  8
0
  6
CONTINUOUS
 62
     7
  5
57D
 10
1.40824
 20
0.57549
 30
0.0
 11
1.407965
 21
0.57732
 31
0.0
  0
LINE
  8
0
  6
CONTINUOUS
 62
     7
  5
57E
 10
1.407965
 20
0.57732
 30
0.0
 11
1.407763
 21
0.579095
 31
0.0
  0
LINE
  8
0
  6
CONTINUOUS
 62
     7
  5
57F
 10
1.407763
 20
0.579095
 30
0.0
 11
1.407635
 21
0.580814
 31
0.0
  0
LINE
  8
0
  6
CONTINUOUS
 62
     7
  5
580
 10
1.407635
 20
0.580814
 30
0.0
 11
1.407582
 21
0.582477
 31
0.0
  0
LINE
  8
0
  6
CONTINUOUS
 62
     7
  5
581
 10
1.407582
 20
0.582477
 30
0.0
 11
1.407602
 21
0.584081
 31
0.0
  0
LINE
  8
0
  6
CONTINUOUS
 62
     7
  5
582
 10
1.407602
 20
0.584081
 30
0.0
 11
1.407696
 21
0.585626
 31
0.0
  0
LINE
  8
0
  6
CONTINUOUS
 62
     7
  5
583
 10
1.407696
 20
0.585626
 30
0.0
 11
1.407865
 21
0.58711
 31
0.0
  0
LINE
  8
0
  6
CONTINUOUS
 62
     7
  5
584
 10
1.407865
 20
0.58711
 30
0.0
 11
1.408107
 21
0.588532
 31
0.0
  0
LINE
  8
0
  6
CONTINUOUS
 62
     7
  5
585
 10
1.408107
 20
0.588532
 30
0.0
 11
1.408422
 21
0.589892
 31
0.0
  0
LINE
  8
0
  6
CONTINUOUS
 62
     7
  5
586
 10
1.408422
 20
0.589892
 30
0.0
 11
1.408812
 21
0.591187
 31
0.0
  0
LINE
  8
0
  6
CONTINUOUS
 62
     7
  5
587
 10
1.408812
 20
0.591187
 30
0.0
 11
1.409274
 21
0.592417
 31
0.0
  0
LINE
  8
0
  6
CONTINUOUS
 62
     7
  5
588
 10
1.409274
 20
0.592417
 30
0.0
 11
1.409809
 21
0.593581
 31
0.0
  0
LINE
  8
0
  6
CONTINUOUS
 62
     7
  5
589
 10
1.409809
 20
0.593581
 30
0.0
 11
1.410416
 21
0.594678
 31
0.0
  0
LINE
  8
0
  6
CONTINUOUS
 62
     7
  5
58A
 10
1.410416
 20
0.594678
 30
0.0
 11
1.411095
 21
0.595707
 31
0.0
  0
LINE
  8
0
  6
CONTINUOUS
 62
     7
  5
58B
 10
1.411095
 20
0.595707
 30
0.0
 11
1.411846
 21
0.596668
 31
0.0
  0
LINE
  8
0
  6
CONTINUOUS
 62
     7
  5
58C
 10
1.411846
 20
0.596668
 30
0.0
 11
1.412667
 21
0.597559
 31
0.0
  0
LINE
  8
0
  6
CONTINUOUS
 62
     7
  5
58D
 10
1.503211
 20
0.409503
 30
0.0
 11
1.332357
 21
0.238649
 31
0.0
  0
LINE
  8
0
  6
CONTINUOUS
 62
     7
  5
58E
 10
1.526565
 20
0.432857
 30
0.0
 11
1.503211
 21
0.409503
 31
0.0
  0
LINE
  8
0
  6
CONTINUOUS
 62
     7
  5
58F
 10
1.430998
 20
0.639225
 30
0.0
 11
1.514558
 21
0.555665
 31
0.0
  0
LINE
  8
0
  6
CONTINUOUS
 62
     7
  5
590
 10
1.352244
 20
0.560471
 30
0.0
 11
1.430998
 21
0.639225
 31
0.0
  0
LINE
  8
0
  6
CONTINUOUS
 62
     7
  5
591
 10
1.403509
 20
0.509205
 30
0.0
 11
1.352244
 21
0.560471
 31
0.0
  0
LINE
  8
0
  6
CONTINUOUS
 62
     7
  5
592
 10
1.403509
 20
0.509205
 30
0.0
 11
1.426863
 21
0.532559
 31
0.0
  0
LINE
  8
0
  6
CONTINUOUS
 62
     7
  5
593
 10
1.232654
 20
-0.338351
 30
0.0
 11
1.189874
 21
-0.381131
 31
0.0
  0
LINE
  8
0
  6
CONTINUOUS
 62
     7
  5
594
 10
1.189874
 20
-0.381131
 30
0.0
 11
1.115628
 21
-0.306884
 31
0.0
  0
LINE
  8
0
  6
CONTINUOUS
 62
     7
  5
595
 10
1.30089
 20
-0.121622
 30
0.0
 11
1.375136
 21
-0.195869
 31
0.0
  0
LINE
  8
0
  6
CONTINUOUS
 62
     7
  5
596
 10
1.375136
 20
-0.195869
 30
0.0
 11
1.332357
 21
-0.238649
 31
0.0
  0
LINE
  8
0
  6
CONTINUOUS
 62
     7
  5
597
 10
1.332357
 20
-0.238649
 30
0.0
 11
1.503211
 21
-0.409503
 31
0.0
  0
LINE
  8
0
  6
CONTINUOUS
 62
     7
  5
598
 10
1.352244
 20
-0.560471
 30
0.0
 11
1.403509
 21
-0.509205
 31
0.0
  0
LINE
  8
0
  6
CONTINUOUS
 62
     7
  5
599
 10
1.430998
 20
-0.639225
 30
0.0
 11
1.352244
 21
-0.560471
 31
0.0
  0
LINE
  8
0
  6
CONTINUOUS
 62
     7
  5
59A
 10
1.514558
 20
-0.555665
 30
0.0
 11
1.430998
 21
-0.639225
 31
0.0
  0
LINE
  8
0
  6
CONTINUOUS
 62
     7
  5
59B
 10
1.332357
 20
0.238649
 30
0.0
 11
1.375136
 21
0.195869
 31
0.0
  0
LINE
  8
0
  6
CONTINUOUS
 62
     7
  5
59C
 10
1.375136
 20
0.195869
 30
0.0
 11
1.30089
 21
0.121622
 31
0.0
  0
LINE
  8
0
  6
CONTINUOUS
 62
     7
  5
59D
 10
1.115628
 20
0.306884
 30
0.0
 11
1.189874
 21
0.381131
 31
0.0
  0
LINE
  8
0
  6
CONTINUOUS
 62
     7
  5
59E
 10
1.189874
 20
0.381131
 30
0.0
 11
1.232654
 21
0.338351
 31
0.0
  0
LINE
  8
0
  6
CONTINUOUS
 62
     7
  5
59F
 10
1.232654
 20
0.338351
 30
0.0
 11
1.403509
 21
0.509205
 31
0.0
  0
LINE
  8
0
  6
CONTINUOUS
 62
     7
  5
5A0
 10
1.67
 20
0.242715
 30
0.0
 11
1.67
 21
-0.242715
 31
0.0
  0
LINE
  8
0
  6
CONTINUOUS
 62
     7
  5
5A1
 10
1.67
 20
0.242715
 30
0.0
 11
1.503211
 21
0.409503
 31
0.0
  0
LINE
  8
0
  6
CONTINUOUS
 62
     7
  5
5A2
 10
1.254663
 20
0.46289
 30
0.0
 11
1.352244
 21
0.560471
 31
0.0
  0
LINE
  8
0
  6
CONTINUOUS
 62
     7
  5
5A3
 10
1.254663
 20
0.46289
 30
0.0
 11
1.154608
 21
0.562945
 31
0.0
  0
LINE
  8
0
  6
CONTINUOUS
 62
     7
  5
5A4
 10
1.154608
 20
0.562945
 30
0.0
 11
0.983753
 21
0.392091
 31
0.0
  0
LINE
  8
0
  6
CONTINUOUS
 62
     7
  5
5A5
 10
0.983753
 20
0.392091
 30
0.0
 11
1.026533
 21
0.349311
 31
0.0
  0
LINE
  8
0
  6
CONTINUOUS
 62
     7
  5
5A6
 10
1.026533
 20
0.349311
 30
0.0
 11
0.952287
 21
0.275065
 31
0.0
  0
LINE
  8
0
  6
CONTINUOUS
 62
     7
  5
5A7
 10
0.767025
 20
0.460327
 30
0.0
 11
0.841271
 21
0.534573
 31
0.0
  0
LINE
  8
0
  6
CONTINUOUS
 62
     7
  5
5A8
 10
0.841271
 20
0.534573
 30
0.0
 11
0.884051
 21
0.491793
 31
0.0
  0
LINE
  8
0
  6
CONTINUOUS
 62
     7
  5
5A9
 10
0.884051
 20
0.491793
 30
0.0
 11
1.054906
 21
0.662648
 31
0.0
  0
LINE
  8
0
  6
CONTINUOUS
 62
     7
  5
5AA
 10
1.054906
 20
0.662648
 30
0.0
 11
0.959877
 21
0.757676
 31
0.0
  0
LINE
  8
0
  6
CONTINUOUS
 62
     7
  5
5AB
 10
0.704954
 20
0.502753
 30
0.0
 11
0.959877
 21
0.757676
 31
0.0
  0
LINE
  8
0
  6
CONTINUOUS
 62
     7
  5
5AC
 10
0.704954
 20
-0.502753
 30
0.0
 11
0.704954
 21
0.502753
 31
0.0
  0
LINE
  8
0
  6
CONTINUOUS
 62
     7
  5
5AD
 10
0.959877
 20
-0.757676
 30
0.0
 11
0.704954
 21
-0.502753
 31
0.0
  0
LINE
  8
0
  6
CONTINUOUS
 62
     7
  5
5AE
 10
0.959877
 20
-0.757676
 30
0.0
 11
1.054906
 21
-0.662648
 31
0.0
  0
LINE
  8
0
  6
CONTINUOUS
 62
     7
  5
5AF
 10
1.054906
 20
-0.662648
 30
0.0
 11
0.884051
 21
-0.491793
 31
0.0
  0
LINE
  8
0
  6
CONTINUOUS
 62
     7
  5
5B0
 10
0.884051
 20
-0.491793
 30
0.0
 11
0.841271
 21
-0.534573
 31
0.0
  0
LINE
  8
0
  6
CONTINUOUS
 62
     7
  5
5B1
 10
0.841271
 20
-0.534573
 30
0.0
 11
0.767025
 21
-0.460327
 31
0.0
  0
LINE
  8
0
  6
CONTINUOUS
 62
     7
  5
5B2
 10
0.952287
 20
-0.275065
 30
0.0
 11
1.026533
 21
-0.349311
 31
0.0
  0
LINE
  8
0
  6
CONTINUOUS
 62
     7
  5
5B3
 10
1.026533
 20
-0.349311
 30
0.0
 11
0.983753
 21
-0.392091
 31
0.0
  0
LINE
  8
0
  6
CONTINUOUS
 62
     7
  5
5B4
 10
0.983753
 20
-0.392091
 30
0.0
 11
1.154608
 21
-0.562945
 31
0.0
  0
LINE
  8
0
  6
CONTINUOUS
 62
     7
  5
5B5
 10
1.154608
 20
-0.562945
 30
0.0
 11
1.254663
 21
-0.46289
 31
0.0
  0
LINE
  8
0
  6
CONTINUOUS
 62
     7
  5
5B6
 10
1.254663
 20
-0.46289
 30
0.0
 11
1.352244
 21
-0.560471
 31
0.0
  0
LINE
  8
0
  6
CONTINUOUS
 62
     7
  5
5B7
 10
1.67
 20
0.400222
 30
0.0
 11
1.67
 21
0.242715
 31
0.0
  0
LINE
  8
0
  6
CONTINUOUS
 62
     7
  5
5B8
 10
1.549671
 20
0.520552
 30
0.0
 11
1.67
 21
0.400222
 31
0.0
  0
LINE
  8
0
  6
CONTINUOUS
 62
     7
  5
5B9
 10
1.67
 20
-0.795
 30
0.0
 11
1.67
 21
-0.400222
 31
0.0
  0
LINE
  8
0
  6
CONTINUOUS
 62
     7
  5
5BA
 10
1.67
 20
0.400222
 30
0.0
 11
1.67
 21
0.795
 31
0.0
  0
LINE
  8
0
  6
CONTINUOUS
 62
     7
  5
5BB
 10
1.198006
 20
-0.606344
 30
0.0
 11
1.154608
 21
-0.562945
 31
0.0
  0
LINE
  8
0
  6
CONTINUOUS
 62
     7
  5
5BC
 10
1.098304
 20
-0.706046
 30
0.0
 11
1.198006
 21
-0.606344
 31
0.0
  0
LINE
  8
0
  6
CONTINUOUS
 62
     7
  5
5BD
 10
1.078259
 20
-0.686001
 30
0.0
 11
1.098304
 21
-0.706046
 31
0.0
  0
LINE
  8
0
  6
CONTINUOUS
 62
     7
  5
5BE
 10
1.064063
 20
-0.751001
 30
0.0
 11
1.063242
 21
-0.75011
 31
0.0
  0
LINE
  8
0
  6
CONTINUOUS
 62
     7
  5
5BF
 10
1.063242
 20
-0.75011
 30
0.0
 11
1.062492
 21
-0.749149
 31
0.0
  0
LINE
  8
0
  6
CONTINUOUS
 62
     7
  5
5C0
 10
1.062492
 20
-0.749149
 30
0.0
 11
1.061812
 21
-0.74812
 31
0.0
  0
LINE
  8
0
  6
CONTINUOUS
 62
     7
  5
5C1
 10
1.061812
 20
-0.74812
 30
0.0
 11
1.061205
 21
-0.747023
 31
0.0
  0
LINE
  8
0
  6
CONTINUOUS
 62
     7
  5
5C2
 10
1.061205
 20
-0.747023
 30
0.0
 11
1.06067
 21
-0.745859
 31
0.0
  0
LINE
  8
0
  6
CONTINUOUS
 62
     7
  5
5C3
 10
1.06067
 20
-0.745859
 30
0.0
 11
1.060208
 21
-0.744629
 31
0.0
  0
LINE
  8
0
  6
CONTINUOUS
 62
     7
  5
5C4
 10
1.060208
 20
-0.744629
 30
0.0
 11
1.059819
 21
-0.743334
 31
0.0
  0
LINE
  8
0
  6
CONTINUOUS
 62
     7
  5
5C5
 10
1.059819
 20
-0.743334
 30
0.0
 11
1.059503
 21
-0.741975
 31
0.0
  0
LINE
  8
0
  6
CONTINUOUS
 62
     7
  5
5C6
 10
1.059503
 20
-0.741975
 30
0.0
 11
1.059261
 21
-0.740552
 31
0.0
  0
LINE
  8
0
  6
CONTINUOUS
 62
     7
  5
5C7
 10
1.059261
 20
-0.740552
 30
0.0
 11
1.059093
 21
-0.739068
 31
0.0
  0
LINE
  8
0
  6
CONTINUOUS
 62
     7
  5
5C8
 10
1.059093
 20
-0.739068
 30
0.0
 11
1.058998
 21
-0.737524
 31
0.0
  0
LINE
  8
0
  6
CONTINUOUS
 62
     7
  5
5C9
 10
1.058998
 20
-0.737524
 30
0.0
 11
1.058978
 21
-0.735919
 31
0.0
  0
LINE
  8
0
  6
CONTINUOUS
 62
     7
  5
5CA
 10
1.058978
 20
-0.735919
 30
0.0
 11
1.059032
 21
-0.734257
 31
0.0
  0
LINE
  8
0
  6
CONTINUOUS
 62
     7
  5
5CB
 10
1.059032
 20
-0.734257
 30
0.0
 11
1.05916
 21
-0.732537
 31
0.0
  0
LINE
  8
0
  6
CONTINUOUS
 62
     7
  5
5CC
 10
1.05916
 20
-0.732537
 30
0.0
 11
1.059361
 21
-0.730762
 31
0.0
  0
LINE
  8
0
  6
CONTINUOUS
 62
     7
  5
5CD
 10
1.059361
 20
-0.730762
 30
0.0
 11
1.059637
 21
-0.728933
 31
0.0
  0
LINE
  8
0
  6
CONTINUOUS
 62
     7
  5
5CE
 10
1.059637
 20
-0.728933
 30
0.0
 11
1.059986
 21
-0.72705
 31
0.0
  0
LINE
  8
0
  6
CONTINUOUS
 62
     7
  5
5CF
 10
1.059986
 20
-0.72705
 30
0.0
 11
1.060408
 21
-0.725117
 31
0.0
  0
LINE
  8
0
  6
CONTINUOUS
 62
     7
  5
5D0
 10
1.060408
 20
-0.725117
 30
0.0
 11
1.060903
 21
-0.723134
 31
0.0
  0
LINE
  8
0
  6
CONTINUOUS
 62
     7
  5
5D1
 10
1.060903
 20
-0.723134
 30
0.0
 11
1.061471
 21
-0.721102
 31
0.0
  0
LINE
  8
0
  6
CONTINUOUS
 62
     7
  5
5D2
 10
1.061471
 20
-0.721102
 30
0.0
 11
1.062111
 21
-0.719024
 31
0.0
  0
LINE
  8
0
  6
CONTINUOUS
 62
     7
  5
5D3
 10
1.062111
 20
-0.719024
 30
0.0
 11
1.062822
 21
-0.716901
 31
0.0
  0
LINE
  8
0
  6
CONTINUOUS
 62
     7
  5
5D4
 10
1.062822
 20
-0.716901
 30
0.0
 11
1.063605
 21
-0.714734
 31
0.0
  0
LINE
  8
0
  6
CONTINUOUS
 62
     7
  5
5D5
 10
1.063605
 20
-0.714734
 30
0.0
 11
1.064458
 21
-0.712526
 31
0.0
  0
LINE
  8
0
  6
CONTINUOUS
 62
     7
  5
5D6
 10
1.064458
 20
-0.712526
 30
0.0
 11
1.065381
 21
-0.710278
 31
0.0
  0
LINE
  8
0
  6
CONTINUOUS
 62
     7
  5
5D7
 10
1.065381
 20
-0.710278
 30
0.0
 11
1.066372
 21
-0.707992
 31
0.0
  0
LINE
  8
0
  6
CONTINUOUS
 62
     7
  5
5D8
 10
1.066372
 20
-0.707992
 30
0.0
 11
1.067432
 21
-0.705669
 31
0.0
  0
LINE
  8
0
  6
CONTINUOUS
 62
     7
  5
5D9
 10
1.067432
 20
-0.705669
 30
0.0
 11
1.06856
 21
-0.703312
 31
0.0
  0
LINE
  8
0
  6
CONTINUOUS
 62
     7
  5
5DA
 10
1.06856
 20
-0.703312
 30
0.0
 11
1.069754
 21
-0.700922
 31
0.0
  0
LINE
  8
0
  6
CONTINUOUS
 62
     7
  5
5DB
 10
1.069754
 20
-0.700922
 30
0.0
 11
1.071013
 21
-0.698501
 31
0.0
  0
LINE
  8
0
  6
CONTINUOUS
 62
     7
  5
5DC
 10
1.071013
 20
-0.698501
 30
0.0
 11
1.072338
 21
-0.696051
 31
0.0
  0
LINE
  8
0
  6
CONTINUOUS
 62
     7
  5
5DD
 10
1.072338
 20
-0.696051
 30
0.0
 11
1.073726
 21
-0.693574
 31
0.0
  0
LINE
  8
0
  6
CONTINUOUS
 62
     7
  5
5DE
 10
1.073726
 20
-0.693574
 30
0.0
 11
1.075176
 21
-0.691073
 31
0.0
  0
LINE
  8
0
  6
CONTINUOUS
 62
     7
  5
5DF
 10
1.075176
 20
-0.691073
 30
0.0
 11
1.076688
 21
-0.688548
 31
0.0
  0
LINE
  8
0
  6
CONTINUOUS
 62
     7
  5
5E0
 10
1.076688
 20
-0.688548
 30
0.0
 11
1.078259
 21
-0.686001
 31
0.0
  0
LINE
  8
0
  6
CONTINUOUS
 62
     7
  5
5E1
 10
1.165954
 20
-0.709107
 30
0.0
 11
1.162268
 21
-0.712275
 31
0.0
  0
LINE
  8
0
  6
CONTINUOUS
 62
     7
  5
5E2
 10
1.162268
 20
-0.712275
 30
0.0
 11
1.158569
 21
-0.715366
 31
0.0
  0
LINE
  8
0
  6
CONTINUOUS
 62
     7
  5
5E3
 10
1.158569
 20
-0.715366
 30
0.0
 11
1.154863
 21
-0.718373
 31
0.0
  0
LINE
  8
0
  6
CONTINUOUS
 62
     7
  5
5E4
 10
1.154863
 20
-0.718373
 30
0.0
 11
1.151154
 21
-0.721293
 31
0.0
  0
LINE
  8
0
  6
CONTINUOUS
 62
     7
  5
5E5
 10
1.151154
 20
-0.721293
 30
0.0
 11
1.147448
 21
-0.724121
 31
0.0
  0
LINE
  8
0
  6
CONTINUOUS
 62
     7
  5
5E6
 10
1.147448
 20
-0.724121
 30
0.0
 11
1.143753
 21
-0.726852
 31
0.0
  0
LINE
  8
0
  6
CONTINUOUS
 62
     7
  5
5E7
 10
1.143753
 20
-0.726852
 30
0.0
 11
1.140072
 21
-0.729484
 31
0.0
  0
LINE
  8
0
  6
CONTINUOUS
 62
     7
  5
5E8
 10
1.140072
 20
-0.729484
 30
0.0
 11
1.136411
 21
-0.73201
 31
0.0
  0
LINE
  8
0
  6
CONTINUOUS
 62
     7
  5
5E9
 10
1.136411
 20
-0.73201
 30
0.0
 11
1.132778
 21
-0.734428
 31
0.0
  0
LINE
  8
0
  6
CONTINUOUS
 62
     7
  5
5EA
 10
1.132778
 20
-0.734428
 30
0.0
 11
1.129176
 21
-0.736734
 31
0.0
  0
LINE
  8
0
  6
CONTINUOUS
 62
     7
  5
5EB
 10
1.129176
 20
-0.736734
 30
0.0
 11
1.125611
 21
-0.738925
 31
0.0
  0
LINE
  8
0
  6
CONTINUOUS
 62
     7
  5
5EC
 10
1.125611
 20
-0.738925
 30
0.0
 11
1.12209
 21
-0.740996
 31
0.0
  0
LINE
  8
0
  6
CONTINUOUS
 62
     7
  5
5ED
 10
1.12209
 20
-0.740996
 30
0.0
 11
1.118616
 21
-0.742945
 31
0.0
  0
LINE
  8
0
  6
CONTINUOUS
 62
     7
  5
5EE
 10
1.118616
 20
-0.742945
 30
0.0
 11
1.115197
 21
-0.744768
 31
0.0
  0
LINE
  8
0
  6
CONTINUOUS
 62
     7
  5
5EF
 10
1.115197
 20
-0.744768
 30
0.0
 11
1.111836
 21
-0.746464
 31
0.0
  0
LINE
  8
0
  6
CONTINUOUS
 62
     7
  5
5F0
 10
1.111836
 20
-0.746464
 30
0.0
 11
1.10854
 21
-0.748028
 31
0.0
  0
LINE
  8
0
  6
CONTINUOUS
 62
     7
  5
5F1
 10
1.10854
 20
-0.748028
 30
0.0
 11
1.105313
 21
-0.74946
 31
0.0
  0
LINE
  8
0
  6
CONTINUOUS
 62
     7
  5
5F2
 10
1.105313
 20
-0.74946
 30
0.0
 11
1.10216
 21
-0.750757
 31
0.0
  0
LINE
  8
0
  6
CONTINUOUS
 62
     7
  5
5F3
 10
1.10216
 20
-0.750757
 30
0.0
 11
1.099086
 21
-0.751916
 31
0.0
  0
LINE
  8
0
  6
CONTINUOUS
 62
     7
  5
5F4
 10
1.099086
 20
-0.751916
 30
0.0
 11
1.096096
 21
-0.752936
 31
0.0
  0
LINE
  8
0
  6
CONTINUOUS
 62
     7
  5
5F5
 10
1.096096
 20
-0.752936
 30
0.0
 11
1.093194
 21
-0.753815
 31
0.0
  0
LINE
  8
0
  6
CONTINUOUS
 62
     7
  5
5F6
 10
1.093194
 20
-0.753815
 30
0.0
 11
1.090385
 21
-0.754552
 31
0.0
  0
LINE
  8
0
  6
CONTINUOUS
 62
     7
  5
5F7
 10
1.090385
 20
-0.754552
 30
0.0
 11
1.087674
 21
-0.755146
 31
0.0
  0
LINE
  8
0
  6
CONTINUOUS
 62
     7
  5
5F8
 10
1.087674
 20
-0.755146
 30
0.0
 11
1.085063
 21
-0.755597
 31
0.0
  0
LINE
  8
0
  6
CONTINUOUS
 62
     7
  5
5F9
 10
1.085063
 20
-0.755597
 30
0.0
 11
1.082558
 21
-0.755902
 31
0.0
  0
LINE
  8
0
  6
CONTINUOUS
 62
     7
  5
5FA
 10
1.082558
 20
-0.755902
 30
0.0
 11
1.080162
 21
-0.756062
 31
0.0
  0
LINE
  8
0
  6
CONTINUOUS
 62
     7
  5
5FB
 10
1.080162
 20
-0.756062
 30
0.0
 11
1.077879
 21
-0.756077
 31
0.0
  0
LINE
  8
0
  6
CONTINUOUS
 62
     7
  5
5FC
 10
1.077879
 20
-0.756077
 30
0.0
 11
1.075713
 21
-0.755946
 31
0.0
  0
LINE
  8
0
  6
CONTINUOUS
 62
     7
  5
5FD
 10
1.075713
 20
-0.755946
 30
0.0
 11
1.073666
 21
-0.75567
 31
0.0
  0
LINE
  8
0
  6
CONTINUOUS
 62
     7
  5
5FE
 10
1.073666
 20
-0.75567
 30
0.0
 11
1.071742
 21
-0.755249
 31
0.0
  0
LINE
  8
0
  6
CONTINUOUS
 62
     7
  5
5FF
 10
1.071742
 20
-0.755249
 30
0.0
 11
1.069944
 21
-0.754684
 31
0.0
  0
LINE
  8
0
  6
CONTINUOUS
 62
     7
  5
600
 10
1.069944
 20
-0.754684
 30
0.0
 11
1.068275
 21
-0.753975
 31
0.0
  0
LINE
  8
0
  6
CONTINUOUS
 62
     7
  5
601
 10
1.068275
 20
-0.753975
 30
0.0
 11
1.066737
 21
-0.753124
 31
0.0
  0
LINE
  8
0
  6
CONTINUOUS
 62
     7
  5
602
 10
1.066737
 20
-0.753124
 30
0.0
 11
1.065332
 21
-0.752132
 31
0.0
  0
LINE
  8
0
  6
CONTINUOUS
 62
     7
  5
603
 10
1.065332
 20
-0.752132
 30
0.0
 11
1.064063
 21
-0.751001
 31
0.0
  0
LINE
  8
0
  6
CONTINUOUS
 62
     7
  5
604
 10
1.201067
 20
-0.673994
 30
0.0
 11
1.165954
 21
-0.709107
 31
0.0
  0
LINE
  8
0
  6
CONTINUOUS
 62
     7
  5
605
 10
1.242961
 20
-0.572103
 30
0.0
 11
1.244092
 21
-0.573372
 31
0.0
  0
LINE
  8
0
  6
CONTINUOUS
 62
     7
  5
606
 10
1.244092
 20
-0.573372
 30
0.0
 11
1.245084
 21
-0.574777
 31
0.0
  0
LINE
  8
0
  6
CONTINUOUS
 62
     7
  5
607
 10
1.245084
 20
-0.574777
 30
0.0
 11
1.245935
 21
-0.576315
 31
0.0
  0
LINE
  8
0
  6
CONTINUOUS
 62
     7
  5
608
 10
1.245935
 20
-0.576315
 30
0.0
 11
1.246644
 21
-0.577984
 31
0.0
  0
LINE
  8
0
  6
CONTINUOUS
 62
     7
  5
609
 10
1.246644
 20
-0.577984
 30
0.0
 11
1.247209
 21
-0.579782
 31
0.0
  0
LINE
  8
0
  6
CONTINUOUS
 62
     7
  5
60A
 10
1.247209
 20
-0.579782
 30
0.0
 11
1.24763
 21
-0.581706
 31
0.0
  0
LINE
  8
0
  6
CONTINUOUS
 62
     7
  5
60B
 10
1.24763
 20
-0.581706
 30
0.0
 11
1.247906
 21
-0.583753
 31
0.0
  0
LINE
  8
0
  6
CONTINUOUS
 62
     7
  5
60C
 10
1.247906
 20
-0.583753
 30
0.0
 11
1.248037
 21
-0.585919
 31
0.0
  0
LINE
  8
0
  6
CONTINUOUS
 62
     7
  5
60D
 10
1.248037
 20
-0.585919
 30
0.0
 11
1.248022
 21
-0.588202
 31
0.0
  0
LINE
  8
0
  6
CONTINUOUS
 62
     7
  5
60E
 10
1.248022
 20
-0.588202
 30
0.0
 11
1.247862
 21
-0.590598
 31
0.0
  0
LINE
  8
0
  6
CONTINUOUS
 62
     7
  5
60F
 10
1.247862
 20
-0.590598
 30
0.0
 11
1.247557
 21
-0.593103
 31
0.0
  0
LINE
  8
0
  6
CONTINUOUS
 62
     7
  5
610
 10
1.247557
 20
-0.593103
 30
0.0
 11
1.247107
 21
-0.595713
 31
0.0
  0
LINE
  8
0
  6
CONTINUOUS
 62
     7
  5
611
 10
1.247107
 20
-0.595713
 30
0.0
 11
1.246512
 21
-0.598425
 31
0.0
  0
LINE
  8
0
  6
CONTINUOUS
 62
     7
  5
612
 10
1.246512
 20
-0.598425
 30
0.0
 11
1.245775
 21
-0.601234
 31
0.0
  0
LINE
  8
0
  6
CONTINUOUS
 62
     7
  5
613
 10
1.245775
 20
-0.601234
 30
0.0
 11
1.244896
 21
-0.604136
 31
0.0
  0
LINE
  8
0
  6
CONTINUOUS
 62
     7
  5
614
 10
1.244896
 20
-0.604136
 30
0.0
 11
1.243876
 21
-0.607126
 31
0.0
  0
LINE
  8
0
  6
CONTINUOUS
 62
     7
  5
615
 10
1.243876
 20
-0.607126
 30
0.0
 11
1.242717
 21
-0.6102
 31
0.0
  0
LINE
  8
0
  6
CONTINUOUS
 62
     7
  5
616
 10
1.242717
 20
-0.6102
 30
0.0
 11
1.24142
 21
-0.613353
 31
0.0
  0
LINE
  8
0
  6
CONTINUOUS
 62
     7
  5
617
 10
1.24142
 20
-0.613353
 30
0.0
 11
1.239989
 21
-0.61658
 31
0.0
  0
LINE
  8
0
  6
CONTINUOUS
 62
     7
  5
618
 10
1.239989
 20
-0.61658
 30
0.0
 11
1.238424
 21
-0.619876
 31
0.0
  0
LINE
  8
0
  6
CONTINUOUS
 62
     7
  5
619
 10
1.238424
 20
-0.619876
 30
0.0
 11
1.236728
 21
-0.623237
 31
0.0
  0
LINE
  8
0
  6
CONTINUOUS
 62
     7
  5
61A
 10
1.236728
 20
-0.623237
 30
0.0
 11
1.234905
 21
-0.626656
 31
0.0
  0
LINE
  8
0
  6
CONTINUOUS
 62
     7
  5
61B
 10
1.234905
 20
-0.626656
 30
0.0
 11
1.232956
 21
-0.630129
 31
0.0
  0
LINE
  8
0
  6
CONTINUOUS
 62
     7
  5
61C
 10
1.232956
 20
-0.630129
 30
0.0
 11
1.230885
 21
-0.633651
 31
0.0
  0
LINE
  8
0
  6
CONTINUOUS
 62
     7
  5
61D
 10
1.230885
 20
-0.633651
 30
0.0
 11
1.228694
 21
-0.637216
 31
0.0
  0
LINE
  8
0
  6
CONTINUOUS
 62
     7
  5
61E
 10
1.228694
 20
-0.637216
 30
0.0
 11
1.226388
 21
-0.640817
 31
0.0
  0
LINE
  8
0
  6
CONTINUOUS
 62
     7
  5
61F
 10
1.226388
 20
-0.640817
 30
0.0
 11
1.22397
 21
-0.644451
 31
0.0
  0
LINE
  8
0
  6
CONTINUOUS
 62
     7
  5
620
 10
1.22397
 20
-0.644451
 30
0.0
 11
1.221444
 21
-0.648112
 31
0.0
  0
LINE
  8
0
  6
CONTINUOUS
 62
     7
  5
621
 10
1.221444
 20
-0.648112
 30
0.0
 11
1.218813
 21
-0.651792
 31
0.0
  0
LINE
  8
0
  6
CONTINUOUS
 62
     7
  5
622
 10
1.218813
 20
-0.651792
 30
0.0
 11
1.216081
 21
-0.655488
 31
0.0
  0
LINE
  8
0
  6
CONTINUOUS
 62
     7
  5
623
 10
1.216081
 20
-0.655488
 30
0.0
 11
1.213253
 21
-0.659194
 31
0.0
  0
LINE
  8
0
  6
CONTINUOUS
 62
     7
  5
624
 10
1.213253
 20
-0.659194
 30
0.0
 11
1.210333
 21
-0.662902
 31
0.0
  0
LINE
  8
0
  6
CONTINUOUS
 62
     7
  5
625
 10
1.210333
 20
-0.662902
 30
0.0
 11
1.207326
 21
-0.666609
 31
0.0
  0
LINE
  8
0
  6
CONTINUOUS
 62
     7
  5
626
 10
1.207326
 20
-0.666609
 30
0.0
 11
1.204235
 21
-0.670308
 31
0.0
  0
LINE
  8
0
  6
CONTINUOUS
 62
     7
  5
627
 10
1.204235
 20
-0.670308
 30
0.0
 11
1.201067
 21
-0.673994
 31
0.0
  0
LINE
  8
0
  6
CONTINUOUS
 62
     7
  5
628
 10
1.177962
 20
-0.586299
 30
0.0
 11
1.180508
 21
-0.584727
 31
0.0
  0
LINE
  8
0
  6
CONTINUOUS
 62
     7
  5
629
 10
1.180508
 20
-0.584727
 30
0.0
 11
1.183033
 21
-0.583216
 31
0.0
  0
LINE
  8
0
  6
CONTINUOUS
 62
     7
  5
62A
 10
1.183033
 20
-0.583216
 30
0.0
 11
1.185534
 21
-0.581765
 31
0.0
  0
LINE
  8
0
  6
CONTINUOUS
 62
     7
  5
62B
 10
1.185534
 20
-0.581765
 30
0.0
 11
1.188011
 21
-0.580378
 31
0.0
  0
LINE
  8
0
  6
CONTINUOUS
 62
     7
  5
62C
 10
1.188011
 20
-0.580378
 30
0.0
 11
1.190461
 21
-0.579053
 31
0.0
  0
LINE
  8
0
  6
CONTINUOUS
 62
     7
  5
62D
 10
1.190461
 20
-0.579053
 30
0.0
 11
1.192882
 21
-0.577794
 31
0.0
  0
LINE
  8
0
  6
CONTINUOUS
 62
     7
  5
62E
 10
1.192882
 20
-0.577794
 30
0.0
 11
1.195272
 21
-0.5766
 31
0.0
  0
LINE
  8
0
  6
CONTINUOUS
 62
     7
  5
62F
 10
1.195272
 20
-0.5766
 30
0.0
 11
1.197629
 21
-0.575472
 31
0.0
  0
LINE
  8
0
  6
CONTINUOUS
 62
     7
  5
630
 10
1.197629
 20
-0.575472
 30
0.0
 11
1.199952
 21
-0.574412
 31
0.0
  0
LINE
  8
0
  6
CONTINUOUS
 62
     7
  5
631
 10
1.199952
 20
-0.574412
 30
0.0
 11
1.202238
 21
-0.57342
 31
0.0
  0
LINE
  8
0
  6
CONTINUOUS
 62
     7
  5
632
 10
1.202238
 20
-0.57342
 30
0.0
 11
1.204486
 21
-0.572498
 31
0.0
  0
LINE
  8
0
  6
CONTINUOUS
 62
     7
  5
633
 10
1.204486
 20
-0.572498
 30
0.0
 11
1.206694
 21
-0.571645
 31
0.0
  0
LINE
  8
0
  6
CONTINUOUS
 62
     7
  5
634
 10
1.206694
 20
-0.571645
 30
0.0
 11
1.208861
 21
-0.570862
 31
0.0
  0
LINE
  8
0
  6
CONTINUOUS
 62
     7
  5
635
 10
1.208861
 20
-0.570862
 30
0.0
 11
1.210984
 21
-0.570151
 31
0.0
  0
LINE
  8
0
  6
CONTINUOUS
 62
     7
  5
636
 10
1.210984
 20
-0.570151
 30
0.0
 11
1.213062
 21
-0.569511
 31
0.0
  0
LINE
  8
0
  6
CONTINUOUS
 62
     7
  5
637
 10
1.213062
 20
-0.569511
 30
0.0
 11
1.215094
 21
-0.568943
 31
0.0
  0
LINE
  8
0
  6
CONTINUOUS
 62
     7
  5
638
 10
1.215094
 20
-0.568943
 30
0.0
 11
1.217077
 21
-0.568448
 31
0.0
  0
LINE
  8
0
  6
CONTINUOUS
 62
     7
  5
639
 10
1.217077
 20
-0.568448
 30
0.0
 11
1.21901
 21
-0.568026
 31
0.0
  0
LINE
  8
0
  6
CONTINUOUS
 62
     7
  5
63A
 10
1.21901
 20
-0.568026
 30
0.0
 11
1.220893
 21
-0.567677
 31
0.0
  0
LINE
  8
0
  6
CONTINUOUS
 62
     7
  5
63B
 10
1.220893
 20
-0.567677
 30
0.0
 11
1.222722
 21
-0.567401
 31
0.0
  0
LINE
  8
0
  6
CONTINUOUS
 62
     7
  5
63C
 10
1.222722
 20
-0.567401
 30
0.0
 11
1.224497
 21
-0.567199
 31
0.0
  0
LINE
  8
0
  6
CONTINUOUS
 62
     7
  5
63D
 10
1.224497
 20
-0.567199
 30
0.0
 11
1.226217
 21
-0.567072
 31
0.0
  0
LINE
  8
0
  6
CONTINUOUS
 62
     7
  5
63E
 10
1.226217
 20
-0.567072
 30
0.0
 11
1.227879
 21
-0.567018
 31
0.0
  0
LINE
  8
0
  6
CONTINUOUS
 62
     7
  5
63F
 10
1.227879
 20
-0.567018
 30
0.0
 11
1.229484
 21
-0.567038
 31
0.0
  0
LINE
  8
0
  6
CONTINUOUS
 62
     7
  5
640
 10
1.229484
 20
-0.567038
 30
0.0
 11
1.231028
 21
-0.567133
 31
0.0
  0
LINE
  8
0
  6
CONTINUOUS
 62
     7
  5
641
 10
1.231028
 20
-0.567133
 30
0.0
 11
1.232513
 21
-0.567301
 31
0.0
  0
LINE
  8
0
  6
CONTINUOUS
 62
     7
  5
642
 10
1.232513
 20
-0.567301
 30
0.0
 11
1.233935
 21
-0.567543
 31
0.0
  0
LINE
  8
0
  6
CONTINUOUS
 62
     7
  5
643
 10
1.233935
 20
-0.567543
 30
0.0
 11
1.235294
 21
-0.567859
 31
0.0
  0
LINE
  8
0
  6
CONTINUOUS
 62
     7
  5
644
 10
1.235294
 20
-0.567859
 30
0.0
 11
1.236589
 21
-0.568248
 31
0.0
  0
LINE
  8
0
  6
CONTINUOUS
 62
     7
  5
645
 10
1.236589
 20
-0.568248
 30
0.0
 11
1.237819
 21
-0.56871
 31
0.0
  0
LINE
  8
0
  6
CONTINUOUS
 62
     7
  5
646
 10
1.237819
 20
-0.56871
 30
0.0
 11
1.238983
 21
-0.569245
 31
0.0
  0
LINE
  8
0
  6
CONTINUOUS
 62
     7
  5
647
 10
1.238983
 20
-0.569245
 30
0.0
 11
1.24008
 21
-0.569852
 31
0.0
  0
LINE
  8
0
  6
CONTINUOUS
 62
     7
  5
648
 10
1.24008
 20
-0.569852
 30
0.0
 11
1.241109
 21
-0.570532
 31
0.0
  0
LINE
  8
0
  6
CONTINUOUS
 62
     7
  5
649
 10
1.241109
 20
-0.570532
 30
0.0
 11
1.24207
 21
-0.571282
 31
0.0
  0
LINE
  8
0
  6
CONTINUOUS
 62
     7
  5
64A
 10
1.24207
 20
-0.571282
 30
0.0
 11
1.242961
 21
-0.572103
 31
0.0
  0
LINE
  8
0
  6
CONTINUOUS
 62
     7
  5
64B
 10
1.078259
 20
-0.686001
 30
0.0
 11
1.054906
 21
-0.662648
 31
0.0
  0
LINE
  8
0
  6
CONTINUOUS
 62
     7
  5
64C
 10
1.333417
 20
-0.541644
 30
0.0
 11
1.201067
 21
-0.673994
 31
0.0
  0
LINE
  8
0
  6
CONTINUOUS
 62
     7
  5
64D
 10
1.154608
 20
-0.562945
 30
0.0
 11
1.177962
 21
-0.586299
 31
0.0
  0
LINE
  8
0
  6
CONTINUOUS
 62
     7
  5
64E
 10
1.098304
 20
0.706046
 30
0.0
 11
1.054906
 21
0.662648
 31
0.0
  0
LINE
  8
0
  6
CONTINUOUS
 62
     7
  5
64F
 10
1.198006
 20
0.606344
 30
0.0
 11
1.098304
 21
0.706046
 31
0.0
  0
LINE
  8
0
  6
CONTINUOUS
 62
     7
  5
650
 10
1.177962
 20
0.586299
 30
0.0
 11
1.198006
 21
0.606344
 31
0.0
  0
LINE
  8
0
  6
CONTINUOUS
 62
     7
  5
651
 10
1.242961
 20
0.572103
 30
0.0
 11
1.24207
 21
0.571282
 31
0.0
  0
LINE
  8
0
  6
CONTINUOUS
 62
     7
  5
652
 10
1.24207
 20
0.571282
 30
0.0
 11
1.241109
 21
0.570532
 31
0.0
  0
LINE
  8
0
  6
CONTINUOUS
 62
     7
  5
653
 10
1.241109
 20
0.570532
 30
0.0
 11
1.24008
 21
0.569852
 31
0.0
  0
LINE
  8
0
  6
CONTINUOUS
 62
     7
  5
654
 10
1.24008
 20
0.569852
 30
0.0
 11
1.238983
 21
0.569245
 31
0.0
  0
LINE
  8
0
  6
CONTINUOUS
 62
     7
  5
655
 10
1.238983
 20
0.569245
 30
0.0
 11
1.237819
 21
0.56871
 31
0.0
  0
LINE
  8
0
  6
CONTINUOUS
 62
     7
  5
656
 10
1.237819
 20
0.56871
 30
0.0
 11
1.236589
 21
0.568248
 31
0.0
  0
LINE
  8
0
  6
CONTINUOUS
 62
     7
  5
657
 10
1.236589
 20
0.568248
 30
0.0
 11
1.235294
 21
0.567859
 31
0.0
  0
LINE
  8
0
  6
CONTINUOUS
 62
     7
  5
658
 10
1.235294
 20
0.567859
 30
0.0
 11
1.233935
 21
0.567543
 31
0.0
  0
LINE
  8
0
  6
CONTINUOUS
 62
     7
  5
659
 10
1.233935
 20
0.567543
 30
0.0
 11
1.232513
 21
0.567301
 31
0.0
  0
LINE
  8
0
  6
CONTINUOUS
 62
     7
  5
65A
 10
1.232513
 20
0.567301
 30
0.0
 11
1.231028
 21
0.567133
 31
0.0
  0
LINE
  8
0
  6
CONTINUOUS
 62
     7
  5
65B
 10
1.231028
 20
0.567133
 30
0.0
 11
1.229484
 21
0.567038
 31
0.0
  0
LINE
  8
0
  6
CONTINUOUS
 62
     7
  5
65C
 10
1.229484
 20
0.567038
 30
0.0
 11
1.227879
 21
0.567018
 31
0.0
  0
LINE
  8
0
  6
CONTINUOUS
 62
     7
  5
65D
 10
1.227879
 20
0.567018
 30
0.0
 11
1.226217
 21
0.567072
 31
0.0
  0
LINE
  8
0
  6
CONTINUOUS
 62
     7
  5
65E
 10
1.226217
 20
0.567072
 30
0.0
 11
1.224497
 21
0.567199
 31
0.0
  0
LINE
  8
0
  6
CONTINUOUS
 62
     7
  5
65F
 10
1.224497
 20
0.567199
 30
0.0
 11
1.222722
 21
0.567401
 31
0.0
  0
LINE
  8
0
  6
CONTINUOUS
 62
     7
  5
660
 10
1.222722
 20
0.567401
 30
0.0
 11
1.220893
 21
0.567677
 31
0.0
  0
LINE
  8
0
  6
CONTINUOUS
 62
     7
  5
661
 10
1.220893
 20
0.567677
 30
0.0
 11
1.21901
 21
0.568026
 31
0.0
  0
LINE
  8
0
  6
CONTINUOUS
 62
     7
  5
662
 10
1.21901
 20
0.568026
 30
0.0
 11
1.217077
 21
0.568448
 31
0.0
  0
LINE
  8
0
  6
CONTINUOUS
 62
     7
  5
663
 10
1.217077
 20
0.568448
 30
0.0
 11
1.215094
 21
0.568943
 31
0.0
  0
LINE
  8
0
  6
CONTINUOUS
 62
     7
  5
664
 10
1.215094
 20
0.568943
 30
0.0
 11
1.213062
 21
0.569511
 31
0.0
  0
LINE
  8
0
  6
CONTINUOUS
 62
     7
  5
665
 10
1.213062
 20
0.569511
 30
0.0
 11
1.210984
 21
0.570151
 31
0.0
  0
LINE
  8
0
  6
CONTINUOUS
 62
     7
  5
666
 10
1.210984
 20
0.570151
 30
0.0
 11
1.208861
 21
0.570862
 31
0.0
  0
LINE
  8
0
  6
CONTINUOUS
 62
     7
  5
667
 10
1.208861
 20
0.570862
 30
0.0
 11
1.206694
 21
0.571645
 31
0.0
  0
LINE
  8
0
  6
CONTINUOUS
 62
     7
  5
668
 10
1.206694
 20
0.571645
 30
0.0
 11
1.204486
 21
0.572498
 31
0.0
  0
LINE
  8
0
  6
CONTINUOUS
 62
     7
  5
669
 10
1.204486
 20
0.572498
 30
0.0
 11
1.202238
 21
0.57342
 31
0.0
  0
LINE
  8
0
  6
CONTINUOUS
 62
     7
  5
66A
 10
1.202238
 20
0.57342
 30
0.0
 11
1.199952
 21
0.574412
 31
0.0
  0
LINE
  8
0
  6
CONTINUOUS
 62
     7
  5
66B
 10
1.199952
 20
0.574412
 30
0.0
 11
1.197629
 21
0.575472
 31
0.0
  0
LINE
  8
0
  6
CONTINUOUS
 62
     7
  5
66C
 10
1.197629
 20
0.575472
 30
0.0
 11
1.195272
 21
0.5766
 31
0.0
  0
LINE
  8
0
  6
CONTINUOUS
 62
     7
  5
66D
 10
1.195272
 20
0.5766
 30
0.0
 11
1.192882
 21
0.577794
 31
0.0
  0
LINE
  8
0
  6
CONTINUOUS
 62
     7
  5
66E
 10
1.192882
 20
0.577794
 30
0.0
 11
1.190461
 21
0.579053
 31
0.0
  0
LINE
  8
0
  6
CONTINUOUS
 62
     7
  5
66F
 10
1.190461
 20
0.579053
 30
0.0
 11
1.188011
 21
0.580378
 31
0.0
  0
LINE
  8
0
  6
CONTINUOUS
 62
     7
  5
670
 10
1.188011
 20
0.580378
 30
0.0
 11
1.185534
 21
0.581765
 31
0.0
  0
LINE
  8
0
  6
CONTINUOUS
 62
     7
  5
671
 10
1.185534
 20
0.581765
 30
0.0
 11
1.183033
 21
0.583216
 31
0.0
  0
LINE
  8
0
  6
CONTINUOUS
 62
     7
  5
672
 10
1.183033
 20
0.583216
 30
0.0
 11
1.180508
 21
0.584727
 31
0.0
  0
LINE
  8
0
  6
CONTINUOUS
 62
     7
  5
673
 10
1.180508
 20
0.584727
 30
0.0
 11
1.177962
 21
0.586299
 31
0.0
  0
LINE
  8
0
  6
CONTINUOUS
 62
     7
  5
674
 10
1.201067
 20
0.673994
 30
0.0
 11
1.204235
 21
0.670308
 31
0.0
  0
LINE
  8
0
  6
CONTINUOUS
 62
     7
  5
675
 10
1.204235
 20
0.670308
 30
0.0
 11
1.207326
 21
0.666609
 31
0.0
  0
LINE
  8
0
  6
CONTINUOUS
 62
     7
  5
676
 10
1.207326
 20
0.666609
 30
0.0
 11
1.210333
 21
0.662902
 31
0.0
  0
LINE
  8
0
  6
CONTINUOUS
 62
     7
  5
677
 10
1.210333
 20
0.662902
 30
0.0
 11
1.213253
 21
0.659194
 31
0.0
  0
LINE
  8
0
  6
CONTINUOUS
 62
     7
  5
678
 10
1.213253
 20
0.659194
 30
0.0
 11
1.216081
 21
0.655488
 31
0.0
  0
LINE
  8
0
  6
CONTINUOUS
 62
     7
  5
679
 10
1.216081
 20
0.655488
 30
0.0
 11
1.218813
 21
0.651792
 31
0.0
  0
LINE
  8
0
  6
CONTINUOUS
 62
     7
  5
67A
 10
1.218813
 20
0.651792
 30
0.0
 11
1.221444
 21
0.648112
 31
0.0
  0
LINE
  8
0
  6
CONTINUOUS
 62
     7
  5
67B
 10
1.221444
 20
0.648112
 30
0.0
 11
1.22397
 21
0.644451
 31
0.0
  0
LINE
  8
0
  6
CONTINUOUS
 62
     7
  5
67C
 10
1.22397
 20
0.644451
 30
0.0
 11
1.226388
 21
0.640817
 31
0.0
  0
LINE
  8
0
  6
CONTINUOUS
 62
     7
  5
67D
 10
1.226388
 20
0.640817
 30
0.0
 11
1.228694
 21
0.637216
 31
0.0
  0
LINE
  8
0
  6
CONTINUOUS
 62
     7
  5
67E
 10
1.228694
 20
0.637216
 30
0.0
 11
1.230885
 21
0.633651
 31
0.0
  0
LINE
  8
0
  6
CONTINUOUS
 62
     7
  5
67F
 10
1.230885
 20
0.633651
 30
0.0
 11
1.232956
 21
0.630129
 31
0.0
  0
LINE
  8
0
  6
CONTINUOUS
 62
     7
  5
680
 10
1.232956
 20
0.630129
 30
0.0
 11
1.234905
 21
0.626656
 31
0.0
  0
LINE
  8
0
  6
CONTINUOUS
 62
     7
  5
681
 10
1.234905
 20
0.626656
 30
0.0
 11
1.236728
 21
0.623237
 31
0.0
  0
LINE
  8
0
  6
CONTINUOUS
 62
     7
  5
682
 10
1.236728
 20
0.623237
 30
0.0
 11
1.238424
 21
0.619876
 31
0.0
  0
LINE
  8
0
  6
CONTINUOUS
 62
     7
  5
683
 10
1.238424
 20
0.619876
 30
0.0
 11
1.239989
 21
0.61658
 31
0.0
  0
LINE
  8
0
  6
CONTINUOUS
 62
     7
  5
684
 10
1.239989
 20
0.61658
 30
0.0
 11
1.24142
 21
0.613353
 31
0.0
  0
LINE
  8
0
  6
CONTINUOUS
 62
     7
  5
685
 10
1.24142
 20
0.613353
 30
0.0
 11
1.242717
 21
0.6102
 31
0.0
  0
LINE
  8
0
  6
CONTINUOUS
 62
     7
  5
686
 10
1.242717
 20
0.6102
 30
0.0
 11
1.243876
 21
0.607126
 31
0.0
  0
LINE
  8
0
  6
CONTINUOUS
 62
     7
  5
687
 10
1.243876
 20
0.607126
 30
0.0
 11
1.244896
 21
0.604136
 31
0.0
  0
LINE
  8
0
  6
CONTINUOUS
 62
     7
  5
688
 10
1.244896
 20
0.604136
 30
0.0
 11
1.245775
 21
0.601234
 31
0.0
  0
LINE
  8
0
  6
CONTINUOUS
 62
     7
  5
689
 10
1.245775
 20
0.601234
 30
0.0
 11
1.246512
 21
0.598425
 31
0.0
  0
LINE
  8
0
  6
CONTINUOUS
 62
     7
  5
68A
 10
1.246512
 20
0.598425
 30
0.0
 11
1.247107
 21
0.595713
 31
0.0
  0
LINE
  8
0
  6
CONTINUOUS
 62
     7
  5
68B
 10
1.247107
 20
0.595713
 30
0.0
 11
1.247557
 21
0.593103
 31
0.0
  0
LINE
  8
0
  6
CONTINUOUS
 62
     7
  5
68C
 10
1.247557
 20
0.593103
 30
0.0
 11
1.247862
 21
0.590598
 31
0.0
  0
LINE
  8
0
  6
CONTINUOUS
 62
     7
  5
68D
 10
1.247862
 20
0.590598
 30
0.0
 11
1.248022
 21
0.588202
 31
0.0
  0
LINE
  8
0
  6
CONTINUOUS
 62
     7
  5
68E
 10
1.248022
 20
0.588202
 30
0.0
 11
1.248037
 21
0.585919
 31
0.0
  0
LINE
  8
0
  6
CONTINUOUS
 62
     7
  5
68F
 10
1.248037
 20
0.585919
 30
0.0
 11
1.247906
 21
0.583753
 31
0.0
  0
LINE
  8
0
  6
CONTINUOUS
 62
     7
  5
690
 10
1.247906
 20
0.583753
 30
0.0
 11
1.24763
 21
0.581706
 31
0.0
  0
LINE
  8
0
  6
CONTINUOUS
 62
     7
  5
691
 10
1.24763
 20
0.581706
 30
0.0
 11
1.247209
 21
0.579782
 31
0.0
  0
LINE
  8
0
  6
CONTINUOUS
 62
     7
  5
692
 10
1.247209
 20
0.579782
 30
0.0
 11
1.246644
 21
0.577984
 31
0.0
  0
LINE
  8
0
  6
CONTINUOUS
 62
     7
  5
693
 10
1.246644
 20
0.577984
 30
0.0
 11
1.245935
 21
0.576315
 31
0.0
  0
LINE
  8
0
  6
CONTINUOUS
 62
     7
  5
694
 10
1.245935
 20
0.576315
 30
0.0
 11
1.245084
 21
0.574777
 31
0.0
  0
LINE
  8
0
  6
CONTINUOUS
 62
     7
  5
695
 10
1.245084
 20
0.574777
 30
0.0
 11
1.244092
 21
0.573372
 31
0.0
  0
LINE
  8
0
  6
CONTINUOUS
 62
     7
  5
696
 10
1.244092
 20
0.573372
 30
0.0
 11
1.242961
 21
0.572103
 31
0.0
  0
LINE
  8
0
  6
CONTINUOUS
 62
     7
  5
697
 10
1.165954
 20
0.709107
 30
0.0
 11
1.201067
 21
0.673994
 31
0.0
  0
LINE
  8
0
  6
CONTINUOUS
 62
     7
  5
698
 10
1.064063
 20
0.751001
 30
0.0
 11
1.065332
 21
0.752132
 31
0.0
  0
LINE
  8
0
  6
CONTINUOUS
 62
     7
  5
699
 10
1.065332
 20
0.752132
 30
0.0
 11
1.066737
 21
0.753124
 31
0.0
  0
LINE
  8
0
  6
CONTINUOUS
 62
     7
  5
69A
 10
1.066737
 20
0.753124
 30
0.0
 11
1.068275
 21
0.753975
 31
0.0
  0
LINE
  8
0
  6
CONTINUOUS
 62
     7
  5
69B
 10
1.068275
 20
0.753975
 30
0.0
 11
1.069944
 21
0.754684
 31
0.0
  0
LINE
  8
0
  6
CONTINUOUS
 62
     7
  5
69C
 10
1.069944
 20
0.754684
 30
0.0
 11
1.071742
 21
0.755249
 31
0.0
  0
LINE
  8
0
  6
CONTINUOUS
 62
     7
  5
69D
 10
1.071742
 20
0.755249
 30
0.0
 11
1.073666
 21
0.75567
 31
0.0
  0
LINE
  8
0
  6
CONTINUOUS
 62
     7
  5
69E
 10
1.073666
 20
0.75567
 30
0.0
 11
1.075713
 21
0.755946
 31
0.0
  0
LINE
  8
0
  6
CONTINUOUS
 62
     7
  5
69F
 10
1.075713
 20
0.755946
 30
0.0
 11
1.077879
 21
0.756077
 31
0.0
  0
LINE
  8
0
  6
CONTINUOUS
 62
     7
  5
6A0
 10
1.077879
 20
0.756077
 30
0.0
 11
1.080162
 21
0.756062
 31
0.0
  0
LINE
  8
0
  6
CONTINUOUS
 62
     7
  5
6A1
 10
1.080162
 20
0.756062
 30
0.0
 11
1.082558
 21
0.755902
 31
0.0
  0
LINE
  8
0
  6
CONTINUOUS
 62
     7
  5
6A2
 10
1.082558
 20
0.755902
 30
0.0
 11
1.085063
 21
0.755597
 31
0.0
  0
LINE
  8
0
  6
CONTINUOUS
 62
     7
  5
6A3
 10
1.085063
 20
0.755597
 30
0.0
 11
1.087674
 21
0.755146
 31
0.0
  0
LINE
  8
0
  6
CONTINUOUS
 62
     7
  5
6A4
 10
1.087674
 20
0.755146
 30
0.0
 11
1.090385
 21
0.754552
 31
0.0
  0
LINE
  8
0
  6
CONTINUOUS
 62
     7
  5
6A5
 10
1.090385
 20
0.754552
 30
0.0
 11
1.093194
 21
0.753815
 31
0.0
  0
LINE
  8
0
  6
CONTINUOUS
 62
     7
  5
6A6
 10
1.093194
 20
0.753815
 30
0.0
 11
1.096096
 21
0.752936
 31
0.0
  0
LINE
  8
0
  6
CONTINUOUS
 62
     7
  5
6A7
 10
1.096096
 20
0.752936
 30
0.0
 11
1.099086
 21
0.751916
 31
0.0
  0
LINE
  8
0
  6
CONTINUOUS
 62
     7
  5
6A8
 10
1.099086
 20
0.751916
 30
0.0
 11
1.10216
 21
0.750757
 31
0.0
  0
LINE
  8
0
  6
CONTINUOUS
 62
     7
  5
6A9
 10
1.10216
 20
0.750757
 30
0.0
 11
1.105313
 21
0.74946
 31
0.0
  0
LINE
  8
0
  6
CONTINUOUS
 62
     7
  5
6AA
 10
1.105313
 20
0.74946
 30
0.0
 11
1.10854
 21
0.748028
 31
0.0
  0
LINE
  8
0
  6
CONTINUOUS
 62
     7
  5
6AB
 10
1.10854
 20
0.748028
 30
0.0
 11
1.111836
 21
0.746464
 31
0.0
  0
LINE
  8
0
  6
CONTINUOUS
 62
     7
  5
6AC
 10
1.111836
 20
0.746464
 30
0.0
 11
1.115197
 21
0.744768
 31
0.0
  0
LINE
  8
0
  6
CONTINUOUS
 62
     7
  5
6AD
 10
1.115197
 20
0.744768
 30
0.0
 11
1.118616
 21
0.742945
 31
0.0
  0
LINE
  8
0
  6
CONTINUOUS
 62
     7
  5
6AE
 10
1.118616
 20
0.742945
 30
0.0
 11
1.12209
 21
0.740996
 31
0.0
  0
LINE
  8
0
  6
CONTINUOUS
 62
     7
  5
6AF
 10
1.12209
 20
0.740996
 30
0.0
 11
1.125611
 21
0.738925
 31
0.0
  0
LINE
  8
0
  6
CONTINUOUS
 62
     7
  5
6B0
 10
1.125611
 20
0.738925
 30
0.0
 11
1.129176
 21
0.736734
 31
0.0
  0
LINE
  8
0
  6
CONTINUOUS
 62
     7
  5
6B1
 10
1.129176
 20
0.736734
 30
0.0
 11
1.132778
 21
0.734428
 31
0.0
  0
LINE
  8
0
  6
CONTINUOUS
 62
     7
  5
6B2
 10
1.132778
 20
0.734428
 30
0.0
 11
1.136411
 21
0.73201
 31
0.0
  0
LINE
  8
0
  6
CONTINUOUS
 62
     7
  5
6B3
 10
1.136411
 20
0.73201
 30
0.0
 11
1.140072
 21
0.729484
 31
0.0
  0
LINE
  8
0
  6
CONTINUOUS
 62
     7
  5
6B4
 10
1.140072
 20
0.729484
 30
0.0
 11
1.143753
 21
0.726852
 31
0.0
  0
LINE
  8
0
  6
CONTINUOUS
 62
     7
  5
6B5
 10
1.143753
 20
0.726852
 30
0.0
 11
1.147448
 21
0.724121
 31
0.0
  0
LINE
  8
0
  6
CONTINUOUS
 62
     7
  5
6B6
 10
1.147448
 20
0.724121
 30
0.0
 11
1.151154
 21
0.721293
 31
0.0
  0
LINE
  8
0
  6
CONTINUOUS
 62
     7
  5
6B7
 10
1.151154
 20
0.721293
 30
0.0
 11
1.154863
 21
0.718373
 31
0.0
  0
LINE
  8
0
  6
CONTINUOUS
 62
     7
  5
6B8
 10
1.154863
 20
0.718373
 30
0.0
 11
1.158569
 21
0.715366
 31
0.0
  0
LINE
  8
0
  6
CONTINUOUS
 62
     7
  5
6B9
 10
1.158569
 20
0.715366
 30
0.0
 11
1.162268
 21
0.712275
 31
0.0
  0
LINE
  8
0
  6
CONTINUOUS
 62
     7
  5
6BA
 10
1.162268
 20
0.712275
 30
0.0
 11
1.165954
 21
0.709107
 31
0.0
  0
LINE
  8
0
  6
CONTINUOUS
 62
     7
  5
6BB
 10
1.078259
 20
0.686001
 30
0.0
 11
1.076688
 21
0.688548
 31
0.0
  0
LINE
  8
0
  6
CONTINUOUS
 62
     7
  5
6BC
 10
1.076688
 20
0.688548
 30
0.0
 11
1.075176
 21
0.691073
 31
0.0
  0
LINE
  8
0
  6
CONTINUOUS
 62
     7
  5
6BD
 10
1.075176
 20
0.691073
 30
0.0
 11
1.073726
 21
0.693574
 31
0.0
  0
LINE
  8
0
  6
CONTINUOUS
 62
     7
  5
6BE
 10
1.073726
 20
0.693574
 30
0.0
 11
1.072338
 21
0.696051
 31
0.0
  0
LINE
  8
0
  6
CONTINUOUS
 62
     7
  5
6BF
 10
1.072338
 20
0.696051
 30
0.0
 11
1.071013
 21
0.698501
 31
0.0
  0
LINE
  8
0
  6
CONTINUOUS
 62
     7
  5
6C0
 10
1.071013
 20
0.698501
 30
0.0
 11
1.069754
 21
0.700922
 31
0.0
  0
LINE
  8
0
  6
CONTINUOUS
 62
     7
  5
6C1
 10
1.069754
 20
0.700922
 30
0.0
 11
1.06856
 21
0.703312
 31
0.0
  0
LINE
  8
0
  6
CONTINUOUS
 62
     7
  5
6C2
 10
1.06856
 20
0.703312
 30
0.0
 11
1.067432
 21
0.705669
 31
0.0
  0
LINE
  8
0
  6
CONTINUOUS
 62
     7
  5
6C3
 10
1.067432
 20
0.705669
 30
0.0
 11
1.066372
 21
0.707992
 31
0.0
  0
LINE
  8
0
  6
CONTINUOUS
 62
     7
  5
6C4
 10
1.066372
 20
0.707992
 30
0.0
 11
1.065381
 21
0.710278
 31
0.0
  0
LINE
  8
0
  6
CONTINUOUS
 62
     7
  5
6C5
 10
1.065381
 20
0.710278
 30
0.0
 11
1.064458
 21
0.712526
 31
0.0
  0
LINE
  8
0
  6
CONTINUOUS
 62
     7
  5
6C6
 10
1.064458
 20
0.712526
 30
0.0
 11
1.063605
 21
0.714734
 31
0.0
  0
LINE
  8
0
  6
CONTINUOUS
 62
     7
  5
6C7
 10
1.063605
 20
0.714734
 30
0.0
 11
1.062822
 21
0.716901
 31
0.0
  0
LINE
  8
0
  6
CONTINUOUS
 62
     7
  5
6C8
 10
1.062822
 20
0.716901
 30
0.0
 11
1.062111
 21
0.719024
 31
0.0
  0
LINE
  8
0
  6
CONTINUOUS
 62
     7
  5
6C9
 10
1.062111
 20
0.719024
 30
0.0
 11
1.061471
 21
0.721102
 31
0.0
  0
LINE
  8
0
  6
CONTINUOUS
 62
     7
  5
6CA
 10
1.061471
 20
0.721102
 30
0.0
 11
1.060903
 21
0.723134
 31
0.0
  0
LINE
  8
0
  6
CONTINUOUS
 62
     7
  5
6CB
 10
1.060903
 20
0.723134
 30
0.0
 11
1.060408
 21
0.725117
 31
0.0
  0
LINE
  8
0
  6
CONTINUOUS
 62
     7
  5
6CC
 10
1.060408
 20
0.725117
 30
0.0
 11
1.059986
 21
0.72705
 31
0.0
  0
LINE
  8
0
  6
CONTINUOUS
 62
     7
  5
6CD
 10
1.059986
 20
0.72705
 30
0.0
 11
1.059637
 21
0.728933
 31
0.0
  0
LINE
  8
0
  6
CONTINUOUS
 62
     7
  5
6CE
 10
1.059637
 20
0.728933
 30
0.0
 11
1.059361
 21
0.730762
 31
0.0
  0
LINE
  8
0
  6
CONTINUOUS
 62
     7
  5
6CF
 10
1.059361
 20
0.730762
 30
0.0
 11
1.05916
 21
0.732537
 31
0.0
  0
LINE
  8
0
  6
CONTINUOUS
 62
     7
  5
6D0
 10
1.05916
 20
0.732537
 30
0.0
 11
1.059032
 21
0.734257
 31
0.0
  0
LINE
  8
0
  6
CONTINUOUS
 62
     7
  5
6D1
 10
1.059032
 20
0.734257
 30
0.0
 11
1.058978
 21
0.735919
 31
0.0
  0
LINE
  8
0
  6
CONTINUOUS
 62
     7
  5
6D2
 10
1.058978
 20
0.735919
 30
0.0
 11
1.058998
 21
0.737524
 31
0.0
  0
LINE
  8
0
  6
CONTINUOUS
 62
     7
  5
6D3
 10
1.058998
 20
0.737524
 30
0.0
 11
1.059093
 21
0.739068
 31
0.0
  0
LINE
  8
0
  6
CONTINUOUS
 62
     7
  5
6D4
 10
1.059093
 20
0.739068
 30
0.0
 11
1.059261
 21
0.740552
 31
0.0
  0
LINE
  8
0
  6
CONTINUOUS
 62
     7
  5
6D5
 10
1.059261
 20
0.740552
 30
0.0
 11
1.059503
 21
0.741975
 31
0.0
  0
LINE
  8
0
  6
CONTINUOUS
 62
     7
  5
6D6
 10
1.059503
 20
0.741975
 30
0.0
 11
1.059819
 21
0.743334
 31
0.0
  0
LINE
  8
0
  6
CONTINUOUS
 62
     7
  5
6D7
 10
1.059819
 20
0.743334
 30
0.0
 11
1.060208
 21
0.744629
 31
0.0
  0
LINE
  8
0
  6
CONTINUOUS
 62
     7
  5
6D8
 10
1.060208
 20
0.744629
 30
0.0
 11
1.06067
 21
0.745859
 31
0.0
  0
LINE
  8
0
  6
CONTINUOUS
 62
     7
  5
6D9
 10
1.06067
 20
0.745859
 30
0.0
 11
1.061205
 21
0.747023
 31
0.0
  0
LINE
  8
0
  6
CONTINUOUS
 62
     7
  5
6DA
 10
1.061205
 20
0.747023
 30
0.0
 11
1.061812
 21
0.74812
 31
0.0
  0
LINE
  8
0
  6
CONTINUOUS
 62
     7
  5
6DB
 10
1.061812
 20
0.74812
 30
0.0
 11
1.062492
 21
0.749149
 31
0.0
  0
LINE
  8
0
  6
CONTINUOUS
 62
     7
  5
6DC
 10
1.062492
 20
0.749149
 30
0.0
 11
1.063242
 21
0.75011
 31
0.0
  0
LINE
  8
0
  6
CONTINUOUS
 62
     7
  5
6DD
 10
1.063242
 20
0.75011
 30
0.0
 11
1.064063
 21
0.751001
 31
0.0
  0
LINE
  8
0
  6
CONTINUOUS
 62
     7
  5
6DE
 10
1.177962
 20
0.586299
 30
0.0
 11
1.154608
 21
0.562945
 31
0.0
  0
LINE
  8
0
  6
CONTINUOUS
 62
     7
  5
6DF
 10
1.066131
 20
0.80893
 30
0.0
 11
1.165954
 21
0.709107
 31
0.0
  0
LINE
  8
0
  6
CONTINUOUS
 62
     7
  5
6E0
 10
1.011131
 20
0.80893
 30
0.0
 11
1.066131
 21
0.80893
 31
0.0
  0
LINE
  8
0
  6
CONTINUOUS
 62
     7
  5
6E1
 10
0.959877
 20
0.757676
 30
0.0
 11
1.011131
 21
0.80893
 31
0.0
  0
LINE
  8
0
  6
CONTINUOUS
 62
     7
  5
6E2
 10
1.054906
 20
0.662648
 30
0.0
 11
1.078259
 21
0.686001
 31
0.0
  0
LINE
  8
0
  6
CONTINUOUS
 62
     7
  5
6E3
 10
1.011131
 20
-0.80893
 30
0.0
 11
0.959877
 21
-0.757676
 31
0.0
  0
LINE
  8
0
  6
CONTINUOUS
 62
     7
  5
6E4
 10
1.066131
 20
-0.80893
 30
0.0
 11
1.011131
 21
-0.80893
 31
0.0
  0
LINE
  8
0
  6
CONTINUOUS
 62
     7
  5
6E5
 10
1.165954
 20
-0.709107
 30
0.0
 11
1.066131
 21
-0.80893
 31
0.0
  0
LINE
  8
0
  6
CONTINUOUS
 62
     7
  5
6E6
 10
1.201067
 20
0.673994
 30
0.0
 11
1.333417
 21
0.541644
 31
0.0
  0
LINE
  8
0
  6
CONTINUOUS
 62
     7
  5
6E7
 10
0.7
 20
-0.795
 30
0.0
 11
0.997201
 21
-0.795
 31
0.0
  0
LINE
  8
0
  6
CONTINUOUS
 62
     7
  5
6E8
 10
1.080061
 20
-0.795
 30
0.0
 11
1.67
 21
-0.795
 31
0.0
  0
LINE
  8
0
  6
CONTINUOUS
 62
     7
  5
6E9
 10
0.997201
 20
0.795
 30
0.0
 11
0.7
 21
0.795
 31
0.0
  0
LINE
  8
0
  6
CONTINUOUS
 62
     7
  5
6EA
 10
1.67
 20
0.795
 30
0.0
 11
1.080061
 21
0.795
 31
0.0
  0
LINE
  8
0
  6
CONTINUOUS
 62
     7
  5
6EB
 10
-0.11
 20
0.669941
 30
0.0
 11
-0.11
 21
0.302331
 31
0.0
  0
LINE
  8
0
  6
CONTINUOUS
 62
     7
  5
6EC
 10
-0.11
 20
0.725
 30
0.0
 11
-0.11
 21
0.6875
 31
0.0
  0
LINE
  8
0
  6
CONTINUOUS
 62
     7
  5
6ED
 10
-0.11
 20
-0.12083
 30
0.0
 11
-0.11
 21
-0.25994
 31
0.0
  0
LINE
  8
0
  6
CONTINUOUS
 62
     7
  5
6EE
 10
-0.11
 20
-0.12083
 30
0.0
 11
-0.11
 21
0.12083
 31
0.0
  0
LINE
  8
0
  6
CONTINUOUS
 62
     7
  5
6EF
 10
-0.11
 20
0.25994
 30
0.0
 11
-0.11
 21
0.12083
 31
0.0
  0
LINE
  8
0
  6
CONTINUOUS
 62
     7
  5
6F0
 10
-0.11
 20
-0.302331
 30
0.0
 11
-0.11
 21
-0.669941
 31
0.0
  0
LINE
  8
0
  6
CONTINUOUS
 62
     7
  5
6F1
 10
-0.11
 20
-0.6875
 30
0.0
 11
-0.11
 21
-0.735
 31
0.0
  0
LINE
  8
0
  6
CONTINUOUS
 62
     7
  5
6F2
 10
-0.06
 20
0.725
 30
0.0
 11
-0.11
 21
0.725
 31
0.0
  0
LINE
  8
0
  6
CONTINUOUS
 62
     7
  5
6F3
 10
-0.11
 20
0.12083
 30
0.0
 11
-0.06
 21
0.12083
 31
0.0
  0
LINE
  8
0
  6
CONTINUOUS
 62
     7
  5
6F4
 10
-0.06
 20
-0.12083
 30
0.0
 11
-0.11
 21
-0.12083
 31
0.0
  0
LINE
  8
0
  6
CONTINUOUS
 62
     7
  5
6F5
 10
-0.11
 20
0.284772
 30
0.0
 11
-0.11
 21
0.302331
 31
0.0
  0
LINE
  8
0
  6
CONTINUOUS
 62
     7
  5
6F6
 10
-0.11
 20
0.25994
 30
0.0
 11
-0.11
 21
0.284772
 31
0.0
  0
LINE
  8
0
  6
CONTINUOUS
 62
     7
  5
6F7
 10
-0.11
 20
-0.284772
 30
0.0
 11
-0.11
 21
-0.25994
 31
0.0
  0
LINE
  8
0
  6
CONTINUOUS
 62
     7
  5
6F8
 10
-0.11
 20
-0.302331
 30
0.0
 11
-0.11
 21
-0.284772
 31
0.0
  0
LINE
  8
0
  6
CONTINUOUS
 62
     7
  5
6F9
 10
-0.11
 20
0.669941
 30
0.0
 11
-0.11
 21
0.6875
 31
0.0
  0
LINE
  8
0
  6
CONTINUOUS
 62
     7
  5
6FA
 10
-0.11
 20
-0.6875
 30
0.0
 11
-0.11
 21
-0.669941
 31
0.0
  0
LINE
  8
0
  6
CONTINUOUS
 62
     7
  5
6FB
 10
-1.48
 20
-0.590551
 30
0.0
 11
-1.48
 21
0.11811
 31
0.0
  0
LINE
  8
0
  6
CONTINUOUS
 62
     7
  5
6FC
 10
-1.09874
 20
-0.590551
 30
0.0
 11
-1.48
 21
-0.590551
 31
0.0
  0
LINE
  8
0
  6
CONTINUOUS
 62
     7
  5
6FD
 10
-1.05937
 20
-0.433071
 30
0.0
 11
-1.09874
 21
-0.590551
 31
0.0
  0
LINE
  8
0
  6
CONTINUOUS
 62
     7
  5
6FE
 10
-1.05937
 20
-0.416654
 30
0.0
 11
-1.05937
 21
-0.433071
 31
0.0
  0
LINE
  8
0
  6
CONTINUOUS
 62
     7
  5
6FF
 10
-1.48
 20
0.11811
 30
0.0
 11
-1.05937
 21
0.416654
 31
0.0
  0
LINE
  8
0
  6
CONTINUOUS
 62
     7
  5
700
 10
-1.05937
 20
0.433071
 30
0.0
 11
-1.05937
 21
0.416654
 31
0.0
  0
LINE
  8
0
  6
CONTINUOUS
 62
     7
  5
701
 10
-1.05937
 20
0.416654
 30
0.0
 11
-1.05937
 21
-0.416654
 31
0.0
  0
LINE
  8
0
  6
CONTINUOUS
 62
     7
  5
702
 10
-1.02
 20
0.551181
 30
0.0
 11
-1.02
 21
-0.551181
 31
0.0
  0
LINE
  8
0
  6
CONTINUOUS
 62
     7
  5
703
 10
-0.934
 20
0.629921
 30
0.0
 11
-0.934
 21
0.0
 31
0.0
  0
LINE
  8
0
  6
CONTINUOUS
 62
     7
  5
704
 10
-0.934
 20
0.0
 30
0.0
 11
-0.934
 21
-0.629921
 31
0.0
  0
LINE
  8
0
  6
CONTINUOUS
 62
     7
  5
705
 10
-0.325053
 20
-0.6875
 30
0.0
 11
-0.357757
 21
-0.6875
 31
0.0
  0
LINE
  8
0
  6
CONTINUOUS
 62
     7
  5
706
 10
-0.325053
 20
-0.284772
 30
0.0
 11
-0.328816
 21
-0.297143
 31
0.0
  0
LINE
  8
0
  6
CONTINUOUS
 62
     7
  5
707
 10
-0.328816
 20
-0.297143
 30
0.0
 11
-0.332327
 21
-0.309354
 31
0.0
  0
LINE
  8
0
  6
CONTINUOUS
 62
     7
  5
708
 10
-0.332327
 20
-0.309354
 30
0.0
 11
-0.335591
 21
-0.321418
 31
0.0
  0
LINE
  8
0
  6
CONTINUOUS
 62
     7
  5
709
 10
-0.335591
 20
-0.321418
 30
0.0
 11
-0.338614
 21
-0.333346
 31
0.0
  0
LINE
  8
0
  6
CONTINUOUS
 62
     7
  5
70A
 10
-0.338614
 20
-0.333346
 30
0.0
 11
-0.341401
 21
-0.345149
 31
0.0
  0
LINE
  8
0
  6
CONTINUOUS
 62
     7
  5
70B
 10
-0.341401
 20
-0.345149
 30
0.0
 11
-0.343957
 21
-0.356837
 31
0.0
  0
LINE
  8
0
  6
CONTINUOUS
 62
     7
  5
70C
 10
-0.343957
 20
-0.356837
 30
0.0
 11
-0.346286
 21
-0.368421
 31
0.0
  0
LINE
  8
0
  6
CONTINUOUS
 62
     7
  5
70D
 10
-0.346286
 20
-0.368421
 30
0.0
 11
-0.348391
 21
-0.37991
 31
0.0
  0
LINE
  8
0
  6
CONTINUOUS
 62
     7
  5
70E
 10
-0.348391
 20
-0.37991
 30
0.0
 11
-0.350277
 21
-0.391315
 31
0.0
  0
LINE
  8
0
  6
CONTINUOUS
 62
     7
  5
70F
 10
-0.350277
 20
-0.391315
 30
0.0
 11
-0.351946
 21
-0.402645
 31
0.0
  0
LINE
  8
0
  6
CONTINUOUS
 62
     7
  5
710
 10
-0.351946
 20
-0.402645
 30
0.0
 11
-0.3534
 21
-0.413909
 31
0.0
  0
LINE
  8
0
  6
CONTINUOUS
 62
     7
  5
711
 10
-0.3534
 20
-0.413909
 30
0.0
 11
-0.354642
 21
-0.425116
 31
0.0
  0
LINE
  8
0
  6
CONTINUOUS
 62
     7
  5
712
 10
-0.354642
 20
-0.425116
 30
0.0
 11
-0.355675
 21
-0.436275
 31
0.0
  0
LINE
  8
0
  6
CONTINUOUS
 62
     7
  5
713
 10
-0.355675
 20
-0.436275
 30
0.0
 11
-0.356499
 21
-0.447395
 31
0.0
  0
LINE
  8
0
  6
CONTINUOUS
 62
     7
  5
714
 10
-0.356499
 20
-0.447395
 30
0.0
 11
-0.357115
 21
-0.458485
 31
0.0
  0
LINE
  8
0
  6
CONTINUOUS
 62
     7
  5
715
 10
-0.357115
 20
-0.458485
 30
0.0
 11
-0.357526
 21
-0.469554
 31
0.0
  0
LINE
  8
0
  6
CONTINUOUS
 62
     7
  5
716
 10
-0.357526
 20
-0.469554
 30
0.0
 11
-0.357731
 21
-0.48061
 31
0.0
  0
LINE
  8
0
  6
CONTINUOUS
 62
     7
  5
717
 10
-0.357731
 20
-0.48061
 30
0.0
 11
-0.357731
 21
-0.491662
 31
0.0
  0
LINE
  8
0
  6
CONTINUOUS
 62
     7
  5
718
 10
-0.357731
 20
-0.491662
 30
0.0
 11
-0.357526
 21
-0.502718
 31
0.0
  0
LINE
  8
0
  6
CONTINUOUS
 62
     7
  5
719
 10
-0.357526
 20
-0.502718
 30
0.0
 11
-0.357115
 21
-0.513786
 31
0.0
  0
LINE
  8
0
  6
CONTINUOUS
 62
     7
  5
71A
 10
-0.357115
 20
-0.513786
 30
0.0
 11
-0.356499
 21
-0.524877
 31
0.0
  0
LINE
  8
0
  6
CONTINUOUS
 62
     7
  5
71B
 10
-0.356499
 20
-0.524877
 30
0.0
 11
-0.355675
 21
-0.535997
 31
0.0
  0
LINE
  8
0
  6
CONTINUOUS
 62
     7
  5
71C
 10
-0.355675
 20
-0.535997
 30
0.0
 11
-0.354642
 21
-0.547156
 31
0.0
  0
LINE
  8
0
  6
CONTINUOUS
 62
     7
  5
71D
 10
-0.354642
 20
-0.547156
 30
0.0
 11
-0.3534
 21
-0.558363
 31
0.0
  0
LINE
  8
0
  6
CONTINUOUS
 62
     7
  5
71E
 10
-0.3534
 20
-0.558363
 30
0.0
 11
-0.351946
 21
-0.569627
 31
0.0
  0
LINE
  8
0
  6
CONTINUOUS
 62
     7
  5
71F
 10
-0.351946
 20
-0.569627
 30
0.0
 11
-0.350277
 21
-0.580957
 31
0.0
  0
LINE
  8
0
  6
CONTINUOUS
 62
     7
  5
720
 10
-0.350277
 20
-0.580957
 30
0.0
 11
-0.348391
 21
-0.592361
 31
0.0
  0
LINE
  8
0
  6
CONTINUOUS
 62
     7
  5
721
 10
-0.348391
 20
-0.592361
 30
0.0
 11
-0.346286
 21
-0.603851
 31
0.0
  0
LINE
  8
0
  6
CONTINUOUS
 62
     7
  5
722
 10
-0.346286
 20
-0.603851
 30
0.0
 11
-0.343957
 21
-0.615435
 31
0.0
  0
LINE
  8
0
  6
CONTINUOUS
 62
     7
  5
723
 10
-0.343957
 20
-0.615435
 30
0.0
 11
-0.341401
 21
-0.627123
 31
0.0
  0
LINE
  8
0
  6
CONTINUOUS
 62
     7
  5
724
 10
-0.341401
 20
-0.627123
 30
0.0
 11
-0.338614
 21
-0.638925
 31
0.0
  0
LINE
  8
0
  6
CONTINUOUS
 62
     7
  5
725
 10
-0.338614
 20
-0.638925
 30
0.0
 11
-0.335591
 21
-0.650853
 31
0.0
  0
LINE
  8
0
  6
CONTINUOUS
 62
     7
  5
726
 10
-0.335591
 20
-0.650853
 30
0.0
 11
-0.332327
 21
-0.662917
 31
0.0
  0
LINE
  8
0
  6
CONTINUOUS
 62
     7
  5
727
 10
-0.332327
 20
-0.662917
 30
0.0
 11
-0.328816
 21
-0.675129
 31
0.0
  0
LINE
  8
0
  6
CONTINUOUS
 62
     7
  5
728
 10
-0.328816
 20
-0.675129
 30
0.0
 11
-0.325053
 21
-0.6875
 31
0.0
  0
LINE
  8
0
  6
CONTINUOUS
 62
     7
  5
729
 10
-0.325053
 20
0.284772
 30
0.0
 11
-0.328816
 21
0.267277
 31
0.0
  0
LINE
  8
0
  6
CONTINUOUS
 62
     7
  5
72A
 10
-0.328816
 20
0.267277
 30
0.0
 11
-0.332327
 21
0.250007
 31
0.0
  0
LINE
  8
0
  6
CONTINUOUS
 62
     7
  5
72B
 10
-0.332327
 20
0.250007
 30
0.0
 11
-0.335591
 21
0.232946
 31
0.0
  0
LINE
  8
0
  6
CONTINUOUS
 62
     7
  5
72C
 10
-0.335591
 20
0.232946
 30
0.0
 11
-0.338614
 21
0.216077
 31
0.0
  0
LINE
  8
0
  6
CONTINUOUS
 62
     7
  5
72D
 10
-0.338614
 20
0.216077
 30
0.0
 11
-0.341401
 21
0.199385
 31
0.0
  0
LINE
  8
0
  6
CONTINUOUS
 62
     7
  5
72E
 10
-0.341401
 20
0.199385
 30
0.0
 11
-0.343957
 21
0.182856
 31
0.0
  0
LINE
  8
0
  6
CONTINUOUS
 62
     7
  5
72F
 10
-0.343957
 20
0.182856
 30
0.0
 11
-0.346286
 21
0.166474
 31
0.0
  0
LINE
  8
0
  6
CONTINUOUS
 62
     7
  5
730
 10
-0.346286
 20
0.166474
 30
0.0
 11
-0.348391
 21
0.150225
 31
0.0
  0
LINE
  8
0
  6
CONTINUOUS
 62
     7
  5
731
 10
-0.348391
 20
0.150225
 30
0.0
 11
-0.350277
 21
0.134097
 31
0.0
  0
LINE
  8
0
  6
CONTINUOUS
 62
     7
  5
732
 10
-0.350277
 20
0.134097
 30
0.0
 11
-0.351946
 21
0.118074
 31
0.0
  0
LINE
  8
0
  6
CONTINUOUS
 62
     7
  5
733
 10
-0.351946
 20
0.118074
 30
0.0
 11
-0.3534
 21
0.102145
 31
0.0
  0
LINE
  8
0
  6
CONTINUOUS
 62
     7
  5
734
 10
-0.3534
 20
0.102145
 30
0.0
 11
-0.354642
 21
0.086296
 31
0.0
  0
LINE
  8
0
  6
CONTINUOUS
 62
     7
  5
735
 10
-0.354642
 20
0.086296
 30
0.0
 11
-0.355675
 21
0.070514
 31
0.0
  0
LINE
  8
0
  6
CONTINUOUS
 62
     7
  5
736
 10
-0.355675
 20
0.070514
 30
0.0
 11
-0.356499
 21
0.054788
 31
0.0
  0
LINE
  8
0
  6
CONTINUOUS
 62
     7
  5
737
 10
-0.356499
 20
0.054788
 30
0.0
 11
-0.357115
 21
0.039104
 31
0.0
  0
LINE
  8
0
  6
CONTINUOUS
 62
     7
  5
738
 10
-0.357115
 20
0.039104
 30
0.0
 11
-0.357526
 21
0.02345
 31
0.0
  0
LINE
  8
0
  6
CONTINUOUS
 62
     7
  5
739
 10
-0.357526
 20
0.02345
 30
0.0
 11
-0.357731
 21
0.007815
 31
0.0
  0
LINE
  8
0
  6
CONTINUOUS
 62
     7
  5
73A
 10
-0.357731
 20
0.007815
 30
0.0
 11
-0.357731
 21
-0.007815
 31
0.0
  0
LINE
  8
0
  6
CONTINUOUS
 62
     7
  5
73B
 10
-0.357731
 20
-0.007815
 30
0.0
 11
-0.357526
 21
-0.02345
 31
0.0
  0
LINE
  8
0
  6
CONTINUOUS
 62
     7
  5
73C
 10
-0.357526
 20
-0.02345
 30
0.0
 11
-0.357115
 21
-0.039104
 31
0.0
  0
LINE
  8
0
  6
CONTINUOUS
 62
     7
  5
73D
 10
-0.357115
 20
-0.039104
 30
0.0
 11
-0.356499
 21
-0.054788
 31
0.0
  0
LINE
  8
0
  6
CONTINUOUS
 62
     7
  5
73E
 10
-0.356499
 20
-0.054788
 30
0.0
 11
-0.355675
 21
-0.070514
 31
0.0
  0
LINE
  8
0
  6
CONTINUOUS
 62
     7
  5
73F
 10
-0.355675
 20
-0.070514
 30
0.0
 11
-0.354642
 21
-0.086296
 31
0.0
  0
LINE
  8
0
  6
CONTINUOUS
 62
     7
  5
740
 10
-0.354642
 20
-0.086296
 30
0.0
 11
-0.3534
 21
-0.102145
 31
0.0
  0
LINE
  8
0
  6
CONTINUOUS
 62
     7
  5
741
 10
-0.3534
 20
-0.102145
 30
0.0
 11
-0.351946
 21
-0.118074
 31
0.0
  0
LINE
  8
0
  6
CONTINUOUS
 62
     7
  5
742
 10
-0.351946
 20
-0.118074
 30
0.0
 11
-0.350277
 21
-0.134097
 31
0.0
  0
LINE
  8
0
  6
CONTINUOUS
 62
     7
  5
743
 10
-0.350277
 20
-0.134097
 30
0.0
 11
-0.348391
 21
-0.150225
 31
0.0
  0
LINE
  8
0
  6
CONTINUOUS
 62
     7
  5
744
 10
-0.348391
 20
-0.150225
 30
0.0
 11
-0.346286
 21
-0.166474
 31
0.0
  0
LINE
  8
0
  6
CONTINUOUS
 62
     7
  5
745
 10
-0.346286
 20
-0.166474
 30
0.0
 11
-0.343957
 21
-0.182856
 31
0.0
  0
LINE
  8
0
  6
CONTINUOUS
 62
     7
  5
746
 10
-0.343957
 20
-0.182856
 30
0.0
 11
-0.341401
 21
-0.199385
 31
0.0
  0
LINE
  8
0
  6
CONTINUOUS
 62
     7
  5
747
 10
-0.341401
 20
-0.199385
 30
0.0
 11
-0.338614
 21
-0.216077
 31
0.0
  0
LINE
  8
0
  6
CONTINUOUS
 62
     7
  5
748
 10
-0.338614
 20
-0.216077
 30
0.0
 11
-0.335591
 21
-0.232946
 31
0.0
  0
LINE
  8
0
  6
CONTINUOUS
 62
     7
  5
749
 10
-0.335591
 20
-0.232946
 30
0.0
 11
-0.332327
 21
-0.250007
 31
0.0
  0
LINE
  8
0
  6
CONTINUOUS
 62
     7
  5
74A
 10
-0.332327
 20
-0.250007
 30
0.0
 11
-0.328816
 21
-0.267277
 31
0.0
  0
LINE
  8
0
  6
CONTINUOUS
 62
     7
  5
74B
 10
-0.328816
 20
-0.267277
 30
0.0
 11
-0.325053
 21
-0.284772
 31
0.0
  0
LINE
  8
0
  6
CONTINUOUS
 62
     7
  5
74C
 10
-0.325053
 20
0.6875
 30
0.0
 11
-0.328816
 21
0.675129
 31
0.0
  0
LINE
  8
0
  6
CONTINUOUS
 62
     7
  5
74D
 10
-0.328816
 20
0.675129
 30
0.0
 11
-0.332327
 21
0.662917
 31
0.0
  0
LINE
  8
0
  6
CONTINUOUS
 62
     7
  5
74E
 10
-0.332327
 20
0.662917
 30
0.0
 11
-0.335591
 21
0.650853
 31
0.0
  0
LINE
  8
0
  6
CONTINUOUS
 62
     7
  5
74F
 10
-0.335591
 20
0.650853
 30
0.0
 11
-0.338614
 21
0.638925
 31
0.0
  0
LINE
  8
0
  6
CONTINUOUS
 62
     7
  5
750
 10
-0.338614
 20
0.638925
 30
0.0
 11
-0.341401
 21
0.627123
 31
0.0
  0
LINE
  8
0
  6
CONTINUOUS
 62
     7
  5
751
 10
-0.341401
 20
0.627123
 30
0.0
 11
-0.343957
 21
0.615435
 31
0.0
  0
LINE
  8
0
  6
CONTINUOUS
 62
     7
  5
752
 10
-0.343957
 20
0.615435
 30
0.0
 11
-0.346286
 21
0.603851
 31
0.0
  0
LINE
  8
0
  6
CONTINUOUS
 62
     7
  5
753
 10
-0.346286
 20
0.603851
 30
0.0
 11
-0.348391
 21
0.592361
 31
0.0
  0
LINE
  8
0
  6
CONTINUOUS
 62
     7
  5
754
 10
-0.348391
 20
0.592361
 30
0.0
 11
-0.350277
 21
0.580957
 31
0.0
  0
LINE
  8
0
  6
CONTINUOUS
 62
     7
  5
755
 10
-0.350277
 20
0.580957
 30
0.0
 11
-0.351946
 21
0.569627
 31
0.0
  0
LINE
  8
0
  6
CONTINUOUS
 62
     7
  5
756
 10
-0.351946
 20
0.569627
 30
0.0
 11
-0.3534
 21
0.558363
 31
0.0
  0
LINE
  8
0
  6
CONTINUOUS
 62
     7
  5
757
 10
-0.3534
 20
0.558363
 30
0.0
 11
-0.354642
 21
0.547156
 31
0.0
  0
LINE
  8
0
  6
CONTINUOUS
 62
     7
  5
758
 10
-0.354642
 20
0.547156
 30
0.0
 11
-0.355675
 21
0.535997
 31
0.0
  0
LINE
  8
0
  6
CONTINUOUS
 62
     7
  5
759
 10
-0.355675
 20
0.535997
 30
0.0
 11
-0.356499
 21
0.524877
 31
0.0
  0
LINE
  8
0
  6
CONTINUOUS
 62
     7
  5
75A
 10
-0.356499
 20
0.524877
 30
0.0
 11
-0.357115
 21
0.513786
 31
0.0
  0
LINE
  8
0
  6
CONTINUOUS
 62
     7
  5
75B
 10
-0.357115
 20
0.513786
 30
0.0
 11
-0.357526
 21
0.502718
 31
0.0
  0
LINE
  8
0
  6
CONTINUOUS
 62
     7
  5
75C
 10
-0.357526
 20
0.502718
 30
0.0
 11
-0.357731
 21
0.491662
 31
0.0
  0
LINE
  8
0
  6
CONTINUOUS
 62
     7
  5
75D
 10
-0.357731
 20
0.491662
 30
0.0
 11
-0.357731
 21
0.48061
 31
0.0
  0
LINE
  8
0
  6
CONTINUOUS
 62
     7
  5
75E
 10
-0.357731
 20
0.48061
 30
0.0
 11
-0.357526
 21
0.469554
 31
0.0
  0
LINE
  8
0
  6
CONTINUOUS
 62
     7
  5
75F
 10
-0.357526
 20
0.469554
 30
0.0
 11
-0.357115
 21
0.458485
 31
0.0
  0
LINE
  8
0
  6
CONTINUOUS
 62
     7
  5
760
 10
-0.357115
 20
0.458485
 30
0.0
 11
-0.356499
 21
0.447395
 31
0.0
  0
LINE
  8
0
  6
CONTINUOUS
 62
     7
  5
761
 10
-0.356499
 20
0.447395
 30
0.0
 11
-0.355675
 21
0.436275
 31
0.0
  0
LINE
  8
0
  6
CONTINUOUS
 62
     7
  5
762
 10
-0.355675
 20
0.436275
 30
0.0
 11
-0.354642
 21
0.425116
 31
0.0
  0
LINE
  8
0
  6
CONTINUOUS
 62
     7
  5
763
 10
-0.354642
 20
0.425116
 30
0.0
 11
-0.3534
 21
0.413909
 31
0.0
  0
LINE
  8
0
  6
CONTINUOUS
 62
     7
  5
764
 10
-0.3534
 20
0.413909
 30
0.0
 11
-0.351946
 21
0.402645
 31
0.0
  0
LINE
  8
0
  6
CONTINUOUS
 62
     7
  5
765
 10
-0.351946
 20
0.402645
 30
0.0
 11
-0.350277
 21
0.391315
 31
0.0
  0
LINE
  8
0
  6
CONTINUOUS
 62
     7
  5
766
 10
-0.350277
 20
0.391315
 30
0.0
 11
-0.348391
 21
0.37991
 31
0.0
  0
LINE
  8
0
  6
CONTINUOUS
 62
     7
  5
767
 10
-0.348391
 20
0.37991
 30
0.0
 11
-0.346286
 21
0.368421
 31
0.0
  0
LINE
  8
0
  6
CONTINUOUS
 62
     7
  5
768
 10
-0.346286
 20
0.368421
 30
0.0
 11
-0.343957
 21
0.356837
 31
0.0
  0
LINE
  8
0
  6
CONTINUOUS
 62
     7
  5
769
 10
-0.343957
 20
0.356837
 30
0.0
 11
-0.341401
 21
0.345149
 31
0.0
  0
LINE
  8
0
  6
CONTINUOUS
 62
     7
  5
76A
 10
-0.341401
 20
0.345149
 30
0.0
 11
-0.338614
 21
0.333346
 31
0.0
  0
LINE
  8
0
  6
CONTINUOUS
 62
     7
  5
76B
 10
-0.338614
 20
0.333346
 30
0.0
 11
-0.335591
 21
0.321418
 31
0.0
  0
LINE
  8
0
  6
CONTINUOUS
 62
     7
  5
76C
 10
-0.335591
 20
0.321418
 30
0.0
 11
-0.332327
 21
0.309354
 31
0.0
  0
LINE
  8
0
  6
CONTINUOUS
 62
     7
  5
76D
 10
-0.332327
 20
0.309354
 30
0.0
 11
-0.328816
 21
0.297143
 31
0.0
  0
LINE
  8
0
  6
CONTINUOUS
 62
     7
  5
76E
 10
-0.328816
 20
0.297143
 30
0.0
 11
-0.325053
 21
0.284772
 31
0.0
  0
LINE
  8
0
  6
CONTINUOUS
 62
     7
  5
76F
 10
-0.357757
 20
0.6875
 30
0.0
 11
-0.325053
 21
0.6875
 31
0.0
  0
LINE
  8
0
  6
CONTINUOUS
 62
     7
  5
770
 10
-0.944
 20
0.619921
 30
0.0
 11
-0.944
 21
0.0
 31
0.0
  0
LINE
  8
0
  6
CONTINUOUS
 62
     7
  5
771
 10
-0.944
 20
0.0
 30
0.0
 11
-0.944
 21
-0.619921
 31
0.0
  0
LINE
  8
0
  6
CONTINUOUS
 62
     7
  5
772
 10
-0.11
 20
-0.284772
 30
0.0
 11
-0.325053
 21
-0.284772
 31
0.0
  0
LINE
  8
0
  6
CONTINUOUS
 62
     7
  5
773
 10
-0.11
 20
0.284772
 30
0.0
 11
-0.325053
 21
0.284772
 31
0.0
  0
LINE
  8
0
  6
CONTINUOUS
 62
     7
  5
774
 10
-0.11
 20
-0.6875
 30
0.0
 11
-0.325053
 21
-0.6875
 31
0.0
  0
LINE
  8
0
  6
CONTINUOUS
 62
     7
  5
775
 10
-0.11
 20
0.6875
 30
0.0
 11
-0.325053
 21
0.6875
 31
0.0
  0
LINE
  8
0
  6
CONTINUOUS
 62
     7
  5
776
 10
0.0
 20
0.147215
 30
0.0
 11
0.0
 21
-0.21875
 31
0.0
  0
LINE
  8
0
  6
CONTINUOUS
 62
     7
  5
777
 10
0.0
 20
-0.21875
 30
0.0
 11
0.0
 21
-0.78125
 31
0.0
  0
LINE
  8
0
  6
CONTINUOUS
 62
     7
  5
778
 10
-0.06
 20
0.78125
 30
0.0
 11
-0.06
 21
0.21875
 31
0.0
  0
LINE
  8
0
  6
CONTINUOUS
 62
     7
  5
779
 10
-0.06
 20
0.21875
 30
0.0
 11
0.0
 21
0.21875
 31
0.0
  0
LINE
  8
0
  6
CONTINUOUS
 62
     7
  5
77A
 10
-0.06
 20
-0.21875
 30
0.0
 11
-0.06
 21
0.21875
 31
0.0
  0
LINE
  8
0
  6
CONTINUOUS
 62
     7
  5
77B
 10
0.0
 20
-0.21875
 30
0.0
 11
-0.06
 21
-0.21875
 31
0.0
  0
LINE
  8
0
  6
CONTINUOUS
 62
     7
  5
77C
 10
-0.06
 20
-0.21875
 30
0.0
 11
-0.06
 21
-0.78125
 31
0.0
  0
LINE
  8
0
  6
CONTINUOUS
 62
     7
  5
77D
 10
0.05
 20
0.968
 30
0.0
 11
0.0
 21
0.968
 31
0.0
  0
LINE
  8
0
  6
CONTINUOUS
 62
     7
  5
77E
 10
0.0
 20
0.968
 30
0.0
 11
0.0
 21
0.853894
 31
0.0
  0
LINE
  8
0
  6
CONTINUOUS
 62
     7
  5
77F
 10
0.05
 20
0.853894
 30
0.0
 11
0.05
 21
0.968
 31
0.0
  0
LINE
  8
0
  6
CONTINUOUS
 62
     7
  5
780
 10
0.0
 20
0.853894
 30
0.0
 11
0.0
 21
0.201489
 31
0.0
  0
LINE
  8
0
  6
CONTINUOUS
 62
     7
  5
781
 10
0.05
 20
0.201489
 30
0.0
 11
0.05
 21
0.853894
 31
0.0
  0
LINE
  8
0
  6
CONTINUOUS
 62
     7
  5
782
 10
0.0
 20
0.201489
 30
0.0
 11
0.0
 21
0.160415
 31
0.0
  0
LINE
  8
0
  6
CONTINUOUS
 62
     7
  5
783
 10
0.05
 20
0.160415
 30
0.0
 11
0.05
 21
0.201489
 31
0.0
  0
LINE
  8
0
  6
CONTINUOUS
 62
     7
  5
784
 10
0.0
 20
0.160415
 30
0.0
 11
0.0
 21
0.147765
 31
0.0
  0
LINE
  8
0
  6
CONTINUOUS
 62
     7
  5
785
 10
0.05
 20
0.147765
 30
0.0
 11
0.05
 21
0.160415
 31
0.0
  0
LINE
  8
0
  6
CONTINUOUS
 62
     7
  5
786
 10
0.0
 20
0.147765
 30
0.0
 11
0.0
 21
0.147215
 31
0.0
  0
LINE
  8
0
  6
CONTINUOUS
 62
     7
  5
787
 10
0.05
 20
0.104476
 30
0.0
 11
0.05
 21
0.147765
 31
0.0
  0
LINE
  8
0
  6
CONTINUOUS
 62
     7
  5
788
 10
0.05
 20
-0.733
 30
0.0
 11
0.05
 21
0.104476
 31
0.0
  0
LINE
  8
0
  6
CONTINUOUS
 62
     7
  5
789
 10
0.25
 20
0.78125
 30
0.0
 11
0.25
 21
0.0
 31
0.0
  0
LINE
  8
0
  6
CONTINUOUS
 62
     7
  5
78A
 10
0.25
 20
0.0
 30
0.0
 11
0.25
 21
-0.78125
 31
0.0
  0
LINE
  8
0
  6
CONTINUOUS
 62
     7
  5
78B
 10
0.25
 20
0.59
 30
0.0
 11
0.05
 21
0.59
 31
0.0
  0
LINE
  8
0
  6
CONTINUOUS
 62
     7
  5
78C
 10
0.05
 20
-0.59
 30
0.0
 11
0.25
 21
-0.59
 31
0.0
  0
LINE
  8
0
  6
CONTINUOUS
 62
     7
  5
78D
 10
0.407
 20
0.799
 30
0.0
 11
0.3125
 21
0.799
 31
0.0
  0
LINE
  8
0
  6
CONTINUOUS
 62
     7
  5
78E
 10
0.3125
 20
-0.799
 30
0.0
 11
0.407
 21
-0.799
 31
0.0
  0
LINE
  8
0
  6
CONTINUOUS
 62
     7
  5
78F
 10
0.870969
 20
0.47659
 30
0.0
 11
0.810865
 21
0.416486
 31
0.0
  0
LINE
  8
0
  6
CONTINUOUS
 62
     7
  5
790
 10
0.908446
 20
0.318905
 30
0.0
 11
0.96855
 21
0.379009
 31
0.0
  0
LINE
  8
0
  6
CONTINUOUS
 62
     7
  5
791
 10
0.917924
 20
0.525665
 30
0.0
 11
0.916931
 21
0.522552
 31
0.0
  0
LINE
  8
0
  6
CONTINUOUS
 62
     7
  5
792
 10
1.014512
 20
0.424971
 30
0.0
 11
1.017626
 21
0.425963
 31
0.0
  0
LINE
  8
0
  6
CONTINUOUS
 62
     7
  5
793
 10
0.899254
 20
0.504874
 30
0.0
 11
0.892183
 21
0.497803
 31
0.0
  0
LINE
  8
0
  6
CONTINUOUS
 62
     7
  5
794
 10
0.989763
 20
0.400222
 30
0.0
 11
0.996834
 21
0.407294
 31
0.0
  0
LINE
  8
0
  6
CONTINUOUS
 62
     7
  5
795
 10
0.96855
 20
-0.379009
 30
0.0
 11
0.908446
 21
-0.318905
 31
0.0
  0
LINE
  8
0
  6
CONTINUOUS
 62
     7
  5
796
 10
0.810865
 20
-0.416486
 30
0.0
 11
0.870969
 21
-0.47659
 31
0.0
  0
LINE
  8
0
  6
CONTINUOUS
 62
     7
  5
797
 10
1.017626
 20
-0.425963
 30
0.0
 11
1.014512
 21
-0.424971
 31
0.0
  0
LINE
  8
0
  6
CONTINUOUS
 62
     7
  5
798
 10
0.916931
 20
-0.522552
 30
0.0
 11
0.917924
 21
-0.525665
 31
0.0
  0
LINE
  8
0
  6
CONTINUOUS
 62
     7
  5
799
 10
0.996834
 20
-0.407294
 30
0.0
 11
0.989763
 21
-0.400222
 31
0.0
  0
LINE
  8
0
  6
CONTINUOUS
 62
     7
  5
79A
 10
0.892183
 20
-0.497803
 30
0.0
 11
0.899254
 21
-0.504874
 31
0.0
  0
LINE
  8
0
  6
CONTINUOUS
 62
     7
  5
79B
 10
1.219573
 20
0.323148
 30
0.0
 11
1.159469
 21
0.263044
 31
0.0
  0
LINE
  8
0
  6
CONTINUOUS
 62
     7
  5
79C
 10
1.25705
 20
0.165463
 30
0.0
 11
1.317154
 21
0.225567
 31
0.0
  0
LINE
  8
0
  6
CONTINUOUS
 62
     7
  5
79D
 10
1.266527
 20
0.372223
 30
0.0
 11
1.265535
 21
0.36911
 31
0.0
  0
LINE
  8
0
  6
CONTINUOUS
 62
     7
  5
79E
 10
1.363116
 20
0.271529
 30
0.0
 11
1.366229
 21
0.272521
 31
0.0
  0
LINE
  8
0
  6
CONTINUOUS
 62
     7
  5
79F
 10
1.247857
 20
0.351432
 30
0.0
 11
1.240786
 21
0.344361
 31
0.0
  0
LINE
  8
0
  6
CONTINUOUS
 62
     7
  5
7A0
 10
1.338367
 20
0.24678
 30
0.0
 11
1.345438
 21
0.253851
 31
0.0
  0
LINE
  8
0
  6
CONTINUOUS
 62
     7
  5
7A1
 10
1.317154
 20
-0.225567
 30
0.0
 11
1.25705
 21
-0.165463
 31
0.0
  0
LINE
  8
0
  6
CONTINUOUS
 62
     7
  5
7A2
 10
1.159469
 20
-0.263044
 30
0.0
 11
1.219573
 21
-0.323148
 31
0.0
  0
LINE
  8
0
  6
CONTINUOUS
 62
     7
  5
7A3
 10
1.366229
 20
-0.272521
 30
0.0
 11
1.363116
 21
-0.271529
 31
0.0
  0
LINE
  8
0
  6
CONTINUOUS
 62
     7
  5
7A4
 10
1.265535
 20
-0.36911
 30
0.0
 11
1.266527
 21
-0.372223
 31
0.0
  0
LINE
  8
0
  6
CONTINUOUS
 62
     7
  5
7A5
 10
1.345438
 20
-0.253851
 30
0.0
 11
1.338367
 21
-0.24678
 31
0.0
  0
LINE
  8
0
  6
CONTINUOUS
 62
     7
  5
7A6
 10
1.240786
 20
-0.344361
 30
0.0
 11
1.247857
 21
-0.351432
 31
0.0
  0
LINE
  8
0
  6
CONTINUOUS
 62
     7
  5
7A7
 10
-0.11
 20
-0.735
 30
0.0
 11
-0.06
 21
-0.735
 31
0.0
  0
LINE
  8
0
  6
CONTINUOUS
 62
     7
  5
7A8
 10
-1.02
 20
0.433071
 30
0.0
 11
-1.05937
 21
0.433071
 31
0.0
  0
LINE
  8
0
  6
CONTINUOUS
 62
     7
  5
7A9
 10
-1.05937
 20
-0.433071
 30
0.0
 11
-1.02
 21
-0.433071
 31
0.0
  0
LINE
  8
0
  6
CONTINUOUS
 62
     7
  5
7AA
 10
-0.944
 20
0.551181
 30
0.0
 11
-1.02
 21
0.551181
 31
0.0
  0
LINE
  8
0
  6
CONTINUOUS
 62
     7
  5
7AB
 10
-1.02
 20
-0.551181
 30
0.0
 11
-0.944
 21
-0.551181
 31
0.0
  0
ARC
  8
0
  6
CONTINUOUS
 62
     7
  5
7AC
 10
-0.408898
 20
-0.660921
 30
0.0
 40
0.031
 50
30.0
 51
90.0
  0
ARC
  8
0
  6
CONTINUOUS
 62
     7
  5
7AD
 10
-0.408898
 20
0.660921
 30
0.0
 40
0.031
 50
270.0
 51
330.0
  0
LINE
  8
0
  6
CONTINUOUS
 62
     7
  5
7AE
 10
-0.408898
 20
0.629921
 30
0.0
 11
-0.934
 21
0.629921
 31
0.0
  0
LINE
  8
0
  6
CONTINUOUS
 62
     7
  5
7AF
 10
-0.934
 20
-0.629921
 30
0.0
 11
-0.408898
 21
-0.629921
 31
0.0
  0
LINE
  8
0
  6
CONTINUOUS
 62
     7
  5
7B0
 10
-0.382051
 20
-0.645421
 30
0.0
 11
-0.357757
 21
-0.6875
 31
0.0
  0
LINE
  8
0
  6
CONTINUOUS
 62
     7
  5
7B1
 10
-0.357757
 20
0.6875
 30
0.0
 11
-0.382051
 21
0.645421
 31
0.0
  0
LINE
  8
0
  6
CONTINUOUS
 62
     7
  5
7B2
 10
-0.934
 20
0.629921
 30
0.0
 11
-0.944
 21
0.619921
 31
0.0
  0
LINE
  8
0
  6
CONTINUOUS
 62
     7
  5
7B3
 10
-0.944
 20
-0.619921
 30
0.0
 11
-0.934
 21
-0.629921
 31
0.0
  0
LINE
  8
0
  6
CONTINUOUS
 62
     7
  5
7B4
 10
0.0
 20
0.78125
 30
0.0
 11
-0.06
 21
0.78125
 31
0.0
  0
LINE
  8
0
  6
CONTINUOUS
 62
     7
  5
7B5
 10
-0.06
 20
-0.78125
 30
0.0
 11
0.0
 21
-0.78125
 31
0.0
  0
LINE
  8
0
  6
CONTINUOUS
 62
     7
  5
7B6
 10
0.0
 20
-0.733
 30
0.0
 11
0.05
 21
-0.733
 31
0.0
  0
LINE
  8
0
  6
CONTINUOUS
 62
     7
  5
7B7
 10
0.3125
 20
0.78125
 30
0.0
 11
0.25
 21
0.78125
 31
0.0
  0
LINE
  8
0
  6
CONTINUOUS
 62
     7
  5
7B8
 10
0.25
 20
-0.78125
 30
0.0
 11
0.3125
 21
-0.78125
 31
0.0
  0
LINE
  8
0
  6
CONTINUOUS
 62
     3
  5
7B9
 10
-1.48
 20
0.0
 30
0.0
 11
1.67
 21
0.0
 31
0.0
  0
LINE
  8
0
  6
CONTINUOUS
 62
     3
  5
7BA
 10
1.008148
 20
0.516188
 30
0.0
 11
0.965722
 21
0.473762
 31
0.0
  0
LINE
  8
0
  6
CONTINUOUS
 62
     3
  5
7BB
 10
1.008148
 20
-0.516188
 30
0.0
 11
0.965722
 21
-0.473762
 31
0.0
  0
LINE
  8
0
  6
CONTINUOUS
 62
     3
  5
7BC
 10
1.356752
 20
0.362746
 30
0.0
 11
1.314325
 21
0.320319
 31
0.0
  0
LINE
  8
0
  6
CONTINUOUS
 62
     3
  5
7BD
 10
1.356752
 20
-0.362746
 30
0.0
 11
1.314325
 21
-0.320319
 31
0.0
  0
ENDSEC
  0
EOF
