999
DXF file: C:\Users\sesa63760\Dev\_Creo\CAD\MCADID0002319_3D-CAD\drw0001_1.dxf
999
Pro/ENGINEER 2019471 by Parametric Technology Corporation
  0
SECTION
  2
HEADER
  9
$ACADVER
  1
AC1024
  9
$DWGCODEPAGE
  3
ANSI_1252
  9
$EXTMAX
 10
180.3460692134
 20
255.0608693161
 30
0.0
  9
$EXTMIN
 10
-0.0
 20
0.0
 30
0.0
  9
$LIMMIN
 10
-0.0
 20
0.0
  9
$LIMMAX
 10
180.3460692134
 20
255.0608693161
  9
$VIEWCTR
 10
90.1730346067
 20
127.530434658
  9
$VIEWSIZE
 40
255.0608693161
  9
$CLAYER
  8
0
  9
$LTSCALE
 40
16.6261899999
  9
$CELTYPE
  6
BYLAYER
  9
$DIMSCALE
 40
1.0
  9
$DIMASZ
 40
2.1469770144
  9
$DIMEXO
 40
1.0
  9
$DIMDLI
 40
11.4871858181
  9
$DIMEXE
 40
1.0
  9
$DIMCEN
 40
2.7206492727
  9
$DIMLFAC
 40
1.0
  9
$DIMBLK
  1
_FILLED
  9
$DIMALT
 70
0
  9
$DIMALTF
 40
0.0393700787
  9
$DIMTXT
 40
3.0057678202
  9
$DIMTOL
 70
1
  9
$DIMLIM
 70
0
  9
$DIMTFAC
 40
1.0
  9
$DIMTP
 40
0.01
  9
$DIMTM
 40
0.01
  9
$DIMGAP
 40
0.625
  9
$DIMDSEP
 70
46
  9
$AUNITS
 70
0
  9
$PDMODE
 70
3
  9
$PDSIZE
 40
0.3125
  9
$HANDSEED
  5
2FE
  9
$TILEMODE
 70
1
  9
$MEASUREMENT
 70
1
  9
$INSUNITS
 70
4
  0
ENDSEC
  0
SECTION
  2
CLASSES
  0
CLASS
  1
ACDBDICTIONARYWDFLT
  2
AcDbDictionaryWithDefault
  3
AutoCAD 2000
 90
0
 91
1
280
0
281
0
  0
CLASS
  1
ACDBPLACEHOLDER
  2
AcDbPlaceHolder
  3
AutoCAD 2000
 90
0
 91
1
280
0
281
0
  0
CLASS
  1
LAYOUT
  2
AcDbLayout
  3
AutoCAD 2000
 90
0
 91
0
280
0
281
0
  0
ENDSEC
  0
SECTION
  2
TABLES
  0
TABLE
  2
VPORT
  5
8
100
AcDbSymbolTable
 70
2
  0
VPORT
  5
1F4
100
AcDbSymbolTableRecord
100
AcDbViewportTableRecord
  2
*ACTIVE
 70
0
 10
0.0
 20
0.0
 11
1.0
 21
1.0
 12
90.1730346067
 22
127.530434658
 13
0.0
 23
0.0
 14
1.0
 24
1.0
 15
0.0
 25
0.0
 16
0.0
 26
0.0
 36
1.0
 17
0.0
 27
0.0
 37
0.0
 40
255.0608693161
 41
0.7070707071
 42
50.0
 43
0.0
 44
0.0
 50
0.0
 51
0.0
 71
0
 72
100
 73
1
 74
1
 75
0
 76
0
 77
0
 78
0
  0
ENDTAB
  0
TABLE
  2
LTYPE
  5
5
100
AcDbSymbolTable
 70
6
  0
LTYPE
  5
14
100
AcDbSymbolTableRecord
100
AcDbLinetypeTableRecord
  2
BYBLOCK
 70
0
  3

 72
65
 73
0
 40
0.0
  0
LTYPE
  5
15
100
AcDbSymbolTableRecord
100
AcDbLinetypeTableRecord
  2
BYLAYER
 70
0
  3

 72
65
 73
0
 40
0.0
  0
LTYPE
  5
16
100
AcDbSymbolTableRecord
100
AcDbLinetypeTableRecord
  2
CONTINUOUS
 70
64
  3
Solid line
 72
65
 73
0
 40
0.0
  0
LTYPE
  5
1F5
100
AcDbSymbolTableRecord
100
AcDbLinetypeTableRecord
  2
CENTER
 70
64
  3
____ _ ____ _ ____ _ ____ _ ____ _ ____ _ ____
 72
65
 73
4
 40
0.6
 49
0.375
 74
0
 49
-0.075
 74
0
 49
0.075
 74
0
 49
-0.075
 74
0
  0
LTYPE
  5
1F6
100
AcDbSymbolTableRecord
100
AcDbLinetypeTableRecord
  2
HIDDEN
 70
64
  3
- - - - - - - - - - - - - - - - - - - -
 72
65
 73
2
 40
0.2
 49
0.1
 74
0
 49
-0.1
 74
0
  0
LTYPE
  5
1F7
100
AcDbSymbolTableRecord
100
AcDbLinetypeTableRecord
  2
PHANTOM
 70
64
  3
_____ _ _ _____ _ _ _____ _ _ _____
 72
65
 73
6
 40
0.8
 49
0.45
 74
0
 49
-0.05
 74
0
 49
0.1
 74
0
 49
-0.05
 74
0
 49
0.1
 74
0
 49
-0.05
 74
0
  0
LTYPE
  5
1F8
100
AcDbSymbolTableRecord
100
AcDbLinetypeTableRecord
  2
DOT
 70
64
  3
. . . . . . . . . . . . . . . . . . . .
 72
65
 73
2
 40
0.2
 49
0.1
 74
0
 49
-0.1
 74
0
  0
LTYPE
  5
1F9
100
AcDbSymbolTableRecord
100
AcDbLinetypeTableRecord
  2
DASHED
 70
64
  3
- - - - - - - - - - - - - - - - - - - -
 72
65
 73
2
 40
0.2
 49
0.1
 74
0
 49
-0.1
 74
0
  0
ENDTAB
  0
TABLE
  2
LAYER
  5
2
100
AcDbSymbolTable
 70
36
  0
LAYER
  5
10
100
AcDbSymbolTableRecord
100
AcDbLayerTableRecord
  2
0
 70
0
 62
7
  6
CONTINUOUS
370
-3
390
F
  0
LAYER
  5
1FA
100
AcDbSymbolTableRecord
100
AcDbLayerTableRecord
  2
DEFAULT_1
 70
0
 62
7
  6
CENTER
370
-3
390
F
  0
LAYER
  5
1FB
100
AcDbSymbolTableRecord
100
AcDbLayerTableRecord
  2
DEFAULT_2
 70
0
 62
8
  6
HIDDEN
370
-3
390
F
  0
LAYER
  5
1FC
100
AcDbSymbolTableRecord
100
AcDbLayerTableRecord
  2
DEFAULT_3
 70
0
 62
7
  6
PHANTOM
370
-3
390
F
  0
LAYER
  5
1FD
100
AcDbSymbolTableRecord
100
AcDbLayerTableRecord
  2
00_COMPONENTS
 70
0
 62
7
  6
CONTINUOUS
370
-3
390
F
  0
LAYER
  5
1FE
100
AcDbSymbolTableRecord
100
AcDbLayerTableRecord
  2
01_1_DEFAULT_DATUMS
 70
0
 62
7
  6
CONTINUOUS
370
-3
390
F
  0
LAYER
  5
1FF
100
AcDbSymbolTableRecord
100
AcDbLayerTableRecord
  2
01_PLANES
 70
0
 62
7
  6
CONTINUOUS
370
-3
390
F
  0
LAYER
  5
200
100
AcDbSymbolTableRecord
100
AcDbLayerTableRecord
  2
02_COORD_SYS
 70
0
 62
7
  6
CONTINUOUS
370
-3
390
F
  0
LAYER
  5
201
100
AcDbSymbolTableRecord
100
AcDbLayerTableRecord
  2
03_AXES
 70
0
 62
7
  6
CONTINUOUS
370
-3
390
F
  0
LAYER
  5
202
100
AcDbSymbolTableRecord
100
AcDbLayerTableRecord
  2
04_POINTS
 70
0
 62
7
  6
CONTINUOUS
370
-3
390
F
  0
LAYER
  5
203
100
AcDbSymbolTableRecord
100
AcDbLayerTableRecord
  2
05_CURVES
 70
0
 62
7
  6
CONTINUOUS
370
-3
390
F
  0
LAYER
  5
204
100
AcDbSymbolTableRecord
100
AcDbLayerTableRecord
  2
06_SURFS
 70
0
 62
7
  6
CONTINUOUS
370
-3
390
F
  0
LAYER
  5
205
100
AcDbSymbolTableRecord
100
AcDbLayerTableRecord
  2
07_COSMETICS
 70
0
 62
7
  6
CONTINUOUS
370
-3
390
F
  0
LAYER
  5
206
100
AcDbSymbolTableRecord
100
AcDbLayerTableRecord
  2
10_NOTES
 70
0
 62
7
  6
CONTINUOUS
370
-3
390
F
  0
LAYER
  5
207
100
AcDbSymbolTableRecord
100
AcDbLayerTableRecord
  2
11_NOTES_PUB
 70
0
 62
7
  6
CONTINUOUS
370
-3
390
F
  0
LAYER
  5
208
100
AcDbSymbolTableRecord
100
AcDbLayerTableRecord
  2
13_REF_GTOL
 70
0
 62
7
  6
CONTINUOUS
370
-3
390
F
  0
LAYER
  5
209
100
AcDbSymbolTableRecord
100
AcDbLayerTableRecord
  2
16_MISC
 70
0
 62
7
  6
CONTINUOUS
370
-3
390
F
  0
LAYER
  5
20A
100
AcDbSymbolTableRecord
100
AcDbLayerTableRecord
  2
17_NO_PRINT
 70
0
 62
7
  6
CONTINUOUS
370
-3
390
F
  0
LAYER
  5
20B
100
AcDbSymbolTableRecord
100
AcDbLayerTableRecord
  2
18_DATUM_CAMS_JOINTS
 70
0
 62
7
  6
CONTINUOUS
370
-3
390
F
  0
LAYER
  5
20C
100
AcDbSymbolTableRecord
100
AcDbLayerTableRecord
  2
19_DATUM_FUNCTIONAL
 70
0
 62
7
  6
CONTINUOUS
370
-3
390
F
  0
LAYER
  5
20D
100
AcDbSymbolTableRecord
100
AcDbLayerTableRecord
  2
20_DATUM_KINEMATIC_SCHEME
 70
0
 62
7
  6
CONTINUOUS
370
-3
390
F
  0
ENDTAB
  0
TABLE
  2
STYLE
  5
3
100
AcDbSymbolTable
 70
1
  0
STYLE
  5
11
100
AcDbSymbolTableRecord
100
AcDbTextStyleTableRecord
  2
STANDARD
 70
0
 40
0.0
 41
0.8
 50
0.0
 71
0
 42
0.2
  3
txt
  4

  0
STYLE
  5
20E
100
AcDbSymbolTableRecord
100
AcDbTextStyleTableRecord
  2
TEXTSTYLE_1
 70
0
 40
0.0
 41
0.8
 50
0.0
 71
0
 42
0.2
  3
gdt
  4

  0
ENDTAB
  0
TABLE
  2
VIEW
  5
6
100
AcDbSymbolTable
 70
0
  0
ENDTAB
  0
TABLE
  2
UCS
  5
7
100
AcDbSymbolTable
 70
0
  0
ENDTAB
  0
TABLE
  2
APPID
  5
9
100
AcDbSymbolTable
 70
1
  0
APPID
  5
20F
100
AcDbSymbolTableRecord
100
AcDbRegAppTableRecord
  2
ACAD
 70
0
  0
ENDTAB
  0
TABLE
  2
BLOCK_RECORD
  5
1
100
AcDbSymbolTable
 70
0
  0
BLOCK_RECORD
  5
210
100
AcDbSymbolTableRecord
100
AcDbBlockTableRecord
  2
*Model_Space
  0
BLOCK_RECORD
  5
211
100
AcDbSymbolTableRecord
100
AcDbBlockTableRecord
  2
*Paper_Space
  0
BLOCK_RECORD
  5
212
100
AcDbSymbolTableRecord
100
AcDbBlockTableRecord
  2
_FILLED
  0
ENDTAB
  0
TABLE
  2
DIMSTYLE
  5
A
100
AcDbSymbolTable
 70
1
100
AcDbDimStyleTable
 71
0
  0
DIMSTYLE
105
213
100
AcDbSymbolTableRecord
100
AcDbDimStyleTableRecord
  2
STANDARD
 70
0
  3

  4

 40
1.0
 41
2.1469770144
 42
1.0
 43
0.38
 44
1.0
 45
0.0
 46
0.0
 47
0.01
 48
0.01
140
3.0057678202
141
0.09
142
0.0
143
25.4
144
1.0
145
0.0
146
1.0
147
0.625
 71
1
 72
0
 73
0
 74
0
 75
0
 76
0
 77
1
 78
8
 79
2
170
0
171
1
172
0
173
0
174
0
175
0
176
0
177
0
178
0
270
2
179
2
271
2
272
2
273
2
274
2
275
0
280
0
281
0
282
0
283
1
284
8
285
0
286
0
287
3
288
0
340
11
278
46
341
212
342
212
343
212
344
212
  0
ENDTAB
  0
ENDSEC
  0
SECTION
  2
BLOCKS
  0
BLOCK
  5
20
100
AcDbEntity
  8
0
100
AcDbBlockBegin
  2
*Model_Space
 70
0
 10
0.0
 20
0.0
 30
0.0
  3
*Model_Space
  1

  0
ENDBLK
  5
21
100
AcDbEntity
  8
0
100
AcDbBlockEnd
  0
BLOCK
  5
1C
100
AcDbEntity
  8
0
100
AcDbBlockBegin
  2
*Paper_Space
 70
0
 10
0.0
 20
0.0
 30
0.0
  3
*Paper_Space
  1

  0
ENDBLK
  5
1D
100
AcDbEntity
  8
0
100
AcDbBlockEnd
  0
BLOCK
  5
214
100
AcDbEntity
  8
0
100
AcDbBlockBegin
  2
_FILLED
 70
64
 10
0.0
 20
0.0
  3
_FILLED
  1

  0
SOLID
  5
215
100
AcDbEntity
  8
0
  6
BYBLOCK
 62
0
100
AcDbTrace
 10
0.0
 20
0.0
 11
-1.0
 21
0.25
 12
-1.0
 22
-0.25
 13
-1.0
 23
-0.25
  0
ENDBLK
  5
216
100
AcDbEntity
  8
0
  6
BYBLOCK
 62
0
100
AcDbBlockEnd
  0
ENDSEC
  0
SECTION
  2
ENTITIES
  0
LINE
  5
217
100
AcDbEntity
  8
0
100
AcDbLine
 62
7
  6
CONTINUOUS
 10
56.3022817181
 20
228.6028586316
 11
52.3396639204
 21
226.3149747674
  0
LWPOLYLINE
  5
218
100
AcDbEntity
  8
0
100
AcDbPolyline
 62
7
  6
CONTINUOUS
 90
8
 70
0
 10
117.0472160197
 20
48.7105741094
 10
99.6290180152
 20
45.0944478355
 10
81.1767926683
 20
44.5419694939
 10
63.2263485228
 20
47.0942144936
 10
47.2736061537
 20
52.5505928691
 10
34.671538449
 20
60.4775128152
 10
26.5275233811
 20
70.2021263142
 10
23.5212214636
 20
80.8484478306
  0
LWPOLYLINE
  5
219
100
AcDbEntity
  8
0
100
AcDbPolyline
 62
7
  6
CONTINUOUS
 90
7
 70
0
 10
116.9062370487
 20
49.0382457593
 10
98.9971130415
 20
45.4201835165
 10
80.0364820479
 20
45.010538683
 10
61.709079339
 20
47.8457100002
 10
45.6433750741
 20
53.6737800544
 10
38.9162492434
 20
57.5576000999
 10
28.821457712
 20
66.8329576507
  0
LINE
  5
21A
100
AcDbEntity
  8
0
100
AcDbLine
 62
7
  6
CONTINUOUS
 10
34.5129883729
 20
53.121065207
 11
33.9732130802
 21
53.146371933
  0
LWPOLYLINE
  5
21B
100
AcDbEntity
  8
0
100
AcDbPolyline
 62
7
  6
CONTINUOUS
 90
3
 70
0
 10
28.821457712
 20
66.8329576507
 10
23.910574131
 20
77.4141136606
 10
23.5212214636
 20
80.8484478306
  0
LINE
  5
21C
100
AcDbEntity
  8
0
100
AcDbLine
 62
7
  6
CONTINUOUS
 10
23.5212214636
 20
80.8484478306
 11
22.1742094364
 21
122.8423881457
  0
LINE
  5
21D
100
AcDbEntity
  8
0
100
AcDbLine
 62
7
  6
CONTINUOUS
 10
22.4213664786
 20
133.5703647983
 11
22.1742094364
 21
125.8650898145
  0
LWPOLYLINE
  5
21E
100
AcDbEntity
  8
0
100
AcDbPolyline
 62
7
  6
CONTINUOUS
 90
3
 70
0
 10
22.4213664786
 20
133.5703647983
 10
24.8327839105
 20
143.1377400623
 10
31.3583738749
 20
152.0813723624
  0
LINE
  5
21F
100
AcDbEntity
  8
0
100
AcDbLine
 62
7
  6
CONTINUOUS
 10
147.9553448384
 20
51.4108682789
 11
131.7704826722
 21
53.3969988416
  0
LINE
  5
220
100
AcDbEntity
  8
0
100
AcDbLine
 62
7
  6
CONTINUOUS
 10
147.8418848775
 20
51.615790527
 11
141.8907923913
 21
52.3460807542
  0
LINE
  5
221
100
AcDbEntity
  8
0
100
AcDbLine
 62
7
  6
CONTINUOUS
 10
147.8692388598
 20
51.8386965342
 11
131.6843766937
 21
53.8248270969
  0
LINE
  5
222
100
AcDbEntity
  8
0
100
AcDbLine
 62
7
  6
CONTINUOUS
 10
30.2013168748
 20
39.8461973622
 11
30.2013168748
 21
38.6214437366
  0
LINE
  5
223
100
AcDbEntity
  8
0
100
AcDbLine
 62
7
  6
CONTINUOUS
 10
31.2013168748
 20
40.6626997794
 11
31.2013168748
 21
48.8277239507
  0
LINE
  5
224
100
AcDbEntity
  8
0
100
AcDbLine
 62
7
  6
CONTINUOUS
 10
33.3245279016
 20
154.0114319889
 11
32.7377008847
 21
140.2946784943
  0
LWPOLYLINE
  5
225
100
AcDbEntity
  8
0
100
AcDbPolyline
 62
7
  6
CONTINUOUS
 90
10
 70
0
 10
32.9093911316
 20
144.3078420451
 10
31.9116086159
 20
142.534881107
 10
31.9116814834
 20
132.4302810688
 10
37.3201448552
 20
122.820248358
 10
47.6075806534
 20
114.6454799335
 10
61.7669829854
 20
108.7061790856
 10
78.4123308965
 20
105.5837259629
 10
95.9142617582
 20
105.5837680323
 10
112.5595646348
 20
108.706301176
 10
126.7188813058
 20
114.6456700937
  0
LINE
  5
226
100
AcDbEntity
  8
0
100
AcDbLine
 62
7
  6
CONTINUOUS
 10
139.4565494596
 20
61.0360865891
 11
147.8692388598
 21
60.0037207055
  0
LINE
  5
227
100
AcDbEntity
  8
0
100
AcDbLine
 62
7
  6
CONTINUOUS
 10
140.995208691
 20
62.2540116013
 11
148.0771464782
 21
61.3849493296
  0
LINE
  5
228
100
AcDbEntity
  8
0
100
AcDbLine
 62
7
  6
CONTINUOUS
 10
34.2013168748
 20
50.0524775764
 11
34.2013168748
 21
50.4607287849
  0
LINE
  5
229
100
AcDbEntity
  8
0
100
AcDbLine
 62
7
  6
CONTINUOUS
 10
38.2013168748
 20
32.6683727724
 11
38.2013168748
 21
21.5565432185
  0
LINE
  5
22A
100
AcDbEntity
  8
0
100
AcDbLine
 62
7
  6
CONTINUOUS
 10
30.6793238914
 20
151.1507019711
 11
33.2894959969
 21
153.1925807989
  0
LINE
  5
22B
100
AcDbEntity
  8
0
100
AcDbLine
 62
7
  6
CONTINUOUS
 10
31.3583738749
 20
152.0813723624
 11
33.5431494422
 21
153.7199328283
  0
LINE
  5
22C
100
AcDbEntity
  8
0
100
AcDbLine
 62
7
  6
CONTINUOUS
 10
72.8354499402
 20
42.7407519265
 11
72.6363384721
 21
43.1950625114
  0
LINE
  5
22D
100
AcDbEntity
  8
0
100
AcDbLine
 62
7
  6
CONTINUOUS
 10
44.2013168748
 20
32.584788944
 11
44.2013168748
 21
21.5565432185
  0
LINE
  5
22E
100
AcDbEntity
  8
0
100
AcDbLine
 62
7
  6
CONTINUOUS
 10
47.8926538784
 20
36.3722285501
 11
47.8926538784
 21
44.5372527214
  0
LINE
  5
22F
100
AcDbEntity
  8
0
100
AcDbLine
 62
7
  6
CONTINUOUS
 10
48.2013168748
 20
50.0524775764
 11
48.2013168748
 21
50.4607287849
  0
LINE
  5
230
100
AcDbEntity
  8
0
100
AcDbLine
 62
7
  6
CONTINUOUS
 10
152.7294323565
 20
71.4092558509
 11
148.2507236651
 21
72.249403982
  0
LINE
  5
231
100
AcDbEntity
  8
0
100
AcDbLine
 62
7
  6
CONTINUOUS
 10
152.9138036234
 20
71.5756101049
 11
148.3072590552
 21
72.4397386018
  0
LWPOLYLINE
  5
232
100
AcDbEntity
  8
0
100
AcDbPolyline
 62
7
  6
CONTINUOUS
 90
5
 70
0
 10
117.5846920392
 20
193.4583627722
 10
122.1751145283
 20
196.5872928246
 10
128.4045873386
 20
203.9492679485
 10
130.1467499894
 20
212.0763172706
 10
127.2029176592
 20
220.1091628332
  0
LWPOLYLINE
  5
233
100
AcDbEntity
  8
0
100
AcDbPolyline
 62
7
  6
CONTINUOUS
 90
5
 70
0
 10
118.0238508694
 20
192.9687002197
 10
122.6824258888
 20
196.1443212284
 10
128.9923039311
 20
203.5961889519
 10
130.7693350279
 20
211.8271603613
 10
127.8209502864
 20
219.9452819876
  0
LINE
  5
234
100
AcDbEntity
  8
0
100
AcDbLine
 62
7
  6
CONTINUOUS
 10
60.1889993667
 20
48.1330908116
 11
60.1889993667
 21
42.764427658
  0
LINE
  5
235
100
AcDbEntity
  8
0
100
AcDbLine
 62
7
  6
CONTINUOUS
 10
72.6363384721
 20
43.1950625114
 11
72.6363384721
 21
45.7562754654
  0
LINE
  5
236
100
AcDbEntity
  8
0
100
AcDbLine
 62
7
  6
CONTINUOUS
 10
47.6847649622
 20
35.9140027448
 11
47.8926538784
 21
36.3722285501
  0
LINE
  5
237
100
AcDbEntity
  8
0
100
AcDbLine
 62
7
  6
CONTINUOUS
 10
60.1889993667
 20
42.764427658
 11
59.9811104505
 21
42.3062018527
  0
LWPOLYLINE
  5
238
100
AcDbEntity
  8
0
100
AcDbPolyline
 62
7
  6
CONTINUOUS
 90
5
 70
0
 10
126.7188813058
 20
114.6456700937
 10
137.006199202
 20
122.8204879738
 10
142.4145239715
 20
132.4305466849
 10
142.414451104
 20
142.5351467232
 10
141.4167374781
 20
144.3079350222
  0
LINE
  5
239
100
AcDbEntity
  8
0
100
AcDbLine
 62
7
  6
CONTINUOUS
 10
40.0905492329
 20
57.0688607053
 11
33.9732130802
 21
53.146371933
  0
LINE
  5
23A
100
AcDbEntity
  8
0
100
AcDbLine
 62
7
  6
CONTINUOUS
 10
40.3829501857
 20
56.8849354163
 11
34.5129883729
 21
53.121065207
  0
LINE
  5
23B
100
AcDbEntity
  8
0
100
AcDbLine
 62
7
  6
CONTINUOUS
 10
131.6843766937
 20
53.8248270969
 11
131.6843766937
 21
54.986086817
  0
LINE
  5
23C
100
AcDbEntity
  8
0
100
AcDbLine
 62
7
  6
CONTINUOUS
 10
141.0016046859
 20
154.0114319889
 11
141.5884317028
 21
140.2946784943
  0
LINE
  5
23D
100
AcDbEntity
  8
0
100
AcDbLine
 62
7
  6
CONTINUOUS
 10
47.2235201781
 20
45.7828022614
 11
55.0957611779
 21
49.8751508331
  0
LINE
  5
23E
100
AcDbEntity
  8
0
100
AcDbLine
 62
7
  6
CONTINUOUS
 10
137.6533584126
 20
156.1180643323
 11
146.0549652459
 21
148.3984490102
  0
LINE
  5
23F
100
AcDbEntity
  8
0
100
AcDbLine
 62
7
  6
CONTINUOUS
 10
151.9047661089
 20
133.5703647983
 11
152.151923151
 21
125.8650898145
  0
LINE
  5
240
100
AcDbEntity
  8
0
100
AcDbLine
 62
7
  6
CONTINUOUS
 10
146.9483150438
 20
49.3103305211
 11
146.9483150438
 21
38.3798020432
  0
LINE
  5
241
100
AcDbEntity
  8
0
100
AcDbLine
 62
7
  6
CONTINUOUS
 10
147.8692388598
 20
60.0037207055
 11
147.8692388598
 21
51.8386965342
  0
LINE
  5
242
100
AcDbEntity
  8
0
100
AcDbLine
 62
7
  6
CONTINUOUS
 10
150.8049111239
 20
80.8484478306
 11
152.151923151
 21
122.8423881457
  0
LWPOLYLINE
  5
243
100
AcDbEntity
  8
0
100
AcDbPolyline
 62
7
  6
CONTINUOUS
 90
4
 70
0
 10
151.8197754947
 20
123.5797831187
 10
151.0452321289
 20
118.2405391175
 10
144.6620577055
 20
107.6693951545
 10
133.1251984283
 20
98.6345923534
  0
LINE
  5
244
100
AcDbEntity
  8
0
100
AcDbLine
 62
7
  6
CONTINUOUS
 10
47.8926538784
 20
44.5372527214
 11
56.9445068287
 21
49.2428171843
  0
LINE
  5
245
100
AcDbEntity
  8
0
100
AcDbLine
 62
7
  6
CONTINUOUS
 10
60.1889993667
 20
42.764427658
 11
47.8926538784
 21
36.3722285501
  0
LINE
  5
246
100
AcDbEntity
  8
0
100
AcDbLine
 62
7
  6
CONTINUOUS
 10
51.9235631185
 20
38.4280691375
 11
47.9088639409
 21
36.3410460846
  0
LWPOLYLINE
  5
247
100
AcDbEntity
  8
0
100
AcDbPolyline
 62
7
  6
CONTINUOUS
 90
5
 70
0
 10
146.0549652459
 20
148.3984490102
 10
151.0121693177
 20
137.7174893027
 10
150.2961003886
 20
126.6674647118
 10
143.9703843255
 20
116.2302184148
 10
132.5970887604
 20
107.3331455481
  0
LINE
  5
248
100
AcDbEntity
  8
0
100
AcDbLine
 62
7
  6
CONTINUOUS
 10
152.9483150438
 20
49.4424349176
 11
152.9483150438
 21
38.3798020432
  0
LINE
  5
249
100
AcDbEntity
  8
0
100
AcDbLine
 62
7
  6
CONTINUOUS
 10
156.9483150438
 20
66.875736401
 11
156.9483150438
 21
67.2839876095
  0
LINE
  5
24A
100
AcDbEntity
  8
0
100
AcDbLine
 62
7
  6
CONTINUOUS
 10
159.9483150438
 20
57.485958604
 11
159.9483150438
 21
65.6509827753
  0
LINE
  5
24B
100
AcDbEntity
  8
0
100
AcDbLine
 62
7
  6
CONTINUOUS
 10
160.9483150438
 20
56.6694561869
 11
160.9483150438
 21
55.4447025612
  0
LINE
  5
24C
100
AcDbEntity
  8
0
100
AcDbLine
 62
7
  6
CONTINUOUS
 10
59.9811104505
 20
42.3062018527
 11
47.6847649622
 21
35.9140027448
  0
LINE
  5
24D
100
AcDbEntity
  8
0
100
AcDbLine
 62
7
  6
CONTINUOUS
 10
152.9138036234
 20
71.5756101049
 11
152.7294323565
 21
71.4092558509
  0
LINE
  5
24E
100
AcDbEntity
  8
0
100
AcDbLine
 62
7
  6
CONTINUOUS
 10
131.9656801539
 20
55.1066924097
 11
117.0472160197
 21
48.7105741094
  0
LINE
  5
24F
100
AcDbEntity
  8
0
100
AcDbLine
 62
7
  6
CONTINUOUS
 10
131.8400365072
 20
55.4015602833
 11
116.9062370487
 21
49.0382457593
  0
LWPOLYLINE
  5
250
100
AcDbEntity
  8
0
100
AcDbPolyline
 62
7
  6
CONTINUOUS
 90
3
 70
0
 10
127.2029176592
 20
220.1091628332
 10
119.933214107
 20
227.1156555015
 10
117.8563347127
 20
228.3104300466
  0
LWPOLYLINE
  5
251
100
AcDbEntity
  8
0
100
AcDbPolyline
 62
7
  6
CONTINUOUS
 90
3
 70
0
 10
127.8209502864
 20
219.9452819876
 10
120.4666529422
 20
227.070829387
 10
118.0243841331
 20
228.6025507482
  0
LINE
  5
252
100
AcDbEntity
  8
0
100
AcDbLine
 62
7
  6
CONTINUOUS
 10
118.0243841331
 20
228.6025507482
 11
121.9870704034
 21
226.3146273508
  0
ARC
  5
253
100
AcDbEntity
  8
0
100
AcDbCircle
 62
7
  6
CONTINUOUS
 10
68.2200536196
 20
31.381016651
 40
12.2615443043
100
AcDbArc
 50
67.8883703263
 51
69.1500494007
  0
ARC
  5
254
100
AcDbEntity
  8
0
100
AcDbCircle
 62
7
  6
CONTINUOUS
 10
76.9529703163
 20
53.8195974079
 40
11.4679576318
100
AcDbArc
 50
247.8886328314
 51
249.2404242675
  0
ARC
  5
255
100
AcDbEntity
  8
0
100
AcDbCircle
 62
7
  6
CONTINUOUS
 10
42.8230836238
 20
46.1702364143
 40
11.0321182671
100
AcDbArc
 50
293.7617040049
 51
295.7870408165
  0
ARC
  5
256
100
AcDbEntity
  8
0
100
AcDbCircle
 62
7
  6
CONTINUOUS
 10
64.7842971977
 20
33.0631867457
 40
10.4165220298
100
AcDbArc
 50
115.8049428983
 51
117.4589074656
  0
ARC
  5
257
100
AcDbEntity
  8
0
100
AcDbCircle
 62
7
  6
CONTINUOUS
 10
42.8844826624
 20
45.1525569061
 40
10.4112243828
100
AcDbArc
 50
295.3416301285
 51
297.4560444418
  0
ARC
  5
258
100
AcDbEntity
  8
0
100
AcDbCircle
 62
7
  6
CONTINUOUS
 10
43.1069335512
 20
45.5813858404
 40
10.3784245938
100
AcDbArc
 50
295.790258325
 51
297.4595344623
  0
ARC
  5
259
100
AcDbEntity
  8
0
100
AcDbCircle
 62
7
  6
CONTINUOUS
 10
80.2341411071
 20
51.75188815
 40
9.1789267214
100
AcDbArc
 50
298.0397227896
 51
299.9890332117
  0
ARC
  5
25A
100
AcDbEntity
  8
0
100
AcDbCircle
 62
7
  6
CONTINUOUS
 10
80.2789046828
 20
50.8575388431
 40
8.6749139675
100
AcDbArc
 50
299.9893938037
 51
303.2031060424
  0
ARC
  5
25B
100
AcDbEntity
  8
0
100
AcDbCircle
 62
7
  6
CONTINUOUS
 10
38.5653383999
 20
46.7988616814
 40
7.5094472607
100
AcDbArc
 50
122.6586996015
 51
125.6289353004
  0
ARC
  5
25C
100
AcDbEntity
  8
0
100
AcDbCircle
 62
7
  6
CONTINUOUS
 10
39.7264140924
 20
47.7060892236
 40
6.7442977413
100
AcDbArc
 50
118.2547429399
 51
119.9917645299
  0
ARC
  5
25D
100
AcDbEntity
  8
0
100
AcDbCircle
 62
7
  6
CONTINUOUS
 10
39.56773028
 20
48.3897852856
 40
5.9264135629
100
AcDbArc
 50
119.9935235681
 51
121.7100160997
  0
ARC
  5
25E
100
AcDbEntity
  8
0
100
AcDbCircle
 62
7
  6
CONTINUOUS
 10
45.7973679947
 20
49.5355813973
 40
2.9197789305
100
AcDbArc
 50
18.812583892
 51
25.488666664
  0
ARC
  5
25F
100
AcDbEntity
  8
0
100
AcDbCircle
 62
7
  6
CONTINUOUS
 10
36.568807905
 20
49.55043235
 40
2.8804581047
100
AcDbArc
 50
155.4861135458
 51
161.3658119701
  0
ARC
  5
260
100
AcDbEntity
  8
0
100
AcDbCircle
 62
7
  6
CONTINUOUS
 10
45.8442026151
 20
50.4624414293
 40
2.3571148808
100
AcDbArc
 50
350.4046002758
 51
359.9583697401
  0
ARC
  5
261
100
AcDbEntity
  8
0
100
AcDbCircle
 62
7
  6
CONTINUOUS
 10
-540.6241990588
 20
124.8883719421
 40
682.2476742042
100
AcDbArc
 50
2.4465244244
 51
6.974234182
  0
ARC
  5
262
100
AcDbEntity
  8
0
100
AcDbCircle
 62
7
  6
CONTINUOUS
 10
87.1655550066
 20
161.5147069105
 40
74.3458460773
100
AcDbArc
 50
87.6342039519
 51
90.222516137
  0
ARC
  5
263
100
AcDbEntity
  8
0
100
AcDbCircle
 62
7
  6
CONTINUOUS
 10
87.1407190799
 20
162.4350476837
 40
73.4254188695
100
AcDbArc
 50
90.2059252489
 51
98.4652015771
  0
ARC
  5
264
100
AcDbEntity
  8
0
100
AcDbCircle
 62
7
  6
CONTINUOUS
 10
86.500172778
 20
167.3062243081
 40
68.5130684134
100
AcDbArc
 50
98.5350404224
 51
101.2614901611
  0
ARC
  5
265
100
AcDbEntity
  8
0
100
AcDbCircle
 62
7
  6
CONTINUOUS
 10
81.2385718462
 20
185.0223838716
 40
49.9961805806
100
AcDbArc
 50
110.9720212806
 51
115.6848977841
  0
ARC
  5
266
100
AcDbEntity
  8
0
100
AcDbCircle
 62
7
  6
CONTINUOUS
 10
78.5853592134
 20
190.6397224482
 40
43.7839461243
100
AcDbArc
 50
115.7419836427
 51
119.9274142194
  0
ARC
  5
267
100
AcDbEntity
  8
0
100
AcDbCircle
 62
7
  6
CONTINUOUS
 10
77.1294598282
 20
192.5279173055
 40
41.655404688
100
AcDbArc
 50
119.4918628596
 51
119.9991605242
  0
ARC
  5
268
100
AcDbEntity
  8
0
100
AcDbCircle
 62
7
  6
CONTINUOUS
 10
76.7864178839
 20
193.8654359762
 40
40.0908904675
100
AcDbArc
 50
119.9992278603
 51
120.52318962
  0
ARC
  5
269
100
AcDbEntity
  8
0
100
AcDbCircle
 62
7
  6
CONTINUOUS
 10
56.8448301714
 20
126.6461422187
 40
35.913922538
100
AcDbArc
 50
136.9280553038
 51
139.7662763377
  0
ARC
  5
26A
100
AcDbEntity
  8
0
100
AcDbCircle
 62
7
  6
CONTINUOUS
 10
44.028817003
 20
125.1823775305
 40
21.8660453594
100
AcDbArc
 50
184.2913757348
 51
186.102430627
  0
ARC
  5
26B
100
AcDbEntity
  8
0
100
AcDbCircle
 62
7
  6
CONTINUOUS
 10
43.8924998185
 20
125.1723913328
 40
21.7293631006
100
AcDbArc
 50
180.0017183511
 51
184.2920144377
  0
ARC
  5
26C
100
AcDbEntity
  8
0
100
AcDbCircle
 62
7
  6
CONTINUOUS
 10
43.8491724153
 20
123.5383581311
 40
21.6860353196
100
AcDbArc
 50
180.027059343
 51
181.8391063736
  0
ARC
  5
26D
100
AcDbEntity
  8
0
100
AcDbCircle
 62
7
  6
CONTINUOUS
 10
43.8325238326
 20
125.1712147305
 40
21.6693871113
100
AcDbArc
 50
178.1650202116
 51
179.9986120665
  0
ARC
  5
26E
100
AcDbEntity
  8
0
100
AcDbCircle
 62
7
  6
CONTINUOUS
 10
43.8319791508
 20
123.5382402271
 40
21.6688420017
100
AcDbArc
 50
178.9702223068
 51
180.0267690569
  0
ARC
  5
26F
100
AcDbEntity
  8
0
100
AcDbCircle
 62
7
  6
CONTINUOUS
 10
43.8812504544
 20
123.5383495969
 40
21.6681137916
100
AcDbArc
 50
180.0029430113
 51
181.8145462596
  0
ARC
  5
270
100
AcDbEntity
  8
0
100
AcDbCircle
 62
7
  6
CONTINUOUS
 10
102.1208089397
 20
107.5952835391
 40
60.1042583864
100
AcDbArc
 50
299.6806850802
 51
299.999572555
  0
ARC
  5
271
100
AcDbEntity
  8
0
100
AcDbCircle
 62
7
  6
CONTINUOUS
 10
102.2282875339
 20
106.6146041032
 40
59.4758563356
100
AcDbArc
 50
299.9994042716
 51
300.4452185762
  0
ARC
  5
272
100
AcDbEntity
  8
0
100
AcDbCircle
 62
7
  6
CONTINUOUS
 10
129.6043971482
 20
35.628366641
 40
17.9001736521
100
AcDbArc
 50
83.049650602
 51
95.5514173632
  0
ARC
  5
273
100
AcDbEntity
  8
0
100
AcDbCircle
 62
7
  6
CONTINUOUS
 10
129.6070353464
 20
36.8149747332
 40
17.1362313391
100
AcDbArc
 50
83.0371881898
 51
92.3527144596
  0
ARC
  5
274
100
AcDbEntity
  8
0
100
AcDbCircle
 62
7
  6
CONTINUOUS
 10
149.8822570342
 20
68.2442938245
 40
16.5286377123
100
AcDbArc
 50
263.0045962691
 51
263.6880242118
  0
ARC
  5
275
100
AcDbEntity
  8
0
100
AcDbCircle
 62
7
  6
CONTINUOUS
 10
149.8864171935
 20
67.1476456903
 40
15.8548164208
100
AcDbArc
 50
263.0041641408
 51
263.4371183374
  0
ARC
  5
276
100
AcDbEntity
  8
0
100
AcDbCircle
 62
7
  6
CONTINUOUS
 10
150.0886915641
 20
75.6002583313
 40
14.3200889888
100
AcDbArc
 50
278.7225261966
 51
280.7887594449
  0
ARC
  5
277
100
AcDbEntity
  8
0
100
AcDbCircle
 62
7
  6
CONTINUOUS
 10
150.1573222773
 20
57.6973608202
 40
13.9510506985
100
AcDbArc
 50
78.8686975962
 51
79.3757843616
  0
ARC
  5
278
100
AcDbEntity
  8
0
100
AcDbCircle
 62
7
  6
CONTINUOUS
 10
150.0354310431
 20
60.596835952
 40
10.9346591068
100
AcDbArc
 50
81.2065092463
 51
81.5645742848
  0
ARC
  5
279
100
AcDbEntity
  8
0
100
AcDbCircle
 62
7
  6
CONTINUOUS
 10
150.0615793921
 20
60.7602716781
 40
10.7691470869
100
AcDbArc
 50
78.910642208
 51
81.2110634394
  0
ARC
  5
27A
100
AcDbEntity
  8
0
100
AcDbCircle
 62
7
  6
CONTINUOUS
 10
150.043600004
 20
61.0581102175
 40
10.3810104777
100
AcDbArc
 50
80.9479805715
 51
81.206338267
  0
ARC
  5
27B
100
AcDbEntity
  8
0
100
AcDbCircle
 62
7
  6
CONTINUOUS
 10
150.1555073975
 20
61.2233574793
 40
10.2966422195
100
AcDbArc
 50
75.7063581648
 51
78.9279168848
  0
ARC
  5
27C
100
AcDbEntity
  8
0
100
AcDbCircle
 62
7
  6
CONTINUOUS
 10
150.2406132408
 20
61.562592885
 40
9.9468966537
100
AcDbArc
 50
74.9652288066
 51
75.6989673087
  0
ARC
  5
27D
100
AcDbEntity
  8
0
100
AcDbCircle
 62
7
  6
CONTINUOUS
 10
149.914732485
 20
41.5116602744
 40
4.8619552423
100
AcDbArc
 50
261.2113019611
 51
262.8933908241
  0
ARC
  5
27E
100
AcDbEntity
  8
0
100
AcDbCircle
 62
7
  6
CONTINUOUS
 10
149.9013793499
 20
40.2672075836
 40
3.759823164
100
AcDbArc
 50
258.0802701575
 51
261.2151014056
  0
ARC
  5
27F
100
AcDbEntity
  8
0
100
AcDbCircle
 62
7
  6
CONTINUOUS
 10
154.5550970716
 20
66.3632538237
 40
2.9081872521
100
AcDbArc
 50
18.7566217536
 51
25.0432462159
  0
ARC
  5
280
100
AcDbEntity
  8
0
100
AcDbCircle
 62
7
  6
CONTINUOUS
 10
154.5913984385
 20
67.2855005984
 40
2.356917091
100
AcDbArc
 50
350.4086951489
 51
359.9632198005
  0
ARC
  5
281
100
AcDbEntity
  8
0
100
AcDbCircle
 62
7
  6
CONTINUOUS
 10
715.6357309199
 20
124.831896861
 40
682.9348600229
100
AcDbArc
 50
173.0280449487
 51
177.5511964449
  0
ARC
  5
282
100
AcDbEntity
  8
0
100
AcDbCircle
 62
7
  6
CONTINUOUS
 10
88.4934390467
 20
170.6737050457
 40
65.0801444589
100
AcDbArc
 50
76.4882303677
 51
78.9743947094
  0
ARC
  5
283
100
AcDbEntity
  8
0
100
AcDbCircle
 62
7
  6
CONTINUOUS
 10
94.8321194843
 20
188.8099838052
 40
45.826912515
100
AcDbArc
 50
63.097741632
 51
65.5312955539
  0
ARC
  5
284
100
AcDbEntity
  8
0
100
AcDbCircle
 62
7
  6
CONTINUOUS
 10
111.9148696449
 20
120.6014898689
 40
44.2207546153
100
AcDbArc
 50
48.6504589371
 51
48.9373310772
  0
ARC
  5
285
100
AcDbEntity
  8
0
100
AcDbCircle
 62
7
  6
CONTINUOUS
 10
96.6887997727
 20
192.4000735853
 40
41.7852632276
100
AcDbArc
 50
59.4027362982
 51
63.1407181533
  0
ARC
  5
286
100
AcDbEntity
  8
0
100
AcDbCircle
 62
7
  6
CONTINUOUS
 10
130.4542596262
 20
123.5356855756
 40
21.7087358081
100
AcDbArc
 50
0.0002907233
 51
3.2964227241
  0
ARC
  5
287
100
AcDbEntity
  8
0
100
AcDbCircle
 62
7
  6
CONTINUOUS
 10
130.4777483549
 20
125.1691197141
 40
21.6852475633
100
AcDbArc
 50
355.777825348
 51
1.8391735989
  0
ARC
  5
288
100
AcDbEntity
  8
0
100
AcDbCircle
 62
7
  6
CONTINUOUS
 10
130.492396253
 20
123.5362633285
 40
21.6705991861
100
AcDbArc
 50
358.1651225666
 51
359.9987636905
  0
ARC
  5
289
100
AcDbEntity
  8
0
100
AcDbCircle
 62
7
  6
CONTINUOUS
 10
130.4604948308
 20
123.5362600221
 40
21.6525010873
100
AcDbArc
 50
358.2238595599
 51
0.0025839522
  0
SPLINE
  5
28A
100
AcDbEntity
  8
0
100
AcDbSpline
 62
7
  6
CONTINUOUS
 70
0
 71
3
 72
9
 73
5
 74
0
 42
0.0000001
 43
0.0000001
 44
0.0000000001
 40
0.0
 40
0.0
 40
0.0
 40
0.0
 40
0.5013038004
 40
1.0
 40
1.0
 40
1.0
 40
1.0
 10
151.639487177
 20
71.4132019638
 30
0.0
 10
151.0151088415
 20
71.5057990598
 30
0.0
 10
149.7522936077
 20
71.5853971835
 30
0.0
 10
148.4926178072
 20
71.4638113449
 30
0.0
 10
147.8751684337
 20
71.3495980363
 30
0.0
  0
SPLINE
  5
28B
100
AcDbEntity
  8
0
100
AcDbSpline
 62
7
  6
CONTINUOUS
 70
0
 71
3
 72
12
 73
8
 74
0
 42
0.0000001
 43
0.0000001
 44
0.0000000001
 40
0.0
 40
0.0
 40
0.0
 40
0.0
 40
0.1065694233
 40
0.2150828914
 40
0.4465959479
 40
0.7077349627
 40
1.0
 40
1.0
 40
1.0
 40
1.0
 10
156.9483150438
 20
67.2839876095
 30
0.0
 10
156.9483150438
 20
67.4992564994
 30
0.0
 10
156.8945319666
 20
67.9354175472
 30
0.0
 10
156.5765886738
 20
68.787178284
 30
0.0
 10
155.7913130628
 20
69.7542216401
 30
0.0
 10
154.4492270304
 20
70.6280440642
 30
0.0
 10
153.3910496033
 20
71.0158376566
 30
0.0
 10
152.8208898628
 20
71.1689931262
 30
0.0
  0
SPLINE
  5
28C
100
AcDbEntity
  8
0
100
AcDbSpline
 62
7
  6
CONTINUOUS
 70
0
 71
3
 72
9
 73
5
 74
0
 42
0.0000001
 43
0.0000001
 44
0.0000000001
 40
0.0
 40
0.0
 40
0.0
 40
0.0
 40
0.5320860746
 40
1.0
 40
1.0
 40
1.0
 40
1.0
 10
147.1013497846
 20
49.3103305211
 30
0.0
 10
145.9788034183
 20
49.4839836737
 30
0.0
 10
143.8937056354
 20
50.0085039064
 30
0.0
 10
141.9698667709
 20
51.0072755731
 30
0.0
 10
141.1757517445
 20
51.6132377169
 30
0.0
  0
SPLINE
  5
28D
100
AcDbEntity
  8
0
100
AcDbSpline
 62
7
  6
CONTINUOUS
 70
0
 71
3
 72
9
 73
5
 74
0
 42
0.0000001
 43
0.0000001
 44
0.0000000001
 40
0.0
 40
0.0
 40
0.0
 40
0.0
 40
0.25655415
 40
1.0
 40
1.0
 40
1.0
 40
1.0
 10
141.1757517445
 20
51.6132377169
 30
0.0
 10
141.1095771966
 20
51.6637332617
 30
0.0
 10
140.8546284267
 20
51.8644184382
 30
0.0
 10
140.6119662716
 20
52.0808763167
 30
0.0
 10
140.4407405147
 20
52.2507753199
 30
0.0
  0
SPLINE
  5
28E
100
AcDbEntity
  8
0
100
AcDbSpline
 62
7
  6
CONTINUOUS
 70
0
 71
3
 72
9
 73
5
 74
0
 42
0.0000001
 43
0.0000001
 44
0.0000000001
 40
0.0
 40
0.0
 40
0.0
 40
0.0
 40
0.264820799
 40
1.0
 40
1.0
 40
1.0
 40
1.0
 10
149.1248212497
 20
36.5884540254
 30
0.0
 10
149.0442424838
 20
36.6054774216
 30
0.0
 10
148.7423932274
 20
36.6798621841
 30
0.0
 10
148.4492366521
 20
36.7958296664
 30
0.0
 10
148.2512314144
 20
36.9101453603
 30
0.0
  0
SPLINE
  5
28F
100
AcDbEntity
  8
0
100
AcDbSpline
 62
7
  6
CONTINUOUS
 70
0
 71
3
 72
15
 73
11
 74
0
 42
0.0000001
 43
0.0000001
 44
0.0000000001
 40
0.0
 40
0.0
 40
0.0
 40
0.0
 40
0.1149419037
 40
0.2383699482
 40
0.367919745
 40
0.500619836
 40
0.6332332743
 40
0.7625308476
 40
0.8855636336
 40
1.0
 40
1.0
 40
1.0
 40
1.0
 10
56.6225062949
 20
228.7858488033
 30
0.0
 10
58.7485437713
 20
229.9883381145
 30
0.0
 10
63.3767521027
 20
232.104311102
 30
0.0
 10
70.8882280347
 20
234.3444199809
 30
0.0
 10
78.9890540045
 20
235.7106800057
 30
0.0
 10
87.3858196869
 20
236.154583639
 30
0.0
 10
95.7744916587
 20
235.6613617241
 30
0.0
 10
103.851437242
 20
234.24751033
 30
0.0
 10
111.3241099162
 20
231.9630681528
 30
0.0
 10
115.9183984988
 20
229.8184768847
 30
0.0
 10
118.024384133
 20
228.6025507482
 30
0.0
  0
SPLINE
  5
290
100
AcDbEntity
  8
0
100
AcDbSpline
 62
7
  6
CONTINUOUS
 70
0
 71
3
 72
13
 73
9
 74
0
 42
0.0000001
 43
0.0000001
 44
0.0000000001
 40
0.0
 40
0.0
 40
0.0
 40
0.0
 40
0.2837042607
 40
0.5419001313
 40
0.6625374065
 40
0.7783772544
 40
0.8904525269
 40
1.0
 40
1.0
 40
1.0
 40
1.0
 10
121.9870704034
 20
226.3146273508
 30
0.0
 10
123.9901010714
 20
225.1581439913
 30
0.0
 10
127.6632628621
 20
222.6630263855
 30
0.0
 10
131.5212556567
 20
218.8214131797
 30
0.0
 10
133.8424417419
 20
215.5122408038
 30
0.0
 10
135.1705813223
 20
212.9904374923
 30
0.0
 10
136.1081514177
 20
210.3945071836
 30
0.0
 10
136.466963061
 20
208.6154029356
 30
0.0
 10
136.575426171
 20
207.7289208641
 30
0.0
  0
SPLINE
  5
291
100
AcDbEntity
  8
0
100
AcDbSpline
 62
7
  6
CONTINUOUS
 70
0
 71
3
 72
13
 73
9
 74
0
 42
0.0000001
 43
0.0000001
 44
0.0000000001
 40
0.0
 40
0.0
 40
0.0
 40
0.0
 40
0.1095474601
 40
0.2216226674
 40
0.3374625426
 40
0.4580998496
 40
0.7162957686
 40
1.0
 40
1.0
 40
1.0
 40
1.0
 10
37.7507064165
 20
207.7289208641
 30
0.0
 10
37.8591695137
 20
208.615402831
 30
0.0
 10
38.2179804974
 20
210.3945065844
 30
0.0
 10
39.155551173
 20
212.9904362463
 30
0.0
 10
40.4836901129
 20
215.5122397982
 30
0.0
 10
42.8048766626
 20
218.8214129757
 30
0.0
 10
46.6628698053
 20
222.6630264166
 30
0.0
 10
50.3360317223
 20
225.1581441103
 30
0.0
 10
52.339062184
 20
226.3146273508
 30
0.0
  0
SPLINE
  5
292
100
AcDbEntity
  8
0
100
AcDbSpline
 62
7
  6
CONTINUOUS
 70
0
 71
3
 72
11
 73
7
 74
0
 42
0.0000001
 43
0.0000001
 44
0.0000000001
 40
0.0
 40
0.0
 40
0.0
 40
0.0
 40
0.2742459311
 40
0.5290844362
 40
0.7688855077
 40
1.0
 40
1.0
 40
1.0
 40
1.0
 10
141.1293556321
 20
153.7977087387
 30
0.0
 10
142.7446578892
 20
152.3761454484
 30
0.0
 10
145.6687680772
 20
149.3992907383
 30
0.0
 10
149.0855930612
 20
144.3827548253
 30
0.0
 10
151.268021172
 20
139.0748827609
 30
0.0
 10
151.8466306552
 20
135.3827738362
 30
0.0
 10
151.9047661089
 20
133.5703647983
 30
0.0
  0
SPLINE
  5
293
100
AcDbEntity
  8
0
100
AcDbSpline
 62
7
  6
CONTINUOUS
 70
0
 71
3
 72
14
 73
10
 74
0
 42
0.0000001
 43
0.0000001
 44
0.0000000001
 40
0.0
 40
0.0
 40
0.0
 40
0.0
 40
0.1095580761
 40
0.2211337718
 40
0.3362619052
 40
0.4562500947
 40
0.5820985119
 40
0.7145052607
 40
1.0
 40
1.0
 40
1.0
 40
1.0
 10
150.8049111239
 20
80.8484478306
 30
0.0
 10
150.7664878595
 20
79.6505785927
 30
0.0
 10
150.4883577109
 20
77.2348187088
 30
0.0
 10
149.4847741771
 20
73.6810804379
 30
0.0
 10
147.9088268568
 20
70.2164209954
 30
0.0
 10
145.7835173973
 20
66.8748867734
 30
0.0
 10
143.134706198
 20
63.682848786
 30
0.0
 10
138.835666326
 20
59.558250971
 30
0.0
 10
135.0580145213
 20
56.9221763366
 30
0.0
 10
132.3655552463
 20
55.3396337796
 30
0.0
  0
SPLINE
  5
294
100
AcDbEntity
  8
0
100
AcDbSpline
 62
7
  6
CONTINUOUS
 70
0
 71
3
 72
9
 73
5
 74
0
 42
0.0000001
 43
0.0000001
 44
0.0000000001
 40
0.0
 40
0.0
 40
0.0
 40
0.0
 40
0.4848841067
 40
1.0
 40
1.0
 40
1.0
 40
1.0
 10
48.2013168748
 20
50.4607287849
 30
0.0
 10
48.2013168748
 20
50.8323486843
 30
0.0
 10
48.0328858023
 20
51.605442266
 30
0.0
 10
47.5905788909
 20
52.2509853839
 30
0.0
 10
47.3249276413
 20
52.5430272084
 30
0.0
  0
SPLINE
  5
295
100
AcDbEntity
  8
0
100
AcDbSpline
 62
7
  6
CONTINUOUS
 70
0
 71
3
 72
11
 73
7
 74
0
 42
0.0000001
 43
0.0000001
 44
0.0000000001
 40
0.0
 40
0.0
 40
0.0
 40
0.0
 40
0.2477039261
 40
0.5081256965
 40
0.7640887408
 40
1.0
 40
1.0
 40
1.0
 40
1.0
 10
44.9531474676
 20
54.062547096
 30
0.0
 10
44.2858021514
 20
54.316258211
 30
0.0
 10
42.8503697905
 20
54.6686656479
 30
0.0
 10
40.6381286744
 20
54.7699602854
 30
0.0
 10
38.4791564047
 20
54.4622205978
 30
0.0
 10
37.1326095481
 20
53.9687843053
 30
0.0
 10
36.5337135464
 20
53.6468143685
 30
0.0
  0
SPLINE
  5
296
100
AcDbEntity
  8
0
100
AcDbSpline
 62
7
  6
CONTINUOUS
 70
0
 71
3
 72
17
 73
13
 74
0
 42
0.0000001
 43
0.0000001
 44
0.0000000001
 40
0.0
 40
0.0
 40
0.0
 40
0.0
 40
0.1286912849
 40
0.2702757416
 40
0.4174292486
 40
0.5617753956
 40
0.6954479403
 40
0.8127150257
 40
0.8646784757
 40
0.9125124636
 40
0.9571417968
 40
1.0
 40
1.0
 40
1.0
 40
1.0
 10
48.9795238514
 20
34.1307954368
 30
0.0
 10
48.1652453318
 20
33.6606743206
 30
0.0
 10
46.3216375013
 20
32.9000002173
 30
0.0
 10
43.3169333927
 20
32.2988944252
 30
0.0
 10
40.1389118537
 20
32.2108238263
 30
0.0
 10
37.0468850245
 20
32.6453071524
 30
0.0
 10
34.2915863194
 20
33.5656794452
 30
0.0
 10
32.3752242539
 20
34.7320785377
 30
0.0
 10
31.250650366
 20
35.8607808484
 30
0.0
 10
30.653253636
 20
36.7395104336
 30
0.0
 10
30.2850602293
 20
37.6663768797
 30
0.0
 10
30.2014055689
 20
38.3083124095
 30
0.0
 10
30.2013977564
 20
38.6214437382
 30
0.0
  0
SPLINE
  5
297
100
AcDbEntity
  8
0
100
AcDbSpline
 62
7
  6
CONTINUOUS
 70
0
 71
3
 72
9
 73
5
 74
0
 42
0.0000001
 43
0.0000001
 44
0.0000000001
 40
0.0
 40
0.0
 40
0.0
 40
0.0
 40
0.2566849398
 40
1.0
 40
1.0
 40
1.0
 40
1.0
 10
36.3551047806
 20
53.5473070374
 30
0.0
 10
36.2846813682
 20
53.506648304
 30
0.0
 10
36.0133025223
 20
53.3431950994
 30
0.0
 10
35.7541958415
 20
53.1589827655
 30
0.0
 10
35.5719869796
 20
53.0098121935
 30
0.0
  0
SPLINE
  5
298
100
AcDbEntity
  8
0
100
AcDbSpline
 62
7
  6
CONTINUOUS
 70
0
 71
3
 72
9
 73
5
 74
0
 42
0.0000001
 43
0.0000001
 44
0.0000000001
 40
0.0
 40
0.0
 40
0.0
 40
0.0
 40
0.2561735322
 40
1.0
 40
1.0
 40
1.0
 40
1.0
 10
35.5719869796
 20
53.0098121935
 30
0.0
 10
35.5216189823
 20
52.968576971
 30
0.0
 10
35.3280745177
 20
52.8039248196
 30
0.0
 10
35.1473302613
 20
52.6239920385
 30
0.0
 10
35.0228863489
 20
52.4817322338
 30
0.0
  0
SPLINE
  5
299
100
AcDbEntity
  8
0
100
AcDbSpline
 62
7
  6
CONTINUOUS
 70
0
 71
3
 72
9
 73
5
 74
0
 42
0.0000001
 43
0.0000001
 44
0.0000000001
 40
0.0
 40
0.0
 40
0.0
 40
0.0
 40
0.5142545446
 40
1.0
 40
1.0
 40
1.0
 40
1.0
 10
35.0228863489
 20
52.4817322338
 30
0.0
 10
34.7725423552
 20
52.1955479846
 30
0.0
 10
34.358056666
 20
51.5653440187
 30
0.0
 10
34.2013168748
 20
50.819878077
 30
0.0
 10
34.2013168748
 20
50.4607287849
 30
0.0
  0
SPLINE
  5
29A
100
AcDbEntity
  8
0
100
AcDbSpline
 62
7
  6
CONTINUOUS
 70
0
 71
3
 72
11
 73
7
 74
0
 42
0.0000001
 43
0.0000001
 44
0.0000000001
 40
0.0
 40
0.0
 40
0.0
 40
0.0
 40
0.2372765542
 40
0.5000307234
 40
0.762792247
 40
1.0
 40
1.0
 40
1.0
 40
1.0
 10
42.8983802152
 20
20.0868639574
 30
0.0
 10
42.6574116498
 20
19.9477415218
 30
0.0
 10
42.0970908268
 20
19.744733458
 30
0.0
 10
41.2012221288
 20
19.647601496
 30
0.0
 10
40.3054338905
 20
19.7448015205
 30
0.0
 10
39.7452155071
 20
19.9478523513
 30
0.0
 10
39.5043169097
 20
20.0869346136
 30
0.0
  0
SPLINE
  5
29B
100
AcDbEntity
  8
0
100
AcDbSpline
 62
7
  6
CONTINUOUS
 70
0
 71
3
 72
9
 73
5
 74
0
 42
0.0000001
 43
0.0000001
 44
0.0000000001
 40
0.0
 40
0.0
 40
0.0
 40
0.0
 40
0.5177051066
 40
1.0
 40
1.0
 40
1.0
 40
1.0
 10
31.0740144839
 20
42.3252512172
 30
0.0
 10
30.8020736416
 20
41.9549723253
 30
0.0
 10
30.3630084031
 20
41.1671996529
 30
0.0
 10
30.2013882823
 20
40.2741851826
 30
0.0
 10
30.2013916057
 20
39.8461973608
 30
0.0
  0
SPLINE
  5
29C
100
AcDbEntity
  8
0
100
AcDbSpline
 62
7
  6
CONTINUOUS
 70
0
 71
3
 72
21
 73
17
 74
0
 42
0.0000001
 43
0.0000001
 44
0.0000000001
 40
0.0
 40
0.0
 40
0.0
 40
0.0
 40
0.1406724885
 40
0.2168917776
 40
0.2947003318
 40
0.4474712552
 40
0.5191679229
 40
0.5857327457
 40
0.6462889834
 40
0.7006725484
 40
0.7496970704
 40
0.795343093
 40
0.8405484199
 40
0.8883865574
 40
0.9411855454
 40
1.0
 40
1.0
 40
1.0
 40
1.0
 10
47.2235201781
 20
35.9847732559
 30
0.0
 10
46.3113245534
 20
35.5145466344
 30
0.0
 10
44.7870250897
 20
35.0074328933
 30
0.0
 10
42.6588303717
 20
34.6878511792
 30
0.0
 10
40.4188130605
 20
34.5996513578
 30
0.0
 10
38.2070001019
 20
34.8663636913
 30
0.0
 10
36.1751002772
 20
35.4988170527
 30
0.0
 10
34.8571142304
 20
36.1173265446
 30
0.0
 10
33.7589458397
 20
36.8695665537
 30
0.0
 10
32.9183839757
 20
37.7343822244
 30
0.0
 10
32.3697701099
 20
38.6894338161
 30
0.0
 10
32.1477042141
 20
39.7041876037
 30
0.0
 10
32.274816235
 20
40.7269430886
 30
0.0
 10
32.7358790737
 20
41.7028511589
 30
0.0
 10
33.500017087
 20
42.5942591594
 30
0.0
 10
34.1526805362
 20
43.0900477673
 30
0.0
 10
34.5129883729
 20
43.3230362015
 30
0.0
  0
SPLINE
  5
29D
100
AcDbEntity
  8
0
100
AcDbSpline
 62
7
  6
CONTINUOUS
 70
0
 71
3
 72
11
 73
7
 74
0
 42
0.0000001
 43
0.0000001
 44
0.0000000001
 40
0.0
 40
0.0
 40
0.0
 40
0.0
 40
0.2897836575
 40
0.5490338959
 40
0.7822251794
 40
1.0
 40
1.0
 40
1.0
 40
1.0
 10
39.0799510436
 20
20.3318421185
 30
0.0
 10
38.9482851259
 20
20.407861678
 30
0.0
 10
38.7094890779
 20
20.5723395189
 30
0.0
 10
38.4241583281
 20
20.8723406713
 30
0.0
 10
38.2434509742
 20
21.2040610173
 30
0.0
 10
38.2014201155
 20
21.4422870461
 30
0.0
 10
38.2014255582
 20
21.5565432168
 30
0.0
  0
SPLINE
  5
29E
100
AcDbEntity
  8
0
100
AcDbSpline
 62
7
  6
CONTINUOUS
 70
0
 71
3
 72
24
 73
20
 74
0
 42
0.0000001
 43
0.0000001
 44
0.0000000001
 40
0.0
 40
0.0
 40
0.0
 40
0.0
 40
0.0618034923
 40
0.1274434864
 40
0.1962645988
 40
0.267458995
 40
0.3401091754
 40
0.413235917
 40
0.4858396025
 40
0.55694285
 40
0.6256325549
 40
0.6911051786
 40
0.7527175653
 40
0.8100466298
 40
0.8629606967
 40
0.9117016904
 40
0.9569635907
 40
0.9786776694
 40
1.0
 40
1.0
 40
1.0
 40
1.0
 10
133.1251984283
 20
98.6345923534
 30
0.0
 10
130.8529113789
 20
97.3226946448
 30
0.0
 10
125.9913885356
 20
94.9151541217
 30
0.0
 10
118.1571768787
 20
92.0388580403
 30
0.0
 10
109.6959830498
 20
89.8339778865
 30
0.0
 10
100.7796550154
 20
88.3451337254
 30
0.0
 10
91.5876123583
 20
87.6021147389
 30
0.0
 10
82.3060094232
 20
87.6199324921
 30
0.0
 10
73.1227543667
 20
88.3982446971
 30
0.0
 10
64.2236651923
 20
89.9213094789
 30
0.0
 10
55.7883403882
 20
92.1585318418
 30
0.0
 10
47.9863162912
 20
95.0653919478
 30
0.0
 10
40.9735203008
 20
98.5851907734
 30
0.0
 10
34.8895056696
 20
102.6509125309
 30
0.0
 10
29.8561332762
 20
107.189591362
 30
0.0
 10
25.9795241074
 20
112.1195332941
 30
0.0
 10
23.7608928253
 20
116.5509182812
 30
0.0
 10
22.6905431163
 20
120.1512165118
 30
0.0
 10
22.3828953179
 20
121.957789544
 30
0.0
 10
22.2866770052
 20
122.8578801697
 30
0.0
  0
SPLINE
  5
29F
100
AcDbEntity
  8
0
100
AcDbSpline
 62
7
  6
CONTINUOUS
 70
0
 71
3
 72
11
 73
7
 74
0
 42
0.0000001
 43
0.0000001
 44
0.0000000001
 40
0.0
 40
0.0
 40
0.0
 40
0.0
 40
0.2177416576
 40
0.4508857691
 40
0.7104589349
 40
1.0
 40
1.0
 40
1.0
 40
1.0
 10
44.2012081915
 20
21.5565432203
 30
0.0
 10
44.2012027494
 20
21.4423012363
 30
0.0
 10
44.1592046194
 20
21.2041208454
 30
0.0
 10
43.9785290387
 20
20.8722017141
 30
0.0
 10
43.6929515237
 20
20.5723830232
 30
0.0
 10
43.454206594
 20
20.4077770169
 30
0.0
 10
43.3226460503
 20
20.331820955
 30
0.0
  0
SPLINE
  5
2A0
100
AcDbEntity
  8
0
100
AcDbSpline
 62
7
  6
CONTINUOUS
 70
0
 71
3
 72
11
 73
7
 74
0
 42
0.0000001
 43
0.0000001
 44
0.0000000001
 40
0.0
 40
0.0
 40
0.0
 40
0.0
 40
0.2237047062
 40
0.4610045434
 40
0.7185348604
 40
1.0
 40
1.0
 40
1.0
 40
1.0
 10
52.1763208769
 20
38.1938665265
 30
0.0
 10
52.1379084214
 20
37.8648525543
 30
0.0
 10
51.9655625106
 20
37.1951216721
 30
0.0
 10
51.4541573612
 20
36.2522277444
 30
0.0
 10
50.7034276915
 20
35.3725486022
 30
0.0
 10
50.0841410501
 20
34.8628834849
 30
0.0
 10
49.7446247501
 20
34.6211569666
 30
0.0
  0
SPLINE
  5
2A1
100
AcDbEntity
  8
0
100
AcDbSpline
 62
7
  6
CONTINUOUS
 70
0
 71
3
 72
9
 73
5
 74
0
 42
0.0000001
 43
0.0000001
 44
0.0000000001
 40
0.0
 40
0.0
 40
0.0
 40
0.0
 40
0.2451218975
 40
1.0
 40
1.0
 40
1.0
 40
1.0
 10
49.7446247501
 20
34.6211569666
 30
0.0
 10
49.6841244989
 20
34.578082407
 30
0.0
 10
49.4350992109
 20
34.4054697109
 30
0.0
 10
49.1775972896
 20
34.245152507
 30
0.0
 10
48.9795238514
 20
34.1307954368
 30
0.0
  0
SPLINE
  5
2A2
100
AcDbEntity
  8
0
100
AcDbSpline
 62
7
  6
CONTINUOUS
 70
0
 71
3
 72
9
 73
5
 74
0
 42
0.0000001
 43
0.0000001
 44
0.0000000001
 40
0.0
 40
0.0
 40
0.0
 40
0.0
 40
0.2580169696
 40
1.0
 40
1.0
 40
1.0
 40
1.0
 10
85.0293620389
 20
43.5989379275
 30
0.0
 10
85.1449024306
 20
43.6746482607
 30
0.0
 10
85.5852093074
 20
43.9791621925
 30
0.0
 10
85.9943314726
 20
44.3302782106
 30
0.0
 10
86.2689054723
 20
44.6173481137
 30
0.0
  0
SPLINE
  5
2A3
100
AcDbEntity
  8
0
100
AcDbSpline
 62
7
  6
CONTINUOUS
 70
0
 71
3
 72
11
 73
7
 74
0
 42
0.0000001
 43
0.0000001
 44
0.0000000001
 40
0.0
 40
0.0
 40
0.0
 40
0.0
 40
0.2474521755
 40
0.5082591572
 40
0.7644976759
 40
1.0
 40
1.0
 40
1.0
 40
1.0
 10
72.8354499402
 20
42.7407519265
 30
0.0
 10
73.7627394472
 20
42.36391031
 30
0.0
 10
75.7731349193
 20
41.8407286582
 30
0.0
 10
78.8807427819
 20
41.6884543016
 30
0.0
 10
81.910658423
 20
42.1393660915
 30
0.0
 10
83.7899934688
 20
42.8677420849
 30
0.0
 10
84.6149708942
 20
43.3440401804
 30
0.0
  0
SPLINE
  5
2A4
100
AcDbEntity
  8
0
100
AcDbSpline
 62
7
  6
CONTINUOUS
 70
0
 71
3
 72
11
 73
7
 74
0
 42
0.0000001
 43
0.0000001
 44
0.0000000001
 40
0.0
 40
0.0
 40
0.0
 40
0.0
 40
0.2453807494
 40
0.5068118467
 40
0.76473034
 40
1.0
 40
1.0
 40
1.0
 40
1.0
 10
72.5842046697
 20
42.8396227764
 30
0.0
 10
71.6191076257
 20
43.2072822797
 30
0.0
 10
69.5317304203
 20
43.7281380769
 30
0.0
 10
66.3020219471
 20
43.9136266491
 30
0.0
 10
63.1330844673
 20
43.52662885
 30
0.0
 10
61.1412894378
 20
42.8721607977
 30
0.0
 10
60.2498938248
 20
42.4409859144
 30
0.0
  0
SPLINE
  5
2A5
100
AcDbEntity
  8
0
100
AcDbSpline
 62
7
  6
CONTINUOUS
 70
0
 71
3
 72
18
 73
14
 74
0
 42
0.0000001
 43
0.0000001
 44
0.0000000001
 40
0.0
 40
0.0
 40
0.0
 40
0.0
 40
0.0490697121
 40
0.0987581846
 40
0.1501037064
 40
0.2037332046
 40
0.2602562164
 40
0.3199938583
 40
0.4486954506
 40
0.5870998658
 40
0.729482672
 40
0.8690978626
 40
1.0
 40
1.0
 40
1.0
 40
1.0
 10
31.2013168748
 20
40.6626997794
 30
0.0
 10
31.2013168748
 20
40.3484150884
 30
0.0
 10
31.2770227696
 20
39.7134566577
 30
0.0
 10
31.6083419914
 20
38.8031168492
 30
0.0
 10
32.1350447939
 20
37.9566359098
 30
0.0
 10
32.8348294837
 20
37.1883081383
 30
0.0
 10
33.6868862313
 20
36.5054202414
 30
0.0
 10
35.0342398094
 20
35.6942123817
 30
0.0
 10
37.0059394976
 20
34.9416396727
 30
0.0
 10
39.5980289202
 20
34.4698035927
 30
0.0
 10
42.3027694472
 20
34.4292905774
 30
0.0
 10
44.9296100083
 20
34.8213444368
 30
0.0
 10
46.5829781955
 20
35.3841855577
 30
0.0
 10
47.3406391327
 20
35.7431859037
 30
0.0
  0
SPLINE
  5
2A6
100
AcDbEntity
  8
0
100
AcDbSpline
 62
7
  6
CONTINUOUS
 70
0
 71
3
 72
11
 73
7
 74
0
 42
0.0000001
 43
0.0000001
 44
0.0000000001
 40
0.0
 40
0.0
 40
0.0
 40
0.0
 40
0.2718510845
 40
0.5254483993
 40
0.7659824895
 40
1.0
 40
1.0
 40
1.0
 40
1.0
 10
33.9732130802
 20
53.146371933
 30
0.0
 10
33.5656802038
 20
52.8850583331
 30
0.0
 10
32.8166843002
 20
52.3138367299
 30
0.0
 10
31.9177522732
 20
51.2722045567
 30
0.0
 10
31.337336568
 20
50.0948167418
 30
0.0
 10
31.2013168748
 20
49.2444650148
 30
0.0
 10
31.2013168748
 20
48.8277239507
 30
0.0
  0
SPLINE
  5
2A7
100
AcDbEntity
  8
0
100
AcDbSpline
 62
7
  6
CONTINUOUS
 70
0
 71
3
 72
13
 73
9
 74
0
 42
0.0000001
 43
0.0000001
 44
0.0000000001
 40
0.0
 40
0.0
 40
0.0
 40
0.0
 40
0.1068246594
 40
0.2156044175
 40
0.3287967429
 40
0.448198086
 40
0.7094462724
 40
1.0
 40
1.0
 40
1.0
 40
1.0
 10
159.9483150438
 20
65.6509827753
 30
0.0
 10
159.9483150438
 20
66.0040758219
 30
0.0
 10
159.852106982
 20
66.7201259875
 30
0.0
 10
159.4339945347
 20
67.7342423727
 30
0.0
 10
158.776224461
 20
68.661450925
 30
0.0
 10
157.5860477985
 20
69.7905899613
 30
0.0
 10
155.624844002
 20
70.8939057985
 30
0.0
 10
153.8577216707
 20
71.3985432229
 30
0.0
 10
152.9138036234
 20
71.5756101049
 30
0.0
  0
SPLINE
  5
2A8
100
AcDbEntity
  8
0
100
AcDbSpline
 62
7
  6
CONTINUOUS
 70
0
 71
3
 72
12
 73
8
 74
0
 42
0.0000001
 43
0.0000001
 44
0.0000000001
 40
0.0
 40
0.0
 40
0.0
 40
0.0
 40
0.2709142306
 40
0.5369846508
 40
0.663239898
 40
0.7828460138
 40
1.0
 40
1.0
 40
1.0
 40
1.0
 10
109.668167036
 20
47.1652491607
 30
0.0
 10
110.680769239
 20
47.0163783756
 30
0.0
 10
112.7221689835
 20
46.9257647542
 30
0.0
 10
115.2183567591
 20
47.2961773061
 30
0.0
 10
117.06323916
 20
47.8933348361
 30
0.0
 10
118.6503719374
 20
48.6306923308
 30
0.0
 10
119.6965658623
 20
49.4092469385
 30
0.0
 10
120.2389329617
 20
50.0247722586
 30
0.0
  0
SPLINE
  5
2A9
100
AcDbEntity
  8
0
100
AcDbSpline
 62
7
  6
CONTINUOUS
 70
0
 71
3
 72
9
 73
5
 74
0
 42
0.0000001
 43
0.0000001
 44
0.0000000001
 40
0.0
 40
0.0
 40
0.0
 40
0.0
 40
0.2481600439
 40
1.0
 40
1.0
 40
1.0
 40
1.0
 10
160.9482561422
 20
56.6694560871
 30
0.0
 10
160.9482427215
 20
56.7584435808
 30
0.0
 10
160.9351934989
 20
57.1169507958
 30
0.0
 10
160.8692568514
 20
57.4732279241
 30
0.0
 10
160.7932568922
 20
57.7318957594
 30
0.0
  0
SPLINE
  5
2AA
100
AcDbEntity
  8
0
100
AcDbSpline
 62
7
  6
CONTINUOUS
 70
0
 71
3
 72
9
 73
5
 74
0
 42
0.0000001
 43
0.0000001
 44
0.0000000001
 40
0.0
 40
0.0
 40
0.0
 40
0.0
 40
0.2399100871
 40
1.0
 40
1.0
 40
1.0
 40
1.0
 10
160.7932568922
 20
57.7318957594
 30
0.0
 10
160.7538199808
 20
57.8661203118
 30
0.0
 10
160.5598822536
 20
58.4168683736
 30
0.0
 10
160.2528573371
 20
58.9245850127
 30
0.0
 10
159.9804697086
 20
59.2742380496
 30
0.0
  0
SPLINE
  5
2AB
100
AcDbEntity
  8
0
100
AcDbSpline
 62
7
  6
CONTINUOUS
 70
0
 71
3
 72
16
 73
12
 74
0
 42
0.0000001
 43
0.0000001
 44
0.0000000001
 40
0.0
 40
0.0
 40
0.0
 40
0.0
 40
0.0436610035
 40
0.0884334242
 40
0.1846864264
 40
0.2941630261
 40
0.4180514231
 40
0.5546535481
 40
0.7003947952
 40
0.8505703676
 40
1.0
 40
1.0
 40
1.0
 40
1.0
 10
160.9482630147
 20
55.4447024269
 30
0.0
 10
160.9482981982
 20
55.2015788895
 30
0.0
 10
160.8984772336
 20
54.7078096336
 30
0.0
 10
160.597739298
 20
53.7185116833
 30
0.0
 10
159.825819066
 20
52.5234990426
 30
0.0
 10
158.4244930913
 20
51.3117414302
 30
0.0
 10
156.6043458928
 20
50.3200403699
 30
0.0
 10
154.4531076226
 20
49.5912667561
 30
0.0
 10
152.0758971032
 20
49.1583486289
 30
0.0
 10
149.5919987012
 20
49.0427063622
 30
0.0
 10
147.923658185
 20
49.1831229059
 30
0.0
 10
147.1013497846
 20
49.3103305211
 30
0.0
  0
SPLINE
  5
2AC
100
AcDbEntity
  8
0
100
AcDbSpline
 62
7
  6
CONTINUOUS
 70
0
 71
3
 72
15
 73
11
 74
0
 42
0.0000001
 43
0.0000001
 44
0.0000000001
 40
0.0
 40
0.0
 40
0.0
 40
0.0
 40
0.1453151632
 40
0.2900714992
 40
0.4301378941
 40
0.5620953014
 40
0.683945963
 40
0.7957461569
 40
0.8998541571
 40
1.0
 40
1.0
 40
1.0
 40
1.0
 10
148.0743134235
 20
51.3967256009
 30
0.0
 10
148.7851104735
 20
51.3149469895
 30
0.0
 10
150.2164442531
 20
51.2460771298
 30
0.0
 10
152.333114961
 20
51.4165074641
 30
0.0
 10
154.3450500238
 20
51.8534077566
 30
0.0
 10
156.1663425007
 20
52.5431722369
 30
0.0
 10
157.7227341488
 20
53.4695796318
 30
0.0
 10
158.9463520488
 20
54.6206684363
 30
0.0
 10
159.754531254
 20
55.9789891801
 30
0.0
 10
159.9483150438
 20
56.992872095
 30
0.0
 10
159.9483150438
 20
57.485958604
 30
0.0
  0
SPLINE
  5
2AD
100
AcDbEntity
  8
0
100
AcDbSpline
 62
7
  6
CONTINUOUS
 70
0
 71
3
 72
11
 73
7
 74
0
 42
0.0000001
 43
0.0000001
 44
0.0000000001
 40
0.0
 40
0.0
 40
0.0
 40
0.0
 40
0.2177775953
 40
0.4509575523
 40
0.7101868281
 40
1.0
 40
1.0
 40
1.0
 40
1.0
 10
152.9482890103
 20
38.379802047
 30
0.0
 10
152.9482389665
 20
38.2655424938
 30
0.0
 10
152.9061450544
 20
38.0273346902
 30
0.0
 10
152.7254277693
 20
37.6956534367
 30
0.0
 10
152.440237429
 20
37.3954926941
 30
0.0
 10
152.2013139118
 20
37.2311718936
 30
0.0
 10
152.069644785
 20
37.1551217706
 30
0.0
  0
SPLINE
  5
2AE
100
AcDbEntity
  8
0
100
AcDbSpline
 62
7
  6
CONTINUOUS
 70
0
 71
3
 72
10
 73
6
 74
0
 42
0.0000001
 43
0.0000001
 44
0.0000000001
 40
0.0
 40
0.0
 40
0.0
 40
0.0
 40
0.2283042141
 40
0.4781550185
 40
1.0
 40
1.0
 40
1.0
 40
1.0
 10
151.6454061204
 20
36.9101406303
 30
0.0
 10
151.4884652499
 20
36.819552606
 30
0.0
 10
151.1368251055
 20
36.6684111414
 30
0.0
 10
150.3618032023
 20
36.4877694282
 30
0.0
 10
149.7364870829
 20
36.4881708308
 30
0.0
 10
149.3271589872
 20
36.5514921478
 30
0.0
  0
SPLINE
  5
2AF
100
AcDbEntity
  8
0
100
AcDbSpline
 62
7
  6
CONTINUOUS
 70
0
 71
3
 72
11
 73
7
 74
0
 42
0.0000001
 43
0.0000001
 44
0.0000000001
 40
0.0
 40
0.0
 40
0.0
 40
0.0
 40
0.2897261385
 40
0.5490301836
 40
0.7822170608
 40
1.0
 40
1.0
 40
1.0
 40
1.0
 10
147.8269515889
 20
37.1551023151
 30
0.0
 10
147.6953084397
 20
37.2311011999
 30
0.0
 10
147.456551712
 20
37.395604994
 30
0.0
 10
147.1710926512
 20
37.6955268861
 30
0.0
 10
146.9906189029
 20
38.0273626795
 30
0.0
 10
146.948291033
 20
38.2655415282
 30
0.0
 10
146.9483410773
 20
38.3798020394
 30
0.0
  0
SPLINE
  5
2B0
100
AcDbEntity
  8
0
100
AcDbSpline
 62
7
  6
CONTINUOUS
 70
0
 71
3
 72
14
 73
10
 74
0
 42
0.0000001
 43
0.0000001
 44
0.0000000001
 40
0.0
 40
0.0
 40
0.0
 40
0.0
 40
0.108322445
 40
0.218299578
 40
0.3319661183
 40
0.4510275424
 40
0.5767541336
 40
0.7099882771
 40
1.0
 40
1.0
 40
1.0
 40
1.0
 10
141.5884083735
 20
140.2946781612
 30
0.0
 10
141.6338197536
 20
139.2344566141
 30
0.0
 10
141.5361726019
 20
137.0850260803
 30
0.0
 10
140.8227241737
 20
133.8966382534
 30
0.0
 10
139.5528439237
 20
130.7730402848
 30
0.0
 10
137.7445131683
 20
127.7486184415
 30
0.0
 10
135.4200435264
 20
124.8518636531
 30
0.0
 10
131.5594371546
 20
121.0932684411
 30
0.0
 10
128.1200069609
 20
118.7136947891
 30
0.0
 10
125.6595089745
 20
117.2931340939
 30
0.0
  0
SPLINE
  5
2B1
100
AcDbEntity
  8
0
100
AcDbSpline
 62
7
  6
CONTINUOUS
 70
0
 71
3
 72
17
 73
13
 74
0
 42
0.0000001
 43
0.0000001
 44
0.0000000001
 40
0.0
 40
0.0
 40
0.0
 40
0.0
 40
0.1349679846
 40
0.279525733
 40
0.4266936941
 40
0.5689922773
 40
0.6997464338
 40
0.8144203944
 40
0.8654966694
 40
0.9127864648
 40
0.957183509
 40
1.0
 40
1.0
 40
1.0
 40
1.0
 10
47.2682953624
 20
36.0733197533
 30
0.0
 10
46.4940025225
 20
35.7322581302
 30
0.0
 10
44.8108443876
 20
35.2008778159
 30
0.0
 10
42.1492108319
 20
34.8429150198
 30
0.0
 10
39.4177680603
 20
34.9083451171
 30
0.0
 10
36.8156514116
 20
35.3940689924
 30
0.0
 10
34.5311771034
 20
36.2641236929
 30
0.0
 10
32.9625164578
 20
37.3065401802
 30
0.0
 10
32.0496420373
 20
38.2894593547
 30
0.0
 10
31.565886951
 20
39.0493028777
 30
0.0
 10
31.2686900834
 20
39.8454701216
 30
0.0
 10
31.2013624215
 20
40.3942938796
 30
0.0
 10
31.2013273617
 20
40.6626997798
 30
0.0
  0
SPLINE
  5
2B2
100
AcDbEntity
  8
0
100
AcDbSpline
 62
7
  6
CONTINUOUS
 70
0
 71
3
 72
11
 73
7
 74
0
 42
0.0000001
 43
0.0000001
 44
0.0000000001
 40
0.0
 40
0.0
 40
0.0
 40
0.0
 40
0.2454405666
 40
0.5065552204
 40
0.7641868584
 40
1.0
 40
1.0
 40
1.0
 40
1.0
 10
72.6363384721
 20
43.1950625114
 30
0.0
 10
71.6677674586
 20
43.5886805387
 30
0.0
 10
69.5611493184
 20
44.1448287779
 30
0.0
 10
66.2935286975
 20
44.3419350479
 30
0.0
 10
63.0873725455
 20
43.9291924557
 30
0.0
 10
61.0802541555
 20
43.2277423941
 30
0.0
 10
60.1889993667
 20
42.764427658
 30
0.0
  0
SPLINE
  5
2B3
100
AcDbEntity
  8
0
100
AcDbSpline
 62
7
  6
CONTINUOUS
 70
0
 71
3
 72
11
 73
7
 74
0
 42
0.0000001
 43
0.0000001
 44
0.0000000001
 40
0.0
 40
0.0
 40
0.0
 40
0.0
 40
0.2344266825
 40
0.4911336515
 40
0.7525429233
 40
1.0
 40
1.0
 40
1.0
 40
1.0
 10
84.5490039483
 20
43.6503664153
 30
0.0
 10
83.7235389983
 20
43.2105270712
 30
0.0
 10
81.8596356471
 20
42.5365738997
 30
0.0
 10
78.8695206227
 20
42.11655205
 30
0.0
 10
75.8014859452
 20
42.2591180454
 30
0.0
 10
73.8113766556
 20
42.7461514995
 30
0.0
 10
72.8881834635
 20
43.0961856334
 30
0.0
  0
SPLINE
  5
2B4
100
AcDbEntity
  8
0
100
AcDbSpline
 62
7
  6
CONTINUOUS
 70
0
 71
3
 72
15
 73
11
 74
0
 42
0.0000001
 43
0.0000001
 44
0.0000000001
 40
0.0
 40
0.0
 40
0.0
 40
0.0
 40
0.1449396158
 40
0.2909793895
 40
0.4339068126
 40
0.5698410562
 40
0.6955519093
 40
0.8089648174
 40
0.9097414781
 40
1.0
 40
1.0
 40
1.0
 40
1.0
 10
147.1013497846
 20
50.5350841468
 30
0.0
 10
147.8478090613
 20
50.4196100688
 30
0.0
 10
149.3624808648
 20
50.2825303885
 30
0.0
 10
151.6278571482
 20
50.3474905141
 30
0.0
 10
153.8232627686
 20
50.6776442799
 30
0.0
 10
155.8566924466
 20
51.2591872608
 30
0.0
 10
157.6446750709
 20
52.0688611712
 30
0.0
 10
159.1149050822
 20
53.07734444
 30
0.0
 10
160.2065028517
 20
54.2496147751
 30
0.0
 10
160.6613122185
 20
55.1574552601
 30
0.0
 10
160.7937127295
 20
55.6088098998
 30
0.0
  0
SPLINE
  5
2B5
100
AcDbEntity
  8
0
100
AcDbSpline
 62
7
  6
CONTINUOUS
 70
0
 71
3
 72
9
 73
5
 74
0
 42
0.0000001
 43
0.0000001
 44
0.0000000001
 40
0.0
 40
0.0
 40
0.0
 40
0.0
 40
0.253318746
 40
1.0
 40
1.0
 40
1.0
 40
1.0
 10
160.7937127295
 20
55.6088098998
 30
0.0
 10
160.8192370554
 20
55.6958225768
 30
0.0
 10
160.9083267293
 20
56.0426097547
 30
0.0
 10
160.9482964528
 20
56.4021707949
 30
0.0
 10
160.9482561422
 20
56.6694560871
 30
0.0
  0
SPLINE
  5
2B6
100
AcDbEntity
  8
0
100
AcDbSpline
 62
7
  6
CONTINUOUS
 70
0
 71
3
 72
25
 73
21
 74
0
 42
0.0000001
 43
0.0000001
 44
0.0000000001
 40
0.0
 40
0.0
 40
0.0
 40
0.0
 40
0.0213636836
 40
0.0429024854
 40
0.0648410994
 40
0.0873830722
 40
0.1348831344
 40
0.1864807188
 40
0.2426431048
 40
0.303379737
 40
0.3683390613
 40
0.4368964344
 40
0.5082274757
 40
0.5813697173
 40
0.6552766642
 40
0.7288675993
 40
0.8010759294
 40
0.8708977621
 40
0.9374446367
 40
1.0
 40
1.0
 40
1.0
 40
1.0
 10
22.4213821191
 20
133.5703646313
 30
0.0
 10
22.3917668869
 20
132.6459643512
 30
0.0
 10
22.4520826929
 20
130.7835420997
 30
0.0
 10
22.9022391535
 20
128.0055418583
 30
0.0
 10
23.7094862298
 20
125.2561494176
 30
0.0
 10
25.2797857767
 20
121.5880452649
 30
0.0
 10
28.1682321015
 20
117.134080323
 30
0.0
 10
32.8536362993
 20
112.269552373
 30
0.0
 10
38.708115254
 20
107.873558119
 30
0.0
 10
45.6038183252
 20
104.031982551
 30
0.0
 10
53.3943339891
 20
100.8203103882
 30
0.0
 10
61.9134918751
 20
98.3051466889
 30
0.0
 10
70.9785186937
 20
96.5396095426
 30
0.0
 10
80.3938963051
 20
95.5615724716
 30
0.0
 10
89.9559027516
 20
95.3921417358
 30
0.0
 10
99.4574351227
 20
96.0350031378
 30
0.0
 10
108.6926136087
 20
97.4761857945
 30
0.0
 10
117.4624738058
 20
99.6849515775
 30
0.0
 10
125.5765697314
 20
102.6132927902
 30
0.0
 10
130.6050790687
 20
105.0893624238
 30
0.0
 10
132.9504013142
 20
106.4434267708
 30
0.0
  0
SPLINE
  5
2B7
100
AcDbEntity
  8
0
100
AcDbSpline
 62
7
  6
CONTINUOUS
 70
0
 71
3
 72
9
 73
5
 74
0
 42
0.0000001
 43
0.0000001
 44
0.0000000001
 40
0.0
 40
0.0
 40
0.0
 40
0.0
 40
0.4788449259
 40
1.0
 40
1.0
 40
1.0
 40
1.0
 10
142.348721174
 20
52.0780524463
 30
0.0
 10
143.049711395
 20
51.6913991186
 30
0.0
 10
144.6038438008
 20
51.0441837265
 30
0.0
 10
146.2403007549
 20
50.6682847727
 30
0.0
 10
147.1013497846
 20
50.5350841468
 30
0.0
  0
SPLINE
  5
2B8
100
AcDbEntity
  8
0
100
AcDbSpline
 62
7
  6
CONTINUOUS
 70
0
 71
3
 72
14
 73
10
 74
0
 42
0.0000001
 43
0.0000001
 44
0.0000000001
 40
0.0
 40
0.0
 40
0.0
 40
0.0
 40
0.1079014947
 40
0.2180909001
 40
0.3322953202
 40
0.4519320436
 40
0.5780378853
 40
0.7112932663
 40
1.0
 40
1.0
 40
1.0
 40
1.0
 10
152.1025930609
 20
122.8651508416
 30
0.0
 10
152.0652796917
 20
121.6618859808
 30
0.0
 10
151.784898674
 20
119.2316542538
 30
0.0
 10
150.7637354346
 20
115.6523159467
 30
0.0
 10
149.1526994544
 20
112.1528860819
 30
0.0
 10
146.9709940893
 20
108.767205609
 30
0.0
 10
144.2418019372
 20
105.5236570287
 30
0.0
 10
139.7911769375
 20
101.3162887614
 30
0.0
 10
135.8793706558
 20
98.6325245198
 30
0.0
 10
133.089842942
 20
97.0219995569
 30
0.0
  0
SPLINE
  5
2B9
100
AcDbEntity
  8
0
100
AcDbSpline
 62
7
  6
CONTINUOUS
 70
0
 71
3
 72
25
 73
21
 74
0
 42
0.0000001
 43
0.0000001
 44
0.0000000001
 40
0.0
 40
0.0
 40
0.0
 40
0.0
 40
0.0213133188
 40
0.042906417
 40
0.0649873908
 40
0.0877412522
 40
0.1357977801
 40
0.1880017984
 40
0.2447105451
 40
0.3058636088
 40
0.3710732409
 40
0.4397042912
 40
0.5109408873
 40
0.5838428496
 40
0.6573956133
 40
0.7305562947
 40
0.8022990499
 40
0.8716607171
 40
0.9377904313
 40
1.0
 40
1.0
 40
1.0
 40
1.0
 10
22.1743078194
 20
122.8423892861
 30
0.0
 10
22.2037142551
 20
121.9264831491
 30
0.0
 10
22.3802705983
 20
120.0843456282
 30
0.0
 10
22.9933752049
 20
117.351440098
 30
0.0
 10
23.9509116238
 20
114.6534318648
 30
0.0
 10
25.7100485325
 20
111.0595324771
 30
0.0
 10
28.7973208354
 20
106.7173921989
 30
0.0
 10
33.659297731
 20
101.994142032
 30
0.0
 10
39.6376509191
 20
97.7416659595
 30
0.0
 10
46.6065628655
 20
94.0415459512
 30
0.0
 10
54.422569338
 20
90.9650106306
 30
0.0
 10
62.9237987186
 20
88.5742680631
 30
0.0
 10
71.9332302874
 20
86.9184204882
 30
0.0
 10
81.2623529966
 20
86.031951768
 30
0.0
 10
90.7154106986
 20
85.9334290102
 30
0.0
 10
100.0938900186
 20
86.6249206013
 30
0.0
 10
109.2007805511
 20
88.0919029873
 30
0.0
 10
117.8459149489
 20
90.3039861658
 30
0.0
 10
125.8472020103
 20
93.2146502844
 30
0.0
 10
130.8088062856
 20
95.664225875
 30
0.0
 10
133.1251984283
 20
97.0015875191
 30
0.0
  0
SPLINE
  5
2BA
100
AcDbEntity
  8
0
100
AcDbSpline
 62
7
  6
CONTINUOUS
 70
0
 71
3
 72
12
 73
8
 74
0
 42
0.0000001
 43
0.0000001
 44
0.0000000001
 40
0.0
 40
0.0
 40
0.0
 40
0.0
 40
0.3897861939
 40
0.6917234304
 40
0.8047787012
 40
0.89226079
 40
1.0
 40
1.0
 40
1.0
 40
1.0
 10
147.8692388598
 20
51.8386965342
 30
0.0
 10
147.8692388598
 20
51.7802946333
 30
0.0
 10
147.8722190105
 20
51.676520216
 30
0.0
 10
147.8845786948
 20
51.5566845339
 30
0.0
 10
147.9026896238
 20
51.4827277465
 30
0.0
 10
147.9179757175
 20
51.440761985
 30
0.0
 10
147.9393258237
 20
51.4128623928
 30
0.0
 10
147.9553486295
 20
51.4108991741
 30
0.0
  0
SPLINE
  5
2BB
100
AcDbEntity
  8
0
100
AcDbSpline
 62
7
  6
CONTINUOUS
 70
0
 71
3
 72
14
 73
10
 74
0
 42
0.0000001
 43
0.0000001
 44
0.0000000001
 40
0.0
 40
0.0
 40
0.0
 40
0.0
 40
0.1078977608
 40
0.2180916026
 40
0.3323045253
 40
0.4519490909
 40
0.5780593975
 40
0.7113137372
 40
1.0
 40
1.0
 40
1.0
 40
1.0
 10
150.804895749
 20
80.8484479948
 30
0.0
 10
150.7671439275
 20
79.6700748465
 30
0.0
 10
150.4902565775
 20
77.2902384152
 30
0.0
 10
149.4873405951
 20
73.78544119
 30
0.0
 10
147.9072977182
 20
70.3589847895
 30
0.0
 10
145.7689467262
 20
67.0439355591
 30
0.0
 10
143.0949373198
 20
63.8680627021
 30
0.0
 10
138.7354001723
 20
59.7484869642
 30
0.0
 10
134.9043602849
 20
57.1204468029
 30
0.0
 10
132.1725498086
 20
55.5432447037
 30
0.0
  0
SPLINE
  5
2BC
100
AcDbEntity
  8
0
100
AcDbSpline
 62
7
  6
CONTINUOUS
 70
0
 71
3
 72
17
 73
13
 74
0
 42
0.0000001
 43
0.0000001
 44
0.0000000001
 40
0.0
 40
0.0
 40
0.0
 40
0.0
 40
0.0428604343
 40
0.0874877831
 40
0.1353230641
 40
0.1872862969
 40
0.304551989
 40
0.4382231855
 40
0.5825687681
 40
0.7297286654
 40
0.8713115359
 40
1.0
 40
1.0
 40
1.0
 40
1.0
 10
34.2013168759
 20
50.4607287849
 30
0.0
 10
34.2013035983
 20
50.2614532068
 30
0.0
 10
34.2547260949
 20
49.8529740596
 30
0.0
 10
34.4888619017
 20
49.2630958388
 30
0.0
 10
34.8690975105
 20
48.7039384369
 30
0.0
 10
35.5847285591
 20
47.9856880354
 30
0.0
 10
36.8042144947
 20
47.2434210569
 30
0.0
 10
38.557581785
 20
46.6577711441
 30
0.0
 10
40.5252503979
 20
46.3812722612
 30
0.0
 10
42.5476459392
 20
46.4372985495
 30
0.0
 10
44.4597443542
 20
46.8198024004
 30
0.0
 10
45.6329195524
 20
47.3038823568
 30
0.0
 10
46.1510849509
 20
47.6030435033
 30
0.0
  0
SPLINE
  5
2BD
100
AcDbEntity
  8
0
100
AcDbSpline
 62
7
  6
CONTINUOUS
 70
0
 71
3
 72
9
 73
5
 74
0
 42
0.0000001
 43
0.0000001
 44
0.0000000001
 40
0.0
 40
0.0
 40
0.0
 40
0.0
 40
0.2422434253
 40
1.0
 40
1.0
 40
1.0
 40
1.0
 10
43.3226460503
 20
20.331820955
 30
0.0
 10
43.2923516148
 20
20.3143305589
 30
0.0
 10
43.1659358974
 20
20.2444916381
 30
0.0
 10
43.0345479761
 20
20.183780178
 30
0.0
 10
42.9332420676
 20
20.1424214622
 30
0.0
  0
SPLINE
  5
2BE
100
AcDbEntity
  8
0
100
AcDbSpline
 62
7
  6
CONTINUOUS
 70
0
 71
3
 72
9
 73
5
 74
0
 42
0.0000001
 43
0.0000001
 44
0.0000000001
 40
0.0
 40
0.0
 40
0.0
 40
0.0
 40
0.4935371163
 40
1.0
 40
1.0
 40
1.0
 40
1.0
 10
42.9332420676
 20
20.1424214622
 30
0.0
 10
42.4555030744
 20
19.9473817893
 30
0.0
 10
41.4057892357
 20
19.7513869779
 30
0.0
 10
40.3473634911
 20
19.8638475184
 30
0.0
 10
39.8393565045
 20
20.0132934374
 30
0.0
  0
SPLINE
  5
2BF
100
AcDbEntity
  8
0
100
AcDbSpline
 62
7
  6
CONTINUOUS
 70
0
 71
3
 72
9
 73
5
 74
0
 42
0.0000001
 43
0.0000001
 44
0.0000000001
 40
0.0
 40
0.0
 40
0.0
 40
0.0
 40
0.2619540676
 40
1.0
 40
1.0
 40
1.0
 40
1.0
 10
39.8393565045
 20
20.0132934374
 30
0.0
 10
39.7702851964
 20
20.0336128924
 30
0.0
 10
39.5087622393
 20
20.1180605456
 30
0.0
 10
39.2556247391
 20
20.2304139191
 30
0.0
 10
39.0799510436
 20
20.3318421185
 30
0.0
  0
SPLINE
  5
2C0
100
AcDbEntity
  8
0
100
AcDbSpline
 62
7
  6
CONTINUOUS
 70
0
 71
3
 72
9
 73
5
 74
0
 42
0.0000001
 43
0.0000001
 44
0.0000000001
 40
0.0
 40
0.0
 40
0.0
 40
0.0
 40
0.2774577735
 40
1.0
 40
1.0
 40
1.0
 40
1.0
 10
48.9795238514
 20
35.3555490625
 30
0.0
 10
49.2850960793
 20
35.5319702175
 30
0.0
 10
50.3506293795
 20
36.220323076
 30
0.0
 10
51.2825895981
 20
37.1677666791
 30
0.0
 10
51.7148435883
 20
37.9786048853
 30
0.0
  0
SPLINE
  5
2C1
100
AcDbEntity
  8
0
100
AcDbSpline
 62
7
  6
CONTINUOUS
 70
0
 71
3
 72
17
 73
13
 74
0
 42
0.0000001
 43
0.0000001
 44
0.0000000001
 40
0.0
 40
0.0
 40
0.0
 40
0.0
 40
0.1286884641
 40
0.2702713346
 40
0.4174312319
 40
0.5617768145
 40
0.695448011
 40
0.8127137031
 40
0.8646769359
 40
0.9125122169
 40
0.9571395657
 40
1.0
 40
1.0
 40
1.0
 40
1.0
 10
46.1510849509
 20
47.1947922947
 30
0.0
 10
45.6329195524
 20
46.8956311482
 30
0.0
 10
44.4597443542
 20
46.4115511918
 30
0.0
 10
42.5476459392
 20
46.029047341
 30
0.0
 10
40.5252503979
 20
45.9730210526
 30
0.0
 10
38.557581785
 20
46.2495199355
 30
0.0
 10
36.8042144947
 20
46.8351698483
 30
0.0
 10
35.5847285591
 20
47.5774368268
 30
0.0
 10
34.8690975105
 20
48.2956872284
 30
0.0
 10
34.4888619017
 20
48.8548446303
 30
0.0
 10
34.2547260949
 20
49.4447228511
 30
0.0
 10
34.2013035983
 20
49.8532019982
 30
0.0
 10
34.2013168759
 20
50.0524775764
 30
0.0
  0
SPLINE
  5
2C2
100
AcDbEntity
  8
0
100
AcDbSpline
 62
7
  6
CONTINUOUS
 70
0
 71
3
 72
11
 73
7
 74
0
 42
0.0000001
 43
0.0000001
 44
0.0000000001
 40
0.0
 40
0.0
 40
0.0
 40
0.0
 40
0.2177841249
 40
0.4509134165
 40
0.7102981491
 40
1.0
 40
1.0
 40
1.0
 40
1.0
 10
48.2013168737
 20
50.0524775764
 30
0.0
 10
48.201299109
 20
49.7858577243
 30
0.0
 10
48.1027787104
 20
49.2301403939
 30
0.0
 10
47.6814866494
 20
48.4558455402
 30
0.0
 10
47.0154823604
 20
47.7559328287
 30
0.0
 10
46.458233745
 20
47.3721236752
 30
0.0
 10
46.1510849509
 20
47.1947922947
 30
0.0
  0
SPLINE
  5
2C3
100
AcDbEntity
  8
0
100
AcDbSpline
 62
7
  6
CONTINUOUS
 70
0
 71
3
 72
11
 73
7
 74
0
 42
0.0000001
 43
0.0000001
 44
0.0000000001
 40
0.0
 40
0.0
 40
0.0
 40
0.0
 40
0.2859552798
 40
0.5458203528
 40
0.7815475849
 40
1.0
 40
1.0
 40
1.0
 40
1.0
 10
46.1510849509
 20
47.6030435033
 30
0.0
 10
46.422137525
 20
47.7595348458
 30
0.0
 10
46.919599099
 20
48.0956689359
 30
0.0
 10
47.5369627021
 20
48.6955491906
 30
0.0
 10
47.9708264308
 20
49.3541550939
 30
0.0
 10
48.1285715272
 20
49.8337646222
 30
0.0
 10
48.1683401004
 20
50.0695349384
 30
0.0
  0
SPLINE
  5
2C4
100
AcDbEntity
  8
0
100
AcDbSpline
 62
7
  6
CONTINUOUS
 70
0
 71
3
 72
15
 73
11
 74
0
 42
0.0000001
 43
0.0000001
 44
0.0000000001
 40
0.0
 40
0.0
 40
0.0
 40
0.0
 40
0.1458136871
 40
0.2767617282
 40
0.3946436845
 40
0.5045052063
 40
0.6135569088
 40
0.7293095776
 40
0.8572538079
 40
1.0
 40
1.0
 40
1.0
 40
1.0
 10
45.7975300883
 20
48.2154150891
 30
0.0
 10
46.0759826803
 20
48.3761788085
 30
0.0
 10
46.5823325324
 20
48.7236516284
 30
0.0
 10
47.1922885598
 20
49.3542507791
 30
0.0
 10
47.5873497497
 20
50.0515742281
 30
0.0
 10
47.7417773316
 20
50.7918821924
 30
0.0
 10
47.6395441507
 20
51.5368469233
 30
0.0
 10
47.291728232
 20
52.2451184695
 30
0.0
 10
46.7241796821
 20
52.8909694019
 30
0.0
 10
46.2416818135
 20
53.2492881109
 30
0.0
 10
45.9747409856
 20
53.4160799088
 30
0.0
  0
SPLINE
  5
2C5
100
AcDbEntity
  8
0
100
AcDbSpline
 62
7
  6
CONTINUOUS
 70
0
 71
3
 72
11
 73
7
 74
0
 42
0.0000001
 43
0.0000001
 44
0.0000000001
 40
0.0
 40
0.0
 40
0.0
 40
0.0
 40
0.2385869734
 40
0.5013790245
 40
0.7634133772
 40
1.0
 40
1.0
 40
1.0
 40
1.0
 10
45.6932948253
 20
53.5813515863
 30
0.0
 10
45.0381144755
 20
53.9429466347
 30
0.0
 10
43.5300698747
 20
54.4678229816
 30
0.0
 10
41.1304380782
 20
54.709809572
 30
0.0
 10
38.7403013081
 20
54.4384654175
 30
0.0
 10
37.2477521757
 20
53.8935759758
 30
0.0
 10
36.6051036614
 20
53.5225448979
 30
0.0
  0
SPLINE
  5
2C6
100
AcDbEntity
  8
0
100
AcDbSpline
 62
7
  6
CONTINUOUS
 70
0
 71
3
 72
20
 73
16
 74
0
 42
0.0000001
 43
0.0000001
 44
0.0000000001
 40
0.0
 40
0.0
 40
0.0
 40
0.0
 40
0.0593732483
 40
0.1125118991
 40
0.160493582
 40
0.2057095639
 40
0.251358469
 40
0.3005122016
 40
0.3552031765
 40
0.4162235884
 40
0.4833387076
 40
0.5555678056
 40
0.7088876255
 40
0.8618734289
 40
1.0
 40
1.0
 40
1.0
 40
1.0
 10
36.4526865507
 20
53.431499308
 30
0.0
 10
36.1803178873
 20
53.2631730071
 30
0.0
 10
35.6882348593
 20
52.9010279505
 30
0.0
 10
35.1101167033
 20
52.2462020246
 30
0.0
 10
34.7586909127
 20
51.526484601
 30
0.0
 10
34.6604491466
 20
50.7694291934
 30
0.0
 10
34.826967024
 20
50.0183999756
 30
0.0
 10
35.2404609762
 20
49.3138477648
 30
0.0
 10
35.8732526418
 20
48.6787948569
 30
0.0
 10
36.6987741313
 20
48.1301723915
 30
0.0
 10
37.6874512962
 20
47.6842318974
 30
0.0
 10
39.2053133422
 20
47.2380907534
 30
0.0
 10
41.2560343553
 20
47.0273076657
 30
0.0
 10
43.6533939531
 20
47.2969133168
 30
0.0
 10
45.1524425101
 20
47.8429758253
 30
0.0
 10
45.7975300883
 20
48.2154150891
 30
0.0
  0
SPLINE
  5
2C7
100
AcDbEntity
  8
0
100
AcDbSpline
 62
7
  6
CONTINUOUS
 70
0
 71
3
 72
14
 73
10
 74
0
 42
0.0000001
 43
0.0000001
 44
0.0000000001
 40
0.0
 40
0.0
 40
0.0
 40
0.0
 40
0.2886866676
 40
0.4219412506
 40
0.548051656
 40
0.6676959732
 40
0.7819082563
 40
0.8921019748
 40
1.0
 40
1.0
 40
1.0
 40
1.0
 10
133.1251984283
 20
97.0015875191
 30
0.0
 10
135.9148320492
 20
98.6121736272
 30
0.0
 10
139.8269616748
 20
101.2958422127
 30
0.0
 10
144.2787729815
 20
105.5026180846
 30
0.0
 10
147.0093713742
 20
108.7457158568
 30
0.0
 10
149.1929760708
 20
112.1309210651
 30
0.0
 10
150.8064518549
 20
115.6298910759
 30
0.0
 10
151.8305855747
 20
119.208864425
 30
0.0
 10
152.1133342233
 20
121.6390719317
 30
0.0
 10
152.1518839398
 20
122.8423885363
 30
0.0
  0
SPLINE
  5
2C8
100
AcDbEntity
  8
0
100
AcDbSpline
 62
7
  6
CONTINUOUS
 70
0
 71
3
 72
10
 73
6
 74
0
 42
0.0000001
 43
0.0000001
 44
0.0000000001
 40
0.0
 40
0.0
 40
0.0
 40
0.0
 40
0.20655791
 40
0.4681081865
 40
1.0
 40
1.0
 40
1.0
 40
1.0
 10
148.0771464782
 20
61.3849493296
 30
0.0
 10
148.0438167957
 20
61.2944180381
 30
0.0
 10
147.9876666798
 20
61.0823484074
 30
0.0
 10
147.9041472005
 20
60.6229880801
 30
0.0
 10
147.8692388598
 20
60.2521376737
 30
0.0
 10
147.8692388598
 20
60.0037207055
 30
0.0
  0
SPLINE
  5
2C9
100
AcDbEntity
  8
0
100
AcDbSpline
 62
7
  6
CONTINUOUS
 70
0
 71
3
 72
25
 73
21
 74
0
 42
0.0000001
 43
0.0000001
 44
0.0000000001
 40
0.0
 40
0.0
 40
0.0
 40
0.0
 40
0.0622117466
 40
0.1283438983
 40
0.1977084014
 40
0.2694541466
 40
0.3426178987
 40
0.4161733773
 40
0.4890772029
 40
0.5603145658
 40
0.6289452507
 40
0.6941533644
 40
0.7553037843
 40
0.8120089732
 40
0.864208983
 40
0.912261753
 40
0.9350141138
 40
0.9570940122
 40
0.9786865626
 40
1.0
 40
1.0
 40
1.0
 40
1.0
 10
133.089842942
 20
97.0219995569
 30
0.0
 10
130.7749848057
 20
95.6855235664
 30
0.0
 10
125.8166427744
 20
93.2375990518
 30
0.0
 10
117.8205821484
 20
90.3289881834
 30
0.0
 10
109.1810757582
 20
88.1185658429
 30
0.0
 10
100.0801078958
 20
86.652836442
 30
0.0
 10
90.7077616152
 20
85.9621687735
 30
0.0
 10
81.260968063
 20
86.0610823087
 30
0.0
 10
71.9381696222
 20
86.9474975436
 30
0.0
 10
62.9350366579
 20
88.602842719
 30
0.0
 10
54.4399812914
 20
90.9926365739
 30
0.0
 10
46.6299260051
 20
94.0677882338
 30
0.0
 10
39.6666517797
 20
97.7661070926
 30
0.0
 10
33.6935368611
 20
102.0163885546
 30
0.0
 10
28.8363213627
 20
106.7370837889
 30
0.0
 10
25.7526386012
 20
111.0767590136
 30
0.0
 10
23.9960573828
 20
114.6685041206
 30
0.0
 10
23.040217961
 20
117.3648577398
 30
0.0
 10
22.4286532862
 20
120.0960440186
 30
0.0
 10
22.2529958263
 20
121.9369541782
 30
0.0
 10
22.2240020608
 20
122.8522393279
 30
0.0
  0
SPLINE
  5
2CA
100
AcDbEntity
  8
0
100
AcDbSpline
 62
7
  6
CONTINUOUS
 70
0
 71
3
 72
11
 73
7
 74
0
 42
0.0000001
 43
0.0000001
 44
0.0000000001
 40
0.0
 40
0.0
 40
0.0
 40
0.0
 40
0.2210259632
 40
0.4662085657
 40
0.7288603672
 40
1.0
 40
1.0
 40
1.0
 40
1.0
 10
119.4212668839
 20
49.550663078
 30
0.0
 10
118.9336515735
 20
49.1872252609
 30
0.0
 10
117.8097664603
 20
48.5463049073
 30
0.0
 10
115.9098465398
 20
47.8795506051
 30
0.0
 10
113.7959827079
 20
47.4831100826
 30
0.0
 10
112.3235698222
 20
47.4135626668
 30
0.0
 10
111.577678853
 20
47.4287951616
 30
0.0
  0
SPLINE
  5
2CB
100
AcDbEntity
  8
0
100
AcDbSpline
 62
7
  6
CONTINUOUS
 70
0
 71
3
 72
16
 73
12
 74
0
 42
0.0000001
 43
0.0000001
 44
0.0000000001
 40
0.0
 40
0.0
 40
0.0
 40
0.0
 40
0.150843358
 40
0.301406115
 40
0.4467882367
 40
0.582670669
 40
0.705827129
 40
0.814873633
 40
0.9111672051
 40
0.9561117424
 40
1.0
 40
1.0
 40
1.0
 40
1.0
 10
147.8692388598
 20
60.0037207055
 30
0.0
 10
148.6015815304
 20
59.9138510392
 30
0.0
 10
150.0784077272
 20
59.8312404334
 30
0.0
 10
152.2639991251
 20
59.9863784323
 30
0.0
 10
154.3397482533
 20
60.4120524069
 30
0.0
 10
156.2072881477
 20
61.0882071196
 30
0.0
 10
157.7803705481
 20
61.9862398125
 30
0.0
 10
158.9870728516
 20
63.0695757338
 30
0.0
 10
159.6480491605
 20
64.1277105271
 30
0.0
 10
159.9057843548
 20
65.0006529904
 30
0.0
 10
159.9482238264
 20
65.4363074484
 30
0.0
 10
159.9482465799
 20
65.6509827777
 30
0.0
  0
SPLINE
  5
2CC
100
AcDbEntity
  8
0
100
AcDbSpline
 62
7
  6
CONTINUOUS
 70
0
 71
3
 72
9
 73
5
 74
0
 42
0.0000001
 43
0.0000001
 44
0.0000000001
 40
0.0
 40
0.0
 40
0.0
 40
0.0
 40
0.2481400433
 40
1.0
 40
1.0
 40
1.0
 40
1.0
 10
30.2013916057
 20
39.8461973608
 30
0.0
 10
30.2013923001
 20
39.7567731451
 30
0.0
 10
30.2144713092
 20
39.3964740519
 30
0.0
 10
30.2811364743
 20
39.0384415646
 30
0.0
 10
30.3579311836
 20
38.7785982795
 30
0.0
  0
SPLINE
  5
2CD
100
AcDbEntity
  8
0
100
AcDbSpline
 62
7
  6
CONTINUOUS
 70
0
 71
3
 72
17
 73
13
 74
0
 42
0.0000001
 43
0.0000001
 44
0.0000000001
 40
0.0
 40
0.0
 40
0.0
 40
0.0
 40
0.0438526848
 40
0.090693618
 40
0.1412809469
 40
0.1959776563
 40
0.3172672421
 40
0.4519143934
 40
0.5943298386
 40
0.7376573517
 40
0.8748823619
 40
1.0
 40
1.0
 40
1.0
 40
1.0
 10
30.3579311836
 20
38.7785982795
 30
0.0
 10
30.4442961034
 20
38.486373142
 30
0.0
 10
30.6933227828
 20
37.9012126557
 30
0.0
 10
31.2541604302
 20
37.0889817289
 30
0.0
 10
31.9981566753
 20
36.3316099021
 30
0.0
 10
33.2584093216
 20
35.3803228223
 30
0.0
 10
35.2167993213
 20
34.4258855516
 30
0.0
 10
37.903257768
 20
33.7070559776
 30
0.0
 10
40.8229763201
 20
33.4220816783
 30
0.0
 10
43.7694160712
 20
33.5920094563
 30
0.0
 10
46.5334957332
 20
34.2033015501
 30
0.0
 10
48.2265932575
 20
34.9208469762
 30
0.0
 10
48.9795238514
 20
35.3555490625
 30
0.0
  0
SPLINE
  5
2CE
100
AcDbEntity
  8
0
100
AcDbSpline
 62
7
  6
CONTINUOUS
 70
0
 71
3
 72
15
 73
11
 74
0
 42
0.0000001
 43
0.0000001
 44
0.0000000001
 40
0.0
 40
0.0
 40
0.0
 40
0.0
 40
0.1489695957
 40
0.2900757598
 40
0.4232734242
 40
0.5490199209
 40
0.6681254306
 40
0.7818291264
 40
0.8917915112
 40
1.0
 40
1.0
 40
1.0
 40
1.0
 10
132.9504013142
 20
106.4434267708
 30
0.0
 10
134.4442591521
 20
107.3059008474
 30
0.0
 10
137.2841221639
 20
109.1097062393
 30
0.0
 10
141.1562685467
 20
112.127654357
 30
0.0
 10
144.4893345704
 20
115.3591774719
 30
0.0
 10
147.2482869206
 20
118.7732950436
 30
0.0
 10
149.4035942082
 20
122.3383952405
 30
0.0
 10
150.9292242064
 20
126.0206280538
 30
0.0
 10
151.8040819518
 20
129.7805286641
 30
0.0
 10
151.9448992304
 20
132.3180363455
 30
0.0
 10
151.9046932046
 20
133.5703640181
 30
0.0
  0
SPLINE
  5
2CF
100
AcDbEntity
  8
0
100
AcDbSpline
 62
7
  6
CONTINUOUS
 70
0
 71
3
 72
27
 73
23
 74
0
 42
0.0000001
 43
0.0000001
 44
0.0000000001
 40
0.0
 40
0.0
 40
0.0
 40
0.0
 40
0.0657148321
 40
0.1362096744
 40
0.2103687294
 40
0.2868041672
 40
0.3639843367
 40
0.4403295897
 40
0.5143128061
 40
0.5845618206
 40
0.6499729903
 40
0.7098459492
 40
0.7376703065
 40
0.7641220558
 40
0.8132917174
 40
0.8364937366
 40
0.8590947715
 40
0.8814145853
 40
0.9037935997
 40
0.9265677124
 40
0.9500446019
 40
1.0
 40
1.0
 40
1.0
 40
1.0
 10
132.5970887604
 20
107.3331455481
 30
0.0
 10
129.8265482131
 20
105.7335827654
 30
0.0
 10
123.8185250084
 20
102.8667935145
 30
0.0
 10
114.0657679816
 20
99.6686540808
 30
0.0
 10
103.5027006517
 20
97.4923354386
 30
0.0
 10
92.4482508919
 20
96.4043416619
 30
0.0
 10
81.2343646225
 20
96.4366488697
 30
0.0
 10
70.1991600657
 20
97.5885592956
 30
0.0
 10
59.6748008906
 20
99.8253678844
 30
0.0
 10
49.9754068504
 20
103.0813041243
 30
0.0
 10
41.3909489068
 20
107.2609794301
 30
0.0
 10
35.2271290025
 20
111.5211601036
 30
0.0
 10
31.1411201706
 20
115.3013341556
 30
0.0
 10
27.8096311819
 20
119.0848373679
 30
0.0
 10
25.2419424538
 20
123.2242607194
 30
0.0
 10
23.6656425494
 20
127.5853011459
 30
0.0
 10
22.9988226074
 20
130.846732195
 30
0.0
 10
22.8339309909
 20
134.1316333668
 30
0.0
 10
23.1726606405
 20
137.4114715188
 30
0.0
 10
24.0111564891
 20
140.6584311387
 30
0.0
 10
25.8184557347
 20
144.9924510527
 30
0.0
 10
27.8570197021
 20
147.9864041081
 30
0.0
 10
29.4275675465
 20
149.843201132
 30
0.0
  0
SPLINE
  5
2D0
100
AcDbEntity
  8
0
100
AcDbSpline
 62
7
  6
CONTINUOUS
 70
0
 71
3
 72
25
 73
21
 74
0
 42
0.0000001
 43
0.0000001
 44
0.0000000001
 40
0.0
 40
0.0
 40
0.0
 40
0.0
 40
0.0626115928
 40
0.1292289811
 40
0.1991262037
 40
0.2714115258
 40
0.3450728769
 40
0.4190372919
 40
0.492217542
 40
0.5635619048
 40
0.6321042958
 40
0.6970191397
 40
0.7576839066
 40
0.8137536415
 40
0.8652502508
 40
0.9126603746
 40
0.9351699753
 40
0.9570883529
 40
0.9786227415
 40
1.0
 40
1.0
 40
1.0
 40
1.0
 10
125.6595089745
 20
117.2931340939
 30
0.0
 10
123.6823722765
 20
116.1516405029
 30
0.0
 10
119.4424898184
 20
114.0648453942
 30
0.0
 10
112.6003259219
 20
111.5987563959
 30
0.0
 10
105.2047339564
 20
109.7411235963
 30
0.0
 10
97.4172867573
 20
108.532355653
 30
0.0
 10
89.4065137656
 20
107.9984892431
 30
0.0
 10
81.3469322356
 20
108.151110624
 30
0.0
 10
73.4139791863
 20
108.9869208978
 30
0.0
 10
65.7801764063
 20
110.4877750904
 30
0.0
 10
58.6109951748
 20
112.621327293
 30
0.0
 10
52.0610050577
 20
115.3423105192
 30
0.0
 10
46.2705919879
 20
118.5940633826
 30
0.0
 10
41.3633502726
 20
122.312486594
 30
0.0
 10
37.4470772202
 20
126.4247032488
 30
0.0
 10
35.0458075033
 20
130.1872863155
 30
0.0
 10
33.7516545564
 20
133.283253842
 30
0.0
 10
33.0941521944
 20
135.6033237584
 30
0.0
 10
32.738645156
 20
137.9464584264
 30
0.0
 10
32.704368473
 20
139.5159163816
 30
0.0
 10
32.7377268343
 20
140.2946781238
 30
0.0
  0
SPLINE
  5
2D1
100
AcDbEntity
  8
0
100
AcDbSpline
 62
7
  6
CONTINUOUS
 70
0
 71
3
 72
14
 73
10
 74
0
 42
0.0000001
 43
0.0000001
 44
0.0000000001
 40
0.0
 40
0.0
 40
0.0
 40
0.0
 40
0.2900117229
 40
0.4232458664
 40
0.5489724576
 40
0.6680338817
 40
0.781700422
 40
0.891677555
 40
1.0
 40
1.0
 40
1.0
 40
1.0
 10
125.2444313274
 20
131.257895619
 30
0.0
 10
127.678399649
 20
132.6631394966
 30
0.0
 10
131.0807451021
 20
135.017056029
 30
0.0
 10
134.8997255132
 20
138.7351251885
 30
0.0
 10
137.1991321799
 20
141.6006464894
 30
0.0
 10
138.9879650902
 20
144.5924583091
 30
0.0
 10
140.2441531945
 20
147.682376914
 30
0.0
 10
140.9499090548
 20
150.8363867977
 30
0.0
 10
141.0465033521
 20
152.9626416689
 30
0.0
 10
141.0015816081
 20
154.0114316594
 30
0.0
  0
SPLINE
  5
2D2
100
AcDbEntity
  8
0
100
AcDbSpline
 62
7
  6
CONTINUOUS
 70
0
 71
3
 72
29
 73
25
 74
0
 42
0.0000001
 43
0.0000001
 44
0.0000000001
 40
0.0
 40
0.0
 40
0.0
 40
0.0
 40
0.0665381675
 40
0.1383273397
 40
0.2138957978
 40
0.2914305574
 40
0.3689654324
 40
0.44453338
 40
0.5163254105
 40
0.582861693
 40
0.6431950356
 40
0.6709904339
 40
0.69726175
 40
0.7221643543
 40
0.7459358535
 40
0.7688959175
 40
0.7914312172
 40
0.8139665209
 40
0.8369264436
 40
0.8606978472
 40
0.8856009549
 40
0.9118710782
 40
0.9396647992
 40
1.0
 40
1.0
 40
1.0
 40
1.0
 10
121.9864686671
 20
186.1052829635
 30
0.0
 10
119.6024783204
 20
184.728893711
 30
0.0
 10
114.3896490707
 20
182.3014220124
 30
0.0
 10
105.9007412376
 20
179.721462456
 30
0.0
 10
96.7102921535
 20
178.133192688
 30
0.0
 10
87.1633108339
 20
177.5972991501
 30
0.0
 10
77.6160871839
 20
178.1332596421
 30
0.0
 10
68.4262810834
 20
179.7209788305
 30
0.0
 10
59.9347724137
 20
182.3025850773
 30
0.0
 10
52.4568900266
 20
185.7835790553
 30
0.0
 10
47.1516892251
 20
189.4370645614
 30
0.0
 10
43.7256215528
 20
192.7155829566
 30
0.0
 10
41.6411532676
 20
195.242347449
 30
0.0
 10
39.9930551795
 20
197.8803361396
 30
0.0
 10
38.8002072973
 20
200.605870032
 30
0.0
 10
38.0775923574
 20
203.392209496
 30
0.0
 10
37.8352828246
 20
206.2100102933
 30
0.0
 10
38.0775619019
 20
209.0278074013
 30
0.0
 10
38.8001140934
 20
211.8141492085
 30
0.0
 10
39.992929734
 20
214.5397244235
 30
0.0
 10
41.6410110988
 20
217.1776355637
 30
0.0
 10
43.7254756237
 20
219.7044947554
 30
0.0
 10
47.1505551503
 20
222.9825439005
 30
0.0
 10
50.1779191402
 20
225.0668982867
 30
0.0
 10
52.3396639204
 20
226.3149747674
 30
0.0
  0
SPLINE
  5
2D3
100
AcDbEntity
  8
0
100
AcDbSpline
 62
7
  6
CONTINUOUS
 70
0
 71
3
 72
15
 73
11
 74
0
 42
0.0000001
 43
0.0000001
 44
0.0000000001
 40
0.0
 40
0.0
 40
0.0
 40
0.0
 40
0.1499426375
 40
0.2914388282
 40
0.4244811867
 40
0.549662758
 40
0.6680178549
 40
0.781106955
 40
0.890975844
 40
1.0
 40
1.0
 40
1.0
 40
1.0
 10
122.1900912183
 20
185.4913352711
 30
0.0
 10
123.4046578773
 20
186.1925614729
 30
0.0
 10
125.7060286201
 20
187.6628583315
 30
0.0
 10
128.820119825
 20
190.1380242531
 30
0.0
 10
131.4633427137
 20
192.7957115587
 30
0.0
 10
133.6039412543
 20
195.6073770399
 30
0.0
 10
135.2150637489
 20
198.5437606549
 30
0.0
 10
136.2733326029
 20
201.5727685494
 30
0.0
 10
136.760848185
 20
204.6563298599
 30
0.0
 10
136.6992082753
 20
206.7167318691
 30
0.0
 10
136.5753503619
 20
207.7289177719
 30
0.0
  0
SPLINE
  5
2D4
100
AcDbEntity
  8
0
100
AcDbSpline
 62
7
  6
CONTINUOUS
 70
0
 71
3
 72
9
 73
5
 74
0
 42
0.0000001
 43
0.0000001
 44
0.0000000001
 40
0.0
 40
0.0
 40
0.0
 40
0.0
 40
0.4618095031
 40
1.0
 40
1.0
 40
1.0
 40
1.0
 10
144.0433087153
 20
65.1137390239
 30
0.0
 10
144.5553409932
 20
64.6495503782
 30
0.0
 10
145.8803654266
 20
63.8854723301
 30
0.0
 10
147.3406486528
 20
63.5034281306
 30
0.0
 10
148.1366098788
 20
63.3802963113
 30
0.0
  0
SPLINE
  5
2D5
100
AcDbEntity
  8
0
100
AcDbSpline
 62
7
  6
CONTINUOUS
 70
0
 71
3
 72
9
 73
5
 74
0
 42
0.0000001
 43
0.0000001
 44
0.0000000001
 40
0.0
 40
0.0
 40
0.0
 40
0.0
 40
0.2565220837
 40
1.0
 40
1.0
 40
1.0
 40
1.0
 10
56.3022817181
 20
228.6028586316
 30
0.0
 10
55.9610555473
 20
228.405852786
 30
0.0
 10
54.642060444
 20
227.6187352616
 30
0.0
 10
53.3689614113
 20
226.753786989
 30
0.0
 10
52.4584528233
 20
226.0645354952
 30
0.0
  0
SPLINE
  5
2D6
100
AcDbEntity
  8
0
100
AcDbSpline
 62
7
  6
CONTINUOUS
 70
0
 71
3
 72
27
 73
23
 74
0
 42
0.0000001
 43
0.0000001
 44
0.0000000001
 40
0.0
 40
0.0
 40
0.0
 40
0.0
 40
0.0560624001
 40
0.1064630872
 40
0.1300552444
 40
0.152923068
 40
0.1754273554
 40
0.1979587297
 40
0.2209057823
 40
0.244622946
 40
0.2953750211
 40
0.3228886057
 40
0.351925503
 40
0.4145399561
 40
0.4828543308
 40
0.5558207324
 40
0.6319815452
 40
0.7096311195
 40
0.7869552461
 40
0.8621647271
 40
0.9336210162
 40
1.0
 40
1.0
 40
1.0
 40
1.0
 10
52.4584528233
 20
226.0645354952
 30
0.0
 10
50.8884454752
 20
224.8760459805
 30
0.0
 10
48.0933691195
 20
222.3486149734
 30
0.0
 10
45.4688634895
 20
218.5414076756
 30
0.0
 10
44.1846696061
 20
215.3782173381
 30
0.0
 10
43.624780441
 20
213.011064286
 30
0.0
 10
43.4553984456
 20
210.6214166182
 30
0.0
 10
43.6787168609
 20
208.2334976374
 30
0.0
 10
44.2916295741
 20
205.8711262093
 30
0.0
 10
45.6473037698
 20
202.7174469759
 30
0.0
 10
47.759023418
 20
199.7665795098
 30
0.0
 10
50.4343762558
 20
197.1068122949
 30
0.0
 10
53.6941229907
 20
194.4700694951
 30
0.0
 10
58.5403324502
 20
191.5701491697
 30
0.0
 10
65.1870432207
 20
188.8465532656
 30
0.0
 10
72.5867912582
 20
186.8800068754
 30
0.0
 10
80.4862952833
 20
185.7369182965
 30
0.0
 10
88.615549381
 20
185.4559566234
 30
0.0
 10
96.6946729646
 20
186.0466461118
 30
0.0
 10
104.4466962996
 20
187.4893098051
 30
0.0
 10
111.6043432762
 20
189.7334197603
 30
0.0
 10
116.0047305523
 20
191.8029675196
 30
0.0
 10
118.0238508694
 20
192.9687002197
 30
0.0
  0
SPLINE
  5
2D7
100
AcDbEntity
  8
0
100
AcDbSpline
 62
7
  6
CONTINUOUS
 70
0
 71
3
 72
9
 73
5
 74
0
 42
0.0000001
 43
0.0000001
 44
0.0000000001
 40
0.0
 40
0.0
 40
0.0
 40
0.0
 40
0.2408498011
 40
1.0
 40
1.0
 40
1.0
 40
1.0
 10
113.8134502354
 20
230.5210733807
 30
0.0
 10
113.0324438405
 20
230.8768491223
 30
0.0
 10
109.7502246777
 20
232.2667069335
 30
0.0
 10
106.3292571955
 20
233.3202875882
 30
0.0
 10
103.6990960386
 20
233.9525577395
 30
0.0
  0
SPLINE
  5
2D8
100
AcDbEntity
  8
0
100
AcDbSpline
 62
7
  6
CONTINUOUS
 70
0
 71
3
 72
9
 73
5
 74
0
 42
0.0000001
 43
0.0000001
 44
0.0000000001
 40
0.0
 40
0.0
 40
0.0
 40
0.0
 40
0.2466029409
 40
1.0
 40
1.0
 40
1.0
 40
1.0
 10
100.9398645291
 20
234.5525880628
 30
0.0
 10
100.0698760886
 20
234.7223522888
 30
0.0
 10
96.5286041182
 20
235.3408091497
 30
0.0
 10
92.9402137655
 20
235.685321967
 30
0.0
 10
90.2344919349
 20
235.7971843537
 30
0.0
  0
SPLINE
  5
2D9
100
AcDbEntity
  8
0
100
AcDbSpline
 62
7
  6
CONTINUOUS
 70
0
 71
3
 72
9
 73
5
 74
0
 42
0.0000001
 43
0.0000001
 44
0.0000000001
 40
0.0
 40
0.0
 40
0.0
 40
0.0
 40
0.2571016024
 40
1.0
 40
1.0
 40
1.0
 40
1.0
 10
73.1204607831
 20
234.5001514917
 30
0.0
 10
72.2653663334
 20
234.3296505748
 30
0.0
 10
68.9530519856
 20
233.6014742318
 30
0.0
 10
65.6964751324
 20
232.6093860845
 30
0.0
 10
63.3443378564
 20
231.7065831532
 30
0.0
  0
SPLINE
  5
2DA
100
AcDbEntity
  8
0
100
AcDbSpline
 62
7
  6
CONTINUOUS
 70
0
 71
3
 72
9
 73
5
 74
0
 42
0.0000001
 43
0.0000001
 44
0.0000000001
 40
0.0
 40
0.0
 40
0.0
 40
0.0
 40
0.2567057598
 40
1.0
 40
1.0
 40
1.0
 40
1.0
 10
56.4247736702
 20
228.4006780253
 30
0.0
 10
56.0871297374
 20
228.2016014551
 30
0.0
 10
54.7834218193
 20
227.4067374461
 30
0.0
 10
53.5271881753
 20
226.5330212454
 30
0.0
 10
52.6309104487
 20
225.8367752829
 30
0.0
  0
SPLINE
  5
2DB
100
AcDbEntity
  8
0
100
AcDbSpline
 62
7
  6
CONTINUOUS
 70
0
 71
3
 72
26
 73
22
 74
0
 42
0.0000001
 43
0.0000001
 44
0.0000000001
 40
0.0
 40
0.0
 40
0.0
 40
0.0
 40
0.0556647929
 40
0.1057580037
 40
0.1292473256
 40
0.1520532451
 40
0.1745384254
 40
0.1970911946
 40
0.2200946678
 40
0.2438957416
 40
0.2948655428
 40
0.3515717143
 40
0.4143876261
 40
0.4828529935
 40
0.555913446
 40
0.6321152127
 40
0.7097633923
 40
0.7870568565
 40
0.8622236764
 40
0.9336420615
 40
1.0
 40
1.0
 40
1.0
 40
1.0
 10
52.6309104487
 20
225.8367752829
 30
0.0
 10
51.1148907651
 20
224.6591017197
 30
0.0
 10
48.421389345
 20
222.157300527
 30
0.0
 10
45.9186234487
 20
218.4019643224
 30
0.0
 10
44.716323105
 20
215.2903960352
 30
0.0
 10
44.2084863828
 20
212.9631526395
 30
0.0
 10
44.0827093431
 20
210.6164518497
 30
0.0
 10
44.3408949624
 20
208.2738724558
 30
0.0
 10
44.9792112188
 20
205.9585962837
 30
0.0
 10
46.3573514678
 20
202.8690196461
 30
0.0
 10
49.0683119772
 20
199.1673815665
 30
0.0
 10
53.5416960193
 20
195.2950358833
 30
0.0
 10
59.1482487124
 20
191.9821458739
 30
0.0
 10
65.7007501101
 20
189.3295898967
 30
0.0
 10
72.9814771969
 20
187.4198177308
 30
0.0
 10
80.745010914
 20
186.3163397704
 30
0.0
 10
88.7275153947
 20
186.0563840818
 30
0.0
 10
96.6565182098
 20
186.648610223
 30
0.0
 10
104.2623572022
 20
188.0734991556
 30
0.0
 10
111.2849407229
 20
190.2815409549
 30
0.0
 10
115.6028186409
 20
192.3141344623
 30
0.0
 10
117.5846920392
 20
193.4583627722
 30
0.0
  0
SPLINE
  5
2DC
100
AcDbEntity
  8
0
100
AcDbSpline
 62
7
  6
CONTINUOUS
 70
0
 71
3
 72
20
 73
16
 74
0
 42
0.0000001
 43
0.0000001
 44
0.0000000001
 40
0.0
 40
0.0
 40
0.0
 40
0.0
 40
0.0570899812
 40
0.1083942555
 40
0.1553196289
 40
0.2003321482
 40
0.2464530745
 40
0.2963721663
 40
0.3517822144
 40
0.4132851381
 40
0.4805986446
 40
0.5528012156
 40
0.7059220528
 40
0.8595081936
 40
1.0
 40
1.0
 40
1.0
 40
1.0
 10
34.1908336162
 20
52.9025905465
 30
0.0
 10
33.8584911764
 20
52.6641385978
 30
0.0
 10
33.2631675782
 20
52.1563095075
 30
0.0
 10
32.5895658342
 20
51.2566951305
 30
0.0
 10
32.2151337463
 20
50.2844182258
 30
0.0
 10
32.1689483305
 20
49.27822091
 30
0.0
 10
32.4559428264
 20
48.2919422477
 30
0.0
 10
33.051012715
 20
47.3697528669
 30
0.0
 10
33.9217939354
 20
46.5381834417
 30
0.0
 10
35.0356718574
 20
45.81834294
 30
0.0
 10
36.3558394828
 20
45.2303086622
 30
0.0
 10
38.3712721567
 20
44.6355354769
 30
0.0
 10
41.0943084974
 20
44.334448486
 30
0.0
 10
44.3031025018
 20
44.6445233154
 30
0.0
 10
46.3303990709
 20
45.3185173282
 30
0.0
 10
47.2235201781
 20
45.7828022614
 30
0.0
  0
SPLINE
  5
2DD
100
AcDbEntity
  8
0
100
AcDbSpline
 62
7
  6
CONTINUOUS
 70
0
 71
3
 72
17
 73
13
 74
0
 42
0.0000001
 43
0.0000001
 44
0.0000000001
 40
0.0
 40
0.0
 40
0.0
 40
0.0
 40
0.1306429135
 40
0.2745910072
 40
0.4237040179
 40
0.5687706182
 40
0.7013983144
 40
0.8159738119
 40
0.8663728242
 40
0.9128708285
 40
0.9568033745
 40
1.0
 40
1.0
 40
1.0
 40
1.0
 10
46.5046398134
 20
46.5824207089
 30
0.0
 10
45.9253733489
 20
46.247983056
 30
0.0
 10
44.6089477035
 20
45.713165076
 30
0.0
 10
42.4663772023
 20
45.3099601476
 30
0.0
 10
40.2118699591
 20
45.2857662529
 30
0.0
 10
38.0436193606
 20
45.644801459
 30
0.0
 10
36.1503918392
 20
46.3543693448
 30
0.0
 10
34.8756430428
 20
47.2359969121
 30
0.0
 10
34.1799206294
 20
48.0741981196
 30
0.0
 10
33.8437225446
 20
48.7193526836
 30
0.0
 10
33.6835971471
 20
49.3921306023
 30
0.0
 10
33.6998250441
 20
49.8442369275
 30
0.0
 10
33.7365139902
 20
50.0623347914
 30
0.0
  0
SPLINE
  5
2DE
100
AcDbEntity
  8
0
100
AcDbSpline
 62
7
  6
CONTINUOUS
 70
0
 71
3
 72
9
 73
5
 74
0
 42
0.0000001
 43
0.0000001
 44
0.0000000001
 40
0.0
 40
0.0
 40
0.0
 40
0.0
 40
0.2477979827
 40
1.0
 40
1.0
 40
1.0
 40
1.0
 10
33.7365139902
 20
50.0623347914
 30
0.0
 10
33.742289185
 20
50.0966655034
 30
0.0
 10
33.7683953752
 20
50.2347265409
 30
0.0
 10
33.8056469576
 20
50.370651679
 30
0.0
 10
33.8393494047
 20
50.4708100919
 30
0.0
  0
SPLINE
  5
2DF
100
AcDbEntity
  8
0
100
AcDbSpline
 62
7
  6
CONTINUOUS
 70
0
 71
3
 72
9
 73
5
 74
0
 42
0.0000001
 43
0.0000001
 44
0.0000000001
 40
0.0
 40
0.0
 40
0.0
 40
0.0
 40
0.2438329098
 40
1.0
 40
1.0
 40
1.0
 40
1.0
 10
33.9479921701
 20
50.7455740892
 30
0.0
 10
33.9699947568
 20
50.793896327
 30
0.0
 10
34.0655052318
 20
50.9896536957
 30
0.0
 10
34.1813623492
 20
51.1752870867
 30
0.0
 10
34.2776803074
 20
51.3088361226
 30
0.0
  0
SPLINE
  5
2E0
100
AcDbEntity
  8
0
100
AcDbSpline
 62
7
  6
CONTINUOUS
 70
0
 71
3
 72
9
 73
5
 74
0
 42
0.0000001
 43
0.0000001
 44
0.0000000001
 40
0.0
 40
0.0
 40
0.0
 40
0.0
 40
0.2408014595
 40
1.0
 40
1.0
 40
1.0
 40
1.0
 10
85.9623662109
 20
44.5977972013
 30
0.0
 10
85.8772238504
 20
44.5254826149
 30
0.0
 10
85.5160496257
 20
44.2341576248
 30
0.0
 10
85.1270905735
 20
43.9779213577
 30
0.0
 10
84.8220828578
 20
43.801826122
 30
0.0
  0
SPLINE
  5
2E1
100
AcDbEntity
  8
0
100
AcDbSpline
 62
7
  6
CONTINUOUS
 70
0
 71
3
 72
9
 73
5
 74
0
 42
0.0000001
 43
0.0000001
 44
0.0000000001
 40
0.0
 40
0.0
 40
0.0
 40
0.0
 40
0.2588117256
 40
1.0
 40
1.0
 40
1.0
 40
1.0
 10
47.98830837
 20
51.4867457494
 30
0.0
 10
48.0332953888
 20
51.4314944041
 30
0.0
 10
48.2013452625
 20
51.2134427543
 30
0.0
 10
48.3452357164
 20
50.97628071
 30
0.0
 10
48.4329660785
 20
50.7920573198
 30
0.0
  0
SPLINE
  5
2E2
100
AcDbEntity
  8
0
100
AcDbSpline
 62
7
  6
CONTINUOUS
 70
0
 71
3
 72
9
 73
5
 74
0
 42
0.0000001
 43
0.0000001
 44
0.0000000001
 40
0.0
 40
0.0
 40
0.0
 40
0.0
 40
0.252682188
 40
1.0
 40
1.0
 40
1.0
 40
1.0
 10
48.5611678324
 20
50.4771330213
 30
0.0
 10
48.5726117279
 20
50.4434067502
 30
0.0
 10
48.615341339
 20
50.3090816754
 30
0.0
 10
48.6476038595
 20
50.171403008
 30
0.0
 10
48.6652913634
 20
50.0675660387
 30
0.0
  0
SPLINE
  5
2E3
100
AcDbEntity
  8
0
100
AcDbSpline
 62
7
  6
CONTINUOUS
 70
0
 71
3
 72
11
 73
7
 74
0
 42
0.0000001
 43
0.0000001
 44
0.0000000001
 40
0.0
 40
0.0
 40
0.0
 40
0.0
 40
0.2191621396
 40
0.4496709686
 40
0.7076265445
 40
1.0
 40
1.0
 40
1.0
 40
1.0
 10
48.6652913634
 20
50.0675660387
 30
0.0
 10
48.7187131039
 20
49.7539462282
 30
0.0
 10
48.7031295095
 20
49.082023789
 30
0.0
 10
48.2881139874
 20
48.1200507405
 30
0.0
 10
47.5316390876
 20
47.2573768924
 30
0.0
 10
46.8721912475
 20
46.7946253616
 30
0.0
 10
46.5046398134
 20
46.5824207089
 30
0.0
  0
SPLINE
  5
2E4
100
AcDbEntity
  8
0
100
AcDbSpline
 62
7
  6
CONTINUOUS
 70
0
 71
3
 72
11
 73
7
 74
0
 42
0.0000001
 43
0.0000001
 44
0.0000000001
 40
0.0
 40
0.0
 40
0.0
 40
0.0
 40
0.2388907563
 40
0.5033337512
 40
0.7659701723
 40
1.0
 40
1.0
 40
1.0
 40
1.0
 10
47.8926538784
 20
44.5372527214
 30
0.0
 10
47.8926538784
 20
44.6535392468
 30
0.0
 10
47.8514954654
 20
44.8986588621
 30
0.0
 10
47.7086992402
 20
45.2457305461
 30
0.0
 10
47.4997287927
 20
45.5545905659
 30
0.0
 10
47.3194198274
 20
45.7213116078
 30
0.0
 10
47.2235201781
 20
45.7828022614
 30
0.0
  0
SPLINE
  5
2E5
100
AcDbEntity
  8
0
100
AcDbSpline
 62
7
  6
CONTINUOUS
 70
0
 71
3
 72
17
 73
13
 74
0
 42
0.0000001
 43
0.0000001
 44
0.0000000001
 40
0.0
 40
0.0
 40
0.0
 40
0.0
 40
0.0428249843
 40
0.0873433534
 40
0.1349409624
 40
0.1865348194
 40
0.3027388954
 40
0.4352384356
 40
0.5787843262
 40
0.7259853442
 40
0.8688009739
 40
1.0
 40
1.0
 40
1.0
 40
1.0
 10
31.2013273617
 20
48.8277239511
 30
0.0
 10
31.2013637134
 20
48.5494279529
 30
0.0
 10
31.2739334437
 20
47.9795003531
 30
0.0
 10
31.5937201458
 20
47.1550823108
 30
0.0
 10
32.1130628352
 20
46.3712947415
 30
0.0
 10
33.0920227587
 20
45.3618787767
 30
0.0
 10
34.7654811537
 20
44.3075609298
 30
0.0
 10
37.1839405036
 20
43.456427091
 30
0.0
 10
39.9142031371
 20
43.0241444097
 30
0.0
 10
42.744347117
 20
43.0453197433
 30
0.0
 10
45.4530394152
 20
43.5164693506
 30
0.0
 10
47.1361736276
 20
44.1439999139
 30
0.0
 10
47.8926538784
 20
44.5372527214
 30
0.0
  0
SPLINE
  5
2E6
100
AcDbEntity
  8
0
100
AcDbSpline
 62
7
  6
CONTINUOUS
 70
0
 71
3
 72
9
 73
5
 74
0
 42
0.0000001
 43
0.0000001
 44
0.0000000001
 40
0.0
 40
0.0
 40
0.0
 40
0.0
 40
0.2497040751
 40
1.0
 40
1.0
 40
1.0
 40
1.0
 10
148.0771464782
 20
61.3849493296
 30
0.0
 10
148.4233743772
 20
61.3424618617
 30
0.0
 10
149.8154199132
 20
61.2212657191
 30
0.0
 10
151.2243321553
 20
61.286753572
 30
0.0
 10
152.2603250564
 20
61.4457906047
 30
0.0
  0
SPLINE
  5
2E7
100
AcDbEntity
  8
0
100
AcDbSpline
 62
7
  6
CONTINUOUS
 70
0
 71
3
 72
19
 73
15
 74
0
 42
0.0000001
 43
0.0000001
 44
0.0000000001
 40
0.0
 40
0.0
 40
0.0
 40
0.0
 40
0.1533812194
 40
0.288291679
 40
0.3478333504
 40
0.4023185595
 40
0.4527929115
 40
0.5009879074
 40
0.5491119697
 40
0.5993885046
 40
0.6535901251
 40
0.7128065413
 40
0.8470564266
 40
1.0
 40
1.0
 40
1.0
 40
1.0
 10
152.7692489918
 20
61.5332913332
 30
0.0
 10
153.6182638622
 20
61.6951550269
 30
0.0
 10
155.1913531938
 20
62.1441064897
 30
0.0
 10
156.9312851877
 20
63.1033647906
 30
0.0
 10
157.9658860659
 20
64.060709567
 30
0.0
 10
158.5188317859
 20
64.8130209486
 30
0.0
 10
158.8639422525
 20
65.6134508763
 30
0.0
 10
158.9858330247
 20
66.4418844381
 30
0.0
 10
158.8779244583
 20
67.2711667671
 30
0.0
 10
158.5462652116
 20
68.0740221762
 30
0.0
 10
158.0055529928
 20
68.8297524216
 30
0.0
 10
156.9862723596
 20
69.7931736321
 30
0.0
 10
155.2607639737
 20
70.7627022077
 30
0.0
 10
153.6963111727
 20
71.219565935
 30
0.0
 10
152.8506848843
 20
71.3859551038
 30
0.0
  0
SPLINE
  5
2E8
100
AcDbEntity
  8
0
100
AcDbSpline
 62
7
  6
CONTINUOUS
 70
0
 71
3
 72
9
 73
5
 74
0
 42
0.0000001
 43
0.0000001
 44
0.0000000001
 40
0.0
 40
0.0
 40
0.0
 40
0.0
 40
0.259131226
 40
1.0
 40
1.0
 40
1.0
 40
1.0
 10
156.7314506724
 20
68.3147885591
 30
0.0
 10
156.7781789682
 20
68.2575794342
 30
0.0
 10
156.9523243369
 20
68.0319029188
 30
0.0
 10
157.1005537837
 20
67.7856652042
 30
0.0
 10
157.1898813981
 20
67.5942959214
 30
0.0
  0
SPLINE
  5
2E9
100
AcDbEntity
  8
0
100
AcDbSpline
 62
7
  6
CONTINUOUS
 70
0
 71
3
 72
9
 73
5
 74
0
 42
0.0000001
 43
0.0000001
 44
0.0000000001
 40
0.0
 40
0.0
 40
0.0
 40
0.0
 40
0.2526721236
 40
1.0
 40
1.0
 40
1.0
 40
1.0
 10
157.3088391476
 20
67.2983782391
 30
0.0
 10
157.3202395717
 20
67.2646892815
 30
0.0
 10
157.3628038448
 20
67.1305104654
 30
0.0
 10
157.394923423
 20
66.9929948727
 30
0.0
 10
157.4125234052
 20
66.8892852085
 30
0.0
  0
SPLINE
  5
2EA
100
AcDbEntity
  8
0
100
AcDbSpline
 62
7
  6
CONTINUOUS
 70
0
 71
3
 72
16
 73
12
 74
0
 42
0.0000001
 43
0.0000001
 44
0.0000000001
 40
0.0
 40
0.0
 40
0.0
 40
0.0
 40
0.0442657432
 40
0.0887765147
 40
0.1828539386
 40
0.2898170128
 40
0.4121915407
 40
0.5487541115
 40
0.6957859956
 40
0.8481609916
 40
1.0
 40
1.0
 40
1.0
 40
1.0
 10
157.4125234052
 20
66.8892852085
 30
0.0
 10
157.441677167
 20
66.7174937375
 30
0.0
 10
157.4647556888
 20
66.3657483404
 30
0.0
 10
157.359670015
 20
65.648821715
 30
0.0
 10
156.9219770405
 20
64.7593895505
 30
0.0
 10
156.0102341166
 20
63.8482713553
 30
0.0
 10
154.769031093
 20
63.0966612894
 30
0.0
 10
153.2636518967
 20
62.5377677318
 30
0.0
 10
151.5749519208
 20
62.1983306335
 30
0.0
 10
149.7961949789
 20
62.0971911355
 30
0.0
 10
148.5978755938
 20
62.1935841633
 30
0.0
 10
148.007202367
 20
62.2849588015
 30
0.0
  0
SPLINE
  5
2EB
100
AcDbEntity
  8
0
100
AcDbSpline
 62
7
  6
CONTINUOUS
 70
0
 71
3
 72
11
 73
7
 74
0
 42
0.0000001
 43
0.0000001
 44
0.0000000001
 40
0.0
 40
0.0
 40
0.0
 40
0.0
 40
0.278716957
 40
0.5413937407
 40
0.7826278629
 40
1.0
 40
1.0
 40
1.0
 40
1.0
 10
148.007202367
 20
62.2849588015
 30
0.0
 10
147.5412826738
 20
62.3570345981
 30
0.0
 10
146.6432841086
 20
62.5498195218
 30
0.0
 10
145.3914971639
 20
62.99341451
 30
0.0
 10
144.3106116903
 20
63.5697393201
 30
0.0
 10
143.6976450337
 20
64.0557299646
 30
0.0
 10
143.4387955762
 20
64.3168736538
 30
0.0
  0
SPLINE
  5
2EC
100
AcDbEntity
  8
0
100
AcDbSpline
 62
7
  6
CONTINUOUS
 70
0
 71
3
 72
11
 73
7
 74
0
 42
0.0000001
 43
0.0000001
 44
0.0000000001
 40
0.0
 40
0.0
 40
0.0
 40
0.0
 40
0.2789230078
 40
0.5416800732
 40
0.7828439277
 40
1.0
 40
1.0
 40
1.0
 40
1.0
 10
148.1366098788
 20
62.9720451028
 30
0.0
 10
147.6997232115
 20
63.0396296137
 30
0.0
 10
146.8578819787
 20
63.2205851619
 30
0.0
 10
145.6849890448
 20
63.6374668691
 30
0.0
 10
144.6734572898
 20
64.1792463553
 30
0.0
 10
144.1008582273
 20
64.6362505394
 30
0.0
 10
143.8596428444
 20
64.881767011
 30
0.0
  0
SPLINE
  5
2ED
100
AcDbEntity
  8
0
100
AcDbSpline
 62
7
  6
CONTINUOUS
 70
0
 71
3
 72
15
 73
11
 74
0
 42
0.0000001
 43
0.0000001
 44
0.0000000001
 40
0.0
 40
0.0
 40
0.0
 40
0.0
 40
0.1468699239
 40
0.2947636297
 40
0.4389590779
 40
0.5753123411
 40
0.7003935659
 40
0.8122373456
 40
0.9110390305
 40
1.0
 40
1.0
 40
1.0
 40
1.0
 10
148.1366098788
 20
63.3802963113
 30
0.0
 10
148.6319195109
 20
63.3036740161
 30
0.0
 10
149.6371515141
 20
63.2154712489
 30
0.0
 10
151.1377786506
 20
63.2696936035
 30
0.0
 10
152.5847710899
 20
63.50668996
 30
0.0
 10
153.912382593
 20
63.9153250783
 30
0.0
 10
155.061932145
 20
64.4784202696
 30
0.0
 10
155.9831038379
 20
65.1744997436
 30
0.0
 10
156.6337680534
 20
65.9792747043
 30
0.0
 10
156.8648929938
 20
66.5934349401
 30
0.0
 10
156.9153689736
 20
66.8927931679
 30
0.0
  0
SPLINE
  5
2EE
100
AcDbEntity
  8
0
100
AcDbSpline
 62
7
  6
CONTINUOUS
 70
0
 71
3
 72
9
 73
5
 74
0
 42
0.0000001
 43
0.0000001
 44
0.0000000001
 40
0.0
 40
0.0
 40
0.0
 40
0.0
 40
0.2482019822
 40
1.0
 40
1.0
 40
1.0
 40
1.0
 10
151.630612697
 20
71.3170950236
 30
0.0
 10
151.3772268398
 20
71.3562927389
 30
0.0
 10
150.3508875594
 20
71.4765421686
 30
0.0
 10
149.3077056873
 20
71.4543692451
 30
0.0
 10
148.5373976638
 20
71.3554847522
 30
0.0
  0
SPLINE
  5
2EF
100
AcDbEntity
  8
0
100
AcDbSpline
 62
7
  6
CONTINUOUS
 70
0
 71
3
 72
9
 73
5
 74
0
 42
0.0000001
 43
0.0000001
 44
0.0000000001
 40
0.0
 40
0.0
 40
0.0
 40
0.0
 40
0.461800644
 40
1.0
 40
1.0
 40
1.0
 40
1.0
 10
144.4646455887
 20
65.6774541557
 30
0.0
 10
144.9401027922
 20
65.246297553
 30
0.0
 10
146.1706092194
 20
64.536564264
 30
0.0
 10
147.5267891834
 20
64.1817380749
 30
0.0
 10
148.2660173906
 20
64.0673826126
 30
0.0
  0
SPLINE
  5
2F0
100
AcDbEntity
  8
0
100
AcDbSpline
 62
7
  6
CONTINUOUS
 70
0
 71
3
 72
20
 73
16
 74
0
 42
0.0000001
 43
0.0000001
 44
0.0000000001
 40
0.0
 40
0.0
 40
0.0
 40
0.0
 40
0.1568285326
 40
0.3095610514
 40
0.3804448633
 40
0.4459244046
 40
0.5053606996
 40
0.5588381833
 40
0.6074262545
 40
0.6532761313
 40
0.6993059647
 40
0.7483778371
 40
0.8025231695
 40
0.8626846796
 40
1.0
 40
1.0
 40
1.0
 40
1.0
 10
148.2660173906
 20
64.0673826126
 30
0.0
 10
149.0494927879
 20
63.946182298
 30
0.0
 10
150.6259738057
 20
63.8785376695
 30
0.0
 10
152.5403849245
 20
64.1943133491
 30
0.0
 10
153.9177949578
 20
64.6940838636
 30
0.0
 10
154.7952580507
 20
65.1603617569
 30
0.0
 10
155.5142111805
 20
65.7131564979
 30
0.0
 10
156.0504621458
 20
66.3382261745
 30
0.0
 10
156.3818318335
 20
67.0196514224
 30
0.0
 10
156.4865432191
 20
67.7344954077
 30
0.0
 10
156.3543362427
 20
68.4470923907
 30
0.0
 10
155.9977174403
 20
69.1228382953
 30
0.0
 10
155.4387422926
 20
69.7403316528
 30
0.0
 10
154.408984147
 20
70.4972490519
 30
0.0
 10
153.4661055682
 20
70.8769724305
 30
0.0
 10
152.7979109788
 20
71.0650229158
 30
0.0
  0
SPLINE
  5
2F1
100
AcDbEntity
  8
0
100
AcDbSpline
 62
7
  6
CONTINUOUS
 70
0
 71
3
 72
9
 73
5
 74
0
 42
0.0000001
 43
0.0000001
 44
0.0000000001
 40
0.0
 40
0.0
 40
0.0
 40
0.0
 40
0.2460328439
 40
1.0
 40
1.0
 40
1.0
 40
1.0
 10
152.7979109788
 20
71.0650229158
 30
0.0
 10
152.707295675
 20
71.0905248461
 30
0.0
 10
152.3374137795
 20
71.1885172817
 30
0.0
 10
151.9617412518
 20
71.2644478175
 30
0.0
 10
151.6768561427
 20
71.3098346054
 30
0.0
  0
SPLINE
  5
2F2
100
AcDbEntity
  8
0
100
AcDbSpline
 62
7
  6
CONTINUOUS
 70
0
 71
3
 72
21
 73
17
 74
0
 42
0.0000001
 43
0.0000001
 44
0.0000000001
 40
0.0
 40
0.0
 40
0.0
 40
0.0
 40
0.1446349366
 40
0.2112678745
 40
0.2742472548
 40
0.3339455742
 40
0.390932466
 40
0.4459742785
 40
0.4999979673
 40
0.5540218005
 40
0.6090636667
 40
0.6660509442
 40
0.7257512612
 40
0.7887286946
 40
0.8553585958
 40
1.0
 40
1.0
 40
1.0
 40
1.0
 10
121.9870704034
 20
226.3146273508
 30
0.0
 10
124.1486665425
 20
225.0665934245
 30
0.0
 10
127.1758676272
 20
222.9822097937
 30
0.0
 10
130.600869653
 20
219.7042252456
 30
0.0
 10
132.6853758355
 20
217.177382901
 30
0.0
 10
134.3333233178
 20
214.5394420545
 30
0.0
 10
135.5260817817
 20
211.8139346388
 30
0.0
 10
136.2486081537
 20
209.0276356497
 30
0.0
 10
136.4908472482
 20
206.2098791804
 30
0.0
 10
136.248512999
 20
203.392131031
 30
0.0
 10
135.525922554
 20
200.6058403933
 30
0.0
 10
134.3330854477
 20
197.8803168623
 30
0.0
 10
132.684998818
 20
195.2424563823
 30
0.0
 10
130.6005445314
 20
192.7156455013
 30
0.0
 10
127.1755005342
 20
189.4376593135
 30
0.0
 10
124.1481801992
 20
187.3533402486
 30
0.0
 10
121.9864686671
 20
186.1052829635
 30
0.0
  0
SPLINE
  5
2F3
100
AcDbEntity
  8
0
100
AcDbSpline
 62
7
  6
CONTINUOUS
 70
0
 71
3
 72
16
 73
12
 74
0
 42
0.0000001
 43
0.0000001
 44
0.0000000001
 40
0.0
 40
0.0
 40
0.0
 40
0.0
 40
0.0439814886
 40
0.0889984146
 40
0.1853225408
 40
0.2942188124
 40
0.4171046542
 40
0.5527094902
 40
0.6979464705
 40
0.8486190454
 40
1.0
 40
1.0
 40
1.0
 40
1.0
 10
159.9482465799
 20
57.4859586064
 30
0.0
 10
159.9482240836
 20
57.2737092449
 30
0.0
 10
159.9067595829
 20
56.8431123938
 30
0.0
 10
159.6549918675
 20
55.9802411388
 30
0.0
 10
159.0092263984
 20
54.9330222931
 30
0.0
 10
157.8279058439
 20
53.8569586511
 30
0.0
 10
156.2857464967
 20
52.9607453991
 30
0.0
 10
154.4518566106
 20
52.2799748483
 30
0.0
 10
152.409122438
 20
51.8428715744
 30
0.0
 10
150.2520034954
 20
51.6693330177
 30
0.0
 10
148.7911812109
 20
51.7355263533
 30
0.0
 10
148.0650644995
 20
51.8158527568
 30
0.0
  0
SPLINE
  5
2F4
100
AcDbEntity
  8
0
100
AcDbSpline
 62
7
  6
CONTINUOUS
 70
0
 71
3
 72
25
 73
21
 74
0
 42
0.0000001
 43
0.0000001
 44
0.0000000001
 40
0.0
 40
0.0
 40
0.0
 40
0.0
 40
0.021525327
 40
0.0430679449
 40
0.064871573
 40
0.0871661356
 40
0.133938031
 40
0.1846893351
 40
0.2400595191
 40
0.3001705852
 40
0.364731815
 40
0.4331396579
 40
0.5045614918
 40
0.5780053733
 40
0.6523805579
 40
0.7265525133
 40
0.7993965823
 40
0.8698497815
 40
0.9369717872
 40
1.0
 40
1.0
 40
1.0
 40
1.0
 10
37.7507875719
 20
207.7289175538
 30
0.0
 10
37.6629064337
 20
207.010745934
 30
0.0
 10
37.5803279419
 20
205.5605254356
 30
0.0
 10
37.7448832189
 20
203.3802401671
 30
0.0
 10
38.1961219125
 20
201.2141228076
 30
0.0
 10
39.1912437395
 20
198.3190074514
 30
0.0
 10
41.1848059933
 20
194.7769732221
 30
0.0
 10
44.5848730423
 20
190.8850983916
 30
0.0
 10
48.9419952308
 20
187.3502417529
 30
0.0
 10
54.1558262516
 20
184.2431677298
 30
0.0
 10
60.1106514953
 20
181.6265491875
 30
0.0
 10
66.6742205617
 20
179.5565050537
 30
0.0
 10
73.699821213
 20
178.0784348979
 30
0.0
 10
81.0294839565
 20
177.2253462319
 30
0.0
 10
88.4977800266
 20
177.0164418458
 30
0.0
 10
95.9359369449
 20
177.4564347876
 30
0.0
 10
103.1757293422
 20
178.5353786802
 30
0.0
 10
110.0544319981
 20
180.2291985772
 30
0.0
 10
116.4160920188
 20
182.4995547189
 30
0.0
 10
120.3553610985
 20
184.4320596656
 30
0.0
 10
122.1900912183
 20
185.4913352711
 30
0.0
  0
SPLINE
  5
2F5
100
AcDbEntity
  8
0
100
AcDbSpline
 62
7
  6
CONTINUOUS
 70
0
 71
3
 72
12
 73
8
 74
0
 42
0.0000001
 43
0.0000001
 44
0.0000000001
 40
0.0
 40
0.0
 40
0.0
 40
0.0
 40
0.10773921
 40
0.1952212988
 40
0.3082765696
 40
0.6102138061
 40
1.0
 40
1.0
 40
1.0
 40
1.0
 10
131.7704864634
 20
53.3970297368
 30
0.0
 10
131.7544636576
 20
53.3989929555
 30
0.0
 10
131.7331135514
 20
53.4268925477
 30
0.0
 10
131.7178274577
 20
53.4688583093
 30
0.0
 10
131.6997165287
 20
53.5428150967
 30
0.0
 10
131.6873568444
 20
53.6626507787
 30
0.0
 10
131.6843766937
 20
53.766425196
 30
0.0
 10
131.6843766937
 20
53.8248270969
 30
0.0
  0
SPLINE
  5
2F6
100
AcDbEntity
  8
0
100
AcDbSpline
 62
7
  6
CONTINUOUS
 70
0
 71
3
 72
9
 73
5
 74
0
 42
0.0000001
 43
0.0000001
 44
0.0000000001
 40
0.0
 40
0.0
 40
0.0
 40
0.0
 40
0.2584416766
 40
1.0
 40
1.0
 40
1.0
 40
1.0
 10
149.1718699731
 20
36.7067914868
 30
0.0
 10
149.0887531591
 20
36.7196493047
 30
0.0
 10
148.7685913915
 20
36.777911288
 30
0.0
 10
148.4539747379
 20
36.8696932332
 30
0.0
 10
148.2301627603
 20
36.9599550602
 30
0.0
  0
SPLINE
  5
2F7
100
AcDbEntity
  8
0
100
AcDbSpline
 62
7
  6
CONTINUOUS
 70
0
 71
3
 72
9
 73
5
 74
0
 42
0.0000001
 43
0.0000001
 44
0.0000000001
 40
0.0
 40
0.0
 40
0.0
 40
0.0
 40
0.2575347771
 40
1.0
 40
1.0
 40
1.0
 40
1.0
 10
148.2301627603
 20
36.9599550602
 30
0.0
 10
148.1944832496
 20
36.9743443608
 30
0.0
 10
148.0568616529
 20
37.0324525228
 30
0.0
 10
147.9230068117
 20
37.0996486903
 30
0.0
 10
147.8269515889
 20
37.1551023151
 30
0.0
  0
SPLINE
  5
2F8
100
AcDbEntity
  8
0
100
AcDbSpline
 62
7
  6
CONTINUOUS
 70
0
 71
3
 72
9
 73
5
 74
0
 42
0.0000001
 43
0.0000001
 44
0.0000000001
 40
0.0
 40
0.0
 40
0.0
 40
0.0
 40
0.2348462021
 40
1.0
 40
1.0
 40
1.0
 40
1.0
 10
152.069644785
 20
37.1551217706
 30
0.0
 10
151.9937330841
 20
37.1112763049
 30
0.0
 10
151.6618315118
 20
36.9396386763
 30
0.0
 10
151.3022769825
 20
36.8246495492
 30
0.0
 10
151.023430553
 20
36.7628190123
 30
0.0
  0
SPLINE
  5
2F9
100
AcDbEntity
  8
0
100
AcDbSpline
 62
7
  6
CONTINUOUS
 70
0
 71
3
 72
9
 73
5
 74
0
 42
0.0000001
 43
0.0000001
 44
0.0000000001
 40
0.0
 40
0.0
 40
0.0
 40
0.0
 40
0.2457949382
 40
1.0
 40
1.0
 40
1.0
 40
1.0
 10
151.023430553
 20
36.7628190123
 30
0.0
 10
150.8861290649
 20
36.7323742089
 30
0.0
 10
150.322027486
 20
36.6345800029
 30
0.0
 10
149.7414444421
 20
36.6336318613
 30
0.0
 10
149.313231106
 20
36.6870561591
 30
0.0
  0
SPLINE
  5
2FA
100
AcDbEntity
  8
0
100
AcDbSpline
 62
7
  6
CONTINUOUS
 70
0
 71
3
 72
15
 73
11
 74
0
 42
0.0000001
 43
0.0000001
 44
0.0000000001
 40
0.0
 40
0.0
 40
0.0
 40
0.0
 40
0.088059887
 40
0.1843543397
 40
0.2938783084
 40
0.4178176687
 40
0.5544839987
 40
0.700266818
 40
0.8505310691
 40
1.0
 40
1.0
 40
1.0
 40
1.0
 10
156.9483150439
 20
66.875736401
 30
0.0
 10
156.9483169222
 20
66.5638204984
 30
0.0
 10
156.8102704059
 20
65.9054753049
 30
0.0
 10
156.2339018597
 20
65.0177593071
 30
0.0
 10
155.342206512
 20
64.2453758459
 30
0.0
 10
154.1838807371
 20
63.6146669069
 30
0.0
 10
152.8149300956
 20
63.1508758964
 30
0.0
 10
151.3021281742
 20
62.8752672269
 30
0.0
 10
149.7215050147
 20
62.8018152922
 30
0.0
 10
148.6598186593
 20
62.8911069278
 30
0.0
 10
148.1366098788
 20
62.9720451028
 30
0.0
  0
SPLINE
  5
2FB
100
AcDbEntity
  8
0
100
AcDbSpline
 62
7
  6
CONTINUOUS
 70
0
 71
3
 72
25
 73
21
 74
0
 42
0.0000001
 43
0.0000001
 44
0.0000000001
 40
0.0
 40
0.0
 40
0.0
 40
0.0
 40
0.0213772585
 40
0.0429116471
 40
0.0648300247
 40
0.0873396254
 40
0.1347497492
 40
0.1862463585
 40
0.2423160934
 40
0.3029808603
 40
0.3678957042
 40
0.4364380952
 40
0.507782458
 40
0.5809627081
 40
0.6549271231
 40
0.7285884742
 40
0.8008737963
 40
0.8707710189
 40
0.9373884072
 40
1.0
 40
1.0
 40
1.0
 40
1.0
 10
33.3245535714
 20
154.0114316224
 30
0.0
 10
33.2915548877
 20
153.2410666714
 30
0.0
 10
33.3254619915
 20
151.6885309788
 30
0.0
 10
33.6771358699
 20
149.3706605368
 30
0.0
 10
34.3275488877
 20
147.0756061568
 30
0.0
 10
35.6077479749
 20
144.0130200761
 30
0.0
 10
37.9831266402
 20
140.2910060599
 30
0.0
 10
41.8571735207
 20
136.2231282867
 30
0.0
 10
46.7115042083
 20
132.5447979839
 30
0.0
 10
52.4394836904
 20
129.3281062803
 30
0.0
 10
58.9188502824
 20
126.6364613314
 30
0.0
 10
66.0107317254
 20
124.5259135876
 30
0.0
 10
73.5622250586
 20
123.0412419559
 30
0.0
 10
81.4096431531
 20
122.2144435839
 30
0.0
 10
89.3823243903
 20
122.0634678025
 30
0.0
 10
97.3067233544
 20
122.5915779399
 30
0.0
 10
105.0102044767
 20
123.7873126646
 30
0.0
 10
112.3260554402
 20
125.6249160329
 30
0.0
 10
119.0944455256
 20
128.0644150829
 30
0.0
 10
123.2886125796
 20
130.1287098788
 30
0.0
 10
125.2444313274
 20
131.257895619
 30
0.0
  0
ENDSEC
  0
SECTION
  2
OBJECTS
  0
DICTIONARY
  5
C
100
AcDbDictionary
280
0
281
1
  3
ACAD_GROUP
350
D
  3
ACAD_MLINESTYLE
350
17
  3
ACAD_LAYOUT
350
1A
  3
ACAD_PLOTSETTINGS
350
19
  3
ACAD_PLOTSTYLENAME
350
E
  0
DICTIONARY
  5
D
102
{ACAD_REACTORS
330
C
102
}
100
AcDbDictionary
280
0
281
1
  0
ACDBDICTIONARYWDFLT
  5
E
102
{ACAD_REACTORS
330
C
102
}
100
AcDbDictionary
281
1
  3
Normal
350
F
100
AcDbDictionaryWithDefault
340
F
  0
DICTIONARY
  5
17
102
{ACAD_REACTORS
330
C
102
}
100
AcDbDictionary
280
0
281
1
  3
Standard
350
18
  0
DICTIONARY
  5
19
102
{ACAD_REACTORS
330
C
102
}
100
AcDbDictionary
281
1
  0
DICTIONARY
  5
1A
102
{ACAD_REACTORS
330
C
102
}
100
AcDbDictionary
281
1
  3
Model
350
2FC
  3
Layout1
350
2FD
  0
ACDBPLACEHOLDER
  5
F
102
{ACAD_REACTORS
330
E
102
}
  0
MLINESTYLE
  5
18
102
{ACAD_REACTORS
330
17
102
}
100
AcDbMlineStyle
  2
STANDARD
 70
0
  3

 62
256
 51
90.0
 52
90.0
 71
2
 49
0.5
 62
256
  6
BYLAYER
 49
-0.5
 62
256
  6
BYLAYER
  0
LAYOUT
  5
2FC
102
{ACAD_REACTORS
330
1A
102
}
100
AcDbPlotSettings
  1

  2
none_device
  4

  6

 40
0.0
 41
0.0
 42
0.0
 43
0.0
 44
210.0
 45
297.0
 46
0.0
 47
0.0
 48
0.0
 49
0.0
140
0.0
141
0.0
142
1.0
143
1.0
 70
1024
 72
1
 73
0
 74
0
  7

 75
0
147
1.0
148
0.0
149
0.0
100
AcDbLayout
  1
Model
 70
0
 71
0
 10
0.0
 20
0.0
 11
210.0
 21
297.0
 12
0.0
 22
0.0
 32
0.0
 14
0.0
 24
0.0
 34
0.0
 15
0.0
 25
0.0
 35
0.0
146
0.0
 13
0.0
 23
0.0
 33
0.0
 16
1.0
 26
0.0
 36
0.0
 17
0.0
 27
1.0
 37
0.0
 76
0
330
210
345
0
346
0
  0
LAYOUT
  5
2FD
102
{ACAD_REACTORS
330
1A
102
}
100
AcDbPlotSettings
  1

  2
none_device
  4

  6

 40
0.0
 41
0.0
 42
0.0
 43
0.0
 44
210.0
 45
297.0
 46
0.0
 47
0.0
 48
0.0
 49
0.0
140
0.0
141
0.0
142
1.0
143
1.0
 70
0
 72
1
 73
0
 74
0
  7

 75
0
147
1.0
148
0.0
149
0.0
100
AcDbLayout
  1
Layout1
 70
0
 71
1
 10
0.0
 20
0.0
 11
210.0
 21
297.0
 12
0.0
 22
0.0
 32
0.0
 14
0.0
 24
0.0
 34
0.0
 15
0.0
 25
0.0
 35
0.0
146
0.0
 13
0.0
 23
0.0
 33
0.0
 16
1.0
 26
0.0
 36
0.0
 17
0.0
 27
1.0
 37
0.0
 76
0
330
211
345
0
346
0
  0
ENDSEC
  0
EOF
