999
DXF file: C:\Users\sesa63760\Dev\_Creo\CAD\MCADPE0010348_3D-CAD\drw0001_1.dxf
999
Pro/ENGINEER 2019471 by Parametric Technology Corporation
  0
SECTION
  2
HEADER
  9
$ACADVER
  1
AC1024
  9
$DWGCODEPAGE
  3
ANSI_1252
  9
$EXTMAX
 10
60.7096725383
 20
85.8608225899
 30
0.0
  9
$EXTMIN
 10
0.0
 20
0.0
 30
0.0
  9
$LIMMIN
 10
0.0
 20
0.0
  9
$LIMMAX
 10
60.7096725383
 20
85.8608225899
  9
$VIEWCTR
 10
30.3548362692
 20
42.930411295
  9
$VIEWSIZE
 40
85.8608225899
  9
$CLAYER
  8
0
  9
$LTSCALE
 40
5.5968536207
  9
$CELTYPE
  6
BYLAYER
  9
$DIMSCALE
 40
1.0
  9
$DIMASZ
 40
0.7227341969
  9
$DIMEXO
 40
1.0
  9
$DIMDLI
 40
3.866917047
  9
$DIMEXE
 40
1.0
  9
$DIMCEN
 40
0.9158487743
  9
$DIMLFAC
 40
1.0
  9
$DIMBLK
  1
_FILLED
  9
$DIMALT
 70
0
  9
$DIMALTF
 40
0.0393700787
  9
$DIMTXT
 40
1.0118278756
  9
$DIMTOL
 70
1
  9
$DIMLIM
 70
0
  9
$DIMTFAC
 40
1.0
  9
$DIMTP
 40
0.01
  9
$DIMTM
 40
0.01
  9
$DIMGAP
 40
0.625
  9
$DIMDSEP
 70
46
  9
$AUNITS
 70
0
  9
$PDMODE
 70
3
  9
$PDSIZE
 40
0.3125
  9
$HANDSEED
  5
24B
  9
$TILEMODE
 70
1
  9
$MEASUREMENT
 70
1
  9
$INSUNITS
 70
4
  0
ENDSEC
  0
SECTION
  2
CLASSES
  0
CLASS
  1
ACDBDICTIONARYWDFLT
  2
AcDbDictionaryWithDefault
  3
AutoCAD 2000
 90
0
 91
1
280
0
281
0
  0
CLASS
  1
ACDBPLACEHOLDER
  2
AcDbPlaceHolder
  3
AutoCAD 2000
 90
0
 91
1
280
0
281
0
  0
CLASS
  1
LAYOUT
  2
AcDbLayout
  3
AutoCAD 2000
 90
0
 91
0
280
0
281
0
  0
ENDSEC
  0
SECTION
  2
TABLES
  0
TABLE
  2
VPORT
  5
8
100
AcDbSymbolTable
 70
2
  0
VPORT
  5
1F4
100
AcDbSymbolTableRecord
100
AcDbViewportTableRecord
  2
*ACTIVE
 70
0
 10
0.0
 20
0.0
 11
1.0
 21
1.0
 12
30.3548362692
 22
42.930411295
 13
0.0
 23
0.0
 14
1.0
 24
1.0
 15
0.0
 25
0.0
 16
0.0
 26
0.0
 36
1.0
 17
0.0
 27
0.0
 37
0.0
 40
85.8608225899
 41
0.7070707071
 42
50.0
 43
0.0
 44
0.0
 50
0.0
 51
0.0
 71
0
 72
100
 73
1
 74
1
 75
0
 76
0
 77
0
 78
0
  0
ENDTAB
  0
TABLE
  2
LTYPE
  5
5
100
AcDbSymbolTable
 70
6
  0
LTYPE
  5
14
100
AcDbSymbolTableRecord
100
AcDbLinetypeTableRecord
  2
BYBLOCK
 70
0
  3

 72
65
 73
0
 40
0.0
  0
LTYPE
  5
15
100
AcDbSymbolTableRecord
100
AcDbLinetypeTableRecord
  2
BYLAYER
 70
0
  3

 72
65
 73
0
 40
0.0
  0
LTYPE
  5
16
100
AcDbSymbolTableRecord
100
AcDbLinetypeTableRecord
  2
CONTINUOUS
 70
64
  3
Solid line
 72
65
 73
0
 40
0.0
  0
LTYPE
  5
1F5
100
AcDbSymbolTableRecord
100
AcDbLinetypeTableRecord
  2
CENTER
 70
64
  3
____ _ ____ _ ____ _ ____ _ ____ _ ____ _ ____
 72
65
 73
4
 40
0.6
 49
0.375
 74
0
 49
-0.075
 74
0
 49
0.075
 74
0
 49
-0.075
 74
0
  0
LTYPE
  5
1F6
100
AcDbSymbolTableRecord
100
AcDbLinetypeTableRecord
  2
HIDDEN
 70
64
  3
- - - - - - - - - - - - - - - - - - - -
 72
65
 73
2
 40
0.2
 49
0.1
 74
0
 49
-0.1
 74
0
  0
LTYPE
  5
1F7
100
AcDbSymbolTableRecord
100
AcDbLinetypeTableRecord
  2
PHANTOM
 70
64
  3
_____ _ _ _____ _ _ _____ _ _ _____
 72
65
 73
6
 40
0.8
 49
0.45
 74
0
 49
-0.05
 74
0
 49
0.1
 74
0
 49
-0.05
 74
0
 49
0.1
 74
0
 49
-0.05
 74
0
  0
LTYPE
  5
1F8
100
AcDbSymbolTableRecord
100
AcDbLinetypeTableRecord
  2
DOT
 70
64
  3
. . . . . . . . . . . . . . . . . . . .
 72
65
 73
2
 40
0.2
 49
0.1
 74
0
 49
-0.1
 74
0
  0
LTYPE
  5
1F9
100
AcDbSymbolTableRecord
100
AcDbLinetypeTableRecord
  2
DASHED
 70
64
  3
- - - - - - - - - - - - - - - - - - - -
 72
65
 73
2
 40
0.2
 49
0.1
 74
0
 49
-0.1
 74
0
  0
ENDTAB
  0
TABLE
  2
LAYER
  5
2
100
AcDbSymbolTable
 70
36
  0
LAYER
  5
10
100
AcDbSymbolTableRecord
100
AcDbLayerTableRecord
  2
0
 70
0
 62
7
  6
CONTINUOUS
370
-3
390
F
  0
LAYER
  5
1FA
100
AcDbSymbolTableRecord
100
AcDbLayerTableRecord
  2
DEFAULT_1
 70
0
 62
7
  6
CENTER
370
-3
390
F
  0
LAYER
  5
1FB
100
AcDbSymbolTableRecord
100
AcDbLayerTableRecord
  2
DEFAULT_2
 70
0
 62
7
  6
HIDDEN
370
-3
390
F
  0
LAYER
  5
1FC
100
AcDbSymbolTableRecord
100
AcDbLayerTableRecord
  2
DEFAULT_3
 70
0
 62
7
  6
PHANTOM
370
-3
390
F
  0
LAYER
  5
1FD
100
AcDbSymbolTableRecord
100
AcDbLayerTableRecord
  2
00_COMPONENTS
 70
0
 62
7
  6
CONTINUOUS
370
-3
390
F
  0
LAYER
  5
1FE
100
AcDbSymbolTableRecord
100
AcDbLayerTableRecord
  2
01_1_DEFAULT_DATUMS
 70
0
 62
7
  6
CONTINUOUS
370
-3
390
F
  0
LAYER
  5
1FF
100
AcDbSymbolTableRecord
100
AcDbLayerTableRecord
  2
01_PLANES
 70
0
 62
7
  6
CONTINUOUS
370
-3
390
F
  0
LAYER
  5
200
100
AcDbSymbolTableRecord
100
AcDbLayerTableRecord
  2
02_COORD_SYS
 70
0
 62
7
  6
CONTINUOUS
370
-3
390
F
  0
LAYER
  5
201
100
AcDbSymbolTableRecord
100
AcDbLayerTableRecord
  2
03_AXES
 70
0
 62
7
  6
CONTINUOUS
370
-3
390
F
  0
LAYER
  5
202
100
AcDbSymbolTableRecord
100
AcDbLayerTableRecord
  2
04_POINTS
 70
0
 62
7
  6
CONTINUOUS
370
-3
390
F
  0
LAYER
  5
203
100
AcDbSymbolTableRecord
100
AcDbLayerTableRecord
  2
05_CURVES
 70
0
 62
7
  6
CONTINUOUS
370
-3
390
F
  0
LAYER
  5
204
100
AcDbSymbolTableRecord
100
AcDbLayerTableRecord
  2
06_SURFS
 70
0
 62
7
  6
CONTINUOUS
370
-3
390
F
  0
LAYER
  5
205
100
AcDbSymbolTableRecord
100
AcDbLayerTableRecord
  2
07_COSMETICS
 70
0
 62
7
  6
CONTINUOUS
370
-3
390
F
  0
LAYER
  5
206
100
AcDbSymbolTableRecord
100
AcDbLayerTableRecord
  2
10_NOTES
 70
0
 62
7
  6
CONTINUOUS
370
-3
390
F
  0
LAYER
  5
207
100
AcDbSymbolTableRecord
100
AcDbLayerTableRecord
  2
11_NOTES_PUB
 70
0
 62
7
  6
CONTINUOUS
370
-3
390
F
  0
LAYER
  5
208
100
AcDbSymbolTableRecord
100
AcDbLayerTableRecord
  2
13_REF_GTOL
 70
0
 62
7
  6
CONTINUOUS
370
-3
390
F
  0
LAYER
  5
209
100
AcDbSymbolTableRecord
100
AcDbLayerTableRecord
  2
16_MISC
 70
0
 62
7
  6
CONTINUOUS
370
-3
390
F
  0
LAYER
  5
20A
100
AcDbSymbolTableRecord
100
AcDbLayerTableRecord
  2
17_NO_PRINT
 70
0
 62
7
  6
CONTINUOUS
370
-3
390
F
  0
LAYER
  5
20B
100
AcDbSymbolTableRecord
100
AcDbLayerTableRecord
  2
18_DATUM_CAMS_JOINTS
 70
0
 62
7
  6
CONTINUOUS
370
-3
390
F
  0
LAYER
  5
20C
100
AcDbSymbolTableRecord
100
AcDbLayerTableRecord
  2
19_DATUM_FUNCTIONAL
 70
0
 62
7
  6
CONTINUOUS
370
-3
390
F
  0
LAYER
  5
20D
100
AcDbSymbolTableRecord
100
AcDbLayerTableRecord
  2
20_DATUM_KINEMATIC_SCHEME
 70
0
 62
7
  6
CONTINUOUS
370
-3
390
F
  0
ENDTAB
  0
TABLE
  2
STYLE
  5
3
100
AcDbSymbolTable
 70
1
  0
STYLE
  5
11
100
AcDbSymbolTableRecord
100
AcDbTextStyleTableRecord
  2
STANDARD
 70
0
 40
0.0
 41
1.0
 50
0.0
 71
0
 42
0.2
  3
ARIAL.TTF
  4

  0
STYLE
  5
20E
100
AcDbSymbolTableRecord
100
AcDbTextStyleTableRecord
  2
TEXTSTYLE_1
 70
0
 40
0.0
 41
0.8
 50
0.0
 71
0
 42
0.2
  3
gdt
  4

  0
ENDTAB
  0
TABLE
  2
VIEW
  5
6
100
AcDbSymbolTable
 70
0
  0
ENDTAB
  0
TABLE
  2
UCS
  5
7
100
AcDbSymbolTable
 70
0
  0
ENDTAB
  0
TABLE
  2
APPID
  5
9
100
AcDbSymbolTable
 70
1
  0
APPID
  5
20F
100
AcDbSymbolTableRecord
100
AcDbRegAppTableRecord
  2
ACAD
 70
0
  0
ENDTAB
  0
TABLE
  2
BLOCK_RECORD
  5
1
100
AcDbSymbolTable
 70
0
  0
BLOCK_RECORD
  5
210
100
AcDbSymbolTableRecord
100
AcDbBlockTableRecord
  2
*Model_Space
  0
BLOCK_RECORD
  5
211
100
AcDbSymbolTableRecord
100
AcDbBlockTableRecord
  2
*Paper_Space
  0
BLOCK_RECORD
  5
212
100
AcDbSymbolTableRecord
100
AcDbBlockTableRecord
  2
_FILLED
  0
ENDTAB
  0
TABLE
  2
DIMSTYLE
  5
A
100
AcDbSymbolTable
 70
1
100
AcDbDimStyleTable
 71
0
  0
DIMSTYLE
105
213
100
AcDbSymbolTableRecord
100
AcDbDimStyleTableRecord
  2
STANDARD
 70
0
  3

  4

 40
1.0
 41
0.7227341969
 42
1.0
 43
0.38
 44
1.0
 45
0.0
 46
0.0
 47
0.01
 48
0.01
140
1.0118278756
141
0.09
142
0.0
143
25.4
144
1.0
145
0.0
146
1.0
147
0.625
 71
1
 72
0
 73
0
 74
0
 75
0
 76
0
 77
1
 78
8
 79
2
170
0
171
1
172
0
173
0
174
0
175
0
176
0
177
0
178
0
270
2
179
2
271
2
272
2
273
2
274
2
275
0
280
0
281
0
282
0
283
1
284
8
285
0
286
0
287
3
288
0
340
11
278
46
341
212
342
212
343
212
344
212
  0
ENDTAB
  0
ENDSEC
  0
SECTION
  2
BLOCKS
  0
BLOCK
  5
20
100
AcDbEntity
  8
0
100
AcDbBlockBegin
  2
*Model_Space
 70
0
 10
0.0
 20
0.0
 30
0.0
  3
*Model_Space
  1

  0
ENDBLK
  5
21
100
AcDbEntity
  8
0
100
AcDbBlockEnd
  0
BLOCK
  5
1C
100
AcDbEntity
  8
0
100
AcDbBlockBegin
  2
*Paper_Space
 70
0
 10
0.0
 20
0.0
 30
0.0
  3
*Paper_Space
  1

  0
ENDBLK
  5
1D
100
AcDbEntity
  8
0
100
AcDbBlockEnd
  0
BLOCK
  5
214
100
AcDbEntity
  8
0
100
AcDbBlockBegin
  2
_FILLED
 70
64
 10
0.0
 20
0.0
  3
_FILLED
  1

  0
SOLID
  5
215
100
AcDbEntity
  8
0
  6
BYBLOCK
 62
0
100
AcDbTrace
 10
0.0
 20
0.0
 11
-1.0
 21
0.25
 12
-1.0
 22
-0.25
 13
-1.0
 23
-0.25
  0
ENDBLK
  5
216
100
AcDbEntity
  8
0
  6
BYBLOCK
 62
0
100
AcDbBlockEnd
  0
ENDSEC
  0
SECTION
  2
ENTITIES
  0
LINE
  5
217
100
AcDbEntity
  8
0
100
AcDbLine
 62
7
  6
BYLAYER
 10
21.4370404794
 20
6.6494426461
 11
21.6256069293
 21
6.6449014972
  0
LINE
  5
218
100
AcDbEntity
  8
0
100
AcDbLine
 62
7
  6
BYLAYER
 10
19.8813634221
 20
7.5475103883
 11
21.4370048175
 21
6.6493807284
  0
LINE
  5
219
100
AcDbEntity
  8
0
100
AcDbLine
 62
7
  6
BYLAYER
 10
21.3334486571
 20
6.8782738027
 11
19.7778072618
 21
7.7764034622
  0
LINE
  5
21A
100
AcDbEntity
  8
0
100
AcDbLine
 62
7
  6
BYLAYER
 10
37.2264578403
 20
79.2511502566
 11
37.0692072149
 21
79.1603621077
  0
LINE
  5
21B
100
AcDbEntity
  8
0
100
AcDbLine
 62
7
  6
BYLAYER
 10
28.0128558319
 20
73.9317064097
 11
24.9381707691
 21
72.1565467573
  0
LINE
  5
21C
100
AcDbEntity
  8
0
100
AcDbLine
 62
7
  6
BYLAYER
 10
20.069965534
 20
68.3597408231
 11
24.889055852
 21
72.1232286134
  0
LINE
  5
21D
100
AcDbEntity
  8
0
100
AcDbLine
 62
7
  6
BYLAYER
 10
38.7820992357
 20
78.3530205967
 11
38.6248486102
 21
78.2622324477
  0
LINE
  5
21E
100
AcDbEntity
  8
0
100
AcDbLine
 62
7
  6
BYLAYER
 10
29.5684972272
 20
73.0335767497
 11
26.4938121644
 21
71.2584170973
  0
LINE
  5
21F
100
AcDbEntity
  8
0
100
AcDbLine
 62
7
  6
BYLAYER
 10
26.4446972472
 20
71.2250989533
 11
21.6256069294
 21
67.4616111632
  0
LINE
  5
220
100
AcDbEntity
  8
0
100
AcDbLine
 62
7
  6
BYLAYER
 10
19.7778072618
 20
67.7890152175
 11
19.7778072618
 21
7.7764034622
  0
LINE
  5
221
100
AcDbEntity
  8
0
100
AcDbLine
 62
7
  6
BYLAYER
 10
21.3334486571
 20
66.8908855555
 11
21.333448657
 21
6.8782738038
  0
LINE
  5
222
100
AcDbEntity
  8
0
100
AcDbLine
 62
7
  6
BYLAYER
 10
41.8748151281
 20
74.6173378239
 11
41.8748151281
 21
20.6155640769
  0
LINE
  5
223
100
AcDbEntity
  8
0
100
AcDbLine
 62
7
  6
BYLAYER
 10
19.7778072618
 20
67.7890152175
 11
21.3334486571
 21
66.8908855571
  0
LINE
  5
224
100
AcDbEntity
  8
0
100
AcDbLine
 62
7
  6
BYLAYER
 10
21.6256069294
 20
67.4616111632
 11
20.069965534
 21
68.3597408231
  0
LINE
  5
225
100
AcDbEntity
  8
0
100
AcDbLine
 62
7
  6
BYLAYER
 10
24.889055852
 20
72.1232286134
 11
26.4446972473
 21
71.2250989534
  0
LINE
  5
226
100
AcDbEntity
  8
0
100
AcDbLine
 62
7
  6
BYLAYER
 10
26.4938121644
 20
71.2584170973
 11
24.9381707691
 21
72.1565467573
  0
LINE
  5
227
100
AcDbEntity
  8
0
100
AcDbLine
 62
7
  6
BYLAYER
 10
28.0128558319
 20
73.9317064097
 11
29.5684972272
 21
73.0335767497
  0
LINE
  5
228
100
AcDbEntity
  8
0
100
AcDbLine
 62
7
  6
BYLAYER
 10
41.7262841083
 20
75.2601029178
 11
40.0477758903
 21
78.1792691643
  0
LINE
  5
229
100
AcDbEntity
  8
0
100
AcDbLine
 62
7
  6
BYLAYER
 10
39.0463997792
 20
15.7165777928
 11
36.4281740199
 21
14.2049534691
  0
LINE
  5
22A
100
AcDbEntity
  8
0
100
AcDbLine
 62
7
  6
BYLAYER
 10
29.6438603059
 20
10.2880515008
 11
26.4938121644
 21
8.4693812143
  0
LINE
  5
22B
100
AcDbEntity
  8
0
100
AcDbLine
 62
7
  6
BYLAYER
 10
28.5455823839
 20
74.1189821728
 11
30.1012237792
 21
73.2208525129
  0
LINE
  5
22C
100
AcDbEntity
  8
0
100
AcDbLine
 62
7
  6
BYLAYER
 10
21.6256069293
 20
6.6449014972
 11
26.4446972472
 21
8.4459866755
  0
LINE
  5
22D
100
AcDbEntity
  8
0
100
AcDbLine
 62
7
  6
BYLAYER
 10
40.0477758903
 20
78.1792691643
 11
39.7820338035
 21
78.4519923912
  0
LINE
  5
22E
100
AcDbEntity
  8
0
100
AcDbLine
 62
7
  6
BYLAYER
 10
36.536480663
 20
78.7325019064
 11
38.0921220583
 21
77.8343722464
  0
LINE
  5
22F
100
AcDbEntity
  8
0
100
AcDbLine
 62
7
  6
BYLAYER
 10
38.6248486102
 20
78.2622324477
 11
37.0692072149
 21
79.1603621077
  0
LINE
  5
230
100
AcDbEntity
  8
0
100
AcDbLine
 62
7
  6
BYLAYER
 10
37.2264578403
 20
79.2511502566
 11
38.7820992357
 21
78.3530205967
  0
LINE
  5
231
100
AcDbEntity
  8
0
100
AcDbLine
 62
7
  6
BYLAYER
 10
38.2264408733
 20
79.3502060258
 11
39.7820822686
 21
78.4520763658
  0
SPLINE
  5
232
100
AcDbEntity
  8
0
100
AcDbSpline
 62
7
  6
BYLAYER
 70
0
 71
3
 72
9
 73
5
 74
0
 42
0.0000001
 43
0.0000001
 44
0.0000000001
 40
0.0
 40
0.0
 40
0.0
 40
0.0
 40
0.2759858883
 40
1.0
 40
1.0
 40
1.0
 40
1.0
 10
41.8748151281
 20
74.6173378246
 30
0.0
 10
41.8748151281
 20
74.678384278
 30
0.0
 10
41.8642821353
 20
74.8988741428
 30
0.0
 10
41.8061126494
 20
75.1212696491
 30
0.0
 10
41.7262841083
 20
75.2601029178
 30
0.0
  0
SPLINE
  5
233
100
AcDbEntity
  8
0
100
AcDbSpline
 62
7
  6
BYLAYER
 70
0
 71
3
 72
15
 73
11
 74
0
 42
0.0000001
 43
0.0000001
 44
0.0000000001
 40
0.0
 40
0.0
 40
0.0
 40
0.0
 40
0.1141462769
 40
0.2373347432
 40
0.3669750849
 40
0.4999983967
 40
0.6330219315
 40
0.7626629244
 40
0.8858524171
 40
1.0
 40
1.0
 40
1.0
 40
1.0
 10
39.0463997792
 20
15.7165777928
 30
0.0
 10
39.240013545
 20
15.8283600854
 30
0.0
 10
39.6224614506
 20
16.0964841996
 30
0.0
 10
40.1487204699
 20
16.5887840175
 30
0.0
 10
40.6336360075
 20
17.1708026208
 30
0.0
 10
41.0590581904
 20
17.8205461193
 30
0.0
 10
41.4090386464
 20
18.513847135
 30
0.0
 10
41.6706221004
 20
19.2248101627
 30
0.0
 10
41.833836281
 20
19.9267198147
 30
0.0
 10
41.874815128
 20
20.3919959331
 30
0.0
 10
41.874815128
 20
20.615564077
 30
0.0
  0
SPLINE
  5
234
100
AcDbEntity
  8
0
100
AcDbSpline
 62
7
  6
BYLAYER
 70
0
 71
3
 72
9
 73
5
 74
0
 42
0.0000001
 43
0.0000001
 44
0.0000000001
 40
0.0
 40
0.0
 40
0.0
 40
0.0
 40
0.235432843
 40
1.0
 40
1.0
 40
1.0
 40
1.0
 10
36.0290967426
 20
14.0409158593
 30
0.0
 10
36.0621071944
 20
14.0487621912
 30
0.0
 10
36.2008673612
 20
14.0881718348
 30
0.0
 10
36.332748264
 20
14.1498597121
 30
0.0
 10
36.4281740199
 20
14.2049534691
 30
0.0
  0
SPLINE
  5
235
100
AcDbEntity
  8
0
100
AcDbSpline
 62
7
  6
BYLAYER
 70
0
 71
3
 72
9
 73
5
 74
0
 42
0.0000001
 43
0.0000001
 44
0.0000000001
 40
0.0
 40
0.0
 40
0.0
 40
0.0
 40
0.5199014274
 40
1.0
 40
1.0
 40
1.0
 40
1.0
 10
33.0360171629
 20
12.8106337856
 30
0.0
 10
33.5229626157
 20
13.0917701957
 30
0.0
 10
34.4928512816
 20
13.5777938959
 30
0.0
 10
35.5239423063
 20
13.9208445135
 30
0.0
 10
36.0290967426
 20
14.0409158593
 30
0.0
  0
SPLINE
  5
236
100
AcDbEntity
  8
0
100
AcDbSpline
 62
7
  6
BYLAYER
 70
0
 71
3
 72
9
 73
5
 74
0
 42
0.0000001
 43
0.0000001
 44
0.0000000001
 40
0.0
 40
0.0
 40
0.0
 40
0.0
 40
0.51501389
 40
1.0
 40
1.0
 40
1.0
 40
1.0
 10
30.0429375831
 20
10.5848258872
 30
0.0
 10
30.5155788693
 20
11.0182385584
 30
0.0
 10
31.4737493648
 20
11.8170655078
 30
0.0
 10
32.5130344002
 20
12.5086913492
 30
0.0
 10
33.0360171629
 20
12.8106337856
 30
0.0
  0
SPLINE
  5
237
100
AcDbEntity
  8
0
100
AcDbSpline
 62
7
  6
BYLAYER
 70
0
 71
3
 72
9
 73
5
 74
0
 42
0.0000001
 43
0.0000001
 44
0.0000000001
 40
0.0
 40
0.0
 40
0.0
 40
0.0
 40
0.2386599626
 40
1.0
 40
1.0
 40
1.0
 40
1.0
 10
29.6438603059
 20
10.2880515008
 30
0.0
 10
29.6781632151
 20
10.3078561765
 30
0.0
 10
29.8192677559
 20
10.3953667172
 30
0.0
 10
29.9498086357
 20
10.4994265219
 30
0.0
 10
30.0429375831
 20
10.5848258872
 30
0.0
  0
SPLINE
  5
238
100
AcDbEntity
  8
0
100
AcDbSpline
 62
7
  6
BYLAYER
 70
0
 71
3
 72
9
 73
5
 74
0
 42
0.0000001
 43
0.0000001
 44
0.0000000001
 40
0.0
 40
0.0
 40
0.0
 40
0.0
 40
0.2412721597
 40
1.0
 40
1.0
 40
1.0
 40
1.0
 10
26.4446972472
 20
8.4459866755
 30
0.0
 10
26.4487982975
 20
8.4475194007
 30
0.0
 10
26.4656484981
 20
8.4542640663
 30
0.0
 10
26.4818888526
 20
8.4624973282
 30
0.0
 10
26.4938121644
 20
8.4693812143
 30
0.0
  0
SPLINE
  5
239
100
AcDbEntity
  8
0
100
AcDbSpline
 62
7
  6
BYLAYER
 70
0
 71
3
 72
11
 73
7
 74
0
 42
0.0000001
 43
0.0000001
 44
0.0000000001
 40
0.0
 40
0.0
 40
0.0
 40
0.0
 40
0.2327144124
 40
0.4901165932
 40
0.7527971615
 40
1.0
 40
1.0
 40
1.0
 40
1.0
 10
19.7778072618
 20
67.7890152175
 30
0.0
 10
19.7778072618
 20
67.8401614583
 30
0.0
 10
19.7948476967
 20
67.9479815056
 30
0.0
 10
19.8560735113
 20
68.1027834402
 30
0.0
 10
19.9478823658
 20
68.2454477215
 30
0.0
 10
20.0271456085
 20
68.3263004316
 30
0.0
 10
20.069965534
 20
68.3597408231
 30
0.0
  0
SPLINE
  5
23A
100
AcDbEntity
  8
0
100
AcDbSpline
 62
7
  6
BYLAYER
 70
0
 71
3
 72
11
 73
7
 74
0
 42
0.0000001
 43
0.0000001
 44
0.0000000001
 40
0.0
 40
0.0
 40
0.0
 40
0.0
 40
0.2176512419
 40
0.4508386054
 40
0.7105828274
 40
1.0
 40
1.0
 40
1.0
 40
1.0
 10
19.8813697028
 20
7.5475214047
 30
0.0
 10
19.8648844316
 20
7.5570332306
 30
0.0
 10
19.834035266
 20
7.5829708917
 30
0.0
 10
19.8011386626
 20
7.6366908919
 30
0.0
 10
19.7816965625
 20
7.7029193128
 30
0.0
 10
19.7778072618
 20
7.7510952915
 30
0.0
 10
19.7778072618
 20
7.7764034618
 30
0.0
  0
SPLINE
  5
23B
100
AcDbEntity
  8
0
100
AcDbSpline
 62
7
  6
BYLAYER
 70
0
 71
3
 72
12
 73
8
 74
0
 42
0.0000001
 43
0.0000001
 44
0.0000000001
 40
0.0
 40
0.0
 40
0.0
 40
0.0
 40
0.2895628651
 40
0.5486566241
 40
0.7816485399
 40
0.8918503318
 40
1.0
 40
1.0
 40
1.0
 40
1.0
 10
37.2264578403
 20
79.2511502567
 30
0.0
 10
37.3142392331
 20
79.3018305649
 30
0.0
 10
37.4888445338
 20
79.38488235
 30
0.0
 10
37.7570124472
 20
79.4497610934
 30
0.0
 10
37.971149372
 20
79.4440097451
 30
0.0
 10
38.1240336697
 20
79.4017347716
 30
0.0
 10
38.1936536534
 20
79.3691321449
 30
0.0
 10
38.2264402615
 20
79.3502049402
 30
0.0
  0
SPLINE
  5
23C
100
AcDbEntity
  8
0
100
AcDbSpline
 62
7
  6
BYLAYER
 70
0
 71
3
 72
9
 73
5
 74
0
 42
0.0000001
 43
0.0000001
 44
0.0000000001
 40
0.0
 40
0.0
 40
0.0
 40
0.0
 40
0.5187826787
 40
1.0
 40
1.0
 40
1.0
 40
1.0
 10
36.536480663
 20
78.7325019064
 30
0.0
 10
36.6182971743
 20
78.8181566464
 30
0.0
 10
36.7860437655
 20
78.9740567071
 30
0.0
 10
36.9740533655
 20
79.105425335
 30
0.0
 10
37.0692072149
 20
79.1603621077
 30
0.0
  0
SPLINE
  5
23D
100
AcDbEntity
  8
0
100
AcDbSpline
 62
7
  6
BYLAYER
 70
0
 71
3
 72
11
 73
7
 74
0
 42
0.0000001
 43
0.0000001
 44
0.0000000001
 40
0.0
 40
0.0
 40
0.0
 40
0.0
 40
0.2354195186
 40
0.4812645276
 40
0.7365394812
 40
1.0
 40
1.0
 40
1.0
 40
1.0
 10
32.5410315234
 20
75.5235503966
 30
0.0
 10
32.8903829004
 20
75.7252473042
 30
0.0
 10
33.5871900377
 20
76.1682326175
 30
0.0
 10
34.5986553634
 20
76.9248222395
 30
0.0
 10
35.5908754302
 20
77.7818446336
 30
0.0
 10
36.2246592651
 20
78.4060521429
 30
0.0
 10
36.536480663
 20
78.7325019064
 30
0.0
  0
SPLINE
  5
23E
100
AcDbEntity
  8
0
100
AcDbSpline
 62
7
  6
BYLAYER
 70
0
 71
3
 72
10
 73
6
 74
0
 42
0.0000001
 43
0.0000001
 44
0.0000000001
 40
0.0
 40
0.0
 40
0.0
 40
0.0
 40
0.4723896376
 40
0.7293118831
 40
1.0
 40
1.0
 40
1.0
 40
1.0
 10
28.5455823839
 20
74.1189821728
 30
0.0
 10
29.2125400187
 20
74.1908675362
 30
0.0
 10
30.2298017353
 20
74.4414126718
 30
0.0
 10
31.5433350274
 20
74.9828359016
 30
0.0
 10
32.2081372216
 20
75.3313549291
 30
0.0
 10
32.5410315234
 20
75.5235503966
 30
0.0
  0
SPLINE
  5
23F
100
AcDbEntity
  8
0
100
AcDbSpline
 62
7
  6
BYLAYER
 70
0
 71
3
 72
9
 73
5
 74
0
 42
0.0000001
 43
0.0000001
 44
0.0000000001
 40
0.0
 40
0.0
 40
0.0
 40
0.0
 40
0.2712591797
 40
1.0
 40
1.0
 40
1.0
 40
1.0
 10
28.0128558319
 20
73.9317064097
 30
0.0
 10
28.0572417388
 20
73.957332472
 30
0.0
 10
28.224392793
 20
74.0450177556
 30
0.0
 10
28.408685215
 20
74.1042272586
 30
0.0
 10
28.5455823839
 20
74.1189821728
 30
0.0
  0
SPLINE
  5
240
100
AcDbEntity
  8
0
100
AcDbSpline
 62
7
  6
BYLAYER
 70
0
 71
3
 72
9
 73
5
 74
0
 42
0.0000001
 43
0.0000001
 44
0.0000000001
 40
0.0
 40
0.0
 40
0.0
 40
0.0
 40
0.25739104
 40
1.0
 40
1.0
 40
1.0
 40
1.0
 10
24.889055852
 20
72.1232286134
 30
0.0
 10
24.8930708486
 20
72.126364141
 30
0.0
 10
24.9088626502
 20
72.1382951121
 30
0.0
 10
24.9254421526
 20
72.149197931
 30
0.0
 10
24.9381707691
 20
72.1565467573
 30
0.0
  0
SPLINE
  5
241
100
AcDbEntity
  8
0
100
AcDbSpline
 62
7
  6
BYLAYER
 70
0
 71
3
 72
9
 73
5
 74
0
 42
0.0000001
 43
0.0000001
 44
0.0000000001
 40
0.0
 40
0.0
 40
0.0
 40
0.0
 40
0.242580102
 40
1.0
 40
1.0
 40
1.0
 40
1.0
 10
26.4938121644
 20
71.2584170973
 30
0.0
 10
26.4896541692
 20
71.256016492
 30
0.0
 10
26.4727032094
 20
71.2457932926
 30
0.0
 10
26.4565123162
 20
71.2343259786
 30
0.0
 10
26.4446972472
 20
71.2250989533
 30
0.0
  0
SPLINE
  5
242
100
AcDbEntity
  8
0
100
AcDbSpline
 62
7
  6
BYLAYER
 70
0
 71
3
 72
9
 73
5
 74
0
 42
0.0000001
 43
0.0000001
 44
0.0000000001
 40
0.0
 40
0.0
 40
0.0
 40
0.0
 40
0.230393089
 40
1.0
 40
1.0
 40
1.0
 40
1.0
 10
30.1012237792
 20
73.2208525129
 30
0.0
 10
30.0579244143
 20
73.2161856639
 30
0.0
 10
29.8713102315
 20
73.1834953237
 30
0.0
 10
29.694482657
 20
73.1063140373
 30
0.0
 10
29.5684972272
 20
73.0335767497
 30
0.0
  0
SPLINE
  5
243
100
AcDbEntity
  8
0
100
AcDbSpline
 62
7
  6
BYLAYER
 70
0
 71
3
 72
10
 73
6
 74
0
 42
0.0000001
 43
0.0000001
 44
0.0000000001
 40
0.0
 40
0.0
 40
0.0
 40
0.0
 40
0.2706881169
 40
0.5276103624
 40
1.0
 40
1.0
 40
1.0
 40
1.0
 10
34.0966729187
 20
74.6254207366
 30
0.0
 10
33.7637786169
 20
74.4332252691
 30
0.0
 10
33.0989764227
 20
74.0847062417
 30
0.0
 10
31.7854431306
 20
73.5432830119
 30
0.0
 10
30.7681814141
 20
73.2927378763
 30
0.0
 10
30.1012237792
 20
73.2208525129
 30
0.0
  0
SPLINE
  5
244
100
AcDbEntity
  8
0
100
AcDbSpline
 62
7
  6
BYLAYER
 70
0
 71
3
 72
11
 73
7
 74
0
 42
0.0000001
 43
0.0000001
 44
0.0000000001
 40
0.0
 40
0.0
 40
0.0
 40
0.0
 40
0.2634605188
 40
0.5187354724
 40
0.7645804814
 40
1.0
 40
1.0
 40
1.0
 40
1.0
 10
38.0921220583
 20
77.8343722464
 30
0.0
 10
37.7803006605
 20
77.507922483
 30
0.0
 10
37.1465168255
 20
76.8837149736
 30
0.0
 10
36.1542967587
 20
76.0266925795
 30
0.0
 10
35.142831433
 20
75.2701029575
 30
0.0
 10
34.4460242957
 20
74.8271176442
 30
0.0
 10
34.0966729187
 20
74.6254207366
 30
0.0
  0
SPLINE
  5
245
100
AcDbEntity
  8
0
100
AcDbSpline
 62
7
  6
BYLAYER
 70
0
 71
3
 72
9
 73
5
 74
0
 42
0.0000001
 43
0.0000001
 44
0.0000000001
 40
0.0
 40
0.0
 40
0.0
 40
0.0
 40
0.4812173213
 40
1.0
 40
1.0
 40
1.0
 40
1.0
 10
38.6248486102
 20
78.2622324477
 30
0.0
 10
38.5296947609
 20
78.2072956751
 30
0.0
 10
38.3416851609
 20
78.0759270472
 30
0.0
 10
38.1739385696
 20
77.9200269865
 30
0.0
 10
38.0921220583
 20
77.8343722464
 30
0.0
  0
SPLINE
  5
246
100
AcDbEntity
  8
0
100
AcDbSpline
 62
7
  6
BYLAYER
 70
0
 71
3
 72
12
 73
8
 74
0
 42
0.0000001
 43
0.0000001
 44
0.0000000001
 40
0.0
 40
0.0
 40
0.0
 40
0.0
 40
0.1081496896
 40
0.2183514913
 40
0.4513434334
 40
0.7104371601
 40
1.0
 40
1.0
 40
1.0
 40
1.0
 10
39.7820816567
 20
78.4520752799
 30
0.0
 10
39.7492950416
 20
78.4710024876
 30
0.0
 10
39.6796750473
 20
78.5036051176
 30
0.0
 10
39.5267907298
 20
78.5458800985
 30
0.0
 10
39.3126538019
 20
78.5516314251
 30
0.0
 10
39.0444858986
 20
78.4867526902
 30
0.0
 10
38.869880621
 20
78.4037009007
 30
0.0
 10
38.7820992357
 20
78.3530205967
 30
0.0
  0
SPLINE
  5
247
100
AcDbEntity
  8
0
100
AcDbSpline
 62
7
  6
BYLAYER
 70
0
 71
3
 72
11
 73
7
 74
0
 42
0.0000001
 43
0.0000001
 44
0.0000000001
 40
0.0
 40
0.0
 40
0.0
 40
0.0
 40
0.2894171727
 40
0.5491613949
 40
0.7823487583
 40
1.0
 40
1.0
 40
1.0
 40
1.0
 10
21.333448657
 20
6.8782738038
 30
0.0
 10
21.333448657
 20
6.8529656334
 30
0.0
 10
21.3373379577
 20
6.8047896543
 30
0.0
 10
21.3567800575
 20
6.7385612328
 30
0.0
 10
21.389676661
 20
6.684841232
 30
0.0
 10
21.4205258268
 20
6.6589035707
 30
0.0
 10
21.4370110981
 20
6.6493917448
 30
0.0
  0
SPLINE
  5
248
100
AcDbEntity
  8
0
100
AcDbSpline
 62
7
  6
BYLAYER
 70
0
 71
3
 72
11
 73
7
 74
0
 42
0.0000001
 43
0.0000001
 44
0.0000000001
 40
0.0
 40
0.0
 40
0.0
 40
0.0
 40
0.2472028387
 40
0.5098834071
 40
0.7672855878
 40
1.0
 40
1.0
 40
1.0
 40
1.0
 10
21.6256069294
 20
67.4616111632
 30
0.0
 10
21.5827870037
 20
67.4281707716
 30
0.0
 10
21.5035237607
 20
67.3473180611
 30
0.0
 10
21.4117149061
 20
67.2046537792
 30
0.0
 10
21.3504890915
 20
67.0498518441
 30
0.0
 10
21.333448657
 20
66.9420317964
 30
0.0
 10
21.3334486571
 20
66.8908855555
 30
0.0
  0
ENDSEC
  0
SECTION
  2
OBJECTS
  0
DICTIONARY
  5
C
100
AcDbDictionary
280
0
281
1
  3
ACAD_GROUP
350
D
  3
ACAD_MLINESTYLE
350
17
  3
ACAD_LAYOUT
350
1A
  3
ACAD_PLOTSETTINGS
350
19
  3
ACAD_PLOTSTYLENAME
350
E
  0
DICTIONARY
  5
D
102
{ACAD_REACTORS
330
C
102
}
100
AcDbDictionary
280
0
281
1
  0
ACDBDICTIONARYWDFLT
  5
E
102
{ACAD_REACTORS
330
C
102
}
100
AcDbDictionary
281
1
  3
Normal
350
F
100
AcDbDictionaryWithDefault
340
F
  0
DICTIONARY
  5
17
102
{ACAD_REACTORS
330
C
102
}
100
AcDbDictionary
280
0
281
1
  3
Standard
350
18
  0
DICTIONARY
  5
19
102
{ACAD_REACTORS
330
C
102
}
100
AcDbDictionary
281
1
  0
DICTIONARY
  5
1A
102
{ACAD_REACTORS
330
C
102
}
100
AcDbDictionary
281
1
  3
Model
350
249
  3
Layout1
350
24A
  0
ACDBPLACEHOLDER
  5
F
102
{ACAD_REACTORS
330
E
102
}
  0
MLINESTYLE
  5
18
102
{ACAD_REACTORS
330
17
102
}
100
AcDbMlineStyle
  2
STANDARD
 70
0
  3

 62
256
 51
90.0
 52
90.0
 71
2
 49
0.5
 62
256
  6
BYLAYER
 49
-0.5
 62
256
  6
BYLAYER
  0
LAYOUT
  5
249
102
{ACAD_REACTORS
330
1A
102
}
100
AcDbPlotSettings
  1

  2
none_device
  4

  6

 40
0.0
 41
0.0
 42
0.0
 43
0.0
 44
210.0
 45
297.0
 46
0.0
 47
0.0
 48
0.0
 49
0.0
140
0.0
141
0.0
142
1.0
143
1.0
 70
1024
 72
1
 73
0
 74
0
  7

 75
0
147
1.0
148
0.0
149
0.0
100
AcDbLayout
  1
Model
 70
0
 71
0
 10
0.0
 20
0.0
 11
210.0
 21
297.0
 12
0.0
 22
0.0
 32
0.0
 14
0.0
 24
0.0
 34
0.0
 15
0.0
 25
0.0
 35
0.0
146
0.0
 13
0.0
 23
0.0
 33
0.0
 16
1.0
 26
0.0
 36
0.0
 17
0.0
 27
1.0
 37
0.0
 76
0
330
210
345
0
346
0
  0
LAYOUT
  5
24A
102
{ACAD_REACTORS
330
1A
102
}
100
AcDbPlotSettings
  1

  2
none_device
  4

  6

 40
0.0
 41
0.0
 42
0.0
 43
0.0
 44
210.0
 45
297.0
 46
0.0
 47
0.0
 48
0.0
 49
0.0
140
0.0
141
0.0
142
1.0
143
1.0
 70
0
 72
1
 73
0
 74
0
  7

 75
0
147
1.0
148
0.0
149
0.0
100
AcDbLayout
  1
Layout1
 70
0
 71
1
 10
0.0
 20
0.0
 11
210.0
 21
297.0
 12
0.0
 22
0.0
 32
0.0
 14
0.0
 24
0.0
 34
0.0
 15
0.0
 25
0.0
 35
0.0
146
0.0
 13
0.0
 23
0.0
 33
0.0
 16
1.0
 26
0.0
 36
0.0
 17
0.0
 27
1.0
 37
0.0
 76
0
330
211
345
0
346
0
  0
ENDSEC
  0
EOF
