999
DXF file: C:\Users\sesa63760\Dev\_Creo\CAD\MCADID0005040_3D-CAD\drw0001_3.dxf
999
Pro/ENGINEER 2019471 by Parametric Technology Corporation
  0
SECTION
  2
HEADER
  9
$ACADVER
  1
AC1024
  9
$DWGCODEPAGE
  3
ANSI_1252
  9
$EXTMAX
 10
161.2310089972
 20
228.0267127246
 30
0.0
  9
$EXTMIN
 10
0.0
 20
0.0
 30
0.0
  9
$LIMMIN
 10
0.0
 20
0.0
  9
$LIMMAX
 10
161.2310089972
 20
228.0267127246
  9
$VIEWCTR
 10
80.6155044986
 20
114.0133563623
  9
$VIEWSIZE
 40
228.0267127246
  9
$CLAYER
  8
0
  9
$LTSCALE
 40
14.8639634961
  9
$CELTYPE
  6
BYLAYER
  9
$DIMSCALE
 40
1.0
  9
$DIMASZ
 40
1.9194167738
  9
$DIMEXO
 40
1.0
  9
$DIMDLI
 40
10.2696475064
  9
$DIMEXE
 40
1.0
  9
$DIMCEN
 40
2.4322849357
  9
$DIMLFAC
 40
1.0
  9
$DIMBLK
  1
_FILLED
  9
$DIMALT
 70
0
  9
$DIMALTF
 40
0.0393700787
  9
$DIMTXT
 40
2.6871834833
  9
$DIMTOL
 70
1
  9
$DIMLIM
 70
0
  9
$DIMTFAC
 40
1.0
  9
$DIMTP
 40
0.01
  9
$DIMTM
 40
0.01
  9
$DIMGAP
 40
0.625
  9
$DIMDSEP
 70
46
  9
$AUNITS
 70
0
  9
$PDMODE
 70
3
  9
$PDSIZE
 40
0.3125
  9
$HANDSEED
  5
2C8
  9
$TILEMODE
 70
1
  9
$MEASUREMENT
 70
1
  9
$INSUNITS
 70
4
  0
ENDSEC
  0
SECTION
  2
CLASSES
  0
CLASS
  1
ACDBDICTIONARYWDFLT
  2
AcDbDictionaryWithDefault
  3
AutoCAD 2000
 90
0
 91
1
280
0
281
0
  0
CLASS
  1
ACDBPLACEHOLDER
  2
AcDbPlaceHolder
  3
AutoCAD 2000
 90
0
 91
1
280
0
281
0
  0
CLASS
  1
LAYOUT
  2
AcDbLayout
  3
AutoCAD 2000
 90
0
 91
0
280
0
281
0
  0
ENDSEC
  0
SECTION
  2
TABLES
  0
TABLE
  2
VPORT
  5
8
100
AcDbSymbolTable
 70
2
  0
VPORT
  5
1F4
100
AcDbSymbolTableRecord
100
AcDbViewportTableRecord
  2
*ACTIVE
 70
0
 10
0.0
 20
0.0
 11
1.0
 21
1.0
 12
80.6155044986
 22
114.0133563623
 13
0.0
 23
0.0
 14
1.0
 24
1.0
 15
0.0
 25
0.0
 16
0.0
 26
0.0
 36
1.0
 17
0.0
 27
0.0
 37
0.0
 40
228.0267127246
 41
0.7070707071
 42
50.0
 43
0.0
 44
0.0
 50
0.0
 51
0.0
 71
0
 72
100
 73
1
 74
1
 75
0
 76
0
 77
0
 78
0
  0
ENDTAB
  0
TABLE
  2
LTYPE
  5
5
100
AcDbSymbolTable
 70
6
  0
LTYPE
  5
14
100
AcDbSymbolTableRecord
100
AcDbLinetypeTableRecord
  2
BYBLOCK
 70
0
  3

 72
65
 73
0
 40
0.0
  0
LTYPE
  5
15
100
AcDbSymbolTableRecord
100
AcDbLinetypeTableRecord
  2
BYLAYER
 70
0
  3

 72
65
 73
0
 40
0.0
  0
LTYPE
  5
16
100
AcDbSymbolTableRecord
100
AcDbLinetypeTableRecord
  2
CONTINUOUS
 70
64
  3
Solid line
 72
65
 73
0
 40
0.0
  0
LTYPE
  5
1F5
100
AcDbSymbolTableRecord
100
AcDbLinetypeTableRecord
  2
CENTER
 70
64
  3
____ _ ____ _ ____ _ ____ _ ____ _ ____ _ ____
 72
65
 73
4
 40
0.6
 49
0.375
 74
0
 49
-0.075
 74
0
 49
0.075
 74
0
 49
-0.075
 74
0
  0
LTYPE
  5
1F6
100
AcDbSymbolTableRecord
100
AcDbLinetypeTableRecord
  2
HIDDEN
 70
64
  3
- - - - - - - - - - - - - - - - - - - -
 72
65
 73
2
 40
0.2
 49
0.1
 74
0
 49
-0.1
 74
0
  0
LTYPE
  5
1F7
100
AcDbSymbolTableRecord
100
AcDbLinetypeTableRecord
  2
PHANTOM
 70
64
  3
_____ _ _ _____ _ _ _____ _ _ _____
 72
65
 73
6
 40
0.8
 49
0.45
 74
0
 49
-0.05
 74
0
 49
0.1
 74
0
 49
-0.05
 74
0
 49
0.1
 74
0
 49
-0.05
 74
0
  0
LTYPE
  5
1F8
100
AcDbSymbolTableRecord
100
AcDbLinetypeTableRecord
  2
DOT
 70
64
  3
. . . . . . . . . . . . . . . . . . . .
 72
65
 73
2
 40
0.2
 49
0.1
 74
0
 49
-0.1
 74
0
  0
LTYPE
  5
1F9
100
AcDbSymbolTableRecord
100
AcDbLinetypeTableRecord
  2
DASHED
 70
64
  3
- - - - - - - - - - - - - - - - - - - -
 72
65
 73
2
 40
0.2
 49
0.1
 74
0
 49
-0.1
 74
0
  0
ENDTAB
  0
TABLE
  2
LAYER
  5
2
100
AcDbSymbolTable
 70
36
  0
LAYER
  5
10
100
AcDbSymbolTableRecord
100
AcDbLayerTableRecord
  2
0
 70
0
 62
7
  6
CONTINUOUS
370
-3
390
F
  0
LAYER
  5
1FA
100
AcDbSymbolTableRecord
100
AcDbLayerTableRecord
  2
DEFAULT_1
 70
0
 62
7
  6
CENTER
370
-3
390
F
  0
LAYER
  5
1FB
100
AcDbSymbolTableRecord
100
AcDbLayerTableRecord
  2
DEFAULT_2
 70
0
 62
7
  6
HIDDEN
370
-3
390
F
  0
LAYER
  5
1FC
100
AcDbSymbolTableRecord
100
AcDbLayerTableRecord
  2
DEFAULT_3
 70
0
 62
7
  6
PHANTOM
370
-3
390
F
  0
LAYER
  5
1FD
100
AcDbSymbolTableRecord
100
AcDbLayerTableRecord
  2
00_COMPONENTS
 70
0
 62
7
  6
CONTINUOUS
370
-3
390
F
  0
LAYER
  5
1FE
100
AcDbSymbolTableRecord
100
AcDbLayerTableRecord
  2
01_1_DEFAULT_DATUMS
 70
0
 62
7
  6
CONTINUOUS
370
-3
390
F
  0
LAYER
  5
1FF
100
AcDbSymbolTableRecord
100
AcDbLayerTableRecord
  2
01_PLANES
 70
0
 62
7
  6
CONTINUOUS
370
-3
390
F
  0
LAYER
  5
200
100
AcDbSymbolTableRecord
100
AcDbLayerTableRecord
  2
02_COORD_SYS
 70
0
 62
7
  6
CONTINUOUS
370
-3
390
F
  0
LAYER
  5
201
100
AcDbSymbolTableRecord
100
AcDbLayerTableRecord
  2
03_AXES
 70
0
 62
7
  6
CONTINUOUS
370
-3
390
F
  0
LAYER
  5
202
100
AcDbSymbolTableRecord
100
AcDbLayerTableRecord
  2
04_POINTS
 70
0
 62
7
  6
CONTINUOUS
370
-3
390
F
  0
LAYER
  5
203
100
AcDbSymbolTableRecord
100
AcDbLayerTableRecord
  2
05_CURVES
 70
0
 62
7
  6
CONTINUOUS
370
-3
390
F
  0
LAYER
  5
204
100
AcDbSymbolTableRecord
100
AcDbLayerTableRecord
  2
06_SURFS
 70
0
 62
7
  6
CONTINUOUS
370
-3
390
F
  0
LAYER
  5
205
100
AcDbSymbolTableRecord
100
AcDbLayerTableRecord
  2
07_COSMETICS
 70
0
 62
7
  6
CONTINUOUS
370
-3
390
F
  0
LAYER
  5
206
100
AcDbSymbolTableRecord
100
AcDbLayerTableRecord
  2
10_NOTES
 70
0
 62
7
  6
CONTINUOUS
370
-3
390
F
  0
LAYER
  5
207
100
AcDbSymbolTableRecord
100
AcDbLayerTableRecord
  2
11_NOTES_PUB
 70
0
 62
7
  6
CONTINUOUS
370
-3
390
F
  0
LAYER
  5
208
100
AcDbSymbolTableRecord
100
AcDbLayerTableRecord
  2
13_REF_GTOL
 70
0
 62
7
  6
CONTINUOUS
370
-3
390
F
  0
LAYER
  5
209
100
AcDbSymbolTableRecord
100
AcDbLayerTableRecord
  2
16_MISC
 70
0
 62
7
  6
CONTINUOUS
370
-3
390
F
  0
LAYER
  5
20A
100
AcDbSymbolTableRecord
100
AcDbLayerTableRecord
  2
17_NO_PRINT
 70
0
 62
7
  6
CONTINUOUS
370
-3
390
F
  0
LAYER
  5
20B
100
AcDbSymbolTableRecord
100
AcDbLayerTableRecord
  2
18_DATUM_CAMS_JOINTS
 70
0
 62
7
  6
CONTINUOUS
370
-3
390
F
  0
LAYER
  5
20C
100
AcDbSymbolTableRecord
100
AcDbLayerTableRecord
  2
19_DATUM_FUNCTIONAL
 70
0
 62
7
  6
CONTINUOUS
370
-3
390
F
  0
LAYER
  5
20D
100
AcDbSymbolTableRecord
100
AcDbLayerTableRecord
  2
20_DATUM_KINEMATIC_SCHEME
 70
0
 62
7
  6
CONTINUOUS
370
-3
390
F
  0
ENDTAB
  0
TABLE
  2
STYLE
  5
3
100
AcDbSymbolTable
 70
1
  0
STYLE
  5
11
100
AcDbSymbolTableRecord
100
AcDbTextStyleTableRecord
  2
STANDARD
 70
0
 40
0.0
 41
1.0
 50
0.0
 71
0
 42
0.2
  3
ARIAL.TTF
  4

  0
STYLE
  5
20E
100
AcDbSymbolTableRecord
100
AcDbTextStyleTableRecord
  2
TEXTSTYLE_1
 70
0
 40
0.0
 41
0.8
 50
0.0
 71
0
 42
0.2
  3
gdt
  4

  0
ENDTAB
  0
TABLE
  2
VIEW
  5
6
100
AcDbSymbolTable
 70
0
  0
ENDTAB
  0
TABLE
  2
UCS
  5
7
100
AcDbSymbolTable
 70
0
  0
ENDTAB
  0
TABLE
  2
APPID
  5
9
100
AcDbSymbolTable
 70
1
  0
APPID
  5
20F
100
AcDbSymbolTableRecord
100
AcDbRegAppTableRecord
  2
ACAD
 70
0
  0
ENDTAB
  0
TABLE
  2
BLOCK_RECORD
  5
1
100
AcDbSymbolTable
 70
0
  0
BLOCK_RECORD
  5
210
100
AcDbSymbolTableRecord
100
AcDbBlockTableRecord
  2
*Model_Space
  0
BLOCK_RECORD
  5
211
100
AcDbSymbolTableRecord
100
AcDbBlockTableRecord
  2
*Paper_Space
  0
BLOCK_RECORD
  5
212
100
AcDbSymbolTableRecord
100
AcDbBlockTableRecord
  2
_FILLED
  0
ENDTAB
  0
TABLE
  2
DIMSTYLE
  5
A
100
AcDbSymbolTable
 70
1
100
AcDbDimStyleTable
 71
0
  0
DIMSTYLE
105
213
100
AcDbSymbolTableRecord
100
AcDbDimStyleTableRecord
  2
STANDARD
 70
0
  3

  4

 40
1.0
 41
1.9194167738
 42
1.0
 43
0.38
 44
1.0
 45
0.0
 46
0.0
 47
0.01
 48
0.01
140
2.6871834833
141
0.09
142
0.0
143
25.4
144
1.0
145
0.0
146
1.0
147
0.625
 71
1
 72
0
 73
0
 74
0
 75
0
 76
0
 77
1
 78
8
 79
2
170
0
171
1
172
0
173
0
174
0
175
0
176
0
177
0
178
0
270
2
179
2
271
2
272
2
273
2
274
2
275
0
280
0
281
0
282
0
283
1
284
8
285
0
286
0
287
3
288
0
340
11
278
46
341
212
342
212
343
212
344
212
  0
ENDTAB
  0
ENDSEC
  0
SECTION
  2
BLOCKS
  0
BLOCK
  5
20
100
AcDbEntity
  8
0
100
AcDbBlockBegin
  2
*Model_Space
 70
0
 10
0.0
 20
0.0
 30
0.0
  3
*Model_Space
  1

  0
ENDBLK
  5
21
100
AcDbEntity
  8
0
100
AcDbBlockEnd
  0
BLOCK
  5
1C
100
AcDbEntity
  8
0
100
AcDbBlockBegin
  2
*Paper_Space
 70
0
 10
0.0
 20
0.0
 30
0.0
  3
*Paper_Space
  1

  0
ENDBLK
  5
1D
100
AcDbEntity
  8
0
100
AcDbBlockEnd
  0
BLOCK
  5
214
100
AcDbEntity
  8
0
100
AcDbBlockBegin
  2
_FILLED
 70
64
 10
0.0
 20
0.0
  3
_FILLED
  1

  0
SOLID
  5
215
100
AcDbEntity
  8
0
  6
BYBLOCK
 62
0
100
AcDbTrace
 10
0.0
 20
0.0
 11
-1.0
 21
0.25
 12
-1.0
 22
-0.25
 13
-1.0
 23
-0.25
  0
ENDBLK
  5
216
100
AcDbEntity
  8
0
  6
BYBLOCK
 62
0
100
AcDbBlockEnd
  0
ENDSEC
  0
SECTION
  2
ENTITIES
  0
LINE
  5
217
100
AcDbEntity
  8
0
100
AcDbLine
 62
7
  6
BYLAYER
 10
19.0734161283
 20
79.5697312233
 11
19.0734161283
 21
94.5697312233
  0
LINE
  5
218
100
AcDbEntity
  8
0
100
AcDbLine
 62
7
  6
BYLAYER
 10
19.0734161283
 20
94.5697312233
 11
19.0734161283
 21
125.7055268895
  0
LINE
  5
219
100
AcDbEntity
  8
0
100
AcDbLine
 62
7
  6
BYLAYER
 10
20.2699209611
 20
94.5576740012
 11
20.2699241744
 21
125.7055268895
  0
LINE
  5
21A
100
AcDbEntity
  8
0
100
AcDbLine
 62
7
  6
BYLAYER
 10
21.0734161283
 20
134.0697312233
 11
21.0734161283
 21
149.5727707153
  0
LINE
  5
21B
100
AcDbEntity
  8
0
100
AcDbLine
 62
7
  6
BYLAYER
 10
21.1241484723
 20
134.0634089298
 11
21.1241484723
 21
125.7055268895
  0
LINE
  5
21C
100
AcDbEntity
  8
0
100
AcDbLine
 62
7
  6
BYLAYER
 10
21.9298110538
 20
134.0576740012
 11
21.9298110538
 21
94.5576740012
  0
LINE
  5
21D
100
AcDbEntity
  8
0
100
AcDbLine
 62
7
  6
BYLAYER
 10
23.0667357827
 20
94.5697312233
 11
23.0667357827
 21
79.5697312233
  0
LINE
  5
21E
100
AcDbEntity
  8
0
100
AcDbLine
 62
7
  6
BYLAYER
 10
23.0667357827
 20
94.5697312233
 11
23.0667357827
 21
134.0576740012
  0
LINE
  5
21F
100
AcDbEntity
  8
0
100
AcDbLine
 62
7
  6
BYLAYER
 10
24.1734161283
 20
108.0328893105
 11
24.1734161283
 21
109.5697312233
  0
LINE
  5
220
100
AcDbEntity
  8
0
100
AcDbLine
 62
7
  6
BYLAYER
 10
28.1206542338
 20
79.5697312233
 11
28.1206542338
 21
94.5697312233
  0
LINE
  5
221
100
AcDbEntity
  8
0
100
AcDbLine
 62
7
  6
BYLAYER
 10
28.1206542338
 20
94.5697312233
 11
28.1206542338
 21
134.0576740012
  0
LINE
  5
222
100
AcDbEntity
  8
0
100
AcDbLine
 62
7
  6
BYLAYER
 10
28.1206542338
 20
134.0697312233
 11
28.1206542338
 21
137.7704354533
  0
LINE
  5
223
100
AcDbEntity
  8
0
100
AcDbLine
 62
7
  6
BYLAYER
 10
29.3436017262
 20
137.7704354533
 11
29.3436017262
 21
134.0697312233
  0
LINE
  5
224
100
AcDbEntity
  8
0
100
AcDbLine
 62
7
  6
BYLAYER
 10
29.3436017262
 20
94.5697312233
 11
29.3436017262
 21
79.5697312233
  0
LINE
  5
225
100
AcDbEntity
  8
0
100
AcDbLine
 62
7
  6
BYLAYER
 10
29.3436017262
 20
94.5697312233
 11
29.3436017262
 21
134.0576740012
  0
LINE
  5
226
100
AcDbEntity
  8
0
100
AcDbLine
 62
7
  6
BYLAYER
 10
33.3734161283
 20
108.0328893105
 11
33.3734161283
 21
109.5697312233
  0
LINE
  5
227
100
AcDbEntity
  8
0
100
AcDbLine
 62
7
  6
BYLAYER
 10
19.0734161283
 20
79.5697312233
 11
62.5047398154
 21
79.5697312233
  0
LINE
  5
228
100
AcDbEntity
  8
0
100
AcDbLine
 62
7
  6
BYLAYER
 10
99.1420924412
 20
79.5697312233
 11
143.0734161283
 21
79.5697312233
  0
LINE
  5
229
100
AcDbEntity
  8
0
100
AcDbLine
 62
7
  6
BYLAYER
 10
65.3234161283
 20
84.668769329
 11
64.5734161283
 21
84.8697312233
  0
LINE
  5
22A
100
AcDbEntity
  8
0
100
AcDbLine
 62
7
  6
BYLAYER
 10
97.8234161283
 20
84.8697312233
 11
97.0734161283
 21
84.668769329
  0
LINE
  5
22B
100
AcDbEntity
  8
0
100
AcDbLine
 62
7
  6
BYLAYER
 10
75.7870430672
 20
84.3197312233
 11
86.3597891894
 21
84.3197312233
  0
LINE
  5
22C
100
AcDbEntity
  8
0
100
AcDbLine
 62
7
  6
BYLAYER
 10
63.3234161283
 20
86.0697312233
 11
98.5758395812
 21
86.0420310302
  0
LINE
  5
22D
100
AcDbEntity
  8
0
100
AcDbLine
 62
7
  6
BYLAYER
 10
62.1000019608
 20
101.0992034867
 11
62.1000019608
 21
109.2699526046
  0
LINE
  5
22E
100
AcDbEntity
  8
0
100
AcDbLine
 62
7
  6
BYLAYER
 10
63.3234161283
 20
86.0697312233
 11
63.3234161283
 21
84.5697312233
  0
LINE
  5
22F
100
AcDbEntity
  8
0
100
AcDbLine
 62
7
  6
BYLAYER
 10
19.0734161283
 20
94.5576740012
 11
143.1232371294
 21
94.5576740012
  0
LINE
  5
230
100
AcDbEntity
  8
0
100
AcDbLine
 62
7
  6
BYLAYER
 10
19.0734161283
 20
94.5697312233
 11
143.0734161283
 21
94.5697312233
  0
LINE
  5
231
100
AcDbEntity
  8
0
100
AcDbLine
 62
7
  6
BYLAYER
 10
132.1734161283
 20
95.8197312233
 11
130.9682323466
 21
95.8197312233
  0
LINE
  5
232
100
AcDbEntity
  8
0
100
AcDbLine
 62
7
  6
BYLAYER
 10
127.9736715542
 20
95.8197312233
 11
126.7734161283
 21
95.8197312233
  0
LINE
  5
233
100
AcDbEntity
  8
0
100
AcDbLine
 62
7
  6
BYLAYER
 10
125.2734161283
 20
95.8197312233
 11
108.5734161283
 21
95.8197312233
  0
LINE
  5
234
100
AcDbEntity
  8
0
100
AcDbLine
 62
7
  6
BYLAYER
 10
64.5734161283
 20
84.8697312233
 11
64.5734161283
 21
86.0687490145
  0
LINE
  5
235
100
AcDbEntity
  8
0
100
AcDbLine
 62
7
  6
BYLAYER
 10
65.3234161283
 20
83.918769329
 11
65.3234161283
 21
84.668769329
  0
LINE
  5
236
100
AcDbEntity
  8
0
100
AcDbLine
 62
7
  6
BYLAYER
 10
62.5047398154
 20
79.5697312233
 11
63.3234161283
 21
84.5697312233
  0
LINE
  5
237
100
AcDbEntity
  8
0
100
AcDbLine
 62
7
  6
BYLAYER
 10
133.573416135
 20
108.719731225
 11
132.1734161283
 21
108.4107534531
  0
LINE
  5
238
100
AcDbEntity
  8
0
100
AcDbLine
 62
7
  6
BYLAYER
 10
130.9734161283
 20
108.1459153641
 11
127.9734161283
 21
107.4838201418
  0
LINE
  5
239
100
AcDbEntity
  8
0
100
AcDbLine
 62
7
  6
BYLAYER
 10
126.7734161283
 20
107.2189820529
 11
125.2734161283
 21
106.8879344418
  0
LINE
  5
23A
100
AcDbEntity
  8
0
100
AcDbLine
 62
7
  6
BYLAYER
 10
72.1534475982
 20
147.0697313326
 11
72.1534475982
 21
149.5735057133
  0
LINE
  5
23B
100
AcDbEntity
  8
0
100
AcDbLine
 62
7
  6
BYLAYER
 10
73.0234161283
 20
102.4767589918
 11
73.0234161283
 21
102.5382091249
  0
LINE
  5
23C
100
AcDbEntity
  8
0
100
AcDbLine
 62
7
  6
BYLAYER
 10
62.1000019608
 20
101.0992034867
 11
143.0734161283
 21
101.0992034867
  0
LINE
  5
23D
100
AcDbEntity
  8
0
100
AcDbLine
 62
7
  6
BYLAYER
 10
62.1000019608
 20
101.3310267927
 11
75.8234353754
 21
101.3310267927
  0
LINE
  5
23E
100
AcDbEntity
  8
0
100
AcDbLine
 62
7
  6
BYLAYER
 10
86.3233968812
 20
101.3310267927
 11
143.3358062132
 21
101.3310267927
  0
LINE
  5
23F
100
AcDbEntity
  8
0
100
AcDbLine
 62
7
  6
BYLAYER
 10
136.8712306738
 20
101.8960468967
 11
101.7956015828
 21
101.8960468967
  0
LINE
  5
240
100
AcDbEntity
  8
0
100
AcDbLine
 62
7
  6
BYLAYER
 10
84.0734161655
 20
102.1526096164
 11
78.0734161283
 21
102.1526096164
  0
LINE
  5
241
100
AcDbEntity
  8
0
100
AcDbLine
 62
7
  6
BYLAYER
 10
86.3233968812
 20
102.1526096164
 11
84.0734161655
 21
102.1526096164
  0
LINE
  5
242
100
AcDbEntity
  8
0
100
AcDbLine
 62
7
  6
BYLAYER
 10
78.0734161283
 20
102.1526096164
 11
75.8234353754
 21
102.1526096164
  0
LINE
  5
243
100
AcDbEntity
  8
0
100
AcDbLine
 62
7
  6
BYLAYER
 10
79.0734161283
 20
102.2428192668
 11
83.0734161283
 21
102.2428192668
  0
LINE
  5
244
100
AcDbEntity
  8
0
100
AcDbLine
 62
7
  6
BYLAYER
 10
89.1234161283
 20
102.4767589918
 11
88.0234161283
 21
102.4767589918
  0
LINE
  5
245
100
AcDbEntity
  8
0
100
AcDbLine
 62
7
  6
BYLAYER
 10
74.1234161283
 20
102.4767589918
 11
73.0234161283
 21
102.4767589918
  0
LINE
  5
246
100
AcDbEntity
  8
0
100
AcDbLine
 62
7
  6
BYLAYER
 10
101.7956015828
 20
102.53224129
 11
136.8712306738
 21
102.53224129
  0
LINE
  5
247
100
AcDbEntity
  8
0
100
AcDbLine
 62
7
  6
BYLAYER
 10
89.9579305197
 20
102.5373611164
 11
89.1234161283
 21
102.5373611164
  0
LINE
  5
248
100
AcDbEntity
  8
0
100
AcDbLine
 62
7
  6
BYLAYER
 10
88.0234161283
 20
102.5373611164
 11
87.1889017368
 21
102.5373611164
  0
LINE
  5
249
100
AcDbEntity
  8
0
100
AcDbLine
 62
7
  6
BYLAYER
 10
74.9579305197
 20
102.5373611164
 11
74.1234161283
 21
102.5373611164
  0
LINE
  5
24A
100
AcDbEntity
  8
0
100
AcDbLine
 62
7
  6
BYLAYER
 10
73.0234161283
 20
102.5373611164
 11
72.1889017368
 21
102.5373611164
  0
LINE
  5
24B
100
AcDbEntity
  8
0
100
AcDbLine
 62
7
  6
BYLAYER
 10
142.1255933657
 20
102.5382098487
 11
136.8712306738
 21
102.5382098487
  0
LINE
  5
24C
100
AcDbEntity
  8
0
100
AcDbLine
 62
7
  6
BYLAYER
 10
101.7956015828
 20
102.5382098487
 11
89.9579305197
 21
102.5373611164
  0
LINE
  5
24D
100
AcDbEntity
  8
0
100
AcDbLine
 62
7
  6
BYLAYER
 10
89.1234161283
 20
102.5373611164
 11
88.0234161283
 21
102.5373611164
  0
LINE
  5
24E
100
AcDbEntity
  8
0
100
AcDbLine
 62
7
  6
BYLAYER
 10
87.1889017368
 20
102.5373611164
 11
74.9579305197
 21
102.5373611164
  0
LINE
  5
24F
100
AcDbEntity
  8
0
100
AcDbLine
 62
7
  6
BYLAYER
 10
74.1234161283
 20
102.5373611164
 11
73.0234161283
 21
102.5373611164
  0
LINE
  5
250
100
AcDbEntity
  8
0
100
AcDbLine
 62
7
  6
BYLAYER
 10
72.1889017368
 20
102.5373611164
 11
62.1000019608
 21
102.5382098487
  0
LINE
  5
251
100
AcDbEntity
  8
0
100
AcDbLine
 62
7
  6
BYLAYER
 10
126.7734161283
 20
102.7697312233
 11
126.7371486765
 21
102.7697312233
  0
LINE
  5
252
100
AcDbEntity
  8
0
100
AcDbLine
 62
7
  6
BYLAYER
 10
75.6829109018
 20
86.0600195394
 11
75.7870430672
 21
84.3197312233
  0
LINE
  5
253
100
AcDbEntity
  8
0
100
AcDbLine
 62
7
  6
BYLAYER
 10
74.1234161283
 20
102.5382091249
 11
74.1234161283
 21
102.4767589918
  0
LINE
  5
254
100
AcDbEntity
  8
0
100
AcDbLine
 62
7
  6
BYLAYER
 10
75.8234353754
 20
134.059214741
 11
75.8234353754
 21
101.3310267927
  0
LINE
  5
255
100
AcDbEntity
  8
0
100
AcDbLine
 62
7
  6
BYLAYER
 10
77.526085636
 20
102.152609093
 11
77.526085636
 21
134.0576806835
  0
LINE
  5
256
100
AcDbEntity
  8
0
100
AcDbLine
 62
7
  6
BYLAYER
 10
146.6232371294
 20
106.8273938641
 11
142.1326928117
 21
106.8273936473
  0
LINE
  5
257
100
AcDbEntity
  8
0
100
AcDbLine
 62
7
  6
BYLAYER
 10
19.0734161283
 20
107.8309462426
 11
62.1000019608
 21
107.8309462426
  0
LINE
  5
258
100
AcDbEntity
  8
0
100
AcDbLine
 62
7
  6
BYLAYER
 10
19.0734161283
 20
108.0157930238
 11
62.1000019608
 21
108.0157930238
  0
LINE
  5
259
100
AcDbEntity
  8
0
100
AcDbLine
 62
7
  6
BYLAYER
 10
141.0734161283
 20
108.0157930238
 11
146.6232371294
 21
108.0157930238
  0
LINE
  5
25A
100
AcDbEntity
  8
0
100
AcDbLine
 62
7
  6
BYLAYER
 10
146.6232371294
 20
108.0197311669
 11
143.2784240902
 21
108.0197312233
  0
LINE
  5
25B
100
AcDbEntity
  8
0
100
AcDbLine
 62
7
  6
BYLAYER
 10
143.2784240902
 20
108.0197312233
 11
141.0734161283
 21
108.0197312233
  0
LINE
  5
25C
100
AcDbEntity
  8
0
100
AcDbLine
 62
7
  6
BYLAYER
 10
33.3734161283
 20
108.0328893105
 11
24.1734161283
 21
108.0328893105
  0
LINE
  5
25D
100
AcDbEntity
  8
0
100
AcDbLine
 62
7
  6
BYLAYER
 10
146.6232371294
 20
108.2947201515
 11
141.0734161283
 21
108.2947201515
  0
LINE
  5
25E
100
AcDbEntity
  8
0
100
AcDbLine
 62
7
  6
BYLAYER
 10
136.8712306738
 20
108.3697312233
 11
101.7956015828
 21
108.3697312233
  0
LINE
  5
25F
100
AcDbEntity
  8
0
100
AcDbLine
 62
7
  6
BYLAYER
 10
141.0734161283
 20
108.7697312233
 11
146.6232371294
 21
108.7697312233
  0
LINE
  5
260
100
AcDbEntity
  8
0
100
AcDbLine
 62
7
  6
BYLAYER
 10
146.6232371294
 20
108.7871381617
 11
141.0734161283
 21
108.7871382197
  0
LINE
  5
261
100
AcDbEntity
  8
0
100
AcDbLine
 62
7
  6
BYLAYER
 10
24.1734161283
 20
109.2061395181
 11
33.3734161283
 21
109.2061395181
  0
LINE
  5
262
100
AcDbEntity
  8
0
100
AcDbLine
 62
7
  6
BYLAYER
 10
62.1000019608
 20
109.2699526046
 11
33.3734161283
 21
109.2699526046
  0
LINE
  5
263
100
AcDbEntity
  8
0
100
AcDbLine
 62
7
  6
BYLAYER
 10
24.1734161283
 20
109.2699526046
 11
20.2697834398
 21
109.2699526046
  0
LINE
  5
264
100
AcDbEntity
  8
0
100
AcDbLine
 62
7
  6
BYLAYER
 10
141.0734161283
 20
109.3684092658
 11
139.0734161283
 21
109.3684092658
  0
LINE
  5
265
100
AcDbEntity
  8
0
100
AcDbLine
 62
7
  6
BYLAYER
 10
33.3734161283
 20
109.5697312233
 11
24.1734161283
 21
109.5697312233
  0
LINE
  5
266
100
AcDbEntity
  8
0
100
AcDbLine
 62
7
  6
BYLAYER
 10
97.0734161283
 20
83.918769329
 11
99.0026527794
 21
81.1635338512
  0
LINE
  5
267
100
AcDbEntity
  8
0
100
AcDbLine
 62
7
  6
BYLAYER
 10
84.6207466206
 20
134.0576734778
 11
84.6207466206
 21
102.152609093
  0
LINE
  5
268
100
AcDbEntity
  8
0
100
AcDbLine
 62
7
  6
BYLAYER
 10
86.3233968812
 20
101.3310267927
 11
86.3233968812
 21
102.1526096164
  0
LINE
  5
269
100
AcDbEntity
  8
0
100
AcDbLine
 62
7
  6
BYLAYER
 10
88.0234161283
 20
102.4767589918
 11
88.0234161283
 21
102.5382091249
  0
LINE
  5
26A
100
AcDbEntity
  8
0
100
AcDbLine
 62
7
  6
BYLAYER
 10
86.3597891894
 20
84.3197312233
 11
86.4634144848
 21
86.0515485749
  0
LINE
  5
26B
100
AcDbEntity
  8
0
100
AcDbLine
 62
7
  6
BYLAYER
 10
62.5738854336
 20
79.992032548
 11
65.3234161283
 21
83.918769329
  0
LINE
  5
26C
100
AcDbEntity
  8
0
100
AcDbLine
 62
7
  6
BYLAYER
 10
89.1234161283
 20
102.5382091249
 11
89.1234161283
 21
102.4767589918
  0
LINE
  5
26D
100
AcDbEntity
  8
0
100
AcDbLine
 62
7
  6
BYLAYER
 10
89.9505099666
 20
147.0697313326
 11
89.9505099666
 21
149.5735061409
  0
LINE
  5
26E
100
AcDbEntity
  8
0
100
AcDbLine
 62
7
  6
BYLAYER
 10
98.5758395812
 20
86.0420310302
 11
99.1420924412
 21
79.5697312233
  0
LINE
  5
26F
100
AcDbEntity
  8
0
100
AcDbLine
 62
7
  6
BYLAYER
 10
97.0734161283
 20
84.668769329
 11
97.0734161283
 21
83.918769329
  0
LINE
  5
270
100
AcDbEntity
  8
0
100
AcDbLine
 62
7
  6
BYLAYER
 10
97.8234161283
 20
86.0426222598
 11
97.8234161283
 21
84.8697312233
  0
LINE
  5
271
100
AcDbEntity
  8
0
100
AcDbLine
 62
7
  6
BYLAYER
 10
19.0734161283
 20
125.7055275367
 11
21.1241484723
 21
125.7055268895
  0
LINE
  5
272
100
AcDbEntity
  8
0
100
AcDbLine
 62
7
  6
BYLAYER
 10
101.7956015828
 20
101.8960468967
 11
101.7956015828
 21
108.3697312233
  0
LINE
  5
273
100
AcDbEntity
  8
0
100
AcDbLine
 62
7
  6
BYLAYER
 10
21.1241484723
 20
134.0576740012
 11
141.0734161283
 21
134.0576740012
  0
LINE
  5
274
100
AcDbEntity
  8
0
100
AcDbLine
 62
7
  6
BYLAYER
 10
85.7651966975
 20
134.0592068952
 11
141.0734161283
 21
134.0633911499
  0
LINE
  5
275
100
AcDbEntity
  8
0
100
AcDbLine
 62
7
  6
BYLAYER
 10
21.0734161283
 20
134.0697312233
 11
141.0734012436
 21
134.0697312233
  0
LINE
  5
276
100
AcDbEntity
  8
0
100
AcDbLine
 62
7
  6
BYLAYER
 10
21.1241484723
 20
134.0634128596
 11
76.3816357547
 21
134.059209152
  0
LINE
  5
277
100
AcDbEntity
  8
0
100
AcDbLine
 62
7
  6
BYLAYER
 10
28.1206542338
 20
137.7704354533
 11
29.3436017262
 21
137.7704354533
  0
LINE
  5
278
100
AcDbEntity
  8
0
100
AcDbLine
 62
7
  6
BYLAYER
 10
108.6629311728
 20
149.4743168931
 11
108.6592205132
 21
149.5711209151
  0
LINE
  5
279
100
AcDbEntity
  8
0
100
AcDbLine
 62
7
  6
BYLAYER
 10
108.5734161283
 20
147.2103529368
 11
108.5734161283
 21
134.0697312233
  0
LINE
  5
27A
100
AcDbEntity
  8
0
100
AcDbLine
 62
7
  6
BYLAYER
 10
108.5734161283
 20
95.8197312233
 11
108.5734161283
 21
134.0576740012
  0
LINE
  5
27B
100
AcDbEntity
  8
0
100
AcDbLine
 62
7
  6
BYLAYER
 10
109.6500800088
 20
79.5697312233
 11
109.6500800088
 21
94.5697312233
  0
LINE
  5
27C
100
AcDbEntity
  8
0
100
AcDbLine
 62
7
  6
BYLAYER
 10
109.6500800088
 20
94.5697312233
 11
109.6500800088
 21
95.8197312233
  0
LINE
  5
27D
100
AcDbEntity
  8
0
100
AcDbLine
 62
7
  6
BYLAYER
 10
111.4401538692
 20
79.5697312233
 11
111.4401538692
 21
94.5697312233
  0
LINE
  5
27E
100
AcDbEntity
  8
0
100
AcDbLine
 62
7
  6
BYLAYER
 10
111.4401538692
 20
94.5697312233
 11
111.4401538692
 21
95.8197312233
  0
LINE
  5
27F
100
AcDbEntity
  8
0
100
AcDbLine
 62
7
  6
BYLAYER
 10
113.8811636789
 20
79.5697312233
 11
113.8811636789
 21
94.5697312233
  0
LINE
  5
280
100
AcDbEntity
  8
0
100
AcDbLine
 62
7
  6
BYLAYER
 10
113.8811636789
 20
94.5697312233
 11
113.8811636789
 21
95.8197312233
  0
LINE
  5
281
100
AcDbEntity
  8
0
100
AcDbLine
 62
7
  6
BYLAYER
 10
115.6177161391
 20
79.5697312233
 11
115.6177161391
 21
94.5697312233
  0
LINE
  5
282
100
AcDbEntity
  8
0
100
AcDbLine
 62
7
  6
BYLAYER
 10
115.6177161391
 20
94.5697312233
 11
115.6177161391
 21
95.8197312233
  0
LINE
  5
283
100
AcDbEntity
  8
0
100
AcDbLine
 62
7
  6
BYLAYER
 10
72.1534475982
 20
147.0697313326
 11
89.9505099666
 21
147.0697313326
  0
LINE
  5
284
100
AcDbEntity
  8
0
100
AcDbLine
 62
7
  6
BYLAYER
 10
108.5734161283
 20
147.2103529368
 11
133.5734161351
 21
147.2103529368
  0
LINE
  5
285
100
AcDbEntity
  8
0
100
AcDbLine
 62
7
  6
BYLAYER
 10
21.0734161283
 20
148.0387602981
 11
141.0734012436
 21
148.0387602981
  0
LINE
  5
286
100
AcDbEntity
  8
0
100
AcDbLine
 62
7
  6
BYLAYER
 10
118.0471537541
 20
79.5697312233
 11
118.0471537541
 21
94.5697312233
  0
LINE
  5
287
100
AcDbEntity
  8
0
100
AcDbLine
 62
7
  6
BYLAYER
 10
118.0471537541
 20
94.5697312233
 11
118.0471537541
 21
95.8197312233
  0
LINE
  5
288
100
AcDbEntity
  8
0
100
AcDbLine
 62
7
  6
BYLAYER
 10
119.869774412
 20
79.5697312233
 11
119.869774412
 21
94.5697312233
  0
LINE
  5
289
100
AcDbEntity
  8
0
100
AcDbLine
 62
7
  6
BYLAYER
 10
119.869774412
 20
94.5697312233
 11
119.869774412
 21
95.8197312233
  0
LINE
  5
28A
100
AcDbEntity
  8
0
100
AcDbLine
 62
7
  6
BYLAYER
 10
122.2456906267
 20
79.5697312233
 11
122.2456906267
 21
94.5697312233
  0
LINE
  5
28B
100
AcDbEntity
  8
0
100
AcDbLine
 62
7
  6
BYLAYER
 10
122.2456906267
 20
94.5697312233
 11
122.2456906267
 21
95.8197312233
  0
LINE
  5
28C
100
AcDbEntity
  8
0
100
AcDbLine
 62
7
  6
BYLAYER
 10
136.0839010838
 20
149.4743168931
 11
108.6629311728
 21
149.4743168931
  0
LINE
  5
28D
100
AcDbEntity
  8
0
100
AcDbLine
 62
7
  6
BYLAYER
 10
141.0734012436
 20
149.5734797781
 11
21.0734161283
 21
149.5734797781
  0
LINE
  5
28E
100
AcDbEntity
  8
0
100
AcDbLine
 62
7
  6
BYLAYER
 10
124.0683112846
 20
79.5697312233
 11
124.0683112846
 21
94.5697312233
  0
LINE
  5
28F
100
AcDbEntity
  8
0
100
AcDbLine
 62
7
  6
BYLAYER
 10
124.0683112846
 20
94.5697312233
 11
124.0683112846
 21
95.8197312233
  0
LINE
  5
290
100
AcDbEntity
  8
0
100
AcDbLine
 62
7
  6
BYLAYER
 10
125.2734161283
 20
106.8879344418
 11
125.2734161283
 21
95.8197312233
  0
LINE
  5
291
100
AcDbEntity
  8
0
100
AcDbLine
 62
7
  6
BYLAYER
 10
126.7371486765
 20
79.5697312233
 11
126.7371486765
 21
94.5697312233
  0
LINE
  5
292
100
AcDbEntity
  8
0
100
AcDbLine
 62
7
  6
BYLAYER
 10
126.7371486765
 20
94.5697312233
 11
126.7371486765
 21
102.7697312233
  0
LINE
  5
293
100
AcDbEntity
  8
0
100
AcDbLine
 62
7
  6
BYLAYER
 10
126.7734161283
 20
95.8197312233
 11
126.7734161283
 21
107.2189820529
  0
LINE
  5
294
100
AcDbEntity
  8
0
100
AcDbLine
 62
7
  6
BYLAYER
 10
130.9734161283
 20
95.8197312233
 11
130.9708242374
 21
102.7697312233
  0
LINE
  5
295
100
AcDbEntity
  8
0
100
AcDbLine
 62
7
  6
BYLAYER
 10
127.9739269801
 20
79.5697312233
 11
127.9739269801
 21
94.5697312233
  0
LINE
  5
296
100
AcDbEntity
  8
0
100
AcDbLine
 62
7
  6
BYLAYER
 10
127.9739269801
 20
94.5697312233
 11
127.9734161283
 21
107.4838201418
  0
LINE
  5
297
100
AcDbEntity
  8
0
100
AcDbLine
 62
7
  6
BYLAYER
 10
130.9682323466
 20
79.5697312233
 11
130.9682323466
 21
94.5697312233
  0
LINE
  5
298
100
AcDbEntity
  8
0
100
AcDbLine
 62
7
  6
BYLAYER
 10
130.9682323466
 20
94.5697312233
 11
130.9682323466
 21
95.8197312233
  0
LINE
  5
299
100
AcDbEntity
  8
0
100
AcDbLine
 62
7
  6
BYLAYER
 10
130.9734161283
 20
95.8197312233
 11
130.9734161283
 21
108.1459153641
  0
LINE
  5
29A
100
AcDbEntity
  8
0
100
AcDbLine
 62
7
  6
BYLAYER
 10
130.9708242374
 20
102.7697312233
 11
130.9734161283
 21
108.1459153641
  0
LINE
  5
29B
100
AcDbEntity
  8
0
100
AcDbLine
 62
7
  6
BYLAYER
 10
132.1724638527
 20
94.5697312233
 11
132.1724638527
 21
79.5697312233
  0
LINE
  5
29C
100
AcDbEntity
  8
0
100
AcDbLine
 62
7
  6
BYLAYER
 10
133.5734161288
 20
134.0576740012
 11
133.5734161351
 21
108.719731225
  0
LINE
  5
29D
100
AcDbEntity
  8
0
100
AcDbLine
 62
7
  6
BYLAYER
 10
133.5734161351
 20
134.0697312233
 11
133.5734161351
 21
147.2103529368
  0
LINE
  5
29E
100
AcDbEntity
  8
0
100
AcDbLine
 62
7
  6
BYLAYER
 10
132.1734161283
 20
108.4107534531
 11
132.1724638527
 21
94.5697312233
  0
LINE
  5
29F
100
AcDbEntity
  8
0
100
AcDbLine
 62
7
  6
BYLAYER
 10
136.0876117434
 20
149.5711209151
 11
136.0839010838
 21
149.4743168931
  0
LINE
  5
2A0
100
AcDbEntity
  8
0
100
AcDbLine
 62
7
  6
BYLAYER
 10
136.8712306738
 20
101.8960468967
 11
136.8712306738
 21
108.3697312233
  0
LINE
  5
2A1
100
AcDbEntity
  8
0
100
AcDbLine
 62
7
  6
BYLAYER
 10
139.0734161283
 20
109.3684092658
 11
139.0734161283
 21
94.5697312233
  0
LINE
  5
2A2
100
AcDbEntity
  8
0
100
AcDbLine
 62
7
  6
BYLAYER
 10
139.0734161283
 20
79.5697312233
 11
139.0734161283
 21
94.5697312233
  0
LINE
  5
2A3
100
AcDbEntity
  8
0
100
AcDbLine
 62
7
  6
BYLAYER
 10
140.2234161283
 20
109.3684092658
 11
140.2234161283
 21
94.5576740012
  0
LINE
  5
2A4
100
AcDbEntity
  8
0
100
AcDbLine
 62
7
  6
BYLAYER
 10
141.0734012436
 20
149.5727708919
 11
141.0734012436
 21
134.0697312233
  0
LINE
  5
2A5
100
AcDbEntity
  8
0
100
AcDbLine
 62
7
  6
BYLAYER
 10
141.0734161283
 20
108.0177621235
 11
141.0734161283
 21
134.0633872351
  0
LINE
  5
2A6
100
AcDbEntity
  8
0
100
AcDbLine
 62
7
  6
BYLAYER
 10
142.1254622372
 20
102.5380758296
 11
142.1254630553
 21
94.5576740012
  0
LINE
  5
2A7
100
AcDbEntity
  8
0
100
AcDbLine
 62
7
  6
BYLAYER
 10
142.1316039012
 20
106.8273936472
 11
142.1316051591
 21
94.5576740012
  0
LINE
  5
2A8
100
AcDbEntity
  8
0
100
AcDbLine
 62
7
  6
BYLAYER
 10
143.0734161283
 20
94.5697312233
 11
143.0734161283
 21
79.5697312233
  0
LINE
  5
2A9
100
AcDbEntity
  8
0
100
AcDbLine
 62
7
  6
BYLAYER
 10
143.0734161283
 20
94.5697312233
 11
143.0734154993
 21
106.8273941412
  0
LINE
  5
2AA
100
AcDbEntity
  8
0
100
AcDbLine
 62
7
  6
BYLAYER
 10
143.1232371294
 20
99.3647904279
 11
143.1232371294
 21
94.5576740012
  0
LINE
  5
2AB
100
AcDbEntity
  8
0
100
AcDbLine
 62
7
  6
BYLAYER
 10
143.2784240902
 20
108.7871382197
 11
143.2784240902
 21
108.0197312233
  0
LINE
  5
2AC
100
AcDbEntity
  8
0
100
AcDbLine
 62
7
  6
BYLAYER
 10
146.6232371294
 20
106.5862860967
 11
146.6232371294
 21
108.7871381617
  0
ARC
  5
2AD
100
AcDbEntity
  8
0
100
AcDbCircle
 62
7
  6
BYLAYER
 10
4857.3155894238
 20
158.1736657377
 40
4771.6033132821
100
AcDbArc
 50
180.3983126817
 51
180.6022896613
  0
ARC
  5
2AE
100
AcDbEntity
  8
0
100
AcDbCircle
 62
7
  6
BYLAYER
 10
-4693.0510792579
 20
158.1526606263
 40
4769.4855315741
100
AcDbArc
 50
359.3976952439
 51
359.601762794
  0
ARC
  5
2AF
100
AcDbEntity
  8
0
100
AcDbCircle
 62
7
  6
BYLAYER
 10
-1753.6979506171
 20
126.9380370962
 40
1829.9667087138
100
AcDbArc
 50
359.2239510133
 51
359.4075389242
  0
ARC
  5
2B0
100
AcDbEntity
  8
0
100
AcDbCircle
 62
7
  6
BYLAYER
 10
1915.8447667299
 20
126.9380369034
 40
1829.966692569
100
AcDbArc
 50
180.592461075
 51
180.7760489875
  0
ARC
  5
2B1
100
AcDbEntity
  8
0
100
AcDbCircle
 62
7
  6
BYLAYER
 10
74.4706486575
 20
66.53037688
 40
36.0078326148
100
AcDbArc
 50
81.6074118673
 51
82.6559682824
  0
ARC
  5
2B2
100
AcDbEntity
  8
0
100
AcDbCircle
 62
7
  6
BYLAYER
 10
87.6761835991
 20
66.5303768798
 40
36.007832615
100
AcDbArc
 50
97.3440317176
 51
98.3925881327
  0
ARC
  5
2B3
100
AcDbEntity
  8
0
100
AcDbCircle
 62
7
  6
BYLAYER
 10
88.5991587668
 20
137.7140483143
 40
35.2660012023
100
AcDbArc
 50
266.8123476064
 51
269.9581765458
  0
ARC
  5
2B4
100
AcDbEntity
  8
0
100
AcDbCircle
 62
7
  6
BYLAYER
 10
73.5991587683
 20
137.7140483143
 40
35.2660012023
100
AcDbArc
 50
266.8123476041
 51
269.9581765435
  0
ARC
  5
2B5
100
AcDbEntity
  8
0
100
AcDbCircle
 62
7
  6
BYLAYER
 10
86.9811469629
 20
77.1693401777
 40
25.3688716421
100
AcDbArc
 50
86.401483298
 51
89.5307791003
  0
ARC
  5
2B6
100
AcDbEntity
  8
0
100
AcDbCircle
 62
7
  6
BYLAYER
 10
90.1656852936
 20
77.1693401777
 40
25.368871642
100
AcDbArc
 50
90.4692208997
 51
93.598516702
  0
ARC
  5
2B7
100
AcDbEntity
  8
0
100
AcDbCircle
 62
7
  6
BYLAYER
 10
71.9811469629
 20
77.1693401777
 40
25.368871642
100
AcDbArc
 50
86.401483298
 51
89.5307791003
  0
ARC
  5
2B8
100
AcDbEntity
  8
0
100
AcDbCircle
 62
7
  6
BYLAYER
 10
75.1656852936
 20
77.1693401777
 40
25.368871642
100
AcDbArc
 50
90.4692208997
 51
93.598516702
  0
ARC
  5
2B9
100
AcDbEntity
  8
0
100
AcDbCircle
 62
7
  6
BYLAYER
 10
152.32323713
 20
99.3647904065
 40
9.2000000006
100
AcDbArc
 50
128.2843912935
 51
180.0000000017
  0
SPLINE
  5
2BA
100
AcDbEntity
  8
0
100
AcDbSpline
 62
7
  6
BYLAYER
 70
0
 71
3
 72
14
 73
10
 74
0
 42
0.0000001
 43
0.0000001
 44
0.0000000001
 40
0.0
 40
0.0
 40
0.0
 40
0.0
 40
0.1261353515
 40
0.2485477539
 40
0.4873826776
 40
0.7262213309
 40
0.848635604
 40
0.9747663587
 40
1.0
 40
1.0
 40
1.0
 40
1.0
 10
88.5734161283
 20
102.4480878835
 30
0.0
 10
88.7387053012
 20
102.4480877881
 30
0.0
 10
89.0644048463
 20
102.4506636558
 30
0.0
 10
89.6765895406
 20
102.464035174
 30
0.0
 10
90.3443763356
 20
102.4914974551
 30
0.0
 10
90.7942171004
 20
102.5195851031
 30
0.0
 10
90.9839764731
 20
102.5341699254
 30
0.0
 10
91.0199408242
 20
102.5379348606
 30
0.0
 10
91.0159772895
 20
102.5382020564
 30
0.0
 10
91.0146541239
 20
102.5381978089
 30
0.0
  0
SPLINE
  5
2BB
100
AcDbEntity
  8
0
100
AcDbSpline
 62
7
  6
BYLAYER
 70
0
 71
3
 72
14
 73
10
 74
0
 42
0.0000001
 43
0.0000001
 44
0.0000000001
 40
0.0
 40
0.0
 40
0.0
 40
0.0
 40
0.1261353515
 40
0.2485477539
 40
0.4873826776
 40
0.7262213309
 40
0.848635604
 40
0.9747663587
 40
1.0
 40
1.0
 40
1.0
 40
1.0
 10
73.5734161283
 20
102.4480878835
 30
0.0
 10
73.7387053012
 20
102.4480877881
 30
0.0
 10
74.0644048463
 20
102.4506636558
 30
0.0
 10
74.6765895406
 20
102.464035174
 30
0.0
 10
75.3443763356
 20
102.4914974551
 30
0.0
 10
75.7942171004
 20
102.5195851031
 30
0.0
 10
75.9839764731
 20
102.5341699254
 30
0.0
 10
76.0199408242
 20
102.5379348606
 30
0.0
 10
76.0159772895
 20
102.5382020564
 30
0.0
 10
76.0146541239
 20
102.5381978089
 30
0.0
  0
SPLINE
  5
2BC
100
AcDbEntity
  8
0
100
AcDbSpline
 62
7
  6
BYLAYER
 70
0
 71
3
 72
22
 73
18
 74
0
 42
0.0000001
 43
0.0000001
 44
0.0000000001
 40
0.0
 40
0.0
 40
0.0
 40
0.0
 40
0.0432831455
 40
0.0957873436
 40
0.1982195555
 40
0.3006532299
 40
0.3531578352
 40
0.4072600765
 40
0.4613301936
 40
0.5138054761
 40
0.6161843513
 40
0.7185617679
 40
0.7710366455
 40
0.8251084521
 40
0.8792060707
 40
0.9317091143
 40
1.0
 40
1.0
 40
1.0
 40
1.0
 10
91.0146541239
 20
102.5381978089
 30
0.0
 10
91.0093614614
 20
102.5381808188
 30
0.0
 10
90.9741934379
 20
102.5364155897
 30
0.0
 10
90.7942210297
 20
102.5259092566
 30
0.0
 10
90.3441872704
 20
102.5016326103
 30
0.0
 10
89.6761357748
 20
102.4767343068
 30
0.0
 10
89.0637787067
 20
102.4644483547
 30
0.0
 10
88.5727600694
 20
102.4608536872
 30
0.0
 10
88.0818633805
 20
102.4644625515
 30
0.0
 10
87.4699340804
 20
102.4767498081
 30
0.0
 10
86.8023855656
 20
102.5016320136
 30
0.0
 10
86.3526546767
 20
102.5258933288
 30
0.0
 10
86.1629078641
 20
102.5369758409
 30
0.0
 10
86.1136390932
 20
102.5393245943
 30
0.0
 10
86.1627361909
 20
102.5341883982
 30
0.0
 10
86.3214166224
 20
102.5219928362
 30
0.0
 10
86.510155054
 20
102.5098575456
 30
0.0
 10
86.6381471993
 20
102.5026377457
 30
0.0
  0
SPLINE
  5
2BD
100
AcDbEntity
  8
0
100
AcDbSpline
 62
7
  6
BYLAYER
 70
0
 71
3
 72
22
 73
18
 74
0
 42
0.0000001
 43
0.0000001
 44
0.0000000001
 40
0.0
 40
0.0
 40
0.0
 40
0.0
 40
0.0432831455
 40
0.0957873436
 40
0.1982195555
 40
0.3006532299
 40
0.3531578352
 40
0.4072600765
 40
0.4613301936
 40
0.5138054761
 40
0.6161843513
 40
0.7185617679
 40
0.7710366455
 40
0.8251084521
 40
0.8792060707
 40
0.9317091143
 40
1.0
 40
1.0
 40
1.0
 40
1.0
 10
76.0146541239
 20
102.5381978089
 30
0.0
 10
76.0093614614
 20
102.5381808188
 30
0.0
 10
75.9741934379
 20
102.5364155897
 30
0.0
 10
75.7942210297
 20
102.5259092566
 30
0.0
 10
75.3441872704
 20
102.5016326103
 30
0.0
 10
74.6761357748
 20
102.4767343068
 30
0.0
 10
74.0637787067
 20
102.4644483547
 30
0.0
 10
73.5727600694
 20
102.4608536872
 30
0.0
 10
73.0818633805
 20
102.4644625515
 30
0.0
 10
72.4699340804
 20
102.4767498081
 30
0.0
 10
71.8023855656
 20
102.5016320136
 30
0.0
 10
71.3526546767
 20
102.5258933288
 30
0.0
 10
71.1629078641
 20
102.5369758409
 30
0.0
 10
71.1136390932
 20
102.5393245943
 30
0.0
 10
71.1627361909
 20
102.5341883982
 30
0.0
 10
71.3214166224
 20
102.5219928362
 30
0.0
 10
71.510155054
 20
102.5098575456
 30
0.0
 10
71.6381471993
 20
102.5026377457
 30
0.0
  0
SPLINE
  5
2BE
100
AcDbEntity
  8
0
100
AcDbSpline
 62
7
  6
BYLAYER
 70
0
 71
3
 72
12
 73
8
 74
0
 42
0.0000001
 43
0.0000001
 44
0.0000000001
 40
0.0
 40
0.0
 40
0.0
 40
0.0
 40
0.3252723315
 40
0.4930897974
 40
0.4955070156
 40
0.6666145064
 40
1.0
 40
1.0
 40
1.0
 40
1.0
 10
19.0734161283
 20
108.0500704879
 30
0.0
 10
19.3229690411
 20
108.3097454171
 30
0.0
 10
19.6622940588
 20
108.4218382665
 30
0.0
 10
20.1291965455
 20
109.3854000431
 30
0.0
 10
20.312110391
 20
109.0479605207
 30
0.0
 10
19.4998077496
 20
108.6981026144
 30
0.0
 10
19.3260078378
 20
108.263357051
 30
0.0
 10
19.0734161283
 20
107.9941798516
 30
0.0
  0
SPLINE
  5
2BF
100
AcDbEntity
  8
0
100
AcDbSpline
 62
7
  6
BYLAYER
 70
0
 71
3
 72
11
 73
7
 74
0
 42
0.0000001
 43
0.0000001
 44
0.0000000001
 40
0.0
 40
0.0
 40
0.0
 40
0.0
 40
0.36879479
 40
0.4934962416
 40
0.624462734
 40
1.0
 40
1.0
 40
1.0
 40
1.0
 10
143.0734161283
 20
101.5763396768
 30
0.0
 10
142.8397710936
 20
101.8183524103
 30
0.0
 10
142.6432093354
 20
102.0262073681
 30
0.0
 10
141.993267199
 20
102.6741768614
 30
0.0
 10
142.6410322187
 20
101.9841855606
 30
0.0
 10
142.8386796937
 20
101.77638054
 30
0.0
 10
143.0734161283
 20
101.5269121297
 30
0.0
  0
SPLINE
  5
2C0
100
AcDbEntity
  8
0
100
AcDbSpline
 62
7
  6
BYLAYER
 70
0
 71
3
 72
10
 73
6
 74
0
 42
0.0000001
 43
0.0000001
 44
0.0000000001
 40
0.0
 40
0.0
 40
0.0
 40
0.0
 40
0.3333322893
 40
0.6666656251
 40
1.0
 40
1.0
 40
1.0
 40
1.0
 10
85.7651966975
 20
134.0592068952
 30
0.0
 10
85.7716873992
 20
133.0528927592
 30
0.0
 10
85.7860284428
 20
131.0402703459
 30
0.0
 10
85.8068410212
 20
128.0213275449
 30
0.0
 10
85.8201867183
 20
126.0086919675
 30
0.0
 10
85.8275778096
 20
125.0023777449
 30
0.0
  0
SPLINE
  5
2C1
100
AcDbEntity
  8
0
100
AcDbSpline
 62
7
  6
BYLAYER
 70
0
 71
3
 72
10
 73
6
 74
0
 42
0.0000001
 43
0.0000001
 44
0.0000000001
 40
0.0
 40
0.0
 40
0.0
 40
0.0
 40
0.3333343751
 40
0.6666677109
 40
1.0
 40
1.0
 40
1.0
 40
1.0
 10
76.3192454956
 20
125.002377745
 30
0.0
 10
76.3266416254
 20
126.0086921888
 30
0.0
 10
76.3399828328
 20
128.0213283161
 30
0.0
 10
76.3608038051
 20
131.0402718327
 30
0.0
 10
76.3751391559
 20
133.0528947969
 30
0.0
 10
76.3816357547
 20
134.059209152
 30
0.0
  0
SPLINE
  5
2C2
100
AcDbEntity
  8
0
100
AcDbSpline
 62
7
  6
BYLAYER
 70
0
 71
3
 72
9
 73
5
 74
0
 42
0.0000001
 43
0.0000001
 44
0.0000000001
 40
0.0
 40
0.0
 40
0.0
 40
0.0
 40
0.5
 40
1.0
 40
1.0
 40
1.0
 40
1.0
 10
130.9682323466
 20
94.5576740012
 30
0.0
 10
130.9682323466
 20
94.7680186459
 30
0.0
 10
130.9708242374
 20
95.1887026123
 30
0.0
 10
130.9734161283
 20
95.6093865786
 30
0.0
 10
130.9734161283
 20
95.8197312233
 30
0.0
  0
LINE
  5
2C3
100
AcDbEntity
  8
0
100
AcDbLine
 62
7
  6
BYLAYER
 10
146.6232371294
 20
108.0197312233
 11
146.6232371294
 21
108.0157930238
  0
ELLIPSE
  5
2C4
100
AcDbEntity
  8
0
100
AcDbEllipse
 62
7
  6
BYLAYER
 10
75.8234353754
 20
170.0702535223
 30
0.0
 11
0.0
 21
68.7392267296
 31
0.0
 40
0.0261859216
 41
-3.1415926536
 42
-2.9868279691
  0
ELLIPSE
  5
2C5
100
AcDbEntity
  8
0
100
AcDbEllipse
 62
7
  6
BYLAYER
 10
86.3233968812
 20
170.0702535277
 30
0.0
 11
-0.0
 21
68.739226735
 31
0.0
 40
0.0261859216
 41
-3.2963573381
 42
-3.1415926536
  0
ENDSEC
  0
SECTION
  2
OBJECTS
  0
DICTIONARY
  5
C
100
AcDbDictionary
280
0
281
1
  3
ACAD_GROUP
350
D
  3
ACAD_MLINESTYLE
350
17
  3
ACAD_LAYOUT
350
1A
  3
ACAD_PLOTSETTINGS
350
19
  3
ACAD_PLOTSTYLENAME
350
E
  0
DICTIONARY
  5
D
102
{ACAD_REACTORS
330
C
102
}
100
AcDbDictionary
280
0
281
1
  0
ACDBDICTIONARYWDFLT
  5
E
102
{ACAD_REACTORS
330
C
102
}
100
AcDbDictionary
281
1
  3
Normal
350
F
100
AcDbDictionaryWithDefault
340
F
  0
DICTIONARY
  5
17
102
{ACAD_REACTORS
330
C
102
}
100
AcDbDictionary
280
0
281
1
  3
Standard
350
18
  0
DICTIONARY
  5
19
102
{ACAD_REACTORS
330
C
102
}
100
AcDbDictionary
281
1
  0
DICTIONARY
  5
1A
102
{ACAD_REACTORS
330
C
102
}
100
AcDbDictionary
281
1
  3
Model
350
2C6
  3
Layout1
350
2C7
  0
ACDBPLACEHOLDER
  5
F
102
{ACAD_REACTORS
330
E
102
}
  0
MLINESTYLE
  5
18
102
{ACAD_REACTORS
330
17
102
}
100
AcDbMlineStyle
  2
STANDARD
 70
0
  3

 62
256
 51
90.0
 52
90.0
 71
2
 49
0.5
 62
256
  6
BYLAYER
 49
-0.5
 62
256
  6
BYLAYER
  0
LAYOUT
  5
2C6
102
{ACAD_REACTORS
330
1A
102
}
100
AcDbPlotSettings
  1

  2
none_device
  4

  6

 40
0.0
 41
0.0
 42
0.0
 43
0.0
 44
210.0
 45
297.0
 46
0.0
 47
0.0
 48
0.0
 49
0.0
140
0.0
141
0.0
142
1.0
143
1.0
 70
1024
 72
1
 73
0
 74
0
  7

 75
0
147
1.0
148
0.0
149
0.0
100
AcDbLayout
  1
Model
 70
0
 71
0
 10
0.0
 20
0.0
 11
210.0
 21
297.0
 12
0.0
 22
0.0
 32
0.0
 14
0.0
 24
0.0
 34
0.0
 15
0.0
 25
0.0
 35
0.0
146
0.0
 13
0.0
 23
0.0
 33
0.0
 16
1.0
 26
0.0
 36
0.0
 17
0.0
 27
1.0
 37
0.0
 76
0
330
210
345
0
346
0
  0
LAYOUT
  5
2C7
102
{ACAD_REACTORS
330
1A
102
}
100
AcDbPlotSettings
  1

  2
none_device
  4

  6

 40
0.0
 41
0.0
 42
0.0
 43
0.0
 44
210.0
 45
297.0
 46
0.0
 47
0.0
 48
0.0
 49
0.0
140
0.0
141
0.0
142
1.0
143
1.0
 70
0
 72
1
 73
0
 74
0
  7

 75
0
147
1.0
148
0.0
149
0.0
100
AcDbLayout
  1
Layout1
 70
0
 71
1
 10
0.0
 20
0.0
 11
210.0
 21
297.0
 12
0.0
 22
0.0
 32
0.0
 14
0.0
 24
0.0
 34
0.0
 15
0.0
 25
0.0
 35
0.0
146
0.0
 13
0.0
 23
0.0
 33
0.0
 16
1.0
 26
0.0
 36
0.0
 17
0.0
 27
1.0
 37
0.0
 76
0
330
211
345
0
346
0
  0
ENDSEC
  0
EOF
