999
DXF file: C:\Users\sesa63760\Dev\_Creo\CAD\MCADPD0005208_3D-CAD\drw0001_2.dxf
999
Pro/ENGINEER 2019471 by Parametric Technology Corporation
  0
SECTION
  2
HEADER
  9
$ACADVER
  1
AC1024
  9
$DWGCODEPAGE
  3
ANSI_1252
  9
$EXTMAX
 10
27.9394186748
 20
39.5143206972
 30
0.0
  9
$EXTMIN
 10
0.0
 20
0.0
 30
0.0
  9
$LIMMIN
 10
0.0
 20
0.0
  9
$LIMMAX
 10
27.9394186748
 20
39.5143206972
  9
$VIEWCTR
 10
13.9697093374
 20
19.7571603486
  9
$VIEWSIZE
 40
39.5143206972
  9
$CLAYER
  8
0
  9
$LTSCALE
 40
2.5757483121
  9
$CELTYPE
  6
BYLAYER
  9
$DIMSCALE
 40
1.0
  9
$DIMASZ
 40
0.3326121271
  9
$DIMEXO
 40
1.0
  9
$DIMDLI
 40
1.7796079247
  9
$DIMEXE
 40
1.0
  9
$DIMCEN
 40
0.4214860874
  9
$DIMLFAC
 40
1.0
  9
$DIMBLK
  1
_FILLED
  9
$DIMALT
 70
0
  9
$DIMALTF
 40
0.0393700787
  9
$DIMTXT
 40
0.4656569779
  9
$DIMTOL
 70
1
  9
$DIMLIM
 70
0
  9
$DIMTFAC
 40
1.0
  9
$DIMTP
 40
0.01
  9
$DIMTM
 40
0.01
  9
$DIMGAP
 40
0.625
  9
$DIMDSEP
 70
46
  9
$AUNITS
 70
0
  9
$PDMODE
 70
3
  9
$PDSIZE
 40
0.3125
  9
$HANDSEED
  5
2C2
  9
$TILEMODE
 70
1
  9
$MEASUREMENT
 70
1
  9
$INSUNITS
 70
4
  0
ENDSEC
  0
SECTION
  2
CLASSES
  0
CLASS
  1
ACDBDICTIONARYWDFLT
  2
AcDbDictionaryWithDefault
  3
AutoCAD 2000
 90
0
 91
1
280
0
281
0
  0
CLASS
  1
ACDBPLACEHOLDER
  2
AcDbPlaceHolder
  3
AutoCAD 2000
 90
0
 91
1
280
0
281
0
  0
CLASS
  1
LAYOUT
  2
AcDbLayout
  3
AutoCAD 2000
 90
0
 91
0
280
0
281
0
  0
ENDSEC
  0
SECTION
  2
TABLES
  0
TABLE
  2
VPORT
  5
8
100
AcDbSymbolTable
 70
2
  0
VPORT
  5
1F4
100
AcDbSymbolTableRecord
100
AcDbViewportTableRecord
  2
*ACTIVE
 70
0
 10
0.0
 20
0.0
 11
1.0
 21
1.0
 12
13.9697093374
 22
19.7571603486
 13
0.0
 23
0.0
 14
1.0
 24
1.0
 15
0.0
 25
0.0
 16
0.0
 26
0.0
 36
1.0
 17
0.0
 27
0.0
 37
0.0
 40
39.5143206972
 41
0.7070707071
 42
50.0
 43
0.0
 44
0.0
 50
0.0
 51
0.0
 71
0
 72
100
 73
1
 74
1
 75
0
 76
0
 77
0
 78
0
  0
ENDTAB
  0
TABLE
  2
LTYPE
  5
5
100
AcDbSymbolTable
 70
6
  0
LTYPE
  5
14
100
AcDbSymbolTableRecord
100
AcDbLinetypeTableRecord
  2
BYBLOCK
 70
0
  3

 72
65
 73
0
 40
0.0
  0
LTYPE
  5
15
100
AcDbSymbolTableRecord
100
AcDbLinetypeTableRecord
  2
BYLAYER
 70
0
  3

 72
65
 73
0
 40
0.0
  0
LTYPE
  5
16
100
AcDbSymbolTableRecord
100
AcDbLinetypeTableRecord
  2
CONTINUOUS
 70
64
  3
Solid line
 72
65
 73
0
 40
0.0
  0
LTYPE
  5
1F5
100
AcDbSymbolTableRecord
100
AcDbLinetypeTableRecord
  2
CENTER
 70
64
  3
____ _ ____ _ ____ _ ____ _ ____ _ ____ _ ____
 72
65
 73
4
 40
0.6
 49
0.375
 74
0
 49
-0.075
 74
0
 49
0.075
 74
0
 49
-0.075
 74
0
  0
LTYPE
  5
1F6
100
AcDbSymbolTableRecord
100
AcDbLinetypeTableRecord
  2
HIDDEN
 70
64
  3
- - - - - - - - - - - - - - - - - - - -
 72
65
 73
2
 40
0.2
 49
0.1
 74
0
 49
-0.1
 74
0
  0
LTYPE
  5
1F7
100
AcDbSymbolTableRecord
100
AcDbLinetypeTableRecord
  2
PHANTOM
 70
64
  3
_____ _ _ _____ _ _ _____ _ _ _____
 72
65
 73
6
 40
0.8
 49
0.45
 74
0
 49
-0.05
 74
0
 49
0.1
 74
0
 49
-0.05
 74
0
 49
0.1
 74
0
 49
-0.05
 74
0
  0
LTYPE
  5
1F8
100
AcDbSymbolTableRecord
100
AcDbLinetypeTableRecord
  2
DOT
 70
64
  3
. . . . . . . . . . . . . . . . . . . .
 72
65
 73
2
 40
0.2
 49
0.1
 74
0
 49
-0.1
 74
0
  0
LTYPE
  5
1F9
100
AcDbSymbolTableRecord
100
AcDbLinetypeTableRecord
  2
DASHED
 70
64
  3
- - - - - - - - - - - - - - - - - - - -
 72
65
 73
2
 40
0.2
 49
0.1
 74
0
 49
-0.1
 74
0
  0
ENDTAB
  0
TABLE
  2
LAYER
  5
2
100
AcDbSymbolTable
 70
36
  0
LAYER
  5
10
100
AcDbSymbolTableRecord
100
AcDbLayerTableRecord
  2
0
 70
0
 62
7
  6
CONTINUOUS
370
-3
390
F
  0
LAYER
  5
1FA
100
AcDbSymbolTableRecord
100
AcDbLayerTableRecord
  2
DEFAULT_1
 70
0
 62
7
  6
CENTER
370
-3
390
F
  0
LAYER
  5
1FB
100
AcDbSymbolTableRecord
100
AcDbLayerTableRecord
  2
DEFAULT_2
 70
0
 62
7
  6
HIDDEN
370
-3
390
F
  0
LAYER
  5
1FC
100
AcDbSymbolTableRecord
100
AcDbLayerTableRecord
  2
DEFAULT_3
 70
0
 62
7
  6
PHANTOM
370
-3
390
F
  0
LAYER
  5
1FD
100
AcDbSymbolTableRecord
100
AcDbLayerTableRecord
  2
00_COMPONENTS
 70
0
 62
7
  6
CONTINUOUS
370
-3
390
F
  0
LAYER
  5
1FE
100
AcDbSymbolTableRecord
100
AcDbLayerTableRecord
  2
00_COMPONENTS_2
 70
0
 62
7
  6
CONTINUOUS
370
-3
390
F
  0
LAYER
  5
1FF
100
AcDbSymbolTableRecord
100
AcDbLayerTableRecord
  2
01_1_DEFAULT_DATUMS
 70
0
 62
7
  6
CONTINUOUS
370
-3
390
F
  0
LAYER
  5
200
100
AcDbSymbolTableRecord
100
AcDbLayerTableRecord
  2
01_PLANES
 70
0
 62
7
  6
CONTINUOUS
370
-3
390
F
  0
LAYER
  5
201
100
AcDbSymbolTableRecord
100
AcDbLayerTableRecord
  2
02_COORD_SYS
 70
0
 62
7
  6
CONTINUOUS
370
-3
390
F
  0
LAYER
  5
202
100
AcDbSymbolTableRecord
100
AcDbLayerTableRecord
  2
03_AXES
 70
0
 62
7
  6
CONTINUOUS
370
-3
390
F
  0
LAYER
  5
203
100
AcDbSymbolTableRecord
100
AcDbLayerTableRecord
  2
04_POINTS
 70
0
 62
7
  6
CONTINUOUS
370
-3
390
F
  0
LAYER
  5
204
100
AcDbSymbolTableRecord
100
AcDbLayerTableRecord
  2
05_CURVES
 70
0
 62
7
  6
CONTINUOUS
370
-3
390
F
  0
LAYER
  5
205
100
AcDbSymbolTableRecord
100
AcDbLayerTableRecord
  2
06_SURFS
 70
0
 62
7
  6
CONTINUOUS
370
-3
390
F
  0
LAYER
  5
206
100
AcDbSymbolTableRecord
100
AcDbLayerTableRecord
  2
07_COSMETICS
 70
0
 62
7
  6
CONTINUOUS
370
-3
390
F
  0
LAYER
  5
207
100
AcDbSymbolTableRecord
100
AcDbLayerTableRecord
  2
10_NOTES
 70
0
 62
7
  6
CONTINUOUS
370
-3
390
F
  0
LAYER
  5
208
100
AcDbSymbolTableRecord
100
AcDbLayerTableRecord
  2
11_NOTES_PUB
 70
0
 62
7
  6
CONTINUOUS
370
-3
390
F
  0
LAYER
  5
209
100
AcDbSymbolTableRecord
100
AcDbLayerTableRecord
  2
13_REF_GTOL
 70
0
 62
7
  6
CONTINUOUS
370
-3
390
F
  0
LAYER
  5
20A
100
AcDbSymbolTableRecord
100
AcDbLayerTableRecord
  2
16_MISC
 70
0
 62
7
  6
CONTINUOUS
370
-3
390
F
  0
LAYER
  5
20B
100
AcDbSymbolTableRecord
100
AcDbLayerTableRecord
  2
17_NO_PRINT
 70
0
 62
7
  6
CONTINUOUS
370
-3
390
F
  0
LAYER
  5
20C
100
AcDbSymbolTableRecord
100
AcDbLayerTableRecord
  2
18_DATUM_CAMS_JOINTS
 70
0
 62
7
  6
CONTINUOUS
370
-3
390
F
  0
LAYER
  5
20D
100
AcDbSymbolTableRecord
100
AcDbLayerTableRecord
  2
19_DATUM_FUNCTIONAL
 70
0
 62
7
  6
CONTINUOUS
370
-3
390
F
  0
LAYER
  5
20E
100
AcDbSymbolTableRecord
100
AcDbLayerTableRecord
  2
20_DATUM_KINEMATIC_SCHEME
 70
0
 62
7
  6
CONTINUOUS
370
-3
390
F
  0
ENDTAB
  0
TABLE
  2
STYLE
  5
3
100
AcDbSymbolTable
 70
1
  0
STYLE
  5
11
100
AcDbSymbolTableRecord
100
AcDbTextStyleTableRecord
  2
STANDARD
 70
0
 40
0.0
 41
1.0
 50
0.0
 71
0
 42
0.2
  3
ARIAL.TTF
  4

  0
STYLE
  5
20F
100
AcDbSymbolTableRecord
100
AcDbTextStyleTableRecord
  2
TEXTSTYLE_1
 70
0
 40
0.0
 41
0.8
 50
0.0
 71
0
 42
0.2
  3
gdt
  4

  0
ENDTAB
  0
TABLE
  2
VIEW
  5
6
100
AcDbSymbolTable
 70
0
  0
ENDTAB
  0
TABLE
  2
UCS
  5
7
100
AcDbSymbolTable
 70
0
  0
ENDTAB
  0
TABLE
  2
APPID
  5
9
100
AcDbSymbolTable
 70
1
  0
APPID
  5
210
100
AcDbSymbolTableRecord
100
AcDbRegAppTableRecord
  2
ACAD
 70
0
  0
ENDTAB
  0
TABLE
  2
BLOCK_RECORD
  5
1
100
AcDbSymbolTable
 70
0
  0
BLOCK_RECORD
  5
211
100
AcDbSymbolTableRecord
100
AcDbBlockTableRecord
  2
*Model_Space
  0
BLOCK_RECORD
  5
212
100
AcDbSymbolTableRecord
100
AcDbBlockTableRecord
  2
*Paper_Space
  0
BLOCK_RECORD
  5
213
100
AcDbSymbolTableRecord
100
AcDbBlockTableRecord
  2
_FILLED
  0
ENDTAB
  0
TABLE
  2
DIMSTYLE
  5
A
100
AcDbSymbolTable
 70
1
100
AcDbDimStyleTable
 71
0
  0
DIMSTYLE
105
214
100
AcDbSymbolTableRecord
100
AcDbDimStyleTableRecord
  2
STANDARD
 70
0
  3

  4

 40
1.0
 41
0.3326121271
 42
1.0
 43
0.38
 44
1.0
 45
0.0
 46
0.0
 47
0.01
 48
0.01
140
0.4656569779
141
0.09
142
0.0
143
25.4
144
1.0
145
0.0
146
1.0
147
0.625
 71
1
 72
0
 73
0
 74
0
 75
0
 76
0
 77
1
 78
8
 79
2
170
0
171
1
172
0
173
0
174
0
175
0
176
0
177
0
178
0
270
2
179
2
271
2
272
2
273
2
274
2
275
0
280
0
281
0
282
0
283
1
284
8
285
0
286
0
287
3
288
0
340
11
278
46
341
213
342
213
343
213
344
213
  0
ENDTAB
  0
ENDSEC
  0
SECTION
  2
BLOCKS
  0
BLOCK
  5
20
100
AcDbEntity
  8
0
100
AcDbBlockBegin
  2
*Model_Space
 70
0
 10
0.0
 20
0.0
 30
0.0
  3
*Model_Space
  1

  0
ENDBLK
  5
21
100
AcDbEntity
  8
0
100
AcDbBlockEnd
  0
BLOCK
  5
1C
100
AcDbEntity
  8
0
100
AcDbBlockBegin
  2
*Paper_Space
 70
0
 10
0.0
 20
0.0
 30
0.0
  3
*Paper_Space
  1

  0
ENDBLK
  5
1D
100
AcDbEntity
  8
0
100
AcDbBlockEnd
  0
BLOCK
  5
215
100
AcDbEntity
  8
0
100
AcDbBlockBegin
  2
_FILLED
 70
64
 10
0.0
 20
0.0
  3
_FILLED
  1

  0
SOLID
  5
216
100
AcDbEntity
  8
0
  6
BYBLOCK
 62
0
100
AcDbTrace
 10
0.0
 20
0.0
 11
-1.0
 21
0.25
 12
-1.0
 22
-0.25
 13
-1.0
 23
-0.25
  0
ENDBLK
  5
217
100
AcDbEntity
  8
0
  6
BYBLOCK
 62
0
100
AcDbBlockEnd
  0
ENDSEC
  0
SECTION
  2
ENTITIES
  0
LINE
  5
218
100
AcDbEntity
  8
00_COMPONENTS
100
AcDbLine
 62
7
  6
BYLAYER
 10
3.0633699038
 20
11.4423126362
 11
3.0633699038
 21
13.6266587478
  0
LINE
  5
219
100
AcDbEntity
  8
00_COMPONENTS
100
AcDbLine
 62
7
  6
BYLAYER
 10
3.8253699038
 20
13.1950824186
 11
3.8253699038
 21
11.5183428537
  0
LINE
  5
21A
100
AcDbEntity
  8
00_COMPONENTS
100
AcDbLine
 62
7
  6
BYLAYER
 10
6.2326271897
 20
27.3145301145
 11
6.1621699038
 21
27.2820373468
  0
LINE
  5
21B
100
AcDbEntity
  8
00_COMPONENTS
100
AcDbLine
 62
7
  6
BYLAYER
 10
6.232658537
 20
27.3181338342
 11
6.2382001214
 21
27.3201952585
  0
LINE
  5
21C
100
AcDbEntity
  8
00_COMPONENTS
100
AcDbLine
 62
7
  6
BYLAYER
 10
6.9840154715
 20
13.2620815758
 11
7.0510146287
 21
13.1950824186
  0
LINE
  5
21D
100
AcDbEntity
  8
00_COMPONENTS
100
AcDbLine
 62
7
  6
BYLAYER
 10
6.2382001214
 20
23.6848790197
 11
6.1621699038
 21
23.6088489109
  0
LINE
  5
21E
100
AcDbEntity
  8
00_COMPONENTS
100
AcDbLine
 62
7
  6
BYLAYER
 10
3.0633699038
 20
11.4423126362
 11
25.2629699038
 21
11.4423126362
  0
LINE
  5
21F
100
AcDbEntity
  8
00_COMPONENTS
100
AcDbLine
 62
7
  6
BYLAYER
 10
7.4320001214
 20
13.5760679113
 11
7.3559699038
 21
13.6520836224
  0
LINE
  5
220
100
AcDbEntity
  8
00_COMPONENTS
100
AcDbLine
 62
7
  6
BYLAYER
 10
6.1621699038
 20
23.6088489109
 11
6.1621699038
 21
27.2820373468
  0
LINE
  5
221
100
AcDbEntity
  8
00_COMPONENTS
100
AcDbLine
 62
7
  6
BYLAYER
 10
6.2382001214
 20
27.3201952585
 11
6.2382001214
 21
23.6848790197
  0
LINE
  5
222
100
AcDbEntity
  8
00_COMPONENTS
100
AcDbLine
 62
7
  6
BYLAYER
 10
6.2326271897
 20
27.3145301145
 11
6.232658537
 21
27.3181338342
  0
LINE
  5
223
100
AcDbEntity
  8
00_COMPONENTS
100
AcDbLine
 62
7
  6
BYLAYER
 10
6.5431571733
 20
23.2278633094
 11
6.6191856141
 21
23.303893527
  0
LINE
  5
224
100
AcDbEntity
  8
00_COMPONENTS
100
AcDbLine
 62
7
  6
BYLAYER
 10
7.0510146287
 20
23.303893527
 11
6.9749736026
 21
23.2278633094
  0
LINE
  5
225
100
AcDbEntity
  8
00_COMPONENTS
100
AcDbLine
 62
7
  6
BYLAYER
 10
3.8253699038
 20
11.5183428537
 11
24.5009699038
 21
11.5183428537
  0
LINE
  5
226
100
AcDbEntity
  8
00_COMPONENTS
100
AcDbLine
 62
7
  6
BYLAYER
 10
7.3559699038
 20
13.6520836224
 11
7.3559699038
 21
22.8468904377
  0
LINE
  5
227
100
AcDbEntity
  8
00_COMPONENTS
100
AcDbLine
 62
7
  6
BYLAYER
 10
7.4320001214
 20
22.9229080343
 11
7.4320001214
 21
13.5760679113
  0
LINE
  5
228
100
AcDbEntity
  8
00_COMPONENTS
100
AcDbLine
 62
7
  6
BYLAYER
 10
7.5337699038
 20
14.2617126362
 11
7.5337699038
 21
18.8337126362
  0
LINE
  5
229
100
AcDbEntity
  8
00_COMPONENTS
100
AcDbLine
 62
7
  6
BYLAYER
 10
7.3559699038
 20
22.8468904377
 11
7.4320001214
 21
22.9229080343
  0
LINE
  5
22A
100
AcDbEntity
  8
00_COMPONENTS
100
AcDbLine
 62
7
  6
BYLAYER
 10
19.1415699038
 20
12.6107126362
 11
9.1847699038
 21
12.6107126362
  0
LINE
  5
22B
100
AcDbEntity
  8
00_COMPONENTS
100
AcDbLine
 62
7
  6
BYLAYER
 10
3.8253699038
 20
13.1950824186
 11
7.0510146287
 21
13.1950824186
  0
LINE
  5
22C
100
AcDbEntity
  8
00_COMPONENTS
100
AcDbLine
 62
7
  6
BYLAYER
 10
21.275325179
 20
13.1950824186
 11
24.5009699038
 21
13.1950824186
  0
LINE
  5
22D
100
AcDbEntity
  8
00_COMPONENTS
100
AcDbLine
 62
7
  6
BYLAYER
 10
25.2629699038
 20
13.2620815758
 11
21.3423243362
 21
13.2620815758
  0
LINE
  5
22E
100
AcDbEntity
  8
00_COMPONENTS
100
AcDbLine
 62
7
  6
BYLAYER
 10
6.9840154715
 20
13.2620815758
 11
3.0633699038
 21
13.2620815758
  0
LINE
  5
22F
100
AcDbEntity
  8
00_COMPONENTS
100
AcDbLine
 62
7
  6
BYLAYER
 10
8.1814699038
 20
27.3201952585
 11
8.1814699038
 21
27.9269126362
  0
LINE
  5
230
100
AcDbEntity
  8
00_COMPONENTS
100
AcDbLine
 62
7
  6
BYLAYER
 10
8.700628542
 20
23.7642143324
 11
8.700628542
 21
27.3201952585
  0
LINE
  5
231
100
AcDbEntity
  8
00_COMPONENTS
100
AcDbLine
 62
7
  6
BYLAYER
 10
8.7021699038
 20
20.8662355
 11
8.7021699038
 21
22.2626981283
  0
LINE
  5
232
100
AcDbEntity
  8
00_COMPONENTS
100
AcDbLine
 62
7
  6
BYLAYER
 10
10.0128245851
 20
23.8378300704
 11
9.8959724184
 21
23.7642143324
  0
LINE
  5
233
100
AcDbEntity
  8
00_COMPONENTS
100
AcDbLine
 62
7
  6
BYLAYER
 10
25.2629699038
 20
13.6266633094
 11
20.9703699038
 21
13.6266633094
  0
LINE
  5
234
100
AcDbEntity
  8
00_COMPONENTS
100
AcDbLine
 62
7
  6
BYLAYER
 10
7.3559699038
 20
13.6266633094
 11
3.0633699038
 21
13.6266633094
  0
LINE
  5
235
100
AcDbEntity
  8
00_COMPONENTS
100
AcDbLine
 62
7
  6
BYLAYER
 10
7.5337699038
 20
14.2617126362
 11
20.7925699038
 21
14.2617126362
  0
LINE
  5
236
100
AcDbEntity
  8
00_COMPONENTS
100
AcDbLine
 62
7
  6
BYLAYER
 10
8.80746633
 20
26.8084847104
 11
8.7599831189
 21
27.3181338342
  0
LINE
  5
237
100
AcDbEntity
  8
00_COMPONENTS
100
AcDbLine
 62
7
  6
BYLAYER
 10
8.80746633
 20
26.8084847104
 11
8.80746633
 21
24.1180301041
  0
LINE
  5
238
100
AcDbEntity
  8
00_COMPONENTS
100
AcDbLine
 62
7
  6
BYLAYER
 10
9.0831699038
 20
22.6437126362
 11
9.0831699038
 21
20.4847126362
  0
LINE
  5
239
100
AcDbEntity
  8
00_COMPONENTS
100
AcDbLine
 62
7
  6
BYLAYER
 10
9.1847699038
 20
18.7005968768
 11
9.1847699038
 21
12.6107126362
  0
LINE
  5
23A
100
AcDbEntity
  8
00_COMPONENTS
100
AcDbLine
 62
7
  6
BYLAYER
 10
9.3117699038
 20
18.7871221204
 11
9.3117699038
 21
18.8337126362
  0
LINE
  5
23B
100
AcDbEntity
  8
00_COMPONENTS
100
AcDbLine
 62
7
  6
BYLAYER
 10
10.1499699038
 20
23.5102226799
 11
10.2668150259
 21
23.5838339798
  0
LINE
  5
23C
100
AcDbEntity
  8
00_COMPONENTS
100
AcDbLine
 62
7
  6
BYLAYER
 10
9.8858295336
 20
22.1458820214
 11
9.8858295336
 21
22.5268675141
  0
LINE
  5
23D
100
AcDbEntity
  8
00_COMPONENTS
100
AcDbLine
 62
7
  6
BYLAYER
 10
10.1499699038
 20
23.0246981289
 11
10.1499699038
 21
23.5102226799
  0
LINE
  5
23E
100
AcDbEntity
  8
00_COMPONENTS
100
AcDbLine
 62
7
  6
BYLAYER
 10
10.2248476507
 20
23.8533449905
 11
10.2248476507
 21
24.5233126362
  0
LINE
  5
23F
100
AcDbEntity
  8
00_COMPONENTS
100
AcDbLine
 62
7
  6
BYLAYER
 10
10.2668150259
 20
22.9078530066
 11
10.2668150259
 21
23.5838339798
  0
LINE
  5
240
100
AcDbEntity
  8
00_COMPONENTS
100
AcDbLine
 62
7
  6
BYLAYER
 10
10.6478005186
 20
23.8412908057
 11
10.6478005185
 21
22.9078599139
  0
LINE
  5
241
100
AcDbEntity
  8
00_COMPONENTS
100
AcDbLine
 62
7
  6
BYLAYER
 10
10.8103699038
 20
20.9412996908
 11
10.8103699038
 21
21.6531126362
  0
LINE
  5
242
100
AcDbEntity
  8
00_COMPONENTS
100
AcDbLine
 62
7
  6
BYLAYER
 10
9.1847699038
 20
18.7005968768
 11
19.1415699038
 21
18.7005968768
  0
LINE
  5
243
100
AcDbEntity
  8
00_COMPONENTS
100
AcDbLine
 62
7
  6
BYLAYER
 10
9.6926641475
 20
18.7671547565
 11
18.633675647
 21
18.7671547565
  0
LINE
  5
244
100
AcDbEntity
  8
00_COMPONENTS
100
AcDbLine
 62
7
  6
BYLAYER
 10
7.5337699038
 20
18.8337126362
 11
20.7925699038
 21
18.8337126362
  0
LINE
  5
245
100
AcDbEntity
  8
00_COMPONENTS
100
AcDbLine
 62
7
  6
BYLAYER
 10
9.7689844111
 20
22.6437126362
 11
9.8858295334
 21
22.5268675141
  0
LINE
  5
246
100
AcDbEntity
  8
00_COMPONENTS
100
AcDbLine
 62
7
  6
BYLAYER
 10
10.2668150259
 20
22.9078530066
 11
10.1499699038
 21
23.0246981289
  0
LINE
  5
247
100
AcDbEntity
  8
00_COMPONENTS
100
AcDbLine
 62
7
  6
BYLAYER
 10
18.1763699038
 20
23.0246981289
 11
18.0595247818
 21
22.9078530066
  0
LINE
  5
248
100
AcDbEntity
  8
00_COMPONENTS
100
AcDbLine
 62
7
  6
BYLAYER
 10
18.4405102743
 20
22.5268675141
 11
18.5573553965
 21
22.6437126362
  0
LINE
  5
249
100
AcDbEntity
  8
00_COMPONENTS
100
AcDbLine
 62
7
  6
BYLAYER
 10
19.2431699038
 20
20.4847126362
 11
9.0831699038
 21
20.4847126362
  0
LINE
  5
24A
100
AcDbEntity
  8
00_COMPONENTS
100
AcDbLine
 62
7
  6
BYLAYER
 10
19.2431699038
 20
21.1872776992
 11
17.5159699038
 21
21.1872776992
  0
LINE
  5
24B
100
AcDbEntity
  8
00_COMPONENTS
100
AcDbLine
 62
7
  6
BYLAYER
 10
10.8103699038
 20
21.1872776992
 11
9.0831699038
 21
21.1872776992
  0
LINE
  5
24C
100
AcDbEntity
  8
00_COMPONENTS
100
AcDbLine
 62
7
  6
BYLAYER
 10
8.7021699038
 20
21.5677555519
 11
10.8103699038
 21
21.5677555519
  0
LINE
  5
24D
100
AcDbEntity
  8
00_COMPONENTS
100
AcDbLine
 62
7
  6
BYLAYER
 10
17.5159699038
 20
21.5677555519
 11
19.6241699038
 21
21.5677555519
  0
LINE
  5
24E
100
AcDbEntity
  8
00_COMPONENTS
100
AcDbLine
 62
7
  6
BYLAYER
 10
17.5159699038
 20
21.6531126362
 11
10.8103699038
 21
21.6531126362
  0
LINE
  5
24F
100
AcDbEntity
  8
00_COMPONENTS
100
AcDbLine
 62
7
  6
BYLAYER
 10
19.6241699038
 20
22.1458820214
 11
18.4405171816
 21
22.1458820215
  0
LINE
  5
250
100
AcDbEntity
  8
00_COMPONENTS
100
AcDbLine
 62
7
  6
BYLAYER
 10
9.885827295
 20
22.1458820215
 11
8.7021699038
 21
22.1458820214
  0
LINE
  5
251
100
AcDbEntity
  8
00_COMPONENTS
100
AcDbLine
 62
7
  6
BYLAYER
 10
9.0831699038
 20
22.5268675141
 11
9.8858295334
 21
22.5268675141
  0
LINE
  5
252
100
AcDbEntity
  8
00_COMPONENTS
100
AcDbLine
 62
7
  6
BYLAYER
 10
18.4405102743
 20
22.5268675141
 11
19.2431699038
 21
22.5268675141
  0
LINE
  5
253
100
AcDbEntity
  8
00_COMPONENTS
100
AcDbLine
 62
7
  6
BYLAYER
 10
17.5159699038
 20
21.6531126362
 11
17.5159699038
 21
20.9412996908
  0
LINE
  5
254
100
AcDbEntity
  8
00_COMPONENTS
100
AcDbLine
 62
7
  6
BYLAYER
 10
17.6785392891
 20
22.907855245
 11
17.6785392887
 21
23.8412908057
  0
LINE
  5
255
100
AcDbEntity
  8
00_COMPONENTS
100
AcDbLine
 62
7
  6
BYLAYER
 10
19.5188734777
 20
24.1180301041
 11
18.1036161138
 21
23.8537416232
  0
LINE
  5
256
100
AcDbEntity
  8
00_COMPONENTS
100
AcDbLine
 62
7
  6
BYLAYER
 10
9.0831699038
 20
22.6437126362
 11
9.7689844111
 21
22.6437126362
  0
LINE
  5
257
100
AcDbEntity
  8
00_COMPONENTS
100
AcDbLine
 62
7
  6
BYLAYER
 10
18.5573553965
 20
22.6437126362
 11
19.2431699038
 21
22.6437126362
  0
LINE
  5
258
100
AcDbEntity
  8
00_COMPONENTS
100
AcDbLine
 62
7
  6
BYLAYER
 10
10.2668150259
 20
22.9078530065
 11
10.6478005186
 21
22.9078530065
  0
LINE
  5
259
100
AcDbEntity
  8
00_COMPONENTS
100
AcDbLine
 62
7
  6
BYLAYER
 10
17.6785392891
 20
22.9078530064
 11
18.0595247818
 21
22.9078530064
  0
LINE
  5
25A
100
AcDbEntity
  8
00_COMPONENTS
100
AcDbLine
 62
7
  6
BYLAYER
 10
6.5431571733
 20
23.2278633094
 11
6.9749736026
 21
23.2278633094
  0
LINE
  5
25B
100
AcDbEntity
  8
00_COMPONENTS
100
AcDbLine
 62
7
  6
BYLAYER
 10
21.3513662051
 20
23.2278633094
 11
21.7831826344
 21
23.2278633094
  0
LINE
  5
25C
100
AcDbEntity
  8
00_COMPONENTS
100
AcDbLine
 62
7
  6
BYLAYER
 10
6.6191856141
 20
23.303893527
 11
7.0510146287
 21
23.303893527
  0
LINE
  5
25D
100
AcDbEntity
  8
00_COMPONENTS
100
AcDbLine
 62
7
  6
BYLAYER
 10
21.275325179
 20
23.303893527
 11
21.7071541936
 21
23.303893527
  0
LINE
  5
25E
100
AcDbEntity
  8
00_COMPONENTS
100
AcDbLine
 62
7
  6
BYLAYER
 10
8.80746633
 20
24.1180301041
 11
10.2227236939
 21
23.8537416232
  0
LINE
  5
25F
100
AcDbEntity
  8
00_COMPONENTS
100
AcDbLine
 62
7
  6
BYLAYER
 10
18.0595247818
 20
23.5838339798
 11
18.0595247818
 21
22.9078530066
  0
LINE
  5
260
100
AcDbEntity
  8
00_COMPONENTS
100
AcDbLine
 62
7
  6
BYLAYER
 10
18.1014921569
 20
23.8533449905
 11
18.1014921569
 21
24.5233126362
  0
LINE
  5
261
100
AcDbEntity
  8
00_COMPONENTS
100
AcDbLine
 62
7
  6
BYLAYER
 10
18.1763699038
 20
23.5102226799
 11
18.1763699038
 21
23.0246981289
  0
LINE
  5
262
100
AcDbEntity
  8
00_COMPONENTS
100
AcDbLine
 62
7
  6
BYLAYER
 10
18.4405102741
 20
22.5268675141
 11
18.4405102741
 21
22.1458820214
  0
LINE
  5
263
100
AcDbEntity
  8
00_COMPONENTS
100
AcDbLine
 62
7
  6
BYLAYER
 10
19.5188734777
 20
26.8084847104
 11
19.5663566888
 21
27.3181338342
  0
LINE
  5
264
100
AcDbEntity
  8
00_COMPONENTS
100
AcDbLine
 62
7
  6
BYLAYER
 10
8.700628542
 20
23.7642143324
 11
10.2227236939
 21
23.8537416232
  0
LINE
  5
265
100
AcDbEntity
  8
00_COMPONENTS
100
AcDbLine
 62
7
  6
BYLAYER
 10
17.6785392891
 20
23.5872946443
 11
10.6478005186
 21
23.5872946443
  0
LINE
  5
266
100
AcDbEntity
  8
00_COMPONENTS
100
AcDbLine
 62
7
  6
BYLAYER
 10
8.700628542
 20
23.7642143324
 11
9.8959724184
 21
23.7642143324
  0
LINE
  5
267
100
AcDbEntity
  8
00_COMPONENTS
100
AcDbLine
 62
7
  6
BYLAYER
 10
18.4303673893
 20
23.7642143324
 11
19.6257112657
 21
23.7642143324
  0
LINE
  5
268
100
AcDbEntity
  8
00_COMPONENTS
100
AcDbLine
 62
7
  6
BYLAYER
 10
10.3441241051
 20
23.840865624
 11
17.6785489754
 21
23.8412908057
  0
LINE
  5
269
100
AcDbEntity
  8
00_COMPONENTS
100
AcDbLine
 62
7
  6
BYLAYER
 10
10.2227236939
 20
23.8537416232
 11
18.1036161138
 21
23.8537416232
  0
LINE
  5
26A
100
AcDbEntity
  8
00_COMPONENTS
100
AcDbLine
 62
7
  6
BYLAYER
 10
17.9822306958
 20
23.8408655788
 11
17.6785489754
 21
23.8412908057
  0
LINE
  5
26B
100
AcDbEntity
  8
00_COMPONENTS
100
AcDbLine
 62
7
  6
BYLAYER
 10
19.6257112657
 20
23.7642143324
 11
18.1036161138
 21
23.8537416232
  0
LINE
  5
26C
100
AcDbEntity
  8
00_COMPONENTS
100
AcDbLine
 62
7
  6
BYLAYER
 10
19.0145699038
 20
18.8337126362
 11
19.0145699038
 21
18.7871221204
  0
LINE
  5
26D
100
AcDbEntity
  8
00_COMPONENTS
100
AcDbLine
 62
7
  6
BYLAYER
 10
19.1415699038
 20
12.6107126362
 11
19.1415699038
 21
18.7005968768
  0
LINE
  5
26E
100
AcDbEntity
  8
00_COMPONENTS
100
AcDbLine
 62
7
  6
BYLAYER
 10
19.2431699038
 20
20.4847126362
 11
19.2431699038
 21
22.6437126362
  0
LINE
  5
26F
100
AcDbEntity
  8
00_COMPONENTS
100
AcDbLine
 62
7
  6
BYLAYER
 10
19.5188734777
 20
24.1180301041
 11
19.5188734777
 21
26.8084847104
  0
LINE
  5
270
100
AcDbEntity
  8
00_COMPONENTS
100
AcDbLine
 62
7
  6
BYLAYER
 10
19.6241699038
 20
22.2626981283
 11
19.6241699038
 21
20.8662355
  0
LINE
  5
271
100
AcDbEntity
  8
00_COMPONENTS
100
AcDbLine
 62
7
  6
BYLAYER
 10
19.6257112657
 20
23.7642143324
 11
19.6257112657
 21
27.3201952585
  0
LINE
  5
272
100
AcDbEntity
  8
00_COMPONENTS
100
AcDbLine
 62
7
  6
BYLAYER
 10
19.5188734777
 20
24.5233126362
 11
8.80746633
 21
24.5233126362
  0
LINE
  5
273
100
AcDbEntity
  8
00_COMPONENTS
100
AcDbLine
 62
7
  6
BYLAYER
 10
18.0595247818
 20
23.5838339798
 11
18.1763699038
 21
23.5102226799
  0
LINE
  5
274
100
AcDbEntity
  8
00_COMPONENTS
100
AcDbLine
 62
7
  6
BYLAYER
 10
20.1448699038
 20
27.3201952585
 11
20.1448699038
 21
27.9269126362
  0
LINE
  5
275
100
AcDbEntity
  8
00_COMPONENTS
100
AcDbLine
 62
7
  6
BYLAYER
 10
18.4303673893
 20
23.7642143324
 11
18.3135152219
 21
23.8378300708
  0
LINE
  5
276
100
AcDbEntity
  8
00_COMPONENTS
100
AcDbLine
 62
7
  6
BYLAYER
 10
20.7925699038
 20
14.2617126362
 11
20.7925699038
 21
18.8337126362
  0
LINE
  5
277
100
AcDbEntity
  8
00_COMPONENTS
100
AcDbLine
 62
7
  6
BYLAYER
 10
20.8943396863
 20
22.9229080343
 11
20.8943396863
 21
13.5760679113
  0
LINE
  5
278
100
AcDbEntity
  8
00_COMPONENTS
100
AcDbLine
 62
7
  6
BYLAYER
 10
20.9703699038
 20
13.6520836224
 11
20.9703699038
 21
22.8468904377
  0
LINE
  5
279
100
AcDbEntity
  8
00_COMPONENTS
100
AcDbLine
 62
7
  6
BYLAYER
 10
19.6257112657
 20
27.3201952585
 11
19.5663566888
 21
27.3181338342
  0
LINE
  5
27A
100
AcDbEntity
  8
00_COMPONENTS
100
AcDbLine
 62
7
  6
BYLAYER
 10
8.7599831189
 20
27.3181338342
 11
8.700628542
 21
27.3201952585
  0
LINE
  5
27B
100
AcDbEntity
  8
00_COMPONENTS
100
AcDbLine
 62
7
  6
BYLAYER
 10
20.8943396863
 20
22.9229080343
 11
20.9703699038
 21
22.8468904377
  0
LINE
  5
27C
100
AcDbEntity
  8
00_COMPONENTS
100
AcDbLine
 62
7
  6
BYLAYER
 10
22.0936812707
 20
27.3181338342
 11
22.0937126179
 21
27.3145301145
  0
LINE
  5
27D
100
AcDbEntity
  8
00_COMPONENTS
100
AcDbLine
 62
7
  6
BYLAYER
 10
22.0881396863
 20
27.3201952585
 11
22.0881396863
 21
23.6848790197
  0
LINE
  5
27E
100
AcDbEntity
  8
00_COMPONENTS
100
AcDbLine
 62
7
  6
BYLAYER
 10
22.1641699038
 20
23.6088489109
 11
22.1641699038
 21
27.2820373468
  0
LINE
  5
27F
100
AcDbEntity
  8
00_COMPONENTS
100
AcDbLine
 62
7
  6
BYLAYER
 10
6.2382001214
 20
27.3201952585
 11
8.700628542
 21
27.3201952585
  0
LINE
  5
280
100
AcDbEntity
  8
00_COMPONENTS
100
AcDbLine
 62
7
  6
BYLAYER
 10
19.6257112657
 20
27.3201952585
 11
22.0881396863
 21
27.3201952585
  0
LINE
  5
281
100
AcDbEntity
  8
00_COMPONENTS
100
AcDbLine
 62
7
  6
BYLAYER
 10
20.1448699038
 20
27.9269126362
 11
8.1814699038
 21
27.9269126362
  0
LINE
  5
282
100
AcDbEntity
  8
00_COMPONENTS
100
AcDbLine
 62
7
  6
BYLAYER
 10
21.3513662051
 20
23.2278633094
 11
21.275325179
 21
23.303893527
  0
LINE
  5
283
100
AcDbEntity
  8
00_COMPONENTS
100
AcDbLine
 62
7
  6
BYLAYER
 10
21.7071541936
 20
23.303893527
 11
21.7831826344
 21
23.2278633094
  0
LINE
  5
284
100
AcDbEntity
  8
00_COMPONENTS
100
AcDbLine
 62
7
  6
BYLAYER
 10
20.9703699038
 20
13.6520836224
 11
20.8943396863
 21
13.5760679113
  0
LINE
  5
285
100
AcDbEntity
  8
00_COMPONENTS
100
AcDbLine
 62
7
  6
BYLAYER
 10
22.1641699038
 20
23.6088489109
 11
22.0881396863
 21
23.6848790197
  0
LINE
  5
286
100
AcDbEntity
  8
00_COMPONENTS
100
AcDbLine
 62
7
  6
BYLAYER
 10
21.275325179
 20
13.1950824186
 11
21.3423243362
 21
13.2620815758
  0
LINE
  5
287
100
AcDbEntity
  8
00_COMPONENTS
100
AcDbLine
 62
7
  6
BYLAYER
 10
22.0936812707
 20
27.3181338342
 11
22.0881396863
 21
27.3201952585
  0
LINE
  5
288
100
AcDbEntity
  8
00_COMPONENTS
100
AcDbLine
 62
7
  6
BYLAYER
 10
22.0937126179
 20
27.3145301145
 11
22.1641699038
 21
27.2820373468
  0
LINE
  5
289
100
AcDbEntity
  8
00_COMPONENTS
100
AcDbLine
 62
7
  6
BYLAYER
 10
24.5009699038
 20
11.5183428537
 11
24.5009699038
 21
13.1950824186
  0
LINE
  5
28A
100
AcDbEntity
  8
00_COMPONENTS
100
AcDbLine
 62
7
  6
BYLAYER
 10
25.2629699038
 20
11.4423126362
 11
25.2629699038
 21
13.6266587478
  0
ARC
  5
28B
100
AcDbEntity
  8
00_COMPONENTS
100
AcDbCircle
 62
7
  6
BYLAYER
 10
10.5299704038
 20
-39.225634053
 40
63.0667735578
100
AcDbArc
 50
90.1688446414
 51
90.2937012617
  0
ARC
  5
28C
100
AcDbEntity
  8
00_COMPONENTS
100
AcDbCircle
 62
7
  6
BYLAYER
 10
17.8203374723
 20
-33.2880951845
 40
57.129190203
100
AcDbArc
 50
89.6998113836
 51
89.8376298552
  0
ARC
  5
28D
100
AcDbEntity
  8
00_COMPONENTS
100
AcDbCircle
 62
7
  6
BYLAYER
 10
9.1847699038
 20
14.2617126362
 40
1.651
100
AcDbArc
 50
180.0
 51
270.0
  0
ARC
  5
28E
100
AcDbEntity
  8
00_COMPONENTS
100
AcDbCircle
 62
7
  6
BYLAYER
 10
19.1415699038
 20
14.2617126362
 40
1.651
100
AcDbArc
 50
270.0
 51
360.0
  0
ARC
  5
28F
100
AcDbEntity
  8
00_COMPONENTS
100
AcDbCircle
 62
7
  6
BYLAYER
 10
9.8858075963
 20
22.9078749436
 40
0.7619890395
100
AcDbArc
 50
270.0014811861
 51
359.9988698921
  0
ARC
  5
290
100
AcDbEntity
  8
00_COMPONENTS
100
AcDbCircle
 62
7
  6
BYLAYER
 10
18.4405321314
 20
22.9078748638
 40
0.7619890395
100
AcDbArc
 50
180.0014751803
 51
269.9988758985
  0
ARC
  5
291
100
AcDbEntity
  8
00_COMPONENTS
100
AcDbCircle
 62
7
  6
BYLAYER
 10
19.2413086563
 20
22.1455901086
 40
0.3828613588
100
AcDbArc
 50
0.0436851914
 51
16.909775316
  0
ARC
  5
292
100
AcDbEntity
  8
00_COMPONENTS
100
AcDbCircle
 62
7
  6
BYLAYER
 10
9.0843309727
 20
22.1456944604
 40
0.3821611149
100
AcDbArc
 50
163.0746597223
 51
179.9718797701
  0
ARC
  5
293
100
AcDbEntity
  8
00_COMPONENTS
100
AcDbCircle
 62
7
  6
BYLAYER
 10
19.2428912796
 20
20.865969795
 40
0.3812620187
100
AcDbArc
 50
270.0577631611
 51
0.055965287
  0
ARC
  5
294
100
AcDbEntity
  8
00_COMPONENTS
100
AcDbCircle
 62
7
  6
BYLAYER
 10
9.0834485321
 20
20.8659697865
 40
0.3812620155
100
AcDbArc
 50
179.9440354547
 51
269.9422342458
  0
ARC
  5
295
100
AcDbEntity
  8
00_COMPONENTS
100
AcDbCircle
 62
7
  6
BYLAYER
 10
9.0831643534
 20
22.1458731298
 40
0.380994418
100
AcDbArc
 50
89.9991652984
 51
163.0492893929
  0
ARC
  5
296
100
AcDbEntity
  8
00_COMPONENTS
100
AcDbCircle
 62
7
  6
BYLAYER
 10
19.243175456
 20
22.1458731285
 40
0.380994418
100
AcDbArc
 50
16.9507108733
 51
90.0008349679
  0
ARC
  5
297
100
AcDbEntity
  8
00_COMPONENTS
100
AcDbCircle
 62
7
  6
BYLAYER
 10
6.5431487389
 20
23.6088422054
 40
0.3809724391
100
AcDbArc
 50
179.9990079194
 51
270.001144023
  0
ARC
  5
298
100
AcDbEntity
  8
00_COMPONENTS
100
AcDbCircle
 62
7
  6
BYLAYER
 10
21.7831913578
 20
23.6088421887
 40
0.3809723405
100
AcDbArc
 50
269.9986970752
 51
0.0010273177
  0
ARC
  5
299
100
AcDbEntity
  8
00_COMPONENTS
100
AcDbCircle
 62
7
  6
BYLAYER
 10
21.3513451703
 20
22.8468871275
 40
0.3809688814
100
AcDbArc
 50
89.9975469818
 51
180.0014002421
  0
ARC
  5
29A
100
AcDbEntity
  8
00_COMPONENTS
100
AcDbCircle
 62
7
  6
BYLAYER
 10
6.9749989933
 20
22.846887975
 40
0.3809669049
100
AcDbArc
 50
0.0022683818
 51
90.0044266619
  0
ARC
  5
29B
100
AcDbEntity
  8
00_COMPONENTS
100
AcDbCircle
 62
7
  6
BYLAYER
 10
18.4404624453
 20
22.9078056876
 40
0.3809280496
100
AcDbArc
 50
179.9928829062
 51
270.0071938112
  0
ARC
  5
29C
100
AcDbEntity
  8
00_COMPONENTS
100
AcDbCircle
 62
7
  6
BYLAYER
 10
9.885883692
 20
22.907798338
 40
0.3809197407
100
AcDbArc
 50
269.9918540209
 51
0.0082226955
  0
ARC
  5
29D
100
AcDbEntity
  8
00_COMPONENTS
100
AcDbCircle
 62
7
  6
BYLAYER
 10
19.243462932
 20
21.5680445283
 40
0.3807308327
100
AcDbArc
 50
269.9559066863
 51
359.9565095281
  0
ARC
  5
29E
100
AcDbEntity
  8
00_COMPONENTS
100
AcDbCircle
 62
7
  6
BYLAYER
 10
9.0828768757
 20
21.5680445283
 40
0.3807308327
100
AcDbArc
 50
180.0434904713
 51
270.0440933147
  0
ARC
  5
29F
100
AcDbEntity
  8
00_COMPONENTS
100
AcDbCircle
 62
7
  6
BYLAYER
 10
18.3135713745
 20
23.5837370507
 40
0.2540525571
100
AcDbArc
 50
125.306368496
 51
179.9781394023
  0
SPLINE
  5
2A0
100
AcDbEntity
  8
00_COMPONENTS
100
AcDbSpline
 62
7
  6
BYLAYER
 70
0
 71
3
 72
9
 73
5
 74
0
 42
0.0000001
 43
0.0000001
 44
0.0000000001
 40
0.0
 40
0.0
 40
0.0
 40
0.0
 40
0.6752526496
 40
1.0
 40
1.0
 40
1.0
 40
1.0
 10
20.9703699038
 20
13.6520981289
 30
0.0
 10
20.9703699774
 20
13.6462988906
 30
0.0
 10
20.970386665
 20
13.6377070559
 30
0.0
 10
20.9708164254
 20
13.6291286447
 30
0.0
 10
20.9709381719
 20
13.6263422919
 30
0.0
  0
SPLINE
  5
2A1
100
AcDbEntity
  8
00_COMPONENTS
100
AcDbSpline
 62
7
  6
BYLAYER
 70
0
 71
3
 72
22
 73
18
 74
0
 42
0.0000001
 43
0.0000001
 44
0.0000000001
 40
0.0
 40
0.0
 40
0.0
 40
0.0
 40
0.1940996932
 40
0.3810888116
 40
0.5531895105
 40
0.7040537928
 40
0.7697381567
 40
0.8280300423
 40
0.8783675741
 40
0.920326593
 40
0.953506761
 40
0.966708451
 40
0.9776417042
 40
0.9863204634
 40
0.9927891506
 40
0.997183645
 40
1.0
 40
1.0
 40
1.0
 40
1.0
 10
18.633675647
 20
18.7671547565
 30
0.0
 10
18.6584467471
 20
18.7671547565
 30
0.0
 10
18.7070818473
 20
18.7674051133
 30
0.0
 10
18.777673035
 20
18.7685046685
 30
0.0
 10
18.8427307911
 20
18.7702868498
 30
0.0
 10
18.8922901146
 20
18.7723533854
 30
0.0
 10
18.9273089186
 20
18.7743558493
 30
0.0
 10
18.9495016647
 20
18.7759037009
 30
0.0
 10
18.9686505655
 20
18.7775497511
 30
0.0
 10
18.9845719626
 20
18.7792740308
 30
0.0
 10
18.9957405196
 20
18.7808449638
 30
0.0
 10
19.0029319815
 20
18.7821897023
 30
0.0
 10
19.0070140133
 20
18.7831308957
 30
0.0
 10
19.0102130987
 20
18.7840598752
 30
0.0
 10
19.0125272257
 20
18.7850126714
 30
0.0
 10
19.0140337193
 20
18.7859008932
 30
0.0
 10
19.0145699038
 20
18.786768281
 30
0.0
 10
19.0145699038
 20
18.7871277057
 30
0.0
  0
SPLINE
  5
2A2
100
AcDbEntity
  8
00_COMPONENTS
100
AcDbSpline
 62
7
  6
BYLAYER
 70
0
 71
3
 72
9
 73
5
 74
0
 42
0.0000001
 43
0.0000001
 44
0.0000000001
 40
0.0
 40
0.0
 40
0.0
 40
0.0
 40
0.6753771064
 40
1.0
 40
1.0
 40
1.0
 40
1.0
 10
7.3559699038
 20
13.6520981289
 30
0.0
 10
7.3559698302
 20
13.6462978208
 30
0.0
 10
7.3559534569
 20
13.6377059747
 30
0.0
 10
7.3555233356
 20
13.6291275773
 30
0.0
 10
7.3554016358
 20
13.6263422919
 30
0.0
  0
SPLINE
  5
2A3
100
AcDbEntity
  8
00_COMPONENTS
100
AcDbSpline
 62
7
  6
BYLAYER
 70
0
 71
3
 72
22
 73
18
 74
0
 42
0.0000001
 43
0.0000001
 44
0.0000000001
 40
0.0
 40
0.0
 40
0.0
 40
0.0
 40
0.0028163583
 40
0.0072108677
 40
0.0136795779
 40
0.022358363
 40
0.0332916408
 40
0.0464933495
 40
0.0796735563
 40
0.1216326468
 40
0.1719702376
 40
0.2302621463
 40
0.2959465605
 40
0.4468109035
 40
0.6189115422
 40
0.8059004192
 40
1.0
 40
1.0
 40
1.0
 40
1.0
 10
9.3117699038
 20
18.787127705
 30
0.0
 10
9.3117699038
 20
18.7867682799
 30
0.0
 10
9.3123060929
 20
18.7859008911
 30
0.0
 10
9.3138125923
 20
18.7850126704
 30
0.0
 10
9.3161267279
 20
18.7840598734
 30
0.0
 10
9.3193258226
 20
18.7831308932
 30
0.0
 10
9.3234078631
 20
18.7821896988
 30
0.0
 10
9.3305993349
 20
18.7808449581
 30
0.0
 10
9.3417679077
 20
18.7792740223
 30
0.0
 10
9.357689326
 20
18.7775497434
 30
0.0
 10
9.3768382456
 20
18.7759036932
 30
0.0
 10
9.3990310076
 20
18.7743558407
 30
0.0
 10
9.4340498275
 20
18.7723533798
 30
0.0
 10
9.4836091553
 20
18.7702868445
 30
0.0
 10
9.548666878
 20
18.7685046671
 30
0.0
 10
9.6192580098
 20
18.7674051117
 30
0.0
 10
9.6678930628
 20
18.7671547565
 30
0.0
 10
9.6926641475
 20
18.7671547565
 30
0.0
  0
SPLINE
  5
2A4
100
AcDbEntity
  8
00_COMPONENTS
100
AcDbSpline
 62
7
  6
BYLAYER
 70
0
 71
3
 72
25
 73
21
 74
0
 42
0.0000001
 43
0.0000001
 44
0.0000000001
 40
0.0
 40
0.0
 40
0.0
 40
0.0
 40
0.1342172702
 40
0.260549138
 40
0.3746252011
 40
0.4755923835
 40
0.6420194583
 40
0.7104986766
 40
0.7704954801
 40
0.8227734156
 40
0.8678659724
 40
0.9061300162
 40
0.9377868194
 40
0.9629559152
 40
0.9731283144
 40
0.9816964814
 40
0.9886617569
 40
0.9940273703
 40
0.9977999023
 40
1.0
 40
1.0
 40
1.0
 40
1.0
 10
6.9840154715
 20
13.2620815758
 30
0.0
 10
7.009824992
 20
13.2620815758
 30
0.0
 10
7.0600870253
 20
13.2672683027
 30
0.0
 10
7.1292369002
 20
13.2889604467
 30
0.0
 10
7.1874736779
 20
13.3200304338
 30
0.0
 10
7.2457751294
 20
13.3649493222
 30
0.0
 10
7.2882556546
 20
13.4147395854
 30
0.0
 10
7.3166483361
 20
13.4639134334
 30
0.0
 10
7.3309801675
 20
13.4956400293
 30
0.0
 10
7.3409893256
 20
13.5242329214
 30
0.0
 10
7.3477010181
 20
13.5494593046
 30
0.0
 10
7.3519712744
 20
13.5711746084
 30
0.0
 10
7.3544398419
 20
13.5893010777
 30
0.0
 10
7.3555493649
 20
13.6021426616
 30
0.0
 10
7.3559438961
 20
13.6105775775
 30
0.0
 10
7.3560588071
 20
13.6155205147
 30
0.0
 10
7.3560491783
 20
13.619538055
 30
0.0
 10
7.3559452268
 20
13.6226380888
 30
0.0
 10
7.3557448875
 20
13.6248017188
 30
0.0
 10
7.3555604896
 20
13.6259501762
 30
0.0
 10
7.3554016358
 20
13.6263422919
 30
0.0
  0
SPLINE
  5
2A5
100
AcDbEntity
  8
00_COMPONENTS
100
AcDbSpline
 62
7
  6
BYLAYER
 70
0
 71
3
 72
28
 73
24
 74
0
 42
0.0000001
 43
0.0000001
 44
0.0000000001
 40
0.0
 40
0.0
 40
0.0
 40
0.0
 40
0.1942931469
 40
0.3811262613
 40
0.5532551196
 40
0.6317535405
 40
0.7041676807
 40
0.769823375
 40
0.8280817096
 40
0.8784133591
 40
0.9004556478
 40
0.9203420731
 40
0.938034823
 40
0.9535001825
 40
0.9667079671
 40
0.9776359108
 40
0.9862940109
 40
0.9897884939
 40
0.992741817
 40
0.9951762233
 40
0.997132233
 40
0.9986888172
 40
1.0
 40
1.0
 40
1.0
 40
1.0
 10
9.1837136405
 20
18.7005968768
 30
0.0
 10
9.0762937734
 20
18.7005968768
 30
0.0
 10
8.8655767187
 20
18.7016798262
 30
0.0
 10
8.5597276819
 20
18.7064616626
 30
0.0
 10
8.3179493001
 20
18.7130814111
 30
0.0
 10
8.1394789479
 20
18.7199722424
 30
0.0
 10
8.0198751079
 20
18.7256152262
 30
0.0
 10
7.9115053557
 20
18.7318222917
 30
0.0
 10
7.8154009696
 20
18.7385391275
 30
0.0
 10
7.7434380479
 20
18.744727396
 30
0.0
 10
7.6927000941
 20
18.7499862493
 30
0.0
 10
7.6599615109
 20
18.7538387543
 30
0.0
 10
7.6308962661
 20
18.7577624943
 30
0.0
 10
7.6055708544
 20
18.7617462412
 30
0.0
 10
7.5840445986
 20
18.7657723114
 30
0.0
 10
7.5663696641
 20
18.7698329575
 30
0.0
 10
7.5541085419
 20
18.7734283425
 30
0.0
 10
7.5463066443
 20
18.7764226115
 30
0.0
 10
7.541854416
 20
18.7785074892
 30
0.0
 10
7.5383597413
 20
18.7805941782
 30
0.0
 10
7.5358095316
 20
18.7826969748
 30
0.0
 10
7.5341804353
 20
18.7848586246
 30
0.0
 10
7.5337699038
 20
18.7864532199
 30
0.0
 10
7.5337699038
 20
18.7871781404
 30
0.0
  0
SPLINE
  5
2A6
100
AcDbEntity
  8
00_COMPONENTS
100
AcDbSpline
 62
7
  6
BYLAYER
 70
0
 71
3
 72
28
 73
24
 74
0
 42
0.0000001
 43
0.0000001
 44
0.0000000001
 40
0.0
 40
0.0
 40
0.0
 40
0.0
 40
0.0013111828
 40
0.002867767
 40
0.0048237766
 40
0.007258183
 40
0.010211506
 40
0.013705989
 40
0.022364089
 40
0.0332920327
 40
0.0464998172
 40
0.0619651767
 40
0.0796579264
 40
0.0995443518
 40
0.1215866404
 40
0.1719182897
 40
0.2301766243
 40
0.2958323186
 40
0.3682464588
 40
0.4467448797
 40
0.6188737382
 40
0.8057068528
 40
1.0
 40
1.0
 40
1.0
 40
1.0
 10
20.7925699038
 20
18.7871781406
 30
0.0
 10
20.7925699038
 20
18.7864532201
 30
0.0
 10
20.7921593724
 20
18.7848586248
 30
0.0
 10
20.7905302761
 20
18.782696975
 30
0.0
 10
20.7879800664
 20
18.7805941784
 30
0.0
 10
20.7844853918
 20
18.7785074893
 30
0.0
 10
20.7800331635
 20
18.7764226117
 30
0.0
 10
20.772231266
 20
18.7734283427
 30
0.0
 10
20.7599701439
 20
18.7698329577
 30
0.0
 10
20.7422952096
 20
18.7657723116
 30
0.0
 10
20.7207689539
 20
18.7617462413
 30
0.0
 10
20.6954435424
 20
18.7577624944
 30
0.0
 10
20.6663782977
 20
18.7538387545
 30
0.0
 10
20.6336397147
 20
18.7499862494
 30
0.0
 10
20.5829017611
 20
18.7447273961
 30
0.0
 10
20.5109388397
 20
18.7385391276
 30
0.0
 10
20.4148344538
 20
18.7318222918
 30
0.0
 10
20.3064647018
 20
18.7256152263
 30
0.0
 10
20.1868608621
 20
18.7199722425
 30
0.0
 10
20.0083905102
 20
18.7130814112
 30
0.0
 10
19.7666121286
 20
18.7064616627
 30
0.0
 10
19.460763092
 20
18.7016798262
 30
0.0
 10
19.2500460374
 20
18.7005968768
 30
0.0
 10
19.1426261703
 20
18.7005968768
 30
0.0
  0
SPLINE
  5
2A7
100
AcDbEntity
  8
00_COMPONENTS
100
AcDbSpline
 62
7
  6
BYLAYER
 70
0
 71
3
 72
27
 73
23
 74
0
 42
0.0000001
 43
0.0000001
 44
0.0000000001
 40
0.0
 40
0.0
 40
0.0
 40
0.0
 40
0.0005604856
 40
0.0016963558
 40
0.0034213312
 40
0.0057364564
 40
0.0121307798
 40
0.0208617068
 40
0.0319078895
 40
0.045247036
 40
0.0608564751
 40
0.0787133541
 40
0.1210209695
 40
0.1717028645
 40
0.2302349409
 40
0.2960928967
 40
0.3687086612
 40
0.4473394377
 40
0.5311987192
 40
0.6194999713
 40
0.8061079701
 40
1.0
 40
1.0
 40
1.0
 40
1.0
 10
10.266815618
 20
23.5838339509
 30
0.0
 10
10.2668647639
 20
23.583885457
 30
0.0
 10
10.2670900976
 20
23.5839380344
 30
0.0
 10
10.2675043441
 20
23.5840234822
 30
0.0
 10
10.2681638134
 20
23.5840998058
 30
0.0
 10
10.2694796742
 20
23.5842254384
 30
0.0
 10
10.2716933527
 20
23.5843667471
 30
0.0
 10
10.2750123064
 20
23.5845300966
 30
0.0
 10
10.2792160902
 20
23.5846917867
 30
0.0
 10
10.2842933857
 20
23.5848533164
 30
0.0
 10
10.2902364222
 20
23.5850128274
 30
0.0
 10
10.2998584357
 20
23.5852350555
 30
0.0
 10
10.3139354859
 20
23.5854961143
 30
0.0
 10
10.333179225
 20
23.5857816491
 30
0.0
 10
10.3554147671
 20
23.5860501149
 30
0.0
 10
10.3804366629
 20
23.586298455
 30
0.0
 10
10.4080117519
 20
23.5865233318
 30
0.0
 10
10.437873563
 20
23.5867231385
 30
0.0
 10
10.4697278987
 20
23.5868959201
 30
0.0
 10
10.5152972439
 20
23.5870911707
 30
0.0
 10
10.574842869
 20
23.5872515796
 30
0.0
 10
10.6231729062
 20
23.5872946133
 30
0.0
 10
10.6478005186
 20
23.5872946154
 30
0.0
  0
SPLINE
  5
2A8
100
AcDbEntity
  8
00_COMPONENTS
100
AcDbSpline
 62
7
  6
BYLAYER
 70
0
 71
3
 72
25
 73
21
 74
0
 42
0.0000001
 43
0.0000001
 44
0.0000000001
 40
0.0
 40
0.0
 40
0.0
 40
0.0
 40
0.1342171745
 40
0.2605491999
 40
0.3746253207
 40
0.4755924844
 40
0.6420194958
 40
0.710498701
 40
0.7704954977
 40
0.822773426
 40
0.8678659782
 40
0.9061300203
 40
0.9377868213
 40
0.9629559146
 40
0.9731283127
 40
0.9816964789
 40
0.9886617544
 40
0.9940273685
 40
0.9977999016
 40
1.0
 40
1.0
 40
1.0
 40
1.0
 10
21.3423243362
 20
13.2620815758
 30
0.0
 10
21.316514834
 20
13.2620815758
 30
0.0
 10
21.2662527889
 20
13.2672682973
 30
0.0
 10
21.1971028904
 20
13.2889604487
 30
0.0
 10
21.1388660836
 20
13.3200304627
 30
0.0
 10
21.0805646463
 20
13.3649493617
 30
0.0
 10
21.0380841395
 20
13.414739614
 30
0.0
 10
21.0096914622
 20
13.463913446
 30
0.0
 10
20.9953596361
 20
13.4956400388
 30
0.0
 10
20.9853504828
 20
13.5242329286
 30
0.0
 10
20.9786387882
 20
13.5494593084
 30
0.0
 10
20.9743685319
 20
13.5711746106
 30
0.0
 10
20.9718999658
 20
13.589301079
 30
0.0
 10
20.9707904472
 20
13.6021426621
 30
0.0
 10
20.9703959145
 20
13.610577577
 30
0.0
 10
20.9702809986
 20
13.6155205138
 30
0.0
 10
20.9702906259
 20
13.6195380541
 30
0.0
 10
20.9703945782
 20
13.6226380882
 30
0.0
 10
20.970594919
 20
13.6248017186
 30
0.0
 10
20.970779318
 20
13.6259501761
 30
0.0
 10
20.9709381719
 20
13.6263422919
 30
0.0
  0
SPLINE
  5
2A9
100
AcDbEntity
  8
00_COMPONENTS
100
AcDbSpline
 62
7
  6
BYLAYER
 70
0
 71
3
 72
23
 73
19
 74
0
 42
0.0000001
 43
0.0000001
 44
0.0000000001
 40
0.0
 40
0.0
 40
0.0
 40
0.0
 40
0.2222424938
 40
0.4199183261
 40
0.5910715727
 40
0.6661368797
 40
0.7339694005
 40
0.7944125578
 40
0.8473098455
 40
0.8925051762
 40
0.929875139
 40
0.9593580573
 40
0.971125052
 40
0.9809003417
 40
0.9886778337
 40
0.9944523704
 40
0.998221732
 40
1.0
 40
1.0
 40
1.0
 40
1.0
 10
10.2066881306
 20
23.8403109219
 30
0.0
 10
10.1923238871
 20
23.840234665
 30
0.0
 10
10.1651832897
 20
23.8400771083
 30
0.0
 10
10.1269808521
 20
23.8398065129
 30
0.0
 10
10.0982912009
 20
23.8395566237
 30
0.0
 10
10.0779939002
 20
23.8393436775
 30
0.0
 10
10.0648520618
 20
23.8391874619
 30
0.0
 10
10.0531431779
 20
23.8390281986
 30
0.0
 10
10.0428976467
 20
23.8388663164
 30
0.0
 10
10.0341435995
 20
23.8387026782
 30
0.0
 10
10.0269034815
 20
23.8385372522
 30
0.0
 10
10.0218236335
 20
23.8383917772
 30
0.0
 10
10.0185284497
 20
23.8382689103
 30
0.0
 10
10.0166340703
 20
23.8381862409
 30
0.0
 10
10.0151317347
 20
23.8380983229
 30
0.0
 10
10.0140075772
 20
23.8380270212
 30
0.0
 10
10.0132945303
 20
23.8379289326
 30
0.0
 10
10.0129218852
 20
23.8378912518
 30
0.0
 10
10.0128245851
 20
23.8378300704
 30
0.0
  0
SPLINE
  5
2AA
100
AcDbEntity
  8
00_COMPONENTS
100
AcDbSpline
 62
7
  6
BYLAYER
 70
0
 71
3
 72
27
 73
23
 74
0
 42
0.0000001
 43
0.0000001
 44
0.0000000001
 40
0.0
 40
0.0
 40
0.0
 40
0.0
 40
0.1938930283
 40
0.3804999942
 40
0.4688009562
 40
0.5526601929
 40
0.6312910613
 40
0.703906945
 40
0.7697649612
 40
0.8282970441
 40
0.8789789192
 40
0.921286516
 40
0.9391433941
 40
0.9547528388
 40
0.9680919966
 40
0.9791381956
 40
0.987869143
 40
0.9942634902
 40
0.9965786284
 40
0.9983036172
 40
0.9994395012
 40
1.0
 40
1.0
 40
1.0
 40
1.0
 10
17.6785392891
 20
23.5872945889
 30
0.0
 10
17.7031670268
 20
23.5872945869
 30
0.0
 10
17.7514970569
 20
23.5872515544
 30
0.0
 10
17.8110426373
 20
23.587091144
 30
0.0
 10
17.8566118062
 20
23.5868958934
 30
0.0
 10
17.8884661092
 20
23.586723112
 30
0.0
 10
17.9183279397
 20
23.5865233056
 30
0.0
 10
17.9459030616
 20
23.5862984291
 30
0.0
 10
17.9709249797
 20
23.5860500894
 30
0.0
 10
17.9931605264
 20
23.5857816238
 30
0.0
 10
18.0124042603
 20
23.5854960892
 30
0.0
 10
18.0264813048
 20
23.5852350303
 30
0.0
 10
18.0361033159
 20
23.585012802
 30
0.0
 10
18.0420463541
 20
23.5848532908
 30
0.0
 10
18.0471236535
 20
23.5846917609
 30
0.0
 10
18.0513274431
 20
23.5845300705
 30
0.0
 10
18.0546464044
 20
23.5843667209
 30
0.0
 10
18.0568600897
 20
23.5842254119
 30
0.0
 10
18.0581759573
 20
23.5840997793
 30
0.0
 10
18.058835431
 20
23.5840234555
 30
0.0
 10
18.059249684
 20
23.5839380078
 30
0.0
 10
18.0594750195
 20
23.58388543
 30
0.0
 10
18.0595241684
 20
23.5838339244
 30
0.0
  0
SPLINE
  5
2AB
100
AcDbEntity
  8
00_COMPONENTS
100
AcDbSpline
 62
7
  6
BYLAYER
 70
0
 71
3
 72
23
 73
19
 74
0
 42
0.0000001
 43
0.0000001
 44
0.0000000001
 40
0.0
 40
0.0
 40
0.0
 40
0.0
 40
0.0017783067
 40
0.0055476921
 40
0.0113222395
 40
0.0190997312
 40
0.0288750121
 40
0.0406419919
 40
0.0701248726
 40
0.1074948035
 40
0.1526901163
 40
0.205587384
 40
0.2660305241
 40
0.3338630366
 40
0.4089283506
 40
0.5800816251
 40
0.7777574513
 40
1.0
 40
1.0
 40
1.0
 40
1.0
 10
18.3135152219
 20
23.8378300708
 30
0.0
 10
18.3134179179
 20
23.8378912503
 30
0.0
 10
18.3130452719
 20
23.8379289337
 30
0.0
 10
18.3123322189
 20
23.83802702
 30
0.0
 10
18.3112080617
 20
23.838098323
 30
0.0
 10
18.3097057273
 20
23.8381862404
 30
0.0
 10
18.307811352
 20
23.8382689099
 30
0.0
 10
18.3045161761
 20
23.8383917767
 30
0.0
 10
18.2994363397
 20
23.8385372518
 30
0.0
 10
18.2921962361
 20
23.8387026778
 30
0.0
 10
18.2834422041
 20
23.8388663159
 30
0.0
 10
18.2731966888
 20
23.839028198
 30
0.0
 10
18.2614878221
 20
23.8391874612
 30
0.0
 10
18.2483460009
 20
23.8393436767
 30
0.0
 10
18.2280487231
 20
23.8395566227
 30
0.0
 10
18.1993591048
 20
23.8398065115
 30
0.0
 10
18.1611567086
 20
23.8400771068
 30
0.0
 10
18.1340161409
 20
23.8402346637
 30
0.0
 10
18.1196519114
 20
23.8403109207
 30
0.0
  0
SPLINE
  5
2AC
100
AcDbEntity
  8
00_COMPONENTS
100
AcDbSpline
 62
7
  6
BYLAYER
 70
0
 71
3
 72
14
 73
10
 74
0
 42
0.0000001
 43
0.0000001
 44
0.0000000001
 40
0.0
 40
0.0
 40
0.0
 40
0.0
 40
0.2324639782
 40
0.3547654375
 40
0.4804473906
 40
0.6088480522
 40
0.7388562753
 40
0.8694849378
 40
1.0
 40
1.0
 40
1.0
 40
1.0
 10
10.2668156179
 20
23.5838339798
 30
0.0
 10
10.2668147437
 20
23.6020514001
 30
0.0
 10
10.2637605457
 20
23.6299663077
 30
0.0
 10
10.2536666574
 20
23.6662981272
 30
0.0
 10
10.2424522227
 20
23.6936605856
 30
0.0
 10
10.2278100518
 20
23.7200348491
 30
0.0
 10
10.209991092
 20
23.7448605027
 30
0.0
 10
10.1892001428
 20
23.7674887342
 30
0.0
 10
10.1735220589
 20
23.7807369063
 30
0.0
 10
10.1653338828
 20
23.7868660417
 30
0.0
  0
SPLINE
  5
2AD
100
AcDbEntity
  8
00_COMPONENTS
100
AcDbSpline
 62
7
  6
BYLAYER
 70
0
 71
3
 72
11
 73
7
 74
0
 42
0.0000001
 43
0.0000001
 44
0.0000000001
 40
0.0
 40
0.0
 40
0.0
 40
0.0
 40
0.2631250059
 40
0.5192335297
 40
0.7655024357
 40
1.0
 40
1.0
 40
1.0
 40
1.0
 10
10.1653338828
 20
23.7868660417
 30
0.0
 10
10.1538577958
 20
23.7954562932
 30
0.0
 10
10.129765511
 20
23.8105703453
 30
0.0
 10
10.091088541
 20
23.82666897
 30
0.0
 10
10.0518284447
 20
23.8358084815
 30
0.0
 10
10.0256001038
 20
23.8378292987
 30
0.0
 10
10.0128246974
 20
23.8378298599
 30
0.0
  0
SPLINE
  5
2AE
100
AcDbEntity
  8
00_COMPONENTS
100
AcDbSpline
 62
7
  6
BYLAYER
 70
0
 71
3
 72
11
 73
7
 74
0
 42
0.0000001
 43
0.0000001
 44
0.0000000001
 40
0.0
 40
0.0
 40
0.0
 40
0.0
 40
0.234832444
 40
0.4810827659
 40
0.7369183152
 40
1.0
 40
1.0
 40
1.0
 40
1.0
 10
18.3135151102
 20
23.837829834
 30
0.0
 10
18.3012760989
 20
23.837829298
 30
0.0
 10
18.2761708183
 20
23.8359754447
 30
0.0
 10
18.2385425853
 20
23.8275968525
 30
0.0
 10
18.2013073514
 20
23.8128603054
 30
0.0
 10
18.1779520255
 20
23.7989580794
 30
0.0
 10
18.1667536425
 20
23.7910463064
 30
0.0
  0
ELLIPSE
  5
2AF
100
AcDbEntity
  8
00_COMPONENTS
100
AcDbEllipse
 62
7
  6
BYLAYER
 10
14.1631699038
 20
20.9412996908
 30
0.0
 11
3.3528
 21
-0.0
 31
0.0
 40
0.0524077793
 41
3.1415926536
 42
6.2831853072
  0
ELLIPSE
  5
2B0
100
AcDbEntity
  8
00_COMPONENTS
100
AcDbEllipse
 62
7
  6
BYLAYER
 10
24.5009699038
 20
11.5116929805
 30
0.0
 11
0.762
 21
0.0
 31
0.0
 40
0.0087268678
 41
0.0
 42
1.5707963268
  0
ELLIPSE
  5
2B1
100
AcDbEntity
  8
00_COMPONENTS
100
AcDbEllipse
 62
7
  6
BYLAYER
 10
24.5009699038
 20
13.2017322919
 30
0.0
 11
0.762
 21
0.0
 31
0.0
 40
0.0087268678
 41
-1.5707963268
 42
-0.0
  0
ELLIPSE
  5
2B2
100
AcDbEntity
  8
00_COMPONENTS
100
AcDbEllipse
 62
7
  6
BYLAYER
 10
7.0509856135
 20
13.5760969265
 30
0.0
 11
0.2694282005
 21
-0.2694282005
 31
0.0
 40
0.9999238505
 41
-0.7853600872
 42
0.7853600872
  0
ELLIPSE
  5
2B3
100
AcDbEntity
  8
00_COMPONENTS
100
AcDbEllipse
 62
7
  6
BYLAYER
 10
7.0509856135
 20
22.9228790191
 30
0.0
 11
0.2694282005
 21
0.2694282005
 31
0.0
 40
0.9999238505
 41
-0.7853600872
 42
0.7853600872
  0
ELLIPSE
  5
2B4
100
AcDbEntity
  8
00_COMPONENTS
100
AcDbEllipse
 62
7
  6
BYLAYER
 10
6.6192146293
 20
23.6849080349
 30
0.0
 11
0.2694282005
 21
0.2694282005
 31
0.0
 40
0.9999238505
 41
-3.9269527408
 42
-2.3562325664
  0
ELLIPSE
  5
2B5
100
AcDbEntity
  8
00_COMPONENTS
100
AcDbEllipse
 62
7
  6
BYLAYER
 10
9.8959602319
 20
23.5102104937
 30
0.0
 11
0.2149196116
 21
0.1353972823
 31
0.0
 40
0.999946812
 41
-0.5621558512
 42
1.0085924992
  0
ELLIPSE
  5
2B6
100
AcDbEntity
  8
00_COMPONENTS
100
AcDbEllipse
 62
7
  6
BYLAYER
 10
9.768955396
 20
23.024727144
 30
0.0
 11
0.2694282005
 21
-0.2694282005
 31
0.0
 40
0.9999238505
 41
-0.7853600872
 42
0.7853600872
  0
ELLIPSE
  5
2B7
100
AcDbEntity
  8
00_COMPONENTS
100
AcDbEllipse
 62
7
  6
BYLAYER
 10
9.0831699038
 20
22.2626981283
 30
0.0
 11
0.0
 21
-0.3810145079
 31
0.0
 40
0.9999619231
 41
3.1415926536
 42
4.7123889804
  0
ELLIPSE
  5
2B8
100
AcDbEntity
  8
00_COMPONENTS
100
AcDbEllipse
 62
7
  6
BYLAYER
 10
19.2431699038
 20
22.2626981283
 30
0.0
 11
0.0
 21
-0.3810145079
 31
0.0
 40
0.9999619231
 41
1.5707963268
 42
3.1415926536
  0
ELLIPSE
  5
2B9
100
AcDbEntity
  8
00_COMPONENTS
100
AcDbEllipse
 62
7
  6
BYLAYER
 10
18.5573844117
 20
23.024727144
 30
0.0
 11
0.2694282005
 21
0.2694282005
 31
0.0
 40
0.9999238505
 41
2.3562325664
 42
3.9269527408
  0
ELLIPSE
  5
2BA
100
AcDbEntity
  8
00_COMPONENTS
100
AcDbEllipse
 62
7
  6
BYLAYER
 10
18.4303795757
 20
23.5102104937
 30
0.0
 11
0.2149196116
 21
-0.1353972823
 31
0.0
 40
0.999946812
 41
2.1330001544
 42
3.7037485048
  0
ELLIPSE
  5
2BB
100
AcDbEntity
  8
00_COMPONENTS
100
AcDbEllipse
 62
7
  6
BYLAYER
 10
21.7071251784
 20
23.6849080349
 30
0.0
 11
-0.2694282005
 21
0.2694282005
 31
0.0
 40
0.9999238505
 41
-3.9269527408
 42
-2.3562325664
  0
ELLIPSE
  5
2BC
100
AcDbEntity
  8
00_COMPONENTS
100
AcDbEllipse
 62
7
  6
BYLAYER
 10
21.2753541941
 20
22.9228790191
 30
0.0
 11
0.2694282005
 21
-0.2694282005
 31
0.0
 40
0.9999238505
 41
2.3562325664
 42
3.9269527408
  0
ELLIPSE
  5
2BD
100
AcDbEntity
  8
00_COMPONENTS
100
AcDbEllipse
 62
7
  6
BYLAYER
 10
21.2753541941
 20
13.5760969265
 30
0.0
 11
0.2694282005
 21
0.2694282005
 31
0.0
 40
0.9999238505
 41
2.3562325664
 42
3.9269527408
  0
ELLIPSE
  5
2BE
100
AcDbEntity
  8
00_COMPONENTS
100
AcDbEllipse
 62
7
  6
BYLAYER
 10
3.8253699038
 20
13.2017322919
 30
0.0
 11
0.762
 21
-0.0
 31
0.0
 40
0.0087268678
 41
3.1415926536
 42
4.7123889804
  0
ELLIPSE
  5
2BF
100
AcDbEntity
  8
00_COMPONENTS
100
AcDbEllipse
 62
7
  6
BYLAYER
 10
3.8253699038
 20
11.5116929805
 30
0.0
 11
0.762
 21
0.0
 31
0.0
 40
0.0087268678
 41
1.5707963268
 42
3.1415926536
  0
ENDSEC
  0
SECTION
  2
OBJECTS
  0
DICTIONARY
  5
C
100
AcDbDictionary
280
0
281
1
  3
ACAD_GROUP
350
D
  3
ACAD_MLINESTYLE
350
17
  3
ACAD_LAYOUT
350
1A
  3
ACAD_PLOTSETTINGS
350
19
  3
ACAD_PLOTSTYLENAME
350
E
  0
DICTIONARY
  5
D
102
{ACAD_REACTORS
330
C
102
}
100
AcDbDictionary
280
0
281
1
  0
ACDBDICTIONARYWDFLT
  5
E
102
{ACAD_REACTORS
330
C
102
}
100
AcDbDictionary
281
1
  3
Normal
350
F
100
AcDbDictionaryWithDefault
340
F
  0
DICTIONARY
  5
17
102
{ACAD_REACTORS
330
C
102
}
100
AcDbDictionary
280
0
281
1
  3
Standard
350
18
  0
DICTIONARY
  5
19
102
{ACAD_REACTORS
330
C
102
}
100
AcDbDictionary
281
1
  0
DICTIONARY
  5
1A
102
{ACAD_REACTORS
330
C
102
}
100
AcDbDictionary
281
1
  3
Model
350
2C0
  3
Layout1
350
2C1
  0
ACDBPLACEHOLDER
  5
F
102
{ACAD_REACTORS
330
E
102
}
  0
MLINESTYLE
  5
18
102
{ACAD_REACTORS
330
17
102
}
100
AcDbMlineStyle
  2
STANDARD
 70
0
  3

 62
256
 51
90.0
 52
90.0
 71
2
 49
0.5
 62
256
  6
BYLAYER
 49
-0.5
 62
256
  6
BYLAYER
  0
LAYOUT
  5
2C0
102
{ACAD_REACTORS
330
1A
102
}
100
AcDbPlotSettings
  1

  2
none_device
  4

  6

 40
0.0
 41
0.0
 42
0.0
 43
0.0
 44
210.0
 45
297.0
 46
0.0
 47
0.0
 48
0.0
 49
0.0
140
0.0
141
0.0
142
1.0
143
1.0
 70
1024
 72
1
 73
0
 74
0
  7

 75
0
147
1.0
148
0.0
149
0.0
100
AcDbLayout
  1
Model
 70
0
 71
0
 10
0.0
 20
0.0
 11
210.0
 21
297.0
 12
0.0
 22
0.0
 32
0.0
 14
0.0
 24
0.0
 34
0.0
 15
0.0
 25
0.0
 35
0.0
146
0.0
 13
0.0
 23
0.0
 33
0.0
 16
1.0
 26
0.0
 36
0.0
 17
0.0
 27
1.0
 37
0.0
 76
0
330
211
345
0
346
0
  0
LAYOUT
  5
2C1
102
{ACAD_REACTORS
330
1A
102
}
100
AcDbPlotSettings
  1

  2
none_device
  4

  6

 40
0.0
 41
0.0
 42
0.0
 43
0.0
 44
210.0
 45
297.0
 46
0.0
 47
0.0
 48
0.0
 49
0.0
140
0.0
141
0.0
142
1.0
143
1.0
 70
0
 72
1
 73
0
 74
0
  7

 75
0
147
1.0
148
0.0
149
0.0
100
AcDbLayout
  1
Layout1
 70
0
 71
1
 10
0.0
 20
0.0
 11
210.0
 21
297.0
 12
0.0
 22
0.0
 32
0.0
 14
0.0
 24
0.0
 34
0.0
 15
0.0
 25
0.0
 35
0.0
146
0.0
 13
0.0
 23
0.0
 33
0.0
 16
1.0
 26
0.0
 36
0.0
 17
0.0
 27
1.0
 37
0.0
 76
0
330
212
345
0
346
0
  0
ENDSEC
  0
EOF
