999
DXF file: C:\Users\sesa63760\Dev\_Creo\CAD\MCADUE0001292_3D-CAD\drw0001_5.dxf
999
Pro/ENGINEER 2019471 by Parametric Technology Corporation
  0
SECTION
  2
HEADER
  9
$ACADVER
  1
AC1024
  9
$DWGCODEPAGE
  3
ANSI_1252
  9
$EXTMAX
 10
264.5483053735
 20
374.1468890282
 30
0.0
  9
$EXTMIN
 10
0.0
 20
0.0
 30
0.0
  9
$LIMMIN
 10
0.0
 20
0.0
  9
$LIMMAX
 10
264.5483053735
 20
374.1468890282
  9
$VIEWCTR
 10
132.2741526867
 20
187.0734445141
  9
$VIEWSIZE
 40
374.1468890282
  9
$CLAYER
  8
0
  9
$LTSCALE
 40
24.3888342478
  9
$CELTYPE
  6
BYLAYER
  9
$DIMSCALE
 40
1.0
  9
$DIMASZ
 40
3.1493845878
  9
$DIMEXO
 40
1.0
  9
$DIMDLI
 40
16.8504672985
  9
$DIMEXE
 40
1.0
  9
$DIMCEN
 40
3.9909001496
  9
$DIMLFAC
 40
1.0
  9
$DIMBLK
  1
_FILLED
  9
$DIMALT
 70
0
  9
$DIMALTF
 40
0.0393700787
  9
$DIMTXT
 40
4.4091384229
  9
$DIMTOL
 70
1
  9
$DIMLIM
 70
0
  9
$DIMTFAC
 40
1.0
  9
$DIMTP
 40
0.01
  9
$DIMTM
 40
0.01
  9
$DIMGAP
 40
0.625
  9
$DIMDSEP
 70
46
  9
$AUNITS
 70
0
  9
$PDMODE
 70
3
  9
$PDSIZE
 40
0.3125
  9
$HANDSEED
  5
35A
  9
$TILEMODE
 70
1
  9
$MEASUREMENT
 70
1
  9
$INSUNITS
 70
4
  0
ENDSEC
  0
SECTION
  2
CLASSES
  0
CLASS
  1
ACDBDICTIONARYWDFLT
  2
AcDbDictionaryWithDefault
  3
AutoCAD 2000
 90
0
 91
1
280
0
281
0
  0
CLASS
  1
ACDBPLACEHOLDER
  2
AcDbPlaceHolder
  3
AutoCAD 2000
 90
0
 91
1
280
0
281
0
  0
CLASS
  1
LAYOUT
  2
AcDbLayout
  3
AutoCAD 2000
 90
0
 91
0
280
0
281
0
  0
ENDSEC
  0
SECTION
  2
TABLES
  0
TABLE
  2
VPORT
  5
8
100
AcDbSymbolTable
 70
2
  0
VPORT
  5
1F4
100
AcDbSymbolTableRecord
100
AcDbViewportTableRecord
  2
*ACTIVE
 70
0
 10
0.0
 20
0.0
 11
1.0
 21
1.0
 12
132.2741526867
 22
187.0734445141
 13
0.0
 23
0.0
 14
1.0
 24
1.0
 15
0.0
 25
0.0
 16
0.0
 26
0.0
 36
1.0
 17
0.0
 27
0.0
 37
0.0
 40
374.1468890282
 41
0.7070707071
 42
50.0
 43
0.0
 44
0.0
 50
0.0
 51
0.0
 71
0
 72
100
 73
1
 74
1
 75
0
 76
0
 77
0
 78
0
  0
ENDTAB
  0
TABLE
  2
LTYPE
  5
5
100
AcDbSymbolTable
 70
6
  0
LTYPE
  5
14
100
AcDbSymbolTableRecord
100
AcDbLinetypeTableRecord
  2
BYBLOCK
 70
0
  3

 72
65
 73
0
 40
0.0
  0
LTYPE
  5
15
100
AcDbSymbolTableRecord
100
AcDbLinetypeTableRecord
  2
BYLAYER
 70
0
  3

 72
65
 73
0
 40
0.0
  0
LTYPE
  5
16
100
AcDbSymbolTableRecord
100
AcDbLinetypeTableRecord
  2
CONTINUOUS
 70
64
  3
Solid line
 72
65
 73
0
 40
0.0
  0
LTYPE
  5
1F5
100
AcDbSymbolTableRecord
100
AcDbLinetypeTableRecord
  2
CENTER
 70
64
  3
____ _ ____ _ ____ _ ____ _ ____ _ ____ _ ____
 72
65
 73
4
 40
0.6
 49
0.375
 74
0
 49
-0.075
 74
0
 49
0.075
 74
0
 49
-0.075
 74
0
  0
LTYPE
  5
1F6
100
AcDbSymbolTableRecord
100
AcDbLinetypeTableRecord
  2
HIDDEN
 70
64
  3
- - - - - - - - - - - - - - - - - - - -
 72
65
 73
2
 40
0.2
 49
0.1
 74
0
 49
-0.1
 74
0
  0
LTYPE
  5
1F7
100
AcDbSymbolTableRecord
100
AcDbLinetypeTableRecord
  2
PHANTOM
 70
64
  3
_____ _ _ _____ _ _ _____ _ _ _____
 72
65
 73
6
 40
0.8
 49
0.45
 74
0
 49
-0.05
 74
0
 49
0.1
 74
0
 49
-0.05
 74
0
 49
0.1
 74
0
 49
-0.05
 74
0
  0
LTYPE
  5
1F8
100
AcDbSymbolTableRecord
100
AcDbLinetypeTableRecord
  2
DOT
 70
64
  3
. . . . . . . . . . . . . . . . . . . .
 72
65
 73
2
 40
0.2
 49
0.1
 74
0
 49
-0.1
 74
0
  0
LTYPE
  5
1F9
100
AcDbSymbolTableRecord
100
AcDbLinetypeTableRecord
  2
DASHED
 70
64
  3
- - - - - - - - - - - - - - - - - - - -
 72
65
 73
2
 40
0.2
 49
0.1
 74
0
 49
-0.1
 74
0
  0
ENDTAB
  0
TABLE
  2
LAYER
  5
2
100
AcDbSymbolTable
 70
36
  0
LAYER
  5
10
100
AcDbSymbolTableRecord
100
AcDbLayerTableRecord
  2
0
 70
0
 62
7
  6
CONTINUOUS
370
-3
390
F
  0
LAYER
  5
1FA
100
AcDbSymbolTableRecord
100
AcDbLayerTableRecord
  2
DEFAULT_1
 70
0
 62
7
  6
CENTER
370
-3
390
F
  0
LAYER
  5
1FB
100
AcDbSymbolTableRecord
100
AcDbLayerTableRecord
  2
DEFAULT_2
 70
0
 62
8
  6
HIDDEN
370
-3
390
F
  0
LAYER
  5
1FC
100
AcDbSymbolTableRecord
100
AcDbLayerTableRecord
  2
DEFAULT_3
 70
0
 62
7
  6
PHANTOM
370
-3
390
F
  0
LAYER
  5
1FD
100
AcDbSymbolTableRecord
100
AcDbLayerTableRecord
  2
00_COMPONENTS
 70
0
 62
7
  6
CONTINUOUS
370
-3
390
F
  0
LAYER
  5
1FE
100
AcDbSymbolTableRecord
100
AcDbLayerTableRecord
  2
01_1_DEFAULT_DATUMS
 70
0
 62
7
  6
CONTINUOUS
370
-3
390
F
  0
LAYER
  5
1FF
100
AcDbSymbolTableRecord
100
AcDbLayerTableRecord
  2
01_PLANES
 70
0
 62
7
  6
CONTINUOUS
370
-3
390
F
  0
LAYER
  5
200
100
AcDbSymbolTableRecord
100
AcDbLayerTableRecord
  2
02_COORD_SYS
 70
0
 62
7
  6
CONTINUOUS
370
-3
390
F
  0
LAYER
  5
201
100
AcDbSymbolTableRecord
100
AcDbLayerTableRecord
  2
03_AXES
 70
0
 62
7
  6
CONTINUOUS
370
-3
390
F
  0
LAYER
  5
202
100
AcDbSymbolTableRecord
100
AcDbLayerTableRecord
  2
04_POINTS
 70
0
 62
7
  6
CONTINUOUS
370
-3
390
F
  0
LAYER
  5
203
100
AcDbSymbolTableRecord
100
AcDbLayerTableRecord
  2
05_CURVES
 70
0
 62
7
  6
CONTINUOUS
370
-3
390
F
  0
LAYER
  5
204
100
AcDbSymbolTableRecord
100
AcDbLayerTableRecord
  2
06_SURFS
 70
0
 62
7
  6
CONTINUOUS
370
-3
390
F
  0
LAYER
  5
205
100
AcDbSymbolTableRecord
100
AcDbLayerTableRecord
  2
07_COSMETICS
 70
0
 62
7
  6
CONTINUOUS
370
-3
390
F
  0
LAYER
  5
206
100
AcDbSymbolTableRecord
100
AcDbLayerTableRecord
  2
10_NOTES
 70
0
 62
7
  6
CONTINUOUS
370
-3
390
F
  0
LAYER
  5
207
100
AcDbSymbolTableRecord
100
AcDbLayerTableRecord
  2
11_NOTES_PUB
 70
0
 62
7
  6
CONTINUOUS
370
-3
390
F
  0
LAYER
  5
208
100
AcDbSymbolTableRecord
100
AcDbLayerTableRecord
  2
13_REF_GTOL
 70
0
 62
7
  6
CONTINUOUS
370
-3
390
F
  0
LAYER
  5
209
100
AcDbSymbolTableRecord
100
AcDbLayerTableRecord
  2
16_MISC
 70
0
 62
7
  6
CONTINUOUS
370
-3
390
F
  0
LAYER
  5
20A
100
AcDbSymbolTableRecord
100
AcDbLayerTableRecord
  2
17_NO_PRINT
 70
0
 62
7
  6
CONTINUOUS
370
-3
390
F
  0
LAYER
  5
20B
100
AcDbSymbolTableRecord
100
AcDbLayerTableRecord
  2
18_DATUM_CAMS_JOINTS
 70
0
 62
7
  6
CONTINUOUS
370
-3
390
F
  0
LAYER
  5
20C
100
AcDbSymbolTableRecord
100
AcDbLayerTableRecord
  2
19_DATUM_FUNCTIONAL
 70
0
 62
7
  6
CONTINUOUS
370
-3
390
F
  0
LAYER
  5
20D
100
AcDbSymbolTableRecord
100
AcDbLayerTableRecord
  2
20_DATUM_KINEMATIC_SCHEME
 70
0
 62
7
  6
CONTINUOUS
370
-3
390
F
  0
ENDTAB
  0
TABLE
  2
STYLE
  5
3
100
AcDbSymbolTable
 70
1
  0
STYLE
  5
11
100
AcDbSymbolTableRecord
100
AcDbTextStyleTableRecord
  2
STANDARD
 70
0
 40
0.0
 41
0.8
 50
0.0
 71
0
 42
0.2
  3
txt
  4

  0
STYLE
  5
20E
100
AcDbSymbolTableRecord
100
AcDbTextStyleTableRecord
  2
TEXTSTYLE_1
 70
0
 40
0.0
 41
0.8
 50
0.0
 71
0
 42
0.2
  3
gdt
  4

  0
ENDTAB
  0
TABLE
  2
VIEW
  5
6
100
AcDbSymbolTable
 70
0
  0
ENDTAB
  0
TABLE
  2
UCS
  5
7
100
AcDbSymbolTable
 70
0
  0
ENDTAB
  0
TABLE
  2
APPID
  5
9
100
AcDbSymbolTable
 70
1
  0
APPID
  5
20F
100
AcDbSymbolTableRecord
100
AcDbRegAppTableRecord
  2
ACAD
 70
0
  0
ENDTAB
  0
TABLE
  2
BLOCK_RECORD
  5
1
100
AcDbSymbolTable
 70
0
  0
BLOCK_RECORD
  5
210
100
AcDbSymbolTableRecord
100
AcDbBlockTableRecord
  2
*Model_Space
  0
BLOCK_RECORD
  5
211
100
AcDbSymbolTableRecord
100
AcDbBlockTableRecord
  2
*Paper_Space
  0
BLOCK_RECORD
  5
212
100
AcDbSymbolTableRecord
100
AcDbBlockTableRecord
  2
_FILLED
  0
ENDTAB
  0
TABLE
  2
DIMSTYLE
  5
A
100
AcDbSymbolTable
 70
1
100
AcDbDimStyleTable
 71
0
  0
DIMSTYLE
105
213
100
AcDbSymbolTableRecord
100
AcDbDimStyleTableRecord
  2
STANDARD
 70
0
  3

  4

 40
1.0
 41
3.1493845878
 42
1.0
 43
0.38
 44
1.0
 45
0.0
 46
0.0
 47
0.01
 48
0.01
140
4.4091384229
141
0.09
142
0.0
143
25.4
144
1.0
145
0.0
146
1.0
147
0.625
 71
1
 72
0
 73
0
 74
0
 75
0
 76
0
 77
1
 78
8
 79
2
170
0
171
1
172
0
173
0
174
0
175
0
176
0
177
0
178
0
270
2
179
2
271
2
272
2
273
2
274
2
275
0
280
0
281
0
282
0
283
1
284
8
285
0
286
0
287
3
288
0
340
11
278
46
341
212
342
212
343
212
344
212
  0
ENDTAB
  0
ENDSEC
  0
SECTION
  2
BLOCKS
  0
BLOCK
  5
20
100
AcDbEntity
  8
0
100
AcDbBlockBegin
  2
*Model_Space
 70
0
 10
0.0
 20
0.0
 30
0.0
  3
*Model_Space
  1

  0
ENDBLK
  5
21
100
AcDbEntity
  8
0
100
AcDbBlockEnd
  0
BLOCK
  5
1C
100
AcDbEntity
  8
0
100
AcDbBlockBegin
  2
*Paper_Space
 70
0
 10
0.0
 20
0.0
 30
0.0
  3
*Paper_Space
  1

  0
ENDBLK
  5
1D
100
AcDbEntity
  8
0
100
AcDbBlockEnd
  0
BLOCK
  5
214
100
AcDbEntity
  8
0
100
AcDbBlockBegin
  2
_FILLED
 70
64
 10
0.0
 20
0.0
  3
_FILLED
  1

  0
SOLID
  5
215
100
AcDbEntity
  8
0
  6
BYBLOCK
 62
0
100
AcDbTrace
 10
0.0
 20
0.0
 11
-1.0
 21
0.25
 12
-1.0
 22
-0.25
 13
-1.0
 23
-0.25
  0
ENDBLK
  5
216
100
AcDbEntity
  8
0
  6
BYBLOCK
 62
0
100
AcDbBlockEnd
  0
ENDSEC
  0
SECTION
  2
ENTITIES
  0
LINE
  5
217
100
AcDbEntity
  8
0
100
AcDbLine
 62
7
  6
CONTINUOUS
 10
231.8480528234
 20
40.5313966426
 11
234.4693393652
 21
41.2558319492
  0
LINE
  5
218
100
AcDbEntity
  8
0
100
AcDbLine
 62
7
  6
CONTINUOUS
 10
205.8377562121
 20
37.5313966427
 11
34.2377562121
 21
37.5313966427
  0
LINE
  5
219
100
AcDbEntity
  8
0
100
AcDbLine
 62
7
  6
CONTINUOUS
 10
205.8377562121
 20
38.5313966427
 11
34.2377562121
 21
38.5313966427
  0
LINE
  5
21A
100
AcDbEntity
  8
0
100
AcDbLine
 62
7
  6
CONTINUOUS
 10
216.1480528235
 20
39.5313966427
 11
231.8480528235
 21
39.5313966427
  0
LINE
  5
21B
100
AcDbEntity
  8
0
100
AcDbLine
 62
7
  6
CONTINUOUS
 10
216.1480528235
 20
40.5313966427
 11
231.8480528235
 21
40.5313966427
  0
LINE
  5
21C
100
AcDbEntity
  8
0
100
AcDbLine
 62
7
  6
CONTINUOUS
 10
31.8377562121
 20
53.0313966427
 11
32.0377562121
 21
53.0313966427
  0
LINE
  5
21D
100
AcDbEntity
  8
0
100
AcDbLine
 62
7
  6
CONTINUOUS
 10
31.8377562121
 20
66.0313966427
 11
32.0377562121
 21
66.0313966427
  0
LINE
  5
21E
100
AcDbEntity
  8
0
100
AcDbLine
 62
7
  6
CONTINUOUS
 10
215.0480528235
 20
56.3631133293
 11
211.4193742029
 21
57.0684570014
  0
LINE
  5
21F
100
AcDbEntity
  8
0
100
AcDbLine
 62
7
  6
CONTINUOUS
 10
211.4193742029
 20
58.0500841848
 11
215.0480528235
 21
57.3447405128
  0
LINE
  5
220
100
AcDbEntity
  8
0
100
AcDbLine
 62
7
  6
CONTINUOUS
 10
31.8377562121
 20
53.0313966427
 11
31.8377562121
 21
66.0313966427
  0
LINE
  5
221
100
AcDbEntity
  8
0
100
AcDbLine
 62
7
  6
CONTINUOUS
 10
31.8377562121
 20
309.0313966427
 11
31.8377562121
 21
322.0313966427
  0
LINE
  5
222
100
AcDbEntity
  8
0
100
AcDbLine
 62
7
  6
CONTINUOUS
 10
32.0377562121
 20
335.3313966427
 11
32.0377562121
 21
39.7313966427
  0
LINE
  5
223
100
AcDbEntity
  8
0
100
AcDbLine
 62
7
  6
CONTINUOUS
 10
34.2377562121
 20
37.5313966478
 11
34.2377562121
 21
337.5313966376
  0
LINE
  5
224
100
AcDbEntity
  8
0
100
AcDbLine
 62
7
  6
CONTINUOUS
 10
210.8377562121
 20
101.7548255291
 11
210.5377562121
 21
101.7019274349
  0
LINE
  5
225
100
AcDbEntity
  8
0
100
AcDbLine
 62
7
  6
CONTINUOUS
 10
210.8943316329
 20
89.0313928859
 11
210.5377562121
 21
88.9804535401
  0
LINE
  5
226
100
AcDbEntity
  8
0
100
AcDbLine
 62
7
  6
CONTINUOUS
 10
210.5377561094
 20
89.341512559
 11
210.7429096502
 21
89.3708221016
  0
LINE
  5
227
100
AcDbEntity
  8
0
100
AcDbLine
 62
7
  6
CONTINUOUS
 10
210.7429096016
 20
89.3708205541
 11
211.2377562103
 21
89.4273694855
  0
LINE
  5
228
100
AcDbEntity
  8
0
100
AcDbLine
 62
7
  6
CONTINUOUS
 10
209.0377562121
 20
81.5313966427
 11
215.0480528235
 21
81.5313966427
  0
LINE
  5
229
100
AcDbEntity
  8
0
100
AcDbLine
 62
7
  6
CONTINUOUS
 10
209.5377562121
 20
83.5313966427
 11
209.0377562121
 21
83.5313966427
  0
LINE
  5
22A
100
AcDbEntity
  8
0
100
AcDbLine
 62
7
  6
CONTINUOUS
 10
211.066052498
 20
116.2559244381
 11
210.5377562121
 21
116.1804535401
  0
LINE
  5
22B
100
AcDbEntity
  8
0
100
AcDbLine
 62
7
  6
CONTINUOUS
 10
210.5377562232
 20
116.3609816735
 11
210.742909723
 21
116.3902857682
  0
LINE
  5
22C
100
AcDbEntity
  8
0
100
AcDbLine
 62
7
  6
CONTINUOUS
 10
210.7429096016
 20
116.3902841931
 11
211.2377562093
 21
116.4539113318
  0
LINE
  5
22D
100
AcDbEntity
  8
0
100
AcDbLine
 62
7
  6
CONTINUOUS
 10
211.2377562121
 20
96.4354167223
 11
210.7429096016
 21
96.4919666449
  0
LINE
  5
22E
100
AcDbEntity
  8
0
100
AcDbLine
 62
7
  6
CONTINUOUS
 10
210.7429096419
 20
96.4919676685
 11
210.5377561118
 21
96.5212807762
  0
LINE
  5
22F
100
AcDbEntity
  8
0
100
AcDbLine
 62
7
  6
CONTINUOUS
 10
210.5377562121
 20
96.8823397452
 11
210.8943330419
 21
96.8314001981
  0
LINE
  5
230
100
AcDbEntity
  8
0
100
AcDbLine
 62
7
  6
CONTINUOUS
 10
234.1008266296
 20
333.9088058436
 11
234.4693393653
 21
334.166841239
  0
LINE
  5
231
100
AcDbEntity
  8
0
100
AcDbLine
 62
7
  6
CONTINUOUS
 10
210.8377562121
 20
111.3079677562
 11
210.5377562121
 21
111.3608658504
  0
LINE
  5
232
100
AcDbEntity
  8
0
100
AcDbLine
 62
7
  6
CONTINUOUS
 10
234.1008266296
 20
41.1539874418
 11
234.4693393651
 21
40.8959520464
  0
LINE
  5
233
100
AcDbEntity
  8
0
100
AcDbLine
 62
7
  6
CONTINUOUS
 10
235.8866681074
 20
157.7606817337
 11
236.6291143996
 21
157.9318266672
  0
LINE
  5
234
100
AcDbEntity
  8
0
100
AcDbLine
 62
7
  6
CONTINUOUS
 10
209.0377562121
 20
129.5313966427
 11
209.5377562121
 21
129.5313966427
  0
LINE
  5
235
100
AcDbEntity
  8
0
100
AcDbLine
 62
7
  6
CONTINUOUS
 10
209.0377562121
 20
131.5313966427
 11
215.0480528235
 21
131.5313966427
  0
LINE
  5
236
100
AcDbEntity
  8
0
100
AcDbLine
 62
7
  6
CONTINUOUS
 10
210.7429096016
 20
123.8725076079
 11
211.237279714
 21
123.8089610447
  0
LINE
  5
237
100
AcDbEntity
  8
0
100
AcDbLine
 62
7
  6
CONTINUOUS
 10
210.7429097194
 20
123.8725075956
 11
210.5377562121
 21
123.9018114276
  0
LINE
  5
238
100
AcDbEntity
  8
0
100
AcDbLine
 62
7
  6
CONTINUOUS
 10
210.5377562121
 20
124.0823397452
 11
211.0660565573
 21
124.0068682673
  0
LINE
  5
239
100
AcDbEntity
  8
0
100
AcDbLine
 62
7
  6
CONTINUOUS
 10
211.237279714
 20
123.8089610447
 11
211.2377562121
 21
123.8088806543
  0
LINE
  5
23A
100
AcDbEntity
  8
0
100
AcDbLine
 62
7
  6
CONTINUOUS
 10
235.8866681074
 20
157.7606817337
 11
235.0480528235
 21
157.7313966427
  0
LINE
  5
23B
100
AcDbEntity
  8
0
100
AcDbLine
 62
7
  6
CONTINUOUS
 10
241.0369998771
 20
165.9459326867
 11
241.0378195256
 21
165.9459498361
  0
LINE
  5
23C
100
AcDbEntity
  8
0
100
AcDbLine
 62
7
  6
CONTINUOUS
 10
241.0378195256
 20
164.5173578053
 11
241.0283234433
 21
164.5173578053
  0
LINE
  5
23D
100
AcDbEntity
  8
0
100
AcDbLine
 62
7
  6
CONTINUOUS
 10
241.0369998771
 20
165.9459326867
 11
241.0283282492
 21
165.9459073255
  0
LINE
  5
23E
100
AcDbEntity
  8
0
100
AcDbLine
 62
7
  6
CONTINUOUS
 10
211.0377562121
 20
263.9226454554
 11
210.8377562121
 21
263.7548255291
  0
LINE
  5
23F
100
AcDbEntity
  8
0
100
AcDbLine
 62
7
  6
CONTINUOUS
 10
211.0377562121
 20
111.1401478299
 11
210.8377562121
 21
111.3079677562
  0
LINE
  5
240
100
AcDbEntity
  8
0
100
AcDbLine
 62
7
  6
CONTINUOUS
 10
241.0283257929
 20
199.5168605987
 11
241.0378195256
 21
199.5168605987
  0
LINE
  5
241
100
AcDbEntity
  8
0
100
AcDbLine
 62
7
  6
CONTINUOUS
 10
241.0283251246
 20
200.9454516612
 11
241.0378195256
 21
200.9454516612
  0
LINE
  5
242
100
AcDbEntity
  8
0
100
AcDbLine
 62
7
  6
CONTINUOUS
 10
235.0480528235
 20
207.7313966427
 11
235.8866681074
 21
207.7021115516
  0
LINE
  5
243
100
AcDbEntity
  8
0
100
AcDbLine
 62
7
  6
CONTINUOUS
 10
235.8866681074
 20
207.7021115516
 11
236.6291143996
 21
207.5309666181
  0
LINE
  5
244
100
AcDbEntity
  8
0
100
AcDbLine
 62
7
  6
CONTINUOUS
 10
210.8377562121
 20
263.7548255291
 11
210.5377562121
 21
263.7019274349
  0
LINE
  5
245
100
AcDbEntity
  8
0
100
AcDbLine
 62
7
  6
CONTINUOUS
 10
210.8943316329
 20
251.0313928859
 11
210.5377562121
 21
250.9804535401
  0
LINE
  5
246
100
AcDbEntity
  8
0
100
AcDbLine
 62
7
  6
CONTINUOUS
 10
210.5377561094
 20
251.341512559
 11
210.7429096502
 21
251.3708221016
  0
LINE
  5
247
100
AcDbEntity
  8
0
100
AcDbLine
 62
7
  6
CONTINUOUS
 10
210.7429096016
 20
251.3708205541
 11
211.2377562103
 21
251.4273694855
  0
LINE
  5
248
100
AcDbEntity
  8
0
100
AcDbLine
 62
7
  6
CONTINUOUS
 10
209.0377562121
 20
243.5313966427
 11
215.0480528235
 21
243.5313966427
  0
LINE
  5
249
100
AcDbEntity
  8
0
100
AcDbLine
 62
7
  6
CONTINUOUS
 10
209.5377562121
 20
245.5313966427
 11
209.0377562121
 21
245.5313966427
  0
LINE
  5
24A
100
AcDbEntity
  8
0
100
AcDbLine
 62
7
  6
CONTINUOUS
 10
205.8377562121
 20
337.5313966352
 11
205.8377562121
 21
37.5313966501
  0
LINE
  5
24B
100
AcDbEntity
  8
0
100
AcDbLine
 62
7
  6
CONTINUOUS
 10
209.0377562121
 20
40.7313966426
 11
209.0377562121
 21
81.5313966427
  0
LINE
  5
24C
100
AcDbEntity
  8
0
100
AcDbLine
 62
7
  6
CONTINUOUS
 10
209.0377562121
 20
83.5313966427
 11
209.0377562121
 21
243.5313966427
  0
LINE
  5
24D
100
AcDbEntity
  8
0
100
AcDbLine
 62
7
  6
CONTINUOUS
 10
209.0377562121
 20
245.5313966427
 11
209.0377562121
 21
334.3313966427
  0
LINE
  5
24E
100
AcDbEntity
  8
0
100
AcDbLine
 62
7
  6
CONTINUOUS
 10
209.5377562121
 20
291.5313966427
 11
209.5377562121
 21
245.5313966427
  0
LINE
  5
24F
100
AcDbEntity
  8
0
100
AcDbLine
 62
7
  6
CONTINUOUS
 10
209.5377562121
 20
129.5313966427
 11
209.5377562121
 21
83.5313966427
  0
LINE
  5
250
100
AcDbEntity
  8
0
100
AcDbLine
 62
7
  6
CONTINUOUS
 10
210.5377562121
 20
81.5313966427
 11
210.5377562121
 21
131.5313966427
  0
LINE
  5
251
100
AcDbEntity
  8
0
100
AcDbLine
 62
7
  6
CONTINUOUS
 10
210.5377562121
 20
243.5313966427
 11
210.5377562121
 21
293.5313966427
  0
LINE
  5
252
100
AcDbEntity
  8
0
100
AcDbLine
 62
7
  6
CONTINUOUS
 10
210.7429097194
 20
285.8725075956
 11
210.742909723
 21
278.3902857682
  0
LINE
  5
253
100
AcDbEntity
  8
0
100
AcDbLine
 62
7
  6
CONTINUOUS
 10
210.7429096419
 20
258.4919676685
 11
210.7429096502
 21
251.3708221016
  0
LINE
  5
254
100
AcDbEntity
  8
0
100
AcDbLine
 62
7
  6
CONTINUOUS
 10
210.7429097194
 20
123.8725075956
 11
210.742909723
 21
116.3902857682
  0
LINE
  5
255
100
AcDbEntity
  8
0
100
AcDbLine
 62
7
  6
CONTINUOUS
 10
210.7429096419
 20
96.4919676685
 11
210.7429096502
 21
89.3708221016
  0
LINE
  5
256
100
AcDbEntity
  8
0
100
AcDbLine
 62
7
  6
CONTINUOUS
 10
210.8377562121
 20
273.3079677562
 11
210.8377562121
 21
263.7548255291
  0
LINE
  5
257
100
AcDbEntity
  8
0
100
AcDbLine
 62
7
  6
CONTINUOUS
 10
210.8377562121
 20
111.3079677562
 11
210.8377562121
 21
101.7548255291
  0
LINE
  5
258
100
AcDbEntity
  8
0
100
AcDbLine
 62
7
  6
CONTINUOUS
 10
211.0377562121
 20
273.1400891598
 11
211.0377562121
 21
263.9227041255
  0
LINE
  5
259
100
AcDbEntity
  8
0
100
AcDbLine
 62
7
  6
CONTINUOUS
 10
211.0377562121
 20
111.1400891598
 11
211.0377562121
 21
101.9227041255
  0
LINE
  5
25A
100
AcDbEntity
  8
0
100
AcDbLine
 62
7
  6
CONTINUOUS
 10
211.2377562121
 20
89.4273707477
 11
211.2377562121
 21
96.4354182276
  0
LINE
  5
25B
100
AcDbEntity
  8
0
100
AcDbLine
 62
7
  6
CONTINUOUS
 10
211.2377562121
 20
116.4539120847
 11
211.2377562121
 21
123.8088806543
  0
LINE
  5
25C
100
AcDbEntity
  8
0
100
AcDbLine
 62
7
  6
CONTINUOUS
 10
211.2377562121
 20
251.4273707477
 11
211.2377562121
 21
258.4354182276
  0
LINE
  5
25D
100
AcDbEntity
  8
0
100
AcDbLine
 62
7
  6
CONTINUOUS
 10
211.2377562121
 20
278.4539120847
 11
211.2377562121
 21
285.8088806543
  0
LINE
  5
25E
100
AcDbEntity
  8
0
100
AcDbLine
 62
7
  6
CONTINUOUS
 10
211.4193742029
 20
58.0500841848
 11
211.4193742029
 21
81.5313966427
  0
LINE
  5
25F
100
AcDbEntity
  8
0
100
AcDbLine
 62
7
  6
CONTINUOUS
 10
211.4193742029
 20
131.5313966427
 11
211.4193742029
 21
243.5313966427
  0
LINE
  5
260
100
AcDbEntity
  8
0
100
AcDbLine
 62
7
  6
CONTINUOUS
 10
211.4193742029
 20
293.5313966427
 11
211.4193742029
 21
317.0127091005
  0
LINE
  5
261
100
AcDbEntity
  8
0
100
AcDbLine
 62
7
  6
CONTINUOUS
 10
211.7285652075
 20
81.5313966427
 11
211.7285652075
 21
131.5313966427
  0
LINE
  5
262
100
AcDbEntity
  8
0
100
AcDbLine
 62
7
  6
CONTINUOUS
 10
211.7285652075
 20
243.5313966427
 11
211.7285652075
 21
293.5313966427
  0
LINE
  5
263
100
AcDbEntity
  8
0
100
AcDbLine
 62
7
  6
CONTINUOUS
 10
215.0480528235
 20
41.4231499266
 11
215.0480528235
 21
333.6396433587
  0
LINE
  5
264
100
AcDbEntity
  8
0
100
AcDbLine
 62
7
  6
CONTINUOUS
 10
216.1480528235
 20
39.5313966427
 11
216.1480528235
 21
335.5313966427
  0
LINE
  5
265
100
AcDbEntity
  8
0
100
AcDbLine
 62
7
  6
CONTINUOUS
 10
211.066052498
 20
278.2559244381
 11
210.5377562121
 21
278.1804535401
  0
LINE
  5
266
100
AcDbEntity
  8
0
100
AcDbLine
 62
7
  6
CONTINUOUS
 10
210.5377562232
 20
278.3609816735
 11
210.742909723
 21
278.3902857682
  0
LINE
  5
267
100
AcDbEntity
  8
0
100
AcDbLine
 62
7
  6
CONTINUOUS
 10
210.7429096016
 20
278.3902841931
 11
211.2377562093
 21
278.4539113318
  0
LINE
  5
268
100
AcDbEntity
  8
0
100
AcDbLine
 62
7
  6
CONTINUOUS
 10
211.2377562121
 20
258.4354167223
 11
210.7429096016
 21
258.4919666449
  0
LINE
  5
269
100
AcDbEntity
  8
0
100
AcDbLine
 62
7
  6
CONTINUOUS
 10
210.7429096419
 20
258.4919676685
 11
210.5377561118
 21
258.5212807762
  0
LINE
  5
26A
100
AcDbEntity
  8
0
100
AcDbLine
 62
7
  6
CONTINUOUS
 10
210.5377562121
 20
258.8823397452
 11
210.8943330419
 21
258.8314001981
  0
LINE
  5
26B
100
AcDbEntity
  8
0
100
AcDbLine
 62
7
  6
CONTINUOUS
 10
226.3801628797
 20
335.5313966427
 11
226.3801628797
 21
39.5313966427
  0
LINE
  5
26C
100
AcDbEntity
  8
0
100
AcDbLine
 62
7
  6
CONTINUOUS
 10
228.1822973771
 20
39.5313966427
 11
228.1822973771
 21
40.5313966426
  0
LINE
  5
26D
100
AcDbEntity
  8
0
100
AcDbLine
 62
7
  6
CONTINUOUS
 10
228.1822973771
 20
334.5313966427
 11
228.1822973771
 21
335.5313966427
  0
LINE
  5
26E
100
AcDbEntity
  8
0
100
AcDbLine
 62
7
  6
CONTINUOUS
 10
229.0014494214
 20
40.5313966427
 11
229.0014494214
 21
334.5313966427
  0
LINE
  5
26F
100
AcDbEntity
  8
0
100
AcDbLine
 62
7
  6
CONTINUOUS
 10
231.8480528235
 20
335.5313966412
 11
231.8480528235
 21
334.5313966403
  0
LINE
  5
270
100
AcDbEntity
  8
0
100
AcDbLine
 62
7
  6
CONTINUOUS
 10
231.8480528235
 20
40.5313966427
 11
231.8480528235
 21
39.5313966442
  0
LINE
  5
271
100
AcDbEntity
  8
0
100
AcDbLine
 62
7
  6
CONTINUOUS
 10
234.4693393653
 20
333.8069613362
 11
234.4693393652
 21
41.2558319492
  0
LINE
  5
272
100
AcDbEntity
  8
0
100
AcDbLine
 62
7
  6
CONTINUOUS
 10
235.0480528235
 20
42.7313966427
 11
235.0480528235
 21
332.3313966427
  0
LINE
  5
273
100
AcDbEntity
  8
0
100
AcDbLine
 62
7
  6
CONTINUOUS
 10
211.4193742001
 20
57.068456987
 11
211.6101831982
 21
58.0500841848
  0
LINE
  5
274
100
AcDbEntity
  8
0
100
AcDbLine
 62
7
  6
CONTINUOUS
 10
210.8377562121
 20
273.3079677562
 11
210.5377562121
 21
273.3608658504
  0
LINE
  5
275
100
AcDbEntity
  8
0
100
AcDbLine
 62
7
  6
CONTINUOUS
 10
211.4193742001
 20
317.9943362984
 11
211.6101831983
 21
317.0127091005
  0
LWPOLYLINE
  5
276
100
AcDbEntity
  8
0
100
AcDbPolyline
 62
7
  6
CONTINUOUS
 90
4
 70
0
 10
240.7068997578
 20
199.6923525672
 10
240.6876814748
 20
199.8742145836
 10
240.6535211657
 20
200.2962858479
 10
240.6480530776
 20
200.480814741
  0
LINE
  5
277
100
AcDbEntity
  8
0
100
AcDbLine
 62
7
  6
CONTINUOUS
 10
240.6665510505
 20
200.031301116
 11
240.6987183623
 21
199.721203824
  0
LWPOLYLINE
  5
278
100
AcDbEntity
  8
0
100
AcDbPolyline
 62
7
  6
CONTINUOUS
 90
3
 70
0
 10
241.0376128731
 20
199.5259500145
 10
240.9501108055
 20
200.5258897645
 10
240.8384618215
 20
201.2838965507
  0
LWPOLYLINE
  5
279
100
AcDbEntity
  8
0
100
AcDbPolyline
 62
7
  6
CONTINUOUS
 90
3
 70
0
 10
241.0375492282
 20
200.955720652
 10
241.0040651241
 20
201.3858737177
 10
240.8531974318
 20
202.3362552245
  0
LINE
  5
27A
100
AcDbEntity
  8
0
100
AcDbLine
 62
7
  6
CONTINUOUS
 10
241.028325793
 20
199.5168475279
 11
241.0277894034
 21
199.5250472194
  0
LINE
  5
27B
100
AcDbEntity
  8
0
100
AcDbLine
 62
7
  6
CONTINUOUS
 10
241.027743496
 20
200.9548741707
 11
241.0283251247
 21
200.9454551796
  0
LWPOLYLINE
  5
27C
100
AcDbEntity
  8
0
100
AcDbPolyline
 62
7
  6
CONTINUOUS
 90
4
 70
0
 10
240.8519948752
 20
197.4727595774
 10
240.8089263981
 20
198.4794908476
 10
240.7749347008
 20
198.9650580787
 10
240.7068967213
 20
199.6924420947
  0
LINE
  5
27D
100
AcDbEntity
  8
0
100
AcDbLine
 62
7
  6
CONTINUOUS
 10
240.8419020622
 20
197.4725099922
 11
240.8417193835
 21
197.4791421433
  0
LINE
  5
27E
100
AcDbEntity
  8
0
100
AcDbLine
 62
7
  6
CONTINUOUS
 10
240.6480535263
 20
162.9808560475
 11
240.6480528235
 21
162.9817874731
  0
LINE
  5
27F
100
AcDbEntity
  8
0
100
AcDbLine
 62
7
  6
CONTINUOUS
 10
240.6480528235
 20
200.4823480806
 11
240.6480530606
 21
200.4811813802
  0
LINE
  5
280
100
AcDbEntity
  8
0
100
AcDbLine
 62
7
  6
CONTINUOUS
 10
240.6480528811
 20
202.4800374477
 11
240.6480528235
 21
202.4802944683
  0
LINE
  5
281
100
AcDbEntity
  8
0
100
AcDbLine
 62
7
  6
CONTINUOUS
 10
235.8866681074
 20
207.7021115516
 11
235.8866681074
 21
204.8332140774
  0
LINE
  5
282
100
AcDbEntity
  8
0
100
AcDbLine
 62
7
  6
CONTINUOUS
 10
235.8866681074
 20
160.6295737907
 11
235.8866681074
 21
157.7606817337
  0
LINE
  5
283
100
AcDbEntity
  8
0
100
AcDbLine
 62
7
  6
CONTINUOUS
 10
236.6291200155
 20
207.5309641223
 11
236.6291200155
 21
204.6817304102
  0
LINE
  5
284
100
AcDbEntity
  8
0
100
AcDbLine
 62
7
  6
CONTINUOUS
 10
236.6291200155
 20
160.7810582142
 11
236.6291200155
 21
157.9318291631
  0
LINE
  5
285
100
AcDbEntity
  8
0
100
AcDbLine
 62
7
  6
CONTINUOUS
 10
237.1876509884
 20
197.9618315576
 11
237.1876509884
 21
167.5009602426
  0
LINE
  5
286
100
AcDbEntity
  8
0
100
AcDbLine
 62
7
  6
CONTINUOUS
 10
241.0283234433
 20
165.8071243655
 11
241.0283234433
 21
164.5173578053
  0
LINE
  5
287
100
AcDbEntity
  8
0
100
AcDbLine
 62
7
  6
CONTINUOUS
 10
241.0283251246
 20
200.9454516612
 11
241.0283251246
 21
199.6320868088
  0
LINE
  5
288
100
AcDbEntity
  8
0
100
AcDbLine
 62
7
  6
CONTINUOUS
 10
241.0283257929
 20
199.5168605987
 11
241.0283257929
 21
191.0923681426
  0
LINE
  5
289
100
AcDbEntity
  8
0
100
AcDbLine
 62
7
  6
CONTINUOUS
 10
241.0283282492
 20
183.9704087197
 11
241.0283282492
 21
165.9459073255
  0
LINE
  5
28A
100
AcDbEntity
  8
0
100
AcDbLine
 62
7
  6
CONTINUOUS
 10
241.0378195256
 20
164.5173578053
 11
241.0378195256
 21
183.8435358804
  0
LINE
  5
28B
100
AcDbEntity
  8
0
100
AcDbLine
 62
7
  6
CONTINUOUS
 10
241.0378195256
 20
191.2192574049
 11
241.0378195256
 21
199.5168605987
  0
LINE
  5
28C
100
AcDbEntity
  8
0
100
AcDbLine
 62
7
  6
CONTINUOUS
 10
241.0378195256
 20
199.5259684434
 11
241.0378195256
 21
200.9454516612
  0
LINE
  5
28D
100
AcDbEntity
  8
0
100
AcDbLine
 62
7
  6
CONTINUOUS
 10
240.6480528235
 20
164.9802005567
 11
240.6480531604
 21
164.9815678883
  0
LWPOLYLINE
  5
28E
100
AcDbEntity
  8
0
100
AcDbPolyline
 62
7
  6
CONTINUOUS
 90
3
 70
0
 10
240.8519848266
 20
167.9900414766
 10
241.0152462676
 20
182.7253894748
 10
240.8519849527
 20
197.4727512582
  0
LINE
  5
28F
100
AcDbEntity
  8
0
100
AcDbLine
 62
7
  6
CONTINUOUS
 10
240.8417193712
 20
167.9836494725
 11
240.8418812628
 21
167.9902878736
  0
LWPOLYLINE
  5
290
100
AcDbEntity
  8
0
100
AcDbPolyline
 62
7
  6
CONTINUOUS
 90
4
 70
0
 10
240.6480503883
 20
164.982079929
 10
240.6534536659
 20
165.1651708501
 10
240.6872548026
 20
165.5843101041
 10
240.7068982567
 20
165.7704217511
  0
LWPOLYLINE
  5
291
100
AcDbEntity
  8
0
100
AcDbPolyline
 62
7
  6
CONTINUOUS
 90
9
 70
0
 10
240.6480653679
 20
162.9805683768
 10
240.6566573767
 20
163.0946173103
 10
240.6864856371
 20
163.3019728194
 10
240.7354702728
 20
163.5876156169
 10
240.7984178347
 20
163.9439652013
 10
240.8691859841
 20
164.368305597
 10
240.9401796062
 20
164.8590619636
 10
241.0016913869
 20
165.414517065
 10
241.0364577794
 20
165.9270399926
  0
LWPOLYLINE
  5
292
100
AcDbEntity
  8
0
100
AcDbPolyline
 62
7
  6
CONTINUOUS
 90
4
 70
0
 10
240.7068945157
 20
165.7703312455
 10
240.7743612741
 20
166.4904861122
 10
240.808461177
 20
166.9757081112
 10
240.8519949023
 20
167.9900331571
  0
LINE
  5
293
100
AcDbEntity
  8
0
100
AcDbLine
 62
7
  6
CONTINUOUS
 10
241.036770702
 20
165.9264824488
 11
241.0373325553
 21
165.9319845325
  0
LINE
  5
294
100
AcDbEntity
  8
0
100
AcDbLine
 62
7
  6
CONTINUOUS
 10
240.7068982567
 20
165.7704217511
 11
240.7068877706
 21
165.7703270272
  0
LWPOLYLINE
  5
295
100
AcDbEntity
  8
0
100
AcDbPolyline
 62
7
  6
CONTINUOUS
 90
4
 70
0
 10
240.7692653491
 20
162.76600122
 10
240.852800181
 20
163.1246673774
 10
241.0034974086
 20
164.0714207412
 10
241.0375274353
 20
164.5070237597
  0
LINE
  5
296
100
AcDbEntity
  8
0
100
AcDbLine
 62
7
  6
CONTINUOUS
 10
240.6551439535
 20
162.3520674776
 11
240.7692653491
 21
162.76600122
  0
LINE
  5
297
100
AcDbEntity
  8
0
100
AcDbLine
 62
7
  6
CONTINUOUS
 10
240.641853099
 20
162.3084475325
 11
240.6554037672
 21
162.3561233164
  0
LINE
  5
298
100
AcDbEntity
  8
0
100
AcDbLine
 62
7
  6
CONTINUOUS
 10
240.6370125011
 20
162.2925128121
 11
240.6481209214
 21
162.3291529881
  0
LINE
  5
299
100
AcDbEntity
  8
0
100
AcDbLine
 62
7
  6
CONTINUOUS
 10
209.0377562121
 20
291.5313966427
 11
209.5377562121
 21
291.5313966427
  0
LINE
  5
29A
100
AcDbEntity
  8
0
100
AcDbLine
 62
7
  6
CONTINUOUS
 10
209.0377562121
 20
293.5313966427
 11
215.0480528235
 21
293.5313966427
  0
LINE
  5
29B
100
AcDbEntity
  8
0
100
AcDbLine
 62
7
  6
CONTINUOUS
 10
210.7429096016
 20
285.8725076079
 11
211.237279714
 21
285.8089610447
  0
LINE
  5
29C
100
AcDbEntity
  8
0
100
AcDbLine
 62
7
  6
CONTINUOUS
 10
210.7429097194
 20
285.8725075956
 11
210.5377562121
 21
285.9018114276
  0
LINE
  5
29D
100
AcDbEntity
  8
0
100
AcDbLine
 62
7
  6
CONTINUOUS
 10
210.5377562121
 20
286.0823397452
 11
211.0660565573
 21
286.0068682673
  0
LINE
  5
29E
100
AcDbEntity
  8
0
100
AcDbLine
 62
7
  6
CONTINUOUS
 10
211.237279714
 20
285.8089610447
 11
211.2377562121
 21
285.8088806543
  0
LINE
  5
29F
100
AcDbEntity
  8
0
100
AcDbLine
 62
7
  6
CONTINUOUS
 10
240.6368124676
 20
203.1708275735
 11
240.6488076133
 21
203.1313825454
  0
LINE
  5
2A0
100
AcDbEntity
  8
0
100
AcDbLine
 62
7
  6
CONTINUOUS
 10
240.6427824099
 20
203.1512873944
 11
240.6554079325
 21
203.1066904181
  0
LINE
  5
2A1
100
AcDbEntity
  8
0
100
AcDbLine
 62
7
  6
CONTINUOUS
 10
240.7695900312
 20
202.6955262366
 11
240.6547487095
 21
203.1120035822
  0
LINE
  5
2A2
100
AcDbEntity
  8
0
100
AcDbLine
 62
7
  6
CONTINUOUS
 10
240.8531974318
 20
202.3362552245
 11
240.7695900312
 21
202.6955262366
  0
LWPOLYLINE
  5
2A3
100
AcDbEntity
  8
0
100
AcDbPolyline
 62
7
  6
CONTINUOUS
 90
4
 70
0
 10
240.8384618215
 20
201.2838965507
 10
240.6863709929
 20
202.1615367255
 10
240.6567013618
 20
202.3678037199
 10
240.6480624664
 20
202.4812879564
  0
LINE
  5
2A4
100
AcDbEntity
  8
0
100
AcDbLine
 62
7
  6
CONTINUOUS
 10
241.028325793
 20
199.5168475279
 11
241.0273379383
 21
199.5246711834
  0
LINE
  5
2A5
100
AcDbEntity
  8
0
100
AcDbLine
 62
7
  6
CONTINUOUS
 10
241.0376119761
 20
199.5259697556
 11
241.0375354074
 21
199.5265877191
  0
LINE
  5
2A6
100
AcDbEntity
  8
0
100
AcDbLine
 62
7
  6
CONTINUOUS
 10
241.0272365541
 20
200.9544762197
 11
241.0283251247
 21
200.9454551796
  0
LINE
  5
2A7
100
AcDbEntity
  8
0
100
AcDbLine
 62
7
  6
CONTINUOUS
 10
240.7068899389
 20
199.6924412845
 11
240.7068997578
 21
199.6923525672
  0
LINE
  5
2A8
100
AcDbEntity
  8
0
100
AcDbLine
 62
7
  6
CONTINUOUS
 10
211.0377562121
 20
101.9226454554
 11
210.8377562121
 21
101.7548255291
  0
LINE
  5
2A9
100
AcDbEntity
  8
0
100
AcDbLine
 62
7
  6
CONTINUOUS
 10
215.0480528235
 20
317.7180527725
 11
211.4193742029
 21
317.0127091005
  0
LINE
  5
2AA
100
AcDbEntity
  8
0
100
AcDbLine
 62
7
  6
CONTINUOUS
 10
211.4193742029
 20
317.994336284
 11
215.0480528235
 21
318.699679956
  0
LINE
  5
2AB
100
AcDbEntity
  8
0
100
AcDbLine
 62
7
  6
CONTINUOUS
 10
31.8377562121
 20
309.0313966427
 11
32.0377562121
 21
309.0313966427
  0
LINE
  5
2AC
100
AcDbEntity
  8
0
100
AcDbLine
 62
7
  6
CONTINUOUS
 10
211.0377562121
 20
273.1401478299
 11
210.8377562121
 21
273.3079677562
  0
LINE
  5
2AD
100
AcDbEntity
  8
0
100
AcDbLine
 62
7
  6
CONTINUOUS
 10
31.8377562121
 20
322.0313966427
 11
32.0377562121
 21
322.0313966427
  0
LINE
  5
2AE
100
AcDbEntity
  8
0
100
AcDbLine
 62
7
  6
CONTINUOUS
 10
216.1480528235
 20
334.5313966427
 11
231.8480528235
 21
334.5313966427
  0
LINE
  5
2AF
100
AcDbEntity
  8
0
100
AcDbLine
 62
7
  6
CONTINUOUS
 10
216.1480528235
 20
335.5313966427
 11
231.8480528235
 21
335.5313966427
  0
LINE
  5
2B0
100
AcDbEntity
  8
0
100
AcDbLine
 62
7
  6
CONTINUOUS
 10
205.8377562121
 20
336.5313966426
 11
34.2377562121
 21
336.5313966427
  0
LINE
  5
2B1
100
AcDbEntity
  8
0
100
AcDbLine
 62
7
  6
CONTINUOUS
 10
205.8377562121
 20
337.5313966352
 11
34.2377562121
 21
337.5313966376
  0
LINE
  5
2B2
100
AcDbEntity
  8
0
100
AcDbLine
 62
7
  6
CONTINUOUS
 10
234.4693393653
 20
333.8069613362
 11
231.8480528235
 21
334.5313966427
  0
ARC
  5
2B3
100
AcDbEntity
  8
0
100
AcDbCircle
 62
7
  6
CONTINUOUS
 10
-34.6778524178
 20
175.3470557871
 40
275.6179508212
100
AcDbArc
 50
358.4704841479
 51
358.6283625996
  0
ARC
  5
2B4
100
AcDbEntity
  8
0
100
AcDbCircle
 62
7
  6
CONTINUOUS
 10
52.4627562121
 20
59.5313966427
 40
21.625
100
AcDbArc
 50
162.5076754749
 51
197.4923245251
  0
ARC
  5
2B5
100
AcDbEntity
  8
0
100
AcDbCircle
 62
7
  6
CONTINUOUS
 10
34.2377562121
 20
39.7313966427
 40
2.2
100
AcDbArc
 50
180.0
 51
270.0
  0
ARC
  5
2B6
100
AcDbEntity
  8
0
100
AcDbCircle
 62
7
  6
CONTINUOUS
 10
34.2377562121
 20
39.7313966427
 40
1.2
100
AcDbArc
 50
232.1510657189
 51
270.0
  0
ARC
  5
2B7
100
AcDbEntity
  8
0
100
AcDbCircle
 62
7
  6
CONTINUOUS
 10
24.302872923
 20
191.6260814439
 40
216.6179398557
100
AcDbArc
 50
1.3423797919
 51
1.5465771799
  0
ARC
  5
2B8
100
AcDbEntity
  8
0
100
AcDbCircle
 62
7
  6
CONTINUOUS
 10
52.4627562121
 20
315.5313966427
 40
21.625
100
AcDbArc
 50
162.5076754749
 51
197.4923245251
  0
ARC
  5
2B9
100
AcDbEntity
  8
0
100
AcDbCircle
 62
7
  6
CONTINUOUS
 10
34.2377562121
 20
335.3313966427
 40
2.2
100
AcDbArc
 50
90.0
 51
180.0
  0
ARC
  5
2BA
100
AcDbEntity
  8
0
100
AcDbCircle
 62
7
  6
CONTINUOUS
 10
34.2377562121
 20
335.3313966427
 40
1.2
100
AcDbArc
 50
90.0
 51
127.8469501902
  0
ARC
  5
2BB
100
AcDbEntity
  8
0
100
AcDbCircle
 62
7
  6
CONTINUOUS
 10
171.4086329882
 20
105.2957797899
 40
61.9114533583
100
AcDbArc
 50
309.798781525
 51
310.2054947259
  0
ARC
  5
2BC
100
AcDbEntity
  8
0
100
AcDbCircle
 62
7
  6
CONTINUOUS
 10
193.1940077116
 20
79.4693651621
 40
28.1238258657
100
AcDbArc
 50
310.2737746926
 51
310.3939951195
  0
ARC
  5
2BD
100
AcDbEntity
  8
0
100
AcDbCircle
 62
7
  6
CONTINUOUS
 10
231.8480528235
 20
42.7313966427
 40
3.2
100
AcDbArc
 50
269.9999999998
 51
360.0
  0
ARC
  5
2BE
100
AcDbEntity
  8
0
100
AcDbCircle
 62
7
  6
CONTINUOUS
 10
205.8377562121
 20
40.7313966427
 40
3.2
100
AcDbArc
 50
270.0
 51
352.9767366234
  0
ARC
  5
2BF
100
AcDbEntity
  8
0
100
AcDbCircle
 62
7
  6
CONTINUOUS
 10
231.8480528235
 20
42.7313966427
 40
2.2
100
AcDbArc
 50
269.9999999998
 51
297.9415306838
  0
ARC
  5
2C0
100
AcDbEntity
  8
0
100
AcDbCircle
 62
7
  6
CONTINUOUS
 10
205.8377562121
 20
40.7313966427
 40
2.2
100
AcDbArc
 50
270.0
 51
317.9919896523
  0
ARC
  5
2C1
100
AcDbEntity
  8
0
100
AcDbCircle
 62
7
  6
CONTINUOUS
 10
211.0377562121
 20
55.1052026345
 40
2.0
100
AcDbArc
 50
79.0
 51
179.9999999999
  0
ARC
  5
2C2
100
AcDbEntity
  8
0
100
AcDbCircle
 62
7
  6
CONTINUOUS
 10
216.1480528235
 20
40.6313966427
 40
1.1
100
AcDbArc
 50
149.9639879011
 51
270.0
  0
ARC
  5
2C3
100
AcDbEntity
  8
0
100
AcDbCircle
 62
7
  6
CONTINUOUS
 10
210.8377562121
 20
96.4354215845
 40
0.4
100
AcDbArc
 50
359.9997389563
 51
81.8698976458
  0
ARC
  5
2C4
100
AcDbEntity
  8
0
100
AcDbCircle
 62
7
  6
CONTINUOUS
 10
210.8377679668
 20
89.4273793103
 40
0.3999988099
100
AcDbArc
 50
278.1301023542
 51
359.9988695159
  0
ARC
  5
2C5
100
AcDbEntity
  8
0
100
AcDbCircle
 62
7
  6
CONTINUOUS
 10
218.322149038
 20
167.9667427678
 40
22.8321898597
100
AcDbArc
 50
349.7552419073
 51
350.2082844137
  0
ARC
  5
2C6
100
AcDbEntity
  8
0
100
AcDbCircle
 62
7
  6
CONTINUOUS
 10
220.7458151527
 20
167.5198340082
 40
20.3681587667
100
AcDbArc
 50
351.4678864328
 51
352.2244956243
  0
ARC
  5
2C7
100
AcDbEntity
  8
0
100
AcDbCircle
 62
7
  6
CONTINUOUS
 10
221.5699429336
 20
167.4052434319
 40
19.5362157129
100
AcDbArc
 50
350.211149975
 51
350.8336871372
  0
ARC
  5
2C8
100
AcDbEntity
  8
0
100
AcDbCircle
 62
7
  6
CONTINUOUS
 10
222.7148720886
 20
167.2214934695
 40
18.3766357078
100
AcDbArc
 50
350.8306172767
 51
351.2998228905
  0
ARC
  5
2C9
100
AcDbEntity
  8
0
100
AcDbCircle
 62
7
  6
CONTINUOUS
 10
223.4160608348
 20
167.1555192575
 40
17.6731750676
100
AcDbArc
 50
352.2235305425
 51
352.6723829309
  0
ARC
  5
2CA
100
AcDbEntity
  8
0
100
AcDbCircle
 62
7
  6
CONTINUOUS
 10
223.4575740125
 20
167.1075299684
 40
17.6252411855
100
AcDbArc
 50
351.3008247786
 51
351.4854874076
  0
ARC
  5
2CB
100
AcDbEntity
  8
0
100
AcDbCircle
 62
7
  6
CONTINUOUS
 10
225.7165066973
 20
166.8635264304
 40
15.354275677
100
AcDbArc
 50
352.658214398
 51
353.4853130465
  0
ARC
  5
2CC
100
AcDbEntity
  8
0
100
AcDbCircle
 62
7
  6
CONTINUOUS
 10
228.2094673914
 20
166.5804104922
 40
12.8452908716
100
AcDbArc
 50
353.4783624309
 51
354.7309903103
  0
ARC
  5
2CD
100
AcDbEntity
  8
0
100
AcDbCircle
 62
7
  6
CONTINUOUS
 10
228.8248276735
 20
166.5224072115
 40
12.2272042919
100
AcDbArc
 50
354.7368403197
 51
354.9121772063
  0
ARC
  5
2CE
100
AcDbEntity
  8
0
100
AcDbCircle
 62
7
  6
CONTINUOUS
 10
229.7448430176
 20
166.4477472321
 40
11.3041951338
100
AcDbArc
 50
354.8755643829
 51
357.3569159521
  0
ARC
  5
2CF
100
AcDbEntity
  8
0
100
AcDbCircle
 62
7
  6
CONTINUOUS
 10
230.9301173099
 20
165.257152774
 40
10.1495179008
100
AcDbArc
 50
343.6650728557
 51
345.2964595737
  0
ARC
  5
2D0
100
AcDbEntity
  8
0
100
AcDbCircle
 62
7
  6
CONTINUOUS
 10
231.1592217721
 20
165.1963801555
 40
9.9124909883
100
AcDbArc
 50
345.3001107288
 51
346.6223487364
  0
ARC
  5
2D1
100
AcDbEntity
  8
0
100
AcDbCircle
 62
7
  6
CONTINUOUS
 10
231.4320672741
 20
165.1309306122
 40
9.6319058781
100
AcDbArc
 50
346.6255955013
 51
348.5989162313
  0
ARC
  5
2D2
100
AcDbEntity
  8
0
100
AcDbCircle
 62
7
  6
CONTINUOUS
 10
231.635029638
 20
165.0472636383
 40
9.4140288926
100
AcDbArc
 50
343.2180739071
 51
343.6842987798
  0
ARC
  5
2D3
100
AcDbEntity
  8
0
100
AcDbCircle
 62
7
  6
CONTINUOUS
 10
231.8005407052
 20
165.0567122156
 40
9.256032186
100
AcDbArc
 50
348.5983935808
 51
351.3701354226
  0
ARC
  5
2D4
100
AcDbEntity
  8
0
100
AcDbCircle
 62
7
  6
CONTINUOUS
 10
233.6072194902
 20
164.7313966427
 40
7.4408333333
100
AcDbArc
 50
293.9615779875
 51
340.8667596538
  0
ARC
  5
2D5
100
AcDbEntity
  8
0
100
AcDbCircle
 62
7
  6
CONTINUOUS
 10
234.161178015
 20
164.8775536101
 40
6.8863461164
100
AcDbArc
 50
354.3502049667
 51
356.913705948
  0
ARC
  5
2D6
100
AcDbEntity
  8
0
100
AcDbCircle
 62
7
  6
CONTINUOUS
 10
234.5902908144
 20
164.8338452034
 40
6.4550149789
100
AcDbArc
 50
352.29592094
 51
354.3613078836
  0
ARC
  5
2D7
100
AcDbEntity
  8
0
100
AcDbCircle
 62
7
  6
CONTINUOUS
 10
211.0377562121
 20
116.4539126204
 40
0.2
100
AcDbArc
 50
278.1301023542
 51
0.00003205
  0
ARC
  5
2D8
100
AcDbEntity
  8
0
100
AcDbCircle
 62
7
  6
CONTINUOUS
 10
211.0377562121
 20
123.8088806649
 40
0.2
100
AcDbArc
 50
0.0
 51
81.8669414191
  0
ARC
  5
2D9
100
AcDbEntity
  8
0
100
AcDbCircle
 62
7
  6
CONTINUOUS
 10
302.0651710958
 20
159.2491264038
 40
61.7089454577
100
AcDbArc
 50
173.9607293878
 51
174.1215030281
  0
ARC
  5
2DA
100
AcDbEntity
  8
0
100
AcDbCircle
 62
7
  6
CONTINUOUS
 10
244.0480759156
 20
164.9163885626
 40
3.4111837641
100
AcDbArc
 50
178.0502006428
 51
179.3005892768
  0
ARC
  5
2DB
100
AcDbEntity
  8
0
100
AcDbCircle
 62
7
  6
CONTINUOUS
 10
241.640999854
 20
165.6897347207
 40
0.9436999835
100
AcDbArc
 50
175.3650954621
 51
176.8539420248
  0
ARC
  5
2DC
100
AcDbEntity
  8
0
100
AcDbCircle
 62
7
  6
CONTINUOUS
 10
240.1790081156
 20
183.8430670123
 40
0.8588134837
100
AcDbArc
 50
0.031268057
 51
8.5270502726
  0
ARC
  5
2DD
100
AcDbEntity
  8
0
100
AcDbCircle
 62
7
  6
CONTINUOUS
 10
240.8378195256
 20
164.5173416241
 40
0.2
100
AcDbArc
 50
357.0415783425
 51
360.0
  0
ARC
  5
2DE
100
AcDbEntity
  8
0
100
AcDbCircle
 62
7
  6
CONTINUOUS
 10
240.8378195256
 20
165.9459326867
 40
0.2
100
AcDbArc
 50
356.0009019065
 51
360.0
  0
ARC
  5
2DF
100
AcDbEntity
  8
0
100
AcDbCircle
 62
7
  6
CONTINUOUS
 10
171.4166230536
 20
269.7765553659
 40
61.8990079717
100
AcDbArc
 50
49.7943757401
 51
50.2012472229
  0
ARC
  5
2E0
100
AcDbEntity
  8
0
100
AcDbCircle
 62
7
  6
CONTINUOUS
 10
193.1957771721
 20
295.5955108756
 40
28.1210929471
100
AcDbArc
 50
49.606000653
 51
49.7260643585
  0
ARC
  5
2E1
100
AcDbEntity
  8
0
100
AcDbCircle
 62
7
  6
CONTINUOUS
 10
221.2455306476
 20
197.9793311779
 40
19.8685361422
100
AcDbArc
 50
8.1978780159
 51
9.1582036959
  0
ARC
  5
2E2
100
AcDbEntity
  8
0
100
AcDbCircle
 62
7
  6
CONTINUOUS
 10
224.8182920787
 20
198.4988854189
 40
16.2581992145
100
AcDbArc
 50
6.82146512
 51
8.1809728447
  0
ARC
  5
2E3
100
AcDbEntity
  8
0
100
AcDbCircle
 62
7
  6
CONTINUOUS
 10
230.9783490366
 20
200.2199752653
 40
10.0992180048
100
AcDbArc
 50
14.6147109189
 51
16.2812638619
  0
ARC
  5
2E4
100
AcDbEntity
  8
0
100
AcDbCircle
 62
7
  6
CONTINUOUS
 10
231.0980423945
 20
200.2508927671
 40
9.9755963628
100
AcDbArc
 50
13.3649102291
 51
14.6163399073
  0
ARC
  5
2E5
100
AcDbEntity
  8
0
100
AcDbCircle
 62
7
  6
CONTINUOUS
 10
231.4707727564
 20
200.3400179916
 40
9.5923589571
100
AcDbArc
 50
11.3473754923
 51
13.3616005805
  0
ARC
  5
2E6
100
AcDbEntity
  8
0
100
AcDbCircle
 62
7
  6
CONTINUOUS
 10
231.7969069287
 20
200.4619085068
 40
9.2456604617
100
AcDbArc
 50
16.2642469253
 51
16.7817731503
  0
ARC
  5
2E7
100
AcDbEntity
  8
0
100
AcDbCircle
 62
7
  6
CONTINUOUS
 10
231.8108886468
 20
200.4081944054
 40
9.245477369
100
AcDbArc
 50
8.462698402
 51
11.3478491322
  0
ARC
  5
2E8
100
AcDbEntity
  8
0
100
AcDbCircle
 62
7
  6
CONTINUOUS
 10
232.4437619024
 20
200.5012804668
 40
8.6057959209
100
AcDbArc
 50
3.0287241627
 51
8.4697861541
  0
ARC
  5
2E9
100
AcDbEntity
  8
0
100
AcDbCircle
 62
7
  6
CONTINUOUS
 10
233.6072194902
 20
200.7313966427
 40
7.4408333333
100
AcDbArc
 50
19.1334460693
 51
66.0384220125
  0
ARC
  5
2EA
100
AcDbEntity
  8
0
100
AcDbCircle
 62
7
  6
CONTINUOUS
 10
246.5680883007
 20
200.2039944165
 40
5.8892280804
100
AcDbArc
 50
184.9750934676
 51
185.6333927425
  0
ARC
  5
2EB
100
AcDbEntity
  8
0
100
AcDbCircle
 62
7
  6
CONTINUOUS
 10
244.6648946458
 20
200.0359620909
 40
3.978633204
100
AcDbArc
 50
184.5374846454
 51
184.9412630395
  0
ARC
  5
2EC
100
AcDbEntity
  8
0
100
AcDbCircle
 62
7
  6
CONTINUOUS
 10
231.8480528235
 20
332.3313966427
 40
3.2
100
AcDbArc
 50
0.0
 51
90.0000000002
  0
ARC
  5
2ED
100
AcDbEntity
  8
0
100
AcDbCircle
 62
7
  6
CONTINUOUS
 10
205.8377562121
 20
334.3313966427
 40
3.2
100
AcDbArc
 50
0.0
 51
90.0
  0
ARC
  5
2EE
100
AcDbEntity
  8
0
100
AcDbCircle
 62
7
  6
CONTINUOUS
 10
231.8480528235
 20
332.3313966427
 40
2.2
100
AcDbArc
 50
62.0584693175
 51
90.0000000002
  0
ARC
  5
2EF
100
AcDbEntity
  8
0
100
AcDbCircle
 62
7
  6
CONTINUOUS
 10
205.8377562121
 20
334.3313966427
 40
2.2
100
AcDbArc
 50
42.000355712
 51
89.9999999998
  0
ARC
  5
2F0
100
AcDbEntity
  8
0
100
AcDbCircle
 62
7
  6
CONTINUOUS
 10
211.0377562121
 20
319.9575906509
 40
2.0
100
AcDbArc
 50
180.0
 51
281.0000000014
  0
ARC
  5
2F1
100
AcDbEntity
  8
0
100
AcDbCircle
 62
7
  6
CONTINUOUS
 10
216.1480528235
 20
334.4313966427
 40
1.1
100
AcDbArc
 50
90.0
 51
210.1673139662
  0
ARC
  5
2F2
100
AcDbEntity
  8
0
100
AcDbCircle
 62
7
  6
CONTINUOUS
 10
240.1789765967
 20
191.2197300742
 40
0.8588452239
100
AcDbArc
 50
351.4719029142
 51
359.9685069889
  0
ARC
  5
2F3
100
AcDbEntity
  8
0
100
AcDbCircle
 62
7
  6
CONTINUOUS
 10
210.8377562121
 20
258.4354215845
 40
0.4
100
AcDbArc
 50
359.9997389563
 51
81.8698976458
  0
ARC
  5
2F4
100
AcDbEntity
  8
0
100
AcDbCircle
 62
7
  6
CONTINUOUS
 10
210.8377679668
 20
251.4273793103
 40
0.3999988099
100
AcDbArc
 50
278.1301023542
 51
359.9988695159
  0
ARC
  5
2F5
100
AcDbEntity
  8
0
100
AcDbCircle
 62
7
  6
CONTINUOUS
 10
240.8378195256
 20
200.9454516612
 40
0.2
100
AcDbArc
 50
0.0
 51
2.9438009355
  0
ARC
  5
2F6
100
AcDbEntity
  8
0
100
AcDbCircle
 62
7
  6
CONTINUOUS
 10
240.8378195257
 20
199.5168605987
 40
0.2
100
AcDbArc
 50
0.0
 51
2.6051944203
  0
ARC
  5
2F7
100
AcDbEntity
  8
0
100
AcDbCircle
 62
7
  6
CONTINUOUS
 10
211.0377562121
 20
278.4539126204
 40
0.2
100
AcDbArc
 50
278.1301023542
 51
0.00003205
  0
ARC
  5
2F8
100
AcDbEntity
  8
0
100
AcDbCircle
 62
7
  6
CONTINUOUS
 10
211.0377562121
 20
285.8088806649
 40
0.2
100
AcDbArc
 50
0.0
 51
81.8669414191
  0
LINE
  5
2F9
100
AcDbEntity
  8
0
100
AcDbLine
 62
7
  6
CONTINUOUS
 10
241.0283234438
 20
164.5173714878
 11
241.0277660788
 21
164.5078766173
  0
SPLINE
  5
2FA
100
AcDbEntity
  8
0
100
AcDbSpline
 62
7
  6
CONTINUOUS
 70
0
 71
3
 72
26
 73
22
 74
0
 42
0.0000001
 43
0.0000001
 44
0.0000000001
 40
0.0
 40
0.0
 40
0.0
 40
0.0
 40
0.2271799395
 40
0.4386624126
 40
0.5350804119
 40
0.6236249761
 40
0.703331752
 40
0.7732066039
 40
0.8320172372
 40
0.8786216436
 40
0.9132148336
 40
0.9263134446
 40
0.9367621285
 40
0.9446385568
 40
0.9501973401
 40
0.9543277513
 40
0.9589944683
 40
0.9656637688
 40
0.9747245962
 40
0.9861995898
 40
1.0
 40
1.0
 40
1.0
 40
1.0
 10
241.0277660788
 20
164.5078766173
 30
0.0
 10
241.0199428724
 20
164.3757802039
 30
0.0
 10
240.9995830973
 20
164.1209519887
 30
0.0
 10
240.9560543997
 20
163.8120945704
 30
0.0
 10
240.9124009976
 20
163.5852997845
 30
0.0
 10
240.8783191559
 20
163.4349206777
 30
0.0
 10
240.8432101502
 20
163.3007059909
 30
0.0
 10
240.8084508104
 20
163.1843809536
 30
0.0
 10
240.7752963703
 20
163.0877618962
 30
0.0
 10
240.7444865528
 20
163.0122141504
 30
0.0
 10
240.7198760755
 20
162.9629785377
 30
0.0
 10
240.7019303087
 20
162.9342521753
 30
0.0
 10
240.6910476658
 20
162.9194590351
 30
0.0
 10
240.6813845689
 20
162.9094706852
 30
0.0
 10
240.6726785919
 20
162.9035649544
 30
0.0
 10
240.6635251636
 20
162.9037323318
 30
0.0
 10
240.6572219205
 20
162.9111081452
 30
0.0
 10
240.6531743106
 20
162.9222397698
 30
0.0
 10
240.6501549528
 20
162.9378842714
 30
0.0
 10
240.6484107172
 20
162.9578117003
 30
0.0
 10
240.648065732
 20
162.9725425633
 30
0.0
 10
240.6480534744
 20
162.9805810229
 30
0.0
  0
SPLINE
  5
2FB
100
AcDbEntity
  8
0
100
AcDbSpline
 62
7
  6
CONTINUOUS
 70
0
 71
3
 72
9
 73
5
 74
0
 42
0.0000001
 43
0.0000001
 44
0.0000000001
 40
0.0
 40
0.0
 40
0.0
 40
0.0
 40
0.3055274562
 40
1.0
 40
1.0
 40
1.0
 40
1.0
 10
241.0283348476
 20
164.5173574889
 30
0.0
 10
241.0292940357
 20
164.516799251
 30
0.0
 10
241.0323439841
 20
164.5148679142
 30
0.0
 10
241.0352585783
 20
164.512433145
 30
0.0
 10
241.0365293222
 20
164.5102539629
 30
0.0
  0
SPLINE
  5
2FC
100
AcDbEntity
  8
0
100
AcDbSpline
 62
7
  6
CONTINUOUS
 70
0
 71
3
 72
8
 73
4
 74
0
 42
0.0000001
 43
0.0000001
 44
0.0000000001
 40
0.0
 40
0.0
 40
0.0
 40
0.0
 40
1.0
 40
1.0
 40
1.0
 40
1.0
 10
241.0365293222
 20
164.5102539629
 30
0.0
 10
241.0371352808
 20
164.5092148125
 30
0.0
 10
241.0375483718
 20
164.5079912421
 30
0.0
 10
241.03753578
 20
164.5067883868
 30
0.0
  0
SPLINE
  5
2FD
100
AcDbEntity
  8
0
100
AcDbSpline
 62
7
  6
CONTINUOUS
 70
0
 71
3
 72
25
 73
21
 74
0
 42
0.0000001
 43
0.0000001
 44
0.0000000001
 40
0.0
 40
0.0
 40
0.0
 40
0.0
 40
0.0136343979
 40
0.0248755013
 40
0.0337343951
 40
0.0403310546
 40
0.0450967824
 40
0.0492606076
 40
0.054597311
 40
0.0621511413
 40
0.0853844263
 40
0.1204463471
 40
0.1674445829
 40
0.2261478577
 40
0.2958401732
 40
0.3755762771
 40
0.4642789549
 40
0.5607887265
 40
0.7724679304
 40
1.0
 40
1.0
 40
1.0
 40
1.0
 10
240.6480560748
 20
202.481594956
 30
0.0
 10
240.6480527138
 20
202.4895314086
 30
0.0
 10
240.6483559322
 20
202.5040195678
 30
0.0
 10
240.6500716093
 20
202.5235897749
 30
0.0
 10
240.6530476895
 20
202.5389175757
 30
0.0
 10
240.6571877068
 20
202.549943283
 30
0.0
 10
240.663304881
 20
202.5572999385
 30
0.0
 10
240.6722253525
 20
202.5585017469
 30
0.0
 10
240.6812327397
 20
202.5535015418
 30
0.0
 10
240.69635916
 20
202.5388774512
 30
0.0
 10
240.7170373238
 20
202.5060921187
 30
0.0
 10
240.7440633911
 20
202.4511875337
 30
0.0
 10
240.7747725809
 20
202.3750928753
 30
0.0
 10
240.8081562795
 20
202.2786036907
 30
0.0
 10
240.8430262809
 20
202.1625376132
 30
0.0
 10
240.878080507
 20
202.02840434
 30
0.0
 10
240.9120956814
 20
201.8779491132
 30
0.0
 10
240.9559346419
 20
201.6510862237
 30
0.0
 10
240.9995556402
 20
201.3420573823
 30
0.0
 10
241.0195254469
 20
201.0870632179
 30
0.0
 10
241.027743496
 20
200.9548741707
 30
0.0
  0
SPLINE
  5
2FE
100
AcDbEntity
  8
0
100
AcDbSpline
 62
7
  6
CONTINUOUS
 70
0
 71
3
 72
12
 73
8
 74
0
 42
0.0000001
 43
0.0000001
 44
0.0000000001
 40
0.0
 40
0.0
 40
0.0
 40
0.0
 40
0.2504394175
 40
0.3757882649
 40
0.5010449799
 40
0.7508452844
 40
1.0
 40
1.0
 40
1.0
 40
1.0
 10
236.6291200155
 20
204.6817304102
 30
0.0
 10
237.1259826575
 20
204.4437806688
 30
0.0
 10
237.8323475249
 20
203.9962353725
 30
0.0
 10
238.652917324
 20
203.2582302634
 30
0.0
 10
239.3888367892
 20
202.4369333987
 30
0.0
 10
240.1396844523
 20
201.2754990064
 30
0.0
 10
240.5460246296
 20
200.2475796098
 30
0.0
 10
240.6987183623
 20
199.721203824
 30
0.0
  0
SPLINE
  5
2FF
100
AcDbEntity
  8
0
100
AcDbSpline
 62
7
  6
CONTINUOUS
 70
0
 71
3
 72
9
 73
5
 74
0
 42
0.0000001
 43
0.0000001
 44
0.0000000001
 40
0.0
 40
0.0
 40
0.0
 40
0.0
 40
0.2537039032
 40
1.0
 40
1.0
 40
1.0
 40
1.0
 10
241.0375348815
 20
199.5265978408
 30
0.0
 10
241.035975551
 20
199.5564151832
 30
0.0
 10
241.0290942126
 20
199.6739026275
 30
0.0
 10
241.0191853798
 20
199.7912212548
 30
0.0
 10
241.0097904318
 20
199.8785479695
 30
0.0
  0
SPLINE
  5
300
100
AcDbEntity
  8
0
100
AcDbSpline
 62
7
  6
CONTINUOUS
 70
0
 71
3
 72
24
 73
20
 74
0
 42
0.0000001
 43
0.0000001
 44
0.0000000001
 40
0.0
 40
0.0
 40
0.0
 40
0.0
 40
0.2389351377
 40
0.3470907702
 40
0.4446118529
 40
0.5292128399
 40
0.5989960079
 40
0.6529949775
 40
0.6913292554
 40
0.705251718
 40
0.7163583107
 40
0.725623475
 40
0.734487295
 40
0.7443662346
 40
0.7561475418
 40
0.7867425442
 40
0.8271357542
 40
0.876706459
 40
1.0
 40
1.0
 40
1.0
 40
1.0
 10
241.0097904318
 20
199.8785479695
 30
0.0
 10
240.9974237513
 20
199.9934971513
 30
0.0
 10
240.9745051279
 20
200.160066193
 30
0.0
 10
240.9323449618
 20
200.3710790453
 30
0.0
 10
240.8985379293
 20
200.5074726242
 30
0.0
 10
240.862791005
 20
200.6240591012
 30
0.0
 10
240.8265921118
 20
200.7183351724
 30
0.0
 10
240.7915591369
 20
200.7885654807
 30
0.0
 10
240.7619528314
 20
200.8312528257
 30
0.0
 10
240.7388193327
 20
200.8516281096
 30
0.0
 10
240.7239817751
 20
200.859547975
 30
0.0
 10
240.7095414019
 20
200.8614744789
 30
0.0
 10
240.6963002791
 20
200.8569637087
 30
0.0
 10
240.6849861242
 20
200.8470796203
 30
0.0
 10
240.6707266744
 20
200.8259977105
 30
0.0
 10
240.6574275832
 20
200.7877218963
 30
0.0
 10
240.6465851522
 20
200.7303878497
 30
0.0
 10
240.636744295
 20
200.627535751
 30
0.0
 10
240.6364066075
 20
200.5437617571
 30
0.0
 10
240.6375436803
 20
200.4841150902
 30
0.0
  0
SPLINE
  5
301
100
AcDbEntity
  8
0
100
AcDbSpline
 62
7
  6
CONTINUOUS
 70
0
 71
3
 72
9
 73
5
 74
0
 42
0.0000001
 43
0.0000001
 44
0.0000000001
 40
0.0
 40
0.0
 40
0.0
 40
0.0
 40
0.2244318102
 40
1.0
 40
1.0
 40
1.0
 40
1.0
 10
240.6375436803
 20
200.4841150902
 30
0.0
 10
240.638190757
 20
200.4501718201
 30
0.0
 10
240.6434557963
 20
200.2989758242
 30
0.0
 10
240.6556504559
 20
200.1481125552
 30
0.0
 10
240.6665510505
 20
200.031301116
 30
0.0
  0
SPLINE
  5
302
100
AcDbEntity
  8
0
100
AcDbSpline
 62
7
  6
CONTINUOUS
 70
0
 71
3
 72
8
 73
4
 74
0
 42
0.0000001
 43
0.0000001
 44
0.0000000001
 40
0.0
 40
0.0
 40
0.0
 40
0.0
 40
1.0
 40
1.0
 40
1.0
 40
1.0
 10
240.698718674
 20
199.721203907
 30
0.0
 10
240.7029458443
 20
199.7121777778
 30
0.0
 10
240.705788793
 20
199.7023472057
 30
0.0
 10
240.7068900647
 20
199.6924412894
 30
0.0
  0
SPLINE
  5
303
100
AcDbEntity
  8
0
100
AcDbSpline
 62
7
  6
CONTINUOUS
 70
0
 71
3
 72
9
 73
5
 74
0
 42
0.0000001
 43
0.0000001
 44
0.0000000001
 40
0.0
 40
0.0
 40
0.0
 40
0.0
 40
0.206820126
 40
1.0
 40
1.0
 40
1.0
 40
1.0
 10
241.0375354074
 20
199.5265877191
 30
0.0
 10
241.0374898003
 20
199.5260464414
 30
0.0
 10
241.0368500541
 20
199.5234567181
 30
0.0
 10
241.0348612336
 20
199.5214511159
 30
0.0
 10
241.0332496703
 20
199.5201310137
 30
0.0
  0
SPLINE
  5
304
100
AcDbEntity
  8
0
100
AcDbSpline
 62
7
  6
CONTINUOUS
 70
0
 71
3
 72
8
 73
4
 74
0
 42
0.0000001
 43
0.0000001
 44
0.0000000001
 40
0.0
 40
0.0
 40
0.0
 40
0.0
 40
1.0
 40
1.0
 40
1.0
 40
1.0
 10
241.0332496703
 20
199.5201310137
 30
0.0
 10
241.0317329537
 20
199.5188886048
 30
0.0
 10
241.0300688053
 20
199.5178233451
 30
0.0
 10
241.0283607658
 20
199.5168607393
 30
0.0
  0
SPLINE
  5
305
100
AcDbEntity
  8
0
100
AcDbSpline
 62
7
  6
CONTINUOUS
 70
0
 71
3
 72
11
 73
7
 74
0
 42
0.0000001
 43
0.0000001
 44
0.0000000001
 40
0.0
 40
0.0
 40
0.0
 40
0.0
 40
0.3073958345
 40
0.5880335428
 40
0.8243636546
 40
1.0
 40
1.0
 40
1.0
 40
1.0
 10
241.0375370033
 20
200.9559814102
 30
0.0
 10
241.0291645319
 20
201.111267695
 30
0.0
 10
241.0033538341
 20
201.4079015505
 30
0.0
 10
240.9384546184
 20
201.8202437003
 30
0.0
 10
240.8590033031
 20
202.1617519845
 30
0.0
 10
240.7962610172
 20
202.3609216749
 30
0.0
 10
240.7638817387
 20
202.4436665808
 30
0.0
  0
SPLINE
  5
306
100
AcDbEntity
  8
0
100
AcDbSpline
 62
7
  6
CONTINUOUS
 70
0
 71
3
 72
19
 73
15
 74
0
 42
0.0000001
 43
0.0000001
 44
0.0000000001
 40
0.0
 40
0.0
 40
0.0
 40
0.0
 40
0.2349299067
 40
0.411872929
 40
0.5315228459
 40
0.5713120286
 40
0.5998076304
 40
0.621406115
 40
0.6443102133
 40
0.6753243089
 40
0.7171240504
 40
0.7704893413
 40
0.8355427862
 40
1.0
 40
1.0
 40
1.0
 40
1.0
 10
240.7638817387
 20
202.4436665808
 30
0.0
 10
240.7540504284
 20
202.4687903909
 30
0.0
 10
240.7358362104
 20
202.5125218601
 30
0.0
 10
240.7083643239
 20
202.5669608507
 30
0.0
 10
240.6873747002
 20
202.5998043669
 30
0.0
 10
240.6720006837
 20
202.6150197578
 30
0.0
 10
240.6629887141
 20
202.620536977
 30
0.0
 10
240.6539594755
 20
202.6205475857
 30
0.0
 10
240.6472233478
 20
202.6142178573
 30
0.0
 10
240.6428110499
 20
202.6040717982
 30
0.0
 10
240.639556645
 20
202.5898910306
 30
0.0
 10
240.6375855296
 20
202.5715753491
 30
0.0
 10
240.6364773148
 20
202.5390907194
 30
0.0
 10
240.6376827312
 20
202.512723158
 30
0.0
 10
240.6389434303
 20
202.493879339
 30
0.0
  0
SPLINE
  5
307
100
AcDbEntity
  8
0
100
AcDbSpline
 62
7
  6
CONTINUOUS
 70
0
 71
3
 72
9
 73
5
 74
0
 42
0.0000001
 43
0.0000001
 44
0.0000000001
 40
0.0
 40
0.0
 40
0.0
 40
0.0
 40
0.2308578948
 40
1.0
 40
1.0
 40
1.0
 40
1.0
 10
240.6389434303
 20
202.493879339
 30
0.0
 10
240.6393111638
 20
202.4883827837
 30
0.0
 10
240.6410781637
 20
202.4645851635
 30
0.0
 10
240.6434504095
 20
202.4408353739
 30
0.0
 10
240.6454842103
 20
202.4225947659
 30
0.0
  0
SPLINE
  5
308
100
AcDbEntity
  8
0
100
AcDbSpline
 62
7
  6
CONTINUOUS
 70
0
 71
3
 72
12
 73
8
 74
0
 42
0.0000001
 43
0.0000001
 44
0.0000000001
 40
0.0
 40
0.0
 40
0.0
 40
0.0
 40
0.249154191
 40
0.4989548046
 40
0.6242116054
 40
0.7495604455
 40
1.0
 40
1.0
 40
1.0
 40
1.0
 10
240.6987091864
 20
165.741529828
 30
0.0
 10
240.5460148025
 20
165.2151603276
 30
0.0
 10
240.1396592568
 20
164.1872576081
 30
0.0
 10
239.38881724
 20
163.0258355978
 30
0.0
 10
238.6529010106
 20
162.2045470028
 30
0.0
 10
237.8323352772
 20
161.4665512215
 30
0.0
 10
237.1259787048
 20
161.0190059668
 30
0.0
 10
236.6291200155
 20
160.7810582142
 30
0.0
  0
SPLINE
  5
309
100
AcDbEntity
  8
0
100
AcDbSpline
 62
7
  6
CONTINUOUS
 70
0
 71
3
 72
9
 73
5
 74
0
 42
0.0000001
 43
0.0000001
 44
0.0000000001
 40
0.0
 40
0.0
 40
0.0
 40
0.0
 40
0.2095457007
 40
1.0
 40
1.0
 40
1.0
 40
1.0
 10
241.0375365644
 20
200.955979119
 30
0.0
 10
241.0375424484
 20
200.9554028945
 30
0.0
 10
241.0371057993
 20
200.9526365337
 30
0.0
 10
241.0350810276
 20
200.9504288876
 30
0.0
 10
241.0334375646
 20
200.949006116
 30
0.0
  0
SPLINE
  5
30A
100
AcDbEntity
  8
0
100
AcDbSpline
 62
7
  6
CONTINUOUS
 70
0
 71
3
 72
8
 73
4
 74
0
 42
0.0000001
 43
0.0000001
 44
0.0000000001
 40
0.0
 40
0.0
 40
0.0
 40
0.0
 40
1.0
 40
1.0
 40
1.0
 40
1.0
 10
241.0334375646
 20
200.949006116
 30
0.0
 10
241.0318717515
 20
200.9476505672
 30
0.0
 10
241.0301294395
 20
200.9464965377
 30
0.0
 10
241.0283399092
 20
200.9454540094
 30
0.0
  0
SPLINE
  5
30B
100
AcDbEntity
  8
0
100
AcDbSpline
 62
7
  6
CONTINUOUS
 70
0
 71
3
 72
9
 73
5
 74
0
 42
0.0000001
 43
0.0000001
 44
0.0000000001
 40
0.0
 40
0.0
 40
0.0
 40
0.0
 40
0.2730028914
 40
1.0
 40
1.0
 40
1.0
 40
1.0
 10
240.6807329291
 20
165.5693083995
 30
0.0
 10
240.6757481525
 20
165.520555722
 30
0.0
 10
240.6580010951
 20
165.3419457799
 30
0.0
 10
240.6432774728
 20
165.1628791513
 30
0.0
 10
240.6388671547
 20
165.0324501695
 30
0.0
  0
SPLINE
  5
30C
100
AcDbEntity
  8
0
100
AcDbSpline
 62
7
  6
CONTINUOUS
 70
0
 71
3
 72
25
 73
21
 74
0
 42
0.0000001
 43
0.0000001
 44
0.0000000001
 40
0.0
 40
0.0
 40
0.0
 40
0.0
 40
0.0573377554
 40
0.1071247348
 40
0.1483045935
 40
0.1800000304
 40
0.1922179137
 40
0.2022308121
 40
0.2106470301
 40
0.2186979289
 40
0.2280032105
 40
0.2398690157
 40
0.2738689928
 40
0.3233233862
 40
0.3884916824
 40
0.4680293159
 40
0.5597743448
 40
0.6610949095
 40
0.7696933237
 40
1.0
 40
1.0
 40
1.0
 40
1.0
 10
240.6371463009
 20
164.9580279167
 30
0.0
 10
240.6367601137
 20
164.9243546838
 30
0.0
 10
240.6371001387
 20
164.8614278917
 30
0.0
 10
240.6418021987
 20
164.774372929
 30
0.0
 10
240.6511321583
 20
164.702917823
 30
0.0
 10
240.6635940486
 20
164.654131076
 30
0.0
 10
240.677675366
 20
164.6256036234
 30
0.0
 10
240.6889473424
 20
164.6113248509
 30
0.0
 10
240.7024709002
 20
164.6027298617
 30
0.0
 10
240.7181689202
 20
164.6015422543
 30
0.0
 10
240.7344837486
 20
164.6080945491
 30
0.0
 10
240.7599218765
 20
164.6285657287
 30
0.0
 10
240.7923637537
 20
164.6751326746
 30
0.0
 10
240.8307958024
 20
164.7534986846
 30
0.0
 10
240.870385271
 20
164.8606758907
 30
0.0
 10
240.9091235644
 20
164.9940935528
 30
0.0
 10
240.9450632885
 20
165.150195194
 30
0.0
 10
240.9766320225
 20
165.3245881098
 30
0.0
 10
241.0122825558
 20
165.5807253263
 30
0.0
 10
241.0288167668
 20
165.7792714404
 30
0.0
 10
241.0363461048
 20
165.9143247813
 30
0.0
  0
LINE
  5
30D
100
AcDbEntity
  8
0
100
AcDbLine
 62
7
  6
CONTINUOUS
 10
241.0363461048
 20
165.9143247813
 11
241.0370124805
 21
165.9264637731
  0
LINE
  5
30E
100
AcDbEntity
  8
0
100
AcDbLine
 62
7
  6
CONTINUOUS
 10
241.0283282492
 20
165.9459124402
 11
241.0275184481
 21
165.9327119624
  0
SPLINE
  5
30F
100
AcDbEntity
  8
0
100
AcDbSpline
 62
7
  6
CONTINUOUS
 70
0
 71
3
 72
23
 73
19
 74
0
 42
0.0000001
 43
0.0000001
 44
0.0000000001
 40
0.0
 40
0.0
 40
0.0
 40
0.0
 40
0.229216205
 40
0.4399916596
 40
0.6134895141
 40
0.6801549282
 40
0.7312597455
 40
0.7666018862
 40
0.7790401422
 40
0.7887522577
 40
0.7968380879
 40
0.8048897641
 40
0.814302841
 40
0.8258160462
 40
0.855975388
 40
0.8956713529
 40
0.9440373918
 40
1.0
 40
1.0
 40
1.0
 40
1.0
 10
241.0275184481
 20
165.9327119624
 30
0.0
 10
241.0195371544
 20
165.8037852294
 30
0.0
 10
241.0005690994
 20
165.5564156064
 30
0.0
 10
240.9502693889
 20
165.2140673349
 30
0.0
 10
240.8918935763
 20
164.9661826142
 30
0.0
 10
240.8375675088
 20
164.811012555
 30
0.0
 10
240.8013025919
 20
164.7327087027
 30
0.0
 10
240.7705101102
 20
164.6854700565
 30
0.0
 10
240.7462423438
 20
164.663702023
 30
0.0
 10
240.7307947751
 20
164.6557957353
 30
0.0
 10
240.7156897938
 20
164.6549465497
 30
0.0
 10
240.7022898174
 20
164.6614828426
 30
0.0
 10
240.6911471714
 20
164.6737353855
 30
0.0
 10
240.6771066903
 20
164.6990387947
 30
0.0
 10
240.6644895049
 20
164.7435605759
 30
0.0
 10
240.654636126
 20
164.8094569318
 30
0.0
 10
240.6490605501
 20
164.8905179761
 30
0.0
 10
240.6480455045
 20
164.9493134124
 30
0.0
 10
240.6480464305
 20
164.9808508346
 30
0.0
  0
SPLINE
  5
310
100
AcDbEntity
  8
0
100
AcDbSpline
 62
7
  6
CONTINUOUS
 70
0
 71
3
 72
9
 73
5
 74
0
 42
0.0000001
 43
0.0000001
 44
0.0000000001
 40
0.0
 40
0.0
 40
0.0
 40
0.0
 40
0.3761004884
 40
1.0
 40
1.0
 40
1.0
 40
1.0
 10
241.036770702
 20
165.9264824488
 30
0.0
 10
241.0369013469
 20
165.9285887452
 30
0.0
 10
241.0371013324
 20
165.9339993092
 30
0.0
 10
241.0363060353
 20
165.9404939901
 30
0.0
 10
241.0336749313
 20
165.942803256
 30
0.0
  0
SPLINE
  5
311
100
AcDbEntity
  8
0
100
AcDbSpline
 62
7
  6
CONTINUOUS
 70
0
 71
3
 72
8
 73
4
 74
0
 42
0.0000001
 43
0.0000001
 44
0.0000000001
 40
0.0
 40
0.0
 40
0.0
 40
0.0
 40
1.0
 40
1.0
 40
1.0
 40
1.0
 10
241.0336749313
 20
165.942803256
 30
0.0
 10
241.032128629
 20
165.9441604137
 30
0.0
 10
241.030351062
 20
165.9454728859
 30
0.0
 10
241.0283400499
 20
165.9459073491
 30
0.0
  0
SPLINE
  5
312
100
AcDbEntity
  8
0
100
AcDbSpline
 62
7
  6
CONTINUOUS
 70
0
 71
3
 72
9
 73
5
 74
0
 42
0.0000001
 43
0.0000001
 44
0.0000000001
 40
0.0
 40
0.0
 40
0.0
 40
0.0
 40
0.2489601895
 40
1.0
 40
1.0
 40
1.0
 40
1.0
 10
240.8213185536
 20
167.3899186824
 30
0.0
 10
240.8238344078
 20
167.439156469
 30
0.0
 10
240.8332341509
 20
167.6369641685
 30
0.0
 10
240.8394745151
 20
167.8349337348
 30
0.0
 10
240.8417436955
 20
167.9836461446
 30
0.0
  0
SPLINE
  5
313
100
AcDbEntity
  8
0
100
AcDbSpline
 62
7
  6
CONTINUOUS
 70
0
 71
3
 72
14
 73
10
 74
0
 42
0.0000001
 43
0.0000001
 44
0.0000000001
 40
0.0
 40
0.0
 40
0.0
 40
0.0
 40
0.0526176048
 40
0.1086476
 40
0.2252667698
 40
0.3473991342
 40
0.4725987154
 40
0.7313879151
 40
1.0
 40
1.0
 40
1.0
 40
1.0
 10
240.7003859238
 20
165.7659914795
 30
0.0
 10
240.7026584513
 20
165.7944661972
 30
0.0
 10
240.7090764685
 20
165.8531101782
 30
0.0
 10
240.7215865436
 20
165.9747573814
 30
0.0
 10
240.7370363989
 20
166.13404537
 30
0.0
 10
240.7549678385
 20
166.3308168073
 30
0.0
 10
240.7756077909
 20
166.6048164006
 30
0.0
 10
240.7970332933
 20
166.9584562361
 30
0.0
 10
240.8144738973
 20
167.2442541949
 30
0.0
 10
240.8213185536
 20
167.3899186824
 30
0.0
  0
SPLINE
  5
314
100
AcDbEntity
  8
0
100
AcDbSpline
 62
7
  6
CONTINUOUS
 70
0
 71
3
 72
14
 73
10
 74
0
 42
0.0000001
 43
0.0000001
 44
0.0000000001
 40
0.0
 40
0.0
 40
0.0
 40
0.0
 40
0.1609618347
 40
0.3160861462
 40
0.5981971596
 40
0.7206926618
 40
0.8281411003
 40
0.9205447808
 40
1.0
 40
1.0
 40
1.0
 40
1.0
 10
235.0480528031
 20
161.8315915697
 30
0.0
 10
235.1485150017
 20
161.7997716075
 30
0.0
 10
235.345345111
 20
161.735589957
 30
0.0
 10
235.710387507
 20
161.5934700833
 30
0.0
 10
236.0380881494
 20
161.4250489847
 30
0.0
 10
236.3119452613
 20
161.2307131675
 30
0.0
 10
236.4668354513
 20
161.0859184146
 30
0.0
 10
236.5769985037
 20
160.939016825
 30
0.0
 10
236.6211206516
 20
160.8324671937
 30
0.0
 10
236.6291301996
 20
160.7810685224
 30
0.0
  0
SPLINE
  5
315
100
AcDbEntity
  8
0
100
AcDbSpline
 62
7
  6
CONTINUOUS
 70
0
 71
3
 72
14
 73
10
 74
0
 42
0.0000001
 43
0.0000001
 44
0.0000000001
 40
0.0
 40
0.0
 40
0.0
 40
0.0
 40
0.0668718635
 40
0.1557357386
 40
0.2661363909
 40
0.3950449745
 40
0.5383872214
 40
0.6907088782
 40
1.0
 40
1.0
 40
1.0
 40
1.0
 10
240.8417437229
 20
167.9836461591
 30
0.0
 10
240.7687165587
 20
167.9450129599
 30
0.0
 10
240.5890747589
 20
167.8736592824
 30
0.0
 10
240.2723619543
 20
167.7846157077
 30
0.0
 10
239.874755249
 20
167.7036683228
 30
0.0
 10
239.4071731675
 20
167.6331010977
 30
0.0
 10
238.8855495287
 20
167.5766129498
 30
0.0
 10
238.1401546978
 20
167.5208696273
 30
0.0
 10
237.5697558799
 20
167.5033332308
 30
0.0
 10
237.1876509046
 20
167.500974048
 30
0.0
  0
SPLINE
  5
316
100
AcDbEntity
  8
0
100
AcDbSpline
 62
7
  6
CONTINUOUS
 70
0
 71
3
 72
8
 73
4
 74
0
 42
0.0000001
 43
0.0000001
 44
0.0000000001
 40
0.0
 40
0.0
 40
0.0
 40
0.0
 40
1.0
 40
1.0
 40
1.0
 40
1.0
 10
240.706887896
 20
165.770327018
 30
0.0
 10
240.7057847513
 20
165.7604094862
 30
0.0
 10
240.7029394339
 20
165.7505675212
 30
0.0
 10
240.6987093306
 20
165.7415297896
 30
0.0
  0
SPLINE
  5
317
100
AcDbEntity
  8
0
100
AcDbSpline
 62
7
  6
CONTINUOUS
 70
0
 71
3
 72
9
 73
5
 74
0
 42
0.0000001
 43
0.0000001
 44
0.0000000001
 40
0.0
 40
0.0
 40
0.0
 40
0.0
 40
0.2492552743
 40
1.0
 40
1.0
 40
1.0
 40
1.0
 10
236.6291131399
 20
160.781084472
 30
0.0
 10
236.5703655366
 20
160.7579715315
 30
0.0
 10
236.3305393463
 20
160.676082441
 30
0.0
 10
236.0767238093
 20
160.6354485944
 30
0.0
 10
235.8866680981
 20
160.6295677273
 30
0.0
  0
SPLINE
  5
318
100
AcDbEntity
  8
0
100
AcDbSpline
 62
7
  6
CONTINUOUS
 70
0
 71
3
 72
9
 73
5
 74
0
 42
0.0000001
 43
0.0000001
 44
0.0000000001
 40
0.0
 40
0.0
 40
0.0
 40
0.0
 40
0.2392928595
 40
1.0
 40
1.0
 40
1.0
 40
1.0
 10
240.9517789054
 20
163.6678381277
 30
0.0
 10
240.9618569678
 20
163.7343610532
 30
0.0
 10
241.0008610555
 20
164.0128152782
 30
0.0
 10
241.0265465716
 20
164.2931875006
 30
0.0
 10
241.0375360246
 20
164.5067930962
 30
0.0
  0
SPLINE
  5
319
100
AcDbEntity
  8
0
100
AcDbSpline
 62
7
  6
CONTINUOUS
 70
0
 71
3
 72
23
 73
19
 74
0
 42
0.0000001
 43
0.0000001
 44
0.0000000001
 40
0.0
 40
0.0
 40
0.0
 40
0.0
 40
0.2291056264
 40
0.4399433028
 40
0.6136028501
 40
0.6804747965
 40
0.7317205151
 40
0.7670552777
 40
0.7794932226
 40
0.78922356
 40
0.7973169307
 40
0.8053165246
 40
0.8146253896
 40
0.8260267546
 40
0.8560786137
 40
0.8957907952
 40
0.9441510798
 40
1.0
 40
1.0
 40
1.0
 40
1.0
 10
241.0277894034
 20
199.5250472194
 30
0.0
 10
241.0193074783
 20
199.6542440476
 30
0.0
 10
241.0008120515
 20
199.9022980885
 30
0.0
 10
240.9509733345
 20
200.2457910134
 30
0.0
 10
240.8923826982
 20
200.4946051079
 30
0.0
 10
240.8381185458
 20
200.6505840087
 30
0.0
 10
240.8018562809
 20
200.7293743704
 30
0.0
 10
240.7709203888
 20
200.7768093332
 30
0.0
 10
240.7465445312
 20
200.7986099584
 30
0.0
 10
240.7310633889
 20
200.8065516836
 30
0.0
 10
240.7159658695
 20
200.8075987652
 30
0.0
 10
240.7024864298
 20
200.8013314411
 30
0.0
 10
240.6912647676
 20
200.7892765779
 30
0.0
 10
240.6771324682
 20
200.7641341686
 30
0.0
 10
240.6645145367
 20
200.7195793508
 30
0.0
 10
240.6546563212
 20
200.6535575643
 30
0.0
 10
240.6490635592
 20
200.5723243204
 30
0.0
 10
240.6480432913
 20
200.5134313011
 30
0.0
 10
240.64804846
 20
200.4818692816
 30
0.0
  0
SPLINE
  5
31A
100
AcDbEntity
  8
0
100
AcDbSpline
 62
7
  6
CONTINUOUS
 70
0
 71
3
 72
9
 73
5
 74
0
 42
0.0000001
 43
0.0000001
 44
0.0000000001
 40
0.0
 40
0.0
 40
0.0
 40
0.0
 40
0.2492553689
 40
1.0
 40
1.0
 40
1.0
 40
1.0
 10
236.6291131412
 20
204.6817031567
 30
0.0
 10
236.5703655445
 20
204.7048162913
 30
0.0
 10
236.3305394464
 20
204.7867061562
 30
0.0
 10
236.0767238895
 20
204.8273408831
 30
0.0
 10
235.8866680984
 20
204.8332223899
 30
0.0
  0
SPLINE
  5
31B
100
AcDbEntity
  8
0
100
AcDbSpline
 62
7
  6
CONTINUOUS
 70
0
 71
3
 72
9
 73
5
 74
0
 42
0.0000001
 43
0.0000001
 44
0.0000000001
 40
0.0
 40
0.0
 40
0.0
 40
0.0
 40
0.2576679626
 40
1.0
 40
1.0
 40
1.0
 40
1.0
 10
240.7337296738
 20
199.3617664545
 30
0.0
 10
240.7316009041
 20
199.3844656337
 30
0.0
 10
240.7232094041
 20
199.4725486881
 30
0.0
 10
240.7137367358
 20
199.5605240134
 30
0.0
 10
240.7073030816
 20
199.6258906215
 30
0.0
  0
SPLINE
  5
31C
100
AcDbEntity
  8
0
100
AcDbSpline
 62
7
  6
CONTINUOUS
 70
0
 71
3
 72
11
 73
7
 74
0
 42
0.0000001
 43
0.0000001
 44
0.0000000001
 40
0.0
 40
0.0
 40
0.0
 40
0.0
 40
0.2606393035
 40
0.5175433468
 40
0.7648898009
 40
1.0
 40
1.0
 40
1.0
 40
1.0
 10
240.8417437054
 20
197.4791451605
 30
0.0
 10
240.8393444114
 20
197.6429865187
 30
0.0
 10
240.8282933643
 20
197.9682349458
 30
0.0
 10
240.8006850515
 20
198.4483228639
 30
0.0
 10
240.7724442309
 20
198.9122695954
 30
0.0
 10
240.7490018332
 20
199.2147482903
 30
0.0
 10
240.7337296738
 20
199.3617664545
 30
0.0
  0
SPLINE
  5
31D
100
AcDbEntity
  8
0
100
AcDbSpline
 62
7
  6
CONTINUOUS
 70
0
 71
3
 72
14
 73
10
 74
0
 42
0.0000001
 43
0.0000001
 44
0.0000000001
 40
0.0
 40
0.0
 40
0.0
 40
0.0
 40
0.3092924037
 40
0.461614314
 40
0.6049565367
 40
0.7338648508
 40
0.8442650874
 40
0.933128513
 40
1.0
 40
1.0
 40
1.0
 40
1.0
 10
237.1876509046
 20
197.961817889
 30
0.0
 10
237.5697574722
 20
197.9594586285
 30
0.0
 10
238.1401581995
 20
197.9419220189
 30
0.0
 10
238.8855548847
 20
197.8861782097
 30
0.0
 10
239.4071784553
 20
197.8296897736
 30
0.0
 10
239.8747596358
 20
197.7591223703
 30
0.0
 10
240.2723649139
 20
197.6781749629
 30
0.0
 10
240.5890761842
 20
197.589131563
 30
0.0
 10
240.7687169794
 20
197.5177781401
 30
0.0
 10
240.841743729
 20
197.479145148
 30
0.0
  0
SPLINE
  5
31E
100
AcDbEntity
  8
0
100
AcDbSpline
 62
7
  6
CONTINUOUS
 70
0
 71
3
 72
14
 73
10
 74
0
 42
0.0000001
 43
0.0000001
 44
0.0000000001
 40
0.0
 40
0.0
 40
0.0
 40
0.0
 40
0.0794513956
 40
0.1719182921
 40
0.2793696398
 40
0.4017772395
 40
0.5374970429
 40
0.6841233636
 40
1.0
 40
1.0
 40
1.0
 40
1.0
 10
236.6291300969
 20
204.6817201528
 30
0.0
 10
236.6208993372
 20
204.6303501853
 30
0.0
 10
236.5777111005
 20
204.5234236247
 30
0.0
 10
236.4664144312
 20
204.3770658195
 30
0.0
 10
236.3117774844
 20
204.2321915693
 30
0.0
 10
236.1163988431
 20
204.0930101234
 30
0.0
 10
235.8867094335
 20
203.960207773
 30
0.0
 10
235.5328850921
 20
203.7910281987
 30
0.0
 10
235.2448901156
 20
203.6947568693
 30
0.0
 10
235.0480528074
 20
203.6312204571
 30
0.0
  0
SPLINE
  5
31F
100
AcDbEntity
  8
0
100
AcDbSpline
 62
7
  6
CONTINUOUS
 70
0
 71
3
 72
9
 73
5
 74
0
 42
0.0000001
 43
0.0000001
 44
0.0000000001
 40
0.0
 40
0.0
 40
0.0
 40
0.0
 40
0.6583440539
 40
1.0
 40
1.0
 40
1.0
 40
1.0
 10
240.8417457293
 20
197.4791454533
 30
0.0
 10
240.8443432593
 20
197.478382812
 30
0.0
 10
240.8480779238
 20
197.4773031784
 30
0.0
 10
240.8518138083
 20
197.4741601514
 30
0.0
 10
240.8518696273
 20
197.4727563393
 30
0.0
  0
SPLINE
  5
320
100
AcDbEntity
  8
0
100
AcDbSpline
 62
7
  6
CONTINUOUS
 70
0
 71
3
 72
9
 73
5
 74
0
 42
0.0000001
 43
0.0000001
 44
0.0000000001
 40
0.0
 40
0.0
 40
0.0
 40
0.0
 40
0.6583494492
 40
1.0
 40
1.0
 40
1.0
 40
1.0
 10
240.8417193314
 20
167.9836507994
 30
0.0
 10
240.8443198704
 20
167.9844133015
 30
0.0
 10
240.8480577
 20
167.9854939211
 30
0.0
 10
240.8518023587
 20
167.9886328556
 30
0.0
 10
240.8518610114
 20
167.9900379977
 30
0.0
  0
SPLINE
  5
321
100
AcDbEntity
  8
0
100
AcDbSpline
 62
7
  6
CONTINUOUS
 70
0
 71
3
 72
10
 73
6
 74
0
 42
0.0000001
 43
0.0000001
 44
0.0000000001
 40
0.0
 40
0.0
 40
0.0
 40
0.0
 40
0.4995594253
 40
0.7497519731
 40
1.0
 40
1.0
 40
1.0
 40
1.0
 10
240.8611233125
 20
168.7495056064
 30
0.0
 10
240.9158249718
 20
171.0183340772
 30
0.0
 10
240.9749923967
 20
174.4240698283
 30
0.0
 10
241.00717249
 20
178.9669491758
 30
0.0
 10
241.0126795707
 20
181.2404421629
 30
0.0
 10
241.0131534877
 20
182.3773135088
 30
0.0
  0
LINE
  5
322
100
AcDbEntity
  8
0
100
AcDbLine
 62
7
  6
CONTINUOUS
 10
241.0131534877
 20
182.3773135088
 11
241.0131464346
 21
183.1007683398
  0
SPLINE
  5
323
100
AcDbEntity
  8
0
100
AcDbSpline
 62
7
  6
CONTINUOUS
 70
0
 71
3
 72
11
 73
7
 74
0
 42
0.0000001
 43
0.0000001
 44
0.0000000001
 40
0.0
 40
0.0
 40
0.0
 40
0.0
 40
0.2502455392
 40
0.5004358458
 40
0.7504514276
 40
1.0
 40
1.0
 40
1.0
 40
1.0
 10
241.0131464346
 20
183.1007683398
 30
0.0
 10
241.0126543394
 20
184.2353101275
 30
0.0
 10
241.0071354751
 20
186.5041438804
 30
0.0
 10
240.9829497388
 20
189.9064094152
 30
0.0
 10
240.935732473
 20
193.3052827434
 30
0.0
 10
240.8884495544
 20
195.5696896667
 30
0.0
 10
240.8613630186
 20
196.7007474249
 30
0.0
  0
SPLINE
  5
324
100
AcDbEntity
  8
0
100
AcDbSpline
 62
7
  6
CONTINUOUS
 70
0
 71
3
 72
12
 73
8
 74
0
 42
0.0000001
 43
0.0000001
 44
0.0000000001
 40
0.0
 40
0.0
 40
0.0
 40
0.0
 40
0.2657014157
 40
0.5220098005
 40
0.6462711242
 40
0.7674604744
 40
1.0
 40
1.0
 40
1.0
 40
1.0
 10
237.1876521127
 20
197.9618311258
 30
0.0
 10
237.1876506479
 20
198.4190989707
 30
0.0
 10
237.1080713606
 20
199.3200043688
 30
0.0
 10
236.7800888751
 20
200.3939708543
 30
0.0
 10
236.371754038
 20
201.1581800244
 30
0.0
 10
235.8836202874
 20
201.8220556838
 30
0.0
 10
235.4018684063
 20
202.2227111495
 30
0.0
 10
235.0480516946
 20
202.4097169979
 30
0.0
  0
SPLINE
  5
325
100
AcDbEntity
  8
0
100
AcDbSpline
 62
7
  6
CONTINUOUS
 70
0
 71
3
 72
12
 73
8
 74
0
 42
0.0000001
 43
0.0000001
 44
0.0000000001
 40
0.0
 40
0.0
 40
0.0
 40
0.0
 40
0.2325395296
 40
0.3537288809
 40
0.4779902054
 40
0.7342985904
 40
1.0
 40
1.0
 40
1.0
 40
1.0
 10
235.0480516861
 20
163.053076283
 30
0.0
 10
235.4018683043
 20
163.2400820799
 30
0.0
 10
235.8836200722
 20
163.6407374051
 30
0.0
 10
236.3717537599
 20
164.3046128324
 30
0.0
 10
236.7800885793
 20
165.0688217359
 30
0.0
 10
237.1080711337
 20
166.1427878547
 30
0.0
 10
237.1876505606
 20
167.04369297
 30
0.0
 10
237.1876521174
 20
167.5009606744
 30
0.0
  0
SPLINE
  5
326
100
AcDbEntity
  8
0
100
AcDbSpline
 62
7
  6
CONTINUOUS
 70
0
 71
3
 72
14
 73
10
 74
0
 42
0.0000001
 43
0.0000001
 44
0.0000000001
 40
0.0
 40
0.0
 40
0.0
 40
0.0
 40
0.337263047
 40
0.4863571242
 40
0.6195770341
 40
0.7356934134
 40
0.835177879
 40
0.9210886254
 40
1.0
 40
1.0
 40
1.0
 40
1.0
 10
235.0480524648
 20
204.3912278413
 30
0.0
 10
235.1613584874
 20
204.4048998477
 30
0.0
 10
235.3244335671
 20
204.4313647396
 30
0.0
 10
235.525868729
 20
204.4904664825
 30
0.0
 10
235.6507974843
 20
204.5421378945
 30
0.0
 10
235.7524533416
 20
204.6031932131
 30
0.0
 10
235.8285544642
 20
204.6726125924
 30
0.0
 10
235.8758907117
 20
204.7502670126
 30
0.0
 10
235.8866349286
 20
204.8065112297
 30
0.0
 10
235.8866495385
 20
204.8332143878
 30
0.0
  0
SPLINE
  5
327
100
AcDbEntity
  8
0
100
AcDbSpline
 62
7
  6
CONTINUOUS
 70
0
 71
3
 72
9
 73
5
 74
0
 42
0.0000001
 43
0.0000001
 44
0.0000000001
 40
0.0
 40
0.0
 40
0.0
 40
0.0
 40
0.5823524056
 40
1.0
 40
1.0
 40
1.0
 40
1.0
 10
240.7160556515
 20
163.4891019177
 30
0.0
 10
240.6982502748
 20
163.388654161
 30
0.0
 10
240.6683961287
 20
163.2161248321
 30
0.0
 10
240.6437714809
 20
163.0424122389
 30
0.0
 10
240.6388512582
 20
162.9694164123
 30
0.0
  0
SPLINE
  5
328
100
AcDbEntity
  8
0
100
AcDbSpline
 62
7
  6
CONTINUOUS
 70
0
 71
3
 72
19
 73
15
 74
0
 42
0.0000001
 43
0.0000001
 44
0.0000000001
 40
0.0
 40
0.0
 40
0.0
 40
0.0
 40
0.1650401452
 40
0.2303786655
 40
0.2839896927
 40
0.3259640049
 40
0.3570687426
 40
0.3799947155
 40
0.4016647852
 40
0.4303429641
 40
0.4703500642
 40
0.5899396572
 40
0.7659217041
 40
1.0
 40
1.0
 40
1.0
 40
1.0
 10
240.6388512582
 20
162.9694164123
 30
0.0
 10
240.6375758541
 20
162.9504946733
 30
0.0
 10
240.6363474318
 20
162.9240121936
 30
0.0
 10
240.6374249732
 20
162.8913784093
 30
0.0
 10
240.6393756118
 20
162.872967761
 30
0.0
 10
240.6426196649
 20
162.8587145579
 30
0.0
 10
240.6470261834
 20
162.8485237377
 30
0.0
 10
240.653793636
 20
162.8421692451
 30
0.0
 10
240.6628690283
 20
162.8422534617
 30
0.0
 10
240.6718989296
 20
162.8478443946
 30
0.0
 10
240.6872807259
 20
162.8631259785
 30
0.0
 10
240.7082801566
 20
162.8958691494
 30
0.0
 10
240.7357578943
 20
162.9501139334
 30
0.0
 10
240.7539293736
 20
162.9936684614
 30
0.0
 10
240.7637425301
 20
163.0187123066
 30
0.0
  0
SPLINE
  5
329
100
AcDbEntity
  8
0
100
AcDbSpline
 62
7
  6
CONTINUOUS
 70
0
 71
3
 72
10
 73
6
 74
0
 42
0.0000001
 43
0.0000001
 44
0.0000000001
 40
0.0
 40
0.0
 40
0.0
 40
0.0
 40
0.182744104
 40
0.4160434389
 40
1.0
 40
1.0
 40
1.0
 40
1.0
 10
240.7637425301
 20
163.0187123066
 30
0.0
 10
240.7854632745
 20
163.0741451292
 30
0.0
 10
240.8287740938
 20
163.2027434615
 30
0.0
 10
240.9140025273
 20
163.5172973004
 30
0.0
 10
240.9614747745
 20
163.7799845872
 30
0.0
 10
240.9870406226
 20
163.9685069633
 30
0.0
  0
SPLINE
  5
32A
100
AcDbEntity
  8
0
100
AcDbSpline
 62
7
  6
CONTINUOUS
 70
0
 71
3
 72
14
 73
10
 74
0
 42
0.0000001
 43
0.0000001
 44
0.0000000001
 40
0.0
 40
0.0
 40
0.0
 40
0.0
 40
0.0789114403
 40
0.1648218747
 40
0.26430594
 40
0.3804220322
 40
0.5136418581
 40
0.6627361001
 40
1.0
 40
1.0
 40
1.0
 40
1.0
 10
235.886649588
 20
160.6295734819
 30
0.0
 10
235.8866356316
 20
160.6562768048
 30
0.0
 10
235.8758927339
 20
160.7125215312
 30
0.0
 10
235.8285576829
 20
160.7901770716
 30
0.0
 10
235.7524571088
 20
160.8595974291
 30
0.0
 10
235.6508013061
 20
160.9206535952
 30
0.0
 10
235.5258721231
 20
160.972325708
 30
0.0
 10
235.3244356864
 20
161.0314282279
 30
0.0
 10
235.1613593891
 20
161.0578933539
 30
0.0
 10
235.0480524769
 20
161.0715654703
 30
0.0
  0
SPLINE
  5
32B
100
AcDbEntity
  8
0
100
AcDbSpline
 62
7
  6
CONTINUOUS
 70
0
 71
3
 72
9
 73
5
 74
0
 42
0.0000001
 43
0.0000001
 44
0.0000000001
 40
0.0
 40
0.0
 40
0.0
 40
0.0
 40
0.5320302023
 40
1.0
 40
1.0
 40
1.0
 40
1.0
 10
240.7903246857
 20
163.9059575169
 30
0.0
 10
240.7772885322
 20
163.8320065944
 30
0.0
 10
240.7510293032
 20
163.6933224567
 30
0.0
 10
240.7275236198
 20
163.5541483394
 30
0.0
 10
240.7160556515
 20
163.4891019177
 30
0.0
  0
SPLINE
  5
32C
100
AcDbEntity
  8
0
100
AcDbSpline
 62
7
  6
CONTINUOUS
 70
0
 71
3
 72
11
 73
7
 74
0
 42
0.0000001
 43
0.0000001
 44
0.0000000001
 40
0.0
 40
0.0
 40
0.0
 40
0.0
 40
0.1796910676
 40
0.4129109765
 40
0.6892373196
 40
1.0
 40
1.0
 40
1.0
 40
1.0
 10
240.6454842103
 20
202.4225947659
 30
0.0
 10
240.6541062339
 20
202.3452661753
 30
0.0
 10
240.6814548175
 20
202.1684757784
 30
0.0
 10
240.7334809356
 20
201.8746319059
 30
0.0
 10
240.7966667406
 20
201.5250851658
 30
0.0
 10
240.8394002013
 20
201.2744793241
 30
0.0
 10
240.8607952686
 20
201.1416281722
 30
0.0
  0
SPLINE
  5
32D
100
AcDbEntity
  8
0
100
AcDbSpline
 62
7
  6
CONTINUOUS
 70
0
 71
3
 72
9
 73
5
 74
0
 42
0.0000001
 43
0.0000001
 44
0.0000000001
 40
0.0
 40
0.0
 40
0.0
 40
0.0
 40
0.2435692327
 40
1.0
 40
1.0
 40
1.0
 40
1.0
 10
240.9614008002
 20
200.4299686649
 30
0.0
 10
240.9701058669
 20
200.3568722436
 30
0.0
 10
241.0035962054
 20
200.0565109528
 30
0.0
 10
241.0270824313
 20
199.7549717668
 30
0.0
 10
241.0375348815
 20
199.5265978408
 30
0.0
  0
SPLINE
  5
32E
100
AcDbEntity
  8
0
100
AcDbSpline
 62
7
  6
CONTINUOUS
 70
0
 71
3
 72
21
 73
17
 74
0
 42
0.0000001
 43
0.0000001
 44
0.0000000001
 40
0.0
 40
0.0
 40
0.0
 40
0.0
 40
0.086667254
 40
0.1725802156
 40
0.3398653679
 40
0.4989124469
 40
0.6463467625
 40
0.7143148556
 40
0.7774766422
 40
0.8349416206
 40
0.8856886629
 40
0.9285968331
 40
0.9625241386
 40
0.9864659023
 40
0.994509996
 40
1.0
 40
1.0
 40
1.0
 40
1.0
 10
209.5377562121
 20
83.5313966427
 30
0.0
 10
209.5377562121
 20
83.4661311786
 30
0.0
 10
209.5481610427
 20
83.3359586245
 30
0.0
 10
209.6057791162
 20
83.0858688883
 30
0.0
 10
209.7270463278
 20
82.798045069
 30
0.0
 10
209.9049970997
 20
82.4885229424
 30
0.0
 10
210.0607026922
 20
82.2532852234
 30
0.0
 10
210.1805821684
 20
82.0811420151
 30
0.0
 10
210.2628042306
 20
81.9653390378
 30
0.0
 10
210.337847722
 20
81.8603422977
 30
0.0
 10
210.4036592829
 20
81.7675119017
 30
0.0
 10
210.4582889116
 20
81.6884333687
 30
0.0
 10
210.4995283673
 20
81.6247986478
 30
0.0
 10
210.5244807894
 20
81.5816610121
 30
0.0
 10
210.53529047
 20
81.5556352518
 30
0.0
 10
210.5377562121
 20
81.5455560596
 30
0.0
 10
210.5377562121
 20
81.5414217684
 30
0.0
  0
SPLINE
  5
32F
100
AcDbEntity
  8
0
100
AcDbSpline
 62
7
  6
CONTINUOUS
 70
0
 71
3
 72
11
 73
7
 74
0
 42
0.0000001
 43
0.0000001
 44
0.0000000001
 40
0.0
 40
0.0
 40
0.0
 40
0.0
 40
0.2180219403
 40
0.4550743036
 40
0.7178991619
 40
1.0
 40
1.0
 40
1.0
 40
1.0
 10
210.6206758003
 20
124.0704940897
 30
0.0
 10
210.6389069961
 20
124.0678900906
 30
0.0
 10
210.6759904617
 20
124.0523967095
 30
0.0
 10
210.7170340424
 20
124.0056085655
 30
0.0
 10
210.7410719903
 20
123.9429110896
 30
0.0
 10
210.7443829065
 20
123.8962871533
 30
0.0
 10
210.7429096015
 20
123.8725038005
 30
0.0
  0
SPLINE
  5
330
100
AcDbEntity
  8
0
100
AcDbSpline
 62
7
  6
CONTINUOUS
 70
0
 71
3
 72
9
 73
5
 74
0
 42
0.0000001
 43
0.0000001
 44
0.0000000001
 40
0.0
 40
0.0
 40
0.0
 40
0.0
 40
0.2354491186
 40
1.0
 40
1.0
 40
1.0
 40
1.0
 10
210.6719493063
 20
96.7739260537
 30
0.0
 10
210.6851226312
 20
96.7549947564
 30
0.0
 10
210.7327799608
 20
96.6688644598
 30
0.0
 10
210.7475508312
 20
96.5667178719
 30
0.0
 10
210.7429196539
 20
96.4919689684
 30
0.0
  0
SPLINE
  5
331
100
AcDbEntity
  8
0
100
AcDbSpline
 62
7
  6
CONTINUOUS
 70
0
 71
3
 72
9
 73
5
 74
0
 42
0.0000001
 43
0.0000001
 44
0.0000000001
 40
0.0
 40
0.0
 40
0.0
 40
0.0
 40
0.4831876763
 40
1.0
 40
1.0
 40
1.0
 40
1.0
 10
210.5377593197
 20
96.8786848998
 30
0.0
 10
210.5641221867
 20
96.8699282059
 30
0.0
 10
210.6156099657
 20
96.8415085222
 30
0.0
 10
210.6549784516
 20
96.7983147557
 30
0.0
 10
210.6719493063
 20
96.7739260537
 30
0.0
  0
SPLINE
  5
332
100
AcDbEntity
  8
0
100
AcDbSpline
 62
7
  6
CONTINUOUS
 70
0
 71
3
 72
11
 73
7
 74
0
 42
0.0000001
 43
0.0000001
 44
0.0000000001
 40
0.0
 40
0.0
 40
0.0
 40
0.0
 40
0.2787121698
 40
0.5410944586
 40
0.7806062683
 40
1.0
 40
1.0
 40
1.0
 40
1.0
 10
210.7429145724
 20
89.3708218579
 30
0.0
 10
210.7455986392
 20
89.3274977539
 30
0.0
 10
210.7405360142
 20
89.2423075662
 30
0.0
 10
210.7011787557
 20
89.1255891595
 30
0.0
 10
210.6332856756
 20
89.0334125383
 30
0.0
 10
210.5701833093
 20
88.9948797448
 30
0.0
 10
210.53775667
 20
88.9841084875
 30
0.0
  0
SPLINE
  5
333
100
AcDbEntity
  8
0
100
AcDbSpline
 62
7
  6
CONTINUOUS
 70
0
 71
3
 72
21
 73
17
 74
0
 42
0.0000001
 43
0.0000001
 44
0.0000000001
 40
0.0
 40
0.0
 40
0.0
 40
0.0
 40
0.0054900041
 40
0.0135341128
 40
0.0374759748
 40
0.0714034085
 40
0.1143116317
 40
0.1650585491
 40
0.2225233154
 40
0.2856847875
 40
0.3536524904
 40
0.5010868271
 40
0.6601341092
 40
0.8274193888
 40
0.9133325099
 40
1.0
 40
1.0
 40
1.0
 40
1.0
 10
210.5377562121
 20
131.5213715169
 30
0.0
 10
210.5377562121
 20
131.5172372256
 30
0.0
 10
210.5352904681
 20
131.5071580219
 30
0.0
 10
210.5244807462
 20
131.4811321861
 30
0.0
 10
210.4995282288
 20
131.4379943949
 30
0.0
 10
210.4582886382
 20
131.3743595104
 30
0.0
 10
210.4036589786
 20
131.2952809475
 30
0.0
 10
210.3378475369
 20
131.2024507287
 30
0.0
 10
210.262804323
 20
131.0974543929
 30
0.0
 10
210.1805827135
 20
130.9816519411
 30
0.0
 10
210.0607034349
 20
130.8095092209
 30
0.0
 10
209.9049980666
 20
130.5742715085
 30
0.0
 10
209.7270467646
 20
130.2647493829
 30
0.0
 10
209.6057793631
 20
129.9769252315
 30
0.0
 10
209.5481610779
 20
129.7268351401
 30
0.0
 10
209.5377562121
 20
129.5966622846
 30
0.0
 10
209.5377562121
 20
129.5313966427
 30
0.0
  0
SPLINE
  5
334
100
AcDbEntity
  8
0
100
AcDbSpline
 62
7
  6
CONTINUOUS
 70
0
 71
3
 72
11
 73
7
 74
0
 42
0.0000001
 43
0.0000001
 44
0.0000000001
 40
0.0
 40
0.0
 40
0.0
 40
0.0
 40
0.2821004439
 40
0.5449250486
 40
0.7819776884
 40
1.0
 40
1.0
 40
1.0
 40
1.0
 10
210.7429097216
 20
116.390287542
 30
0.0
 10
210.744382823
 20
116.3665046451
 30
0.0
 10
210.7410717395
 20
116.3198816552
 30
0.0
 10
210.7170342626
 20
116.2571853861
 30
0.0
 10
210.675991824
 20
116.2103978172
 30
0.0
 10
210.6389093641
 20
116.1949039904
 30
0.0
 10
210.6206785336
 20
116.192299586
 30
0.0
  0
SPLINE
  5
335
100
AcDbEntity
  8
0
100
AcDbSpline
 62
7
  6
CONTINUOUS
 70
0
 71
3
 72
21
 73
17
 74
0
 42
0.0000001
 43
0.0000001
 44
0.0000000001
 40
0.0
 40
0.0
 40
0.0
 40
0.0
 40
0.086667254
 40
0.1725802156
 40
0.3398653679
 40
0.4989124469
 40
0.6463467625
 40
0.7143148556
 40
0.7774766422
 40
0.8349416206
 40
0.8856886629
 40
0.9285968331
 40
0.9625241386
 40
0.9864659023
 40
0.994509996
 40
1.0
 40
1.0
 40
1.0
 40
1.0
 10
209.5377562121
 20
245.5313966427
 30
0.0
 10
209.5377562121
 20
245.4661311786
 30
0.0
 10
209.5481610427
 20
245.3359586245
 30
0.0
 10
209.6057791162
 20
245.0858688883
 30
0.0
 10
209.7270463278
 20
244.798045069
 30
0.0
 10
209.9049970997
 20
244.4885229424
 30
0.0
 10
210.0607026922
 20
244.2532852234
 30
0.0
 10
210.1805821684
 20
244.0811420151
 30
0.0
 10
210.2628042306
 20
243.9653390378
 30
0.0
 10
210.337847722
 20
243.8603422977
 30
0.0
 10
210.4036592829
 20
243.7675119017
 30
0.0
 10
210.4582889116
 20
243.6884333687
 30
0.0
 10
210.4995283673
 20
243.6247986478
 30
0.0
 10
210.5244807894
 20
243.5816610121
 30
0.0
 10
210.53529047
 20
243.5556352518
 30
0.0
 10
210.5377562121
 20
243.5455560596
 30
0.0
 10
210.5377562121
 20
243.5414217684
 30
0.0
  0
SPLINE
  5
336
100
AcDbEntity
  8
0
100
AcDbSpline
 62
7
  6
CONTINUOUS
 70
0
 71
3
 72
11
 73
7
 74
0
 42
0.0000001
 43
0.0000001
 44
0.0000000001
 40
0.0
 40
0.0
 40
0.0
 40
0.0
 40
0.2180219403
 40
0.4550743036
 40
0.7178991619
 40
1.0
 40
1.0
 40
1.0
 40
1.0
 10
210.6206758003
 20
286.0704940897
 30
0.0
 10
210.6389069961
 20
286.0678900906
 30
0.0
 10
210.6759904617
 20
286.0523967095
 30
0.0
 10
210.7170340424
 20
286.0056085655
 30
0.0
 10
210.7410719903
 20
285.9429110896
 30
0.0
 10
210.7443829065
 20
285.8962871533
 30
0.0
 10
210.7429096015
 20
285.8725038005
 30
0.0
  0
SPLINE
  5
337
100
AcDbEntity
  8
0
100
AcDbSpline
 62
7
  6
CONTINUOUS
 70
0
 71
3
 72
9
 73
5
 74
0
 42
0.0000001
 43
0.0000001
 44
0.0000000001
 40
0.0
 40
0.0
 40
0.0
 40
0.0
 40
0.2354491186
 40
1.0
 40
1.0
 40
1.0
 40
1.0
 10
210.6719493063
 20
258.7739260537
 30
0.0
 10
210.6851226312
 20
258.7549947564
 30
0.0
 10
210.7327799608
 20
258.6688644598
 30
0.0
 10
210.7475508312
 20
258.5667178719
 30
0.0
 10
210.7429196539
 20
258.4919689684
 30
0.0
  0
SPLINE
  5
338
100
AcDbEntity
  8
0
100
AcDbSpline
 62
7
  6
CONTINUOUS
 70
0
 71
3
 72
9
 73
5
 74
0
 42
0.0000001
 43
0.0000001
 44
0.0000000001
 40
0.0
 40
0.0
 40
0.0
 40
0.0
 40
0.4831876763
 40
1.0
 40
1.0
 40
1.0
 40
1.0
 10
210.5377593197
 20
258.8786848998
 30
0.0
 10
210.5641221867
 20
258.8699282059
 30
0.0
 10
210.6156099657
 20
258.8415085222
 30
0.0
 10
210.6549784516
 20
258.7983147557
 30
0.0
 10
210.6719493063
 20
258.7739260537
 30
0.0
  0
SPLINE
  5
339
100
AcDbEntity
  8
0
100
AcDbSpline
 62
7
  6
CONTINUOUS
 70
0
 71
3
 72
11
 73
7
 74
0
 42
0.0000001
 43
0.0000001
 44
0.0000000001
 40
0.0
 40
0.0
 40
0.0
 40
0.0
 40
0.2787121698
 40
0.5410944586
 40
0.7806062683
 40
1.0
 40
1.0
 40
1.0
 40
1.0
 10
210.7429145724
 20
251.3708218579
 30
0.0
 10
210.7455986392
 20
251.3274977539
 30
0.0
 10
210.7405360142
 20
251.2423075662
 30
0.0
 10
210.7011787557
 20
251.1255891595
 30
0.0
 10
210.6332856756
 20
251.0334125383
 30
0.0
 10
210.5701833093
 20
250.9948797448
 30
0.0
 10
210.53775667
 20
250.9841084875
 30
0.0
  0
SPLINE
  5
33A
100
AcDbEntity
  8
0
100
AcDbSpline
 62
7
  6
CONTINUOUS
 70
0
 71
3
 72
21
 73
17
 74
0
 42
0.0000001
 43
0.0000001
 44
0.0000000001
 40
0.0
 40
0.0
 40
0.0
 40
0.0
 40
0.0054900041
 40
0.0135341128
 40
0.0374759748
 40
0.0714034085
 40
0.1143116317
 40
0.1650585491
 40
0.2225233154
 40
0.2856847875
 40
0.3536524904
 40
0.5010868271
 40
0.6601341092
 40
0.8274193888
 40
0.9133325099
 40
1.0
 40
1.0
 40
1.0
 40
1.0
 10
210.5377562121
 20
293.5213715169
 30
0.0
 10
210.5377562121
 20
293.5172372256
 30
0.0
 10
210.5352904681
 20
293.5071580219
 30
0.0
 10
210.5244807462
 20
293.4811321861
 30
0.0
 10
210.4995282288
 20
293.4379943949
 30
0.0
 10
210.4582886382
 20
293.3743595104
 30
0.0
 10
210.4036589786
 20
293.2952809475
 30
0.0
 10
210.3378475369
 20
293.2024507287
 30
0.0
 10
210.262804323
 20
293.0974543929
 30
0.0
 10
210.1805827135
 20
292.9816519411
 30
0.0
 10
210.0607034349
 20
292.8095092209
 30
0.0
 10
209.9049980666
 20
292.5742715085
 30
0.0
 10
209.7270467646
 20
292.2647493829
 30
0.0
 10
209.6057793631
 20
291.9769252315
 30
0.0
 10
209.5481610779
 20
291.7268351401
 30
0.0
 10
209.5377562121
 20
291.5966622846
 30
0.0
 10
209.5377562121
 20
291.5313966427
 30
0.0
  0
SPLINE
  5
33B
100
AcDbEntity
  8
0
100
AcDbSpline
 62
7
  6
CONTINUOUS
 70
0
 71
3
 72
11
 73
7
 74
0
 42
0.0000001
 43
0.0000001
 44
0.0000000001
 40
0.0
 40
0.0
 40
0.0
 40
0.0
 40
0.2821004439
 40
0.5449250486
 40
0.7819776884
 40
1.0
 40
1.0
 40
1.0
 40
1.0
 10
210.7429097216
 20
278.390287542
 30
0.0
 10
210.744382823
 20
278.3665046451
 30
0.0
 10
210.7410717395
 20
278.3198816552
 30
0.0
 10
210.7170342626
 20
278.2571853861
 30
0.0
 10
210.675991824
 20
278.2103978172
 30
0.0
 10
210.6389093641
 20
278.1949039904
 30
0.0
 10
210.6206785336
 20
278.192299586
 30
0.0
  0
SPLINE
  5
33C
100
AcDbEntity
  8
0
100
AcDbSpline
 62
7
  6
CONTINUOUS
 70
0
 71
3
 72
9
 73
5
 74
0
 42
0.0000001
 43
0.0000001
 44
0.0000000001
 40
0.0
 40
0.0
 40
0.0
 40
0.0
 40
0.4132492577
 40
1.0
 40
1.0
 40
1.0
 40
1.0
 10
215.0481281045
 20
333.6396201796
 30
0.0
 10
215.0481338945
 20
333.7291034626
 30
0.0
 10
215.1596639223
 20
333.9376531158
 30
0.0
 10
215.3357563404
 20
334.0640296629
 30
0.0
 10
215.4410800392
 20
334.1350879179
 30
0.0
  0
SPLINE
  5
33D
100
AcDbEntity
  8
0
100
AcDbSpline
 62
7
  6
CONTINUOUS
 70
0
 71
3
 72
9
 73
5
 74
0
 42
0.0000001
 43
0.0000001
 44
0.0000000001
 40
0.0
 40
0.0
 40
0.0
 40
0.0
 40
0.2383883355
 40
1.0
 40
1.0
 40
1.0
 40
1.0
 10
215.4410800392
 20
334.1350879179
 30
0.0
 10
215.459429526
 20
334.1474676817
 30
0.0
 10
215.537059453
 20
334.1984259579
 30
0.0
 10
215.6168604541
 20
334.2460128577
 30
0.0
 10
215.6782723995
 20
334.2810786019
 30
0.0
  0
SPLINE
  5
33E
100
AcDbEntity
  8
0
100
AcDbSpline
 62
7
  6
CONTINUOUS
 70
0
 71
3
 72
9
 73
5
 74
0
 42
0.0000001
 43
0.0000001
 44
0.0000000001
 40
0.0
 40
0.0
 40
0.0
 40
0.0
 40
0.2421616176
 40
1.0
 40
1.0
 40
1.0
 40
1.0
 10
215.6782723995
 20
334.2810786019
 30
0.0
 10
215.7155884021
 20
334.3023857497
 30
0.0
 10
215.8707342088
 20
334.3885384836
 30
0.0
 10
216.028554081
 20
334.4697222375
 30
0.0
 10
216.1480528235
 20
334.5313966426
 30
0.0
  0
SPLINE
  5
33F
100
AcDbEntity
  8
0
100
AcDbSpline
 62
7
  6
CONTINUOUS
 70
0
 71
3
 72
9
 73
5
 74
0
 42
0.0000001
 43
0.0000001
 44
0.0000000001
 40
0.0
 40
0.0
 40
0.0
 40
0.0
 40
0.4133798481
 40
1.0
 40
1.0
 40
1.0
 40
1.0
 10
215.0481583671
 20
41.4231701554
 30
0.0
 10
215.0481625805
 20
41.3340505112
 30
0.0
 10
215.1588121287
 20
41.1263401075
 30
0.0
 10
215.3338418079
 20
41.000032125
 30
0.0
 10
215.4386385474
 20
40.9292378238
 30
0.0
  0
SPLINE
  5
340
100
AcDbEntity
  8
0
100
AcDbSpline
 62
7
  6
CONTINUOUS
 70
0
 71
3
 72
9
 73
5
 74
0
 42
0.0000001
 43
0.0000001
 44
0.0000000001
 40
0.0
 40
0.0
 40
0.0
 40
0.0
 40
0.2383417504
 40
1.0
 40
1.0
 40
1.0
 40
1.0
 10
215.4386385474
 20
40.9292378238
 30
0.0
 10
215.456870793
 20
40.9169212279
 30
0.0
 10
215.5340250374
 20
40.866218222
 30
0.0
 10
215.6133476046
 20
40.8188798944
 30
0.0
 10
215.6743889906
 20
40.7839826226
 30
0.0
  0
SPLINE
  5
341
100
AcDbEntity
  8
0
100
AcDbSpline
 62
7
  6
CONTINUOUS
 70
0
 71
3
 72
9
 73
5
 74
0
 42
0.0000001
 43
0.0000001
 44
0.0000000001
 40
0.0
 40
0.0
 40
0.0
 40
0.0
 40
0.2420180101
 40
1.0
 40
1.0
 40
1.0
 40
1.0
 10
215.6743889906
 20
40.7839826226
 30
0.0
 10
215.7119862973
 20
40.762488297
 30
0.0
 10
215.8683986083
 20
40.6755299731
 30
0.0
 10
216.0275223133
 20
40.5936035526
 30
0.0
 10
216.1480528235
 20
40.5313966426
 30
0.0
  0
SPLINE
  5
342
100
AcDbEntity
  8
0
100
AcDbSpline
 62
7
  6
CONTINUOUS
 70
0
 71
3
 72
9
 73
5
 74
0
 42
0.0000001
 43
0.0000001
 44
0.0000000001
 40
0.0
 40
0.0
 40
0.0
 40
0.0
 40
0.2600646559
 40
1.0
 40
1.0
 40
1.0
 40
1.0
 10
234.4693393653
 20
41.2558319492
 30
0.0
 10
234.5000483015
 20
41.2962463678
 30
0.0
 10
234.6154018907
 20
41.4536647518
 30
0.0
 10
234.7192342231
 20
41.6198110399
 30
0.0
 10
234.7863447752
 20
41.7476868614
 30
0.0
  0
SPLINE
  5
343
100
AcDbEntity
  8
0
100
AcDbSpline
 62
7
  6
CONTINUOUS
 70
0
 71
3
 72
9
 73
5
 74
0
 42
0.0000001
 43
0.0000001
 44
0.0000000001
 40
0.0
 40
0.0
 40
0.0
 40
0.0
 40
0.2647057265
 40
1.0
 40
1.0
 40
1.0
 40
1.0
 10
234.7863447752
 20
41.7476868614
 30
0.0
 10
234.8283073649
 20
41.8276444903
 30
0.0
 10
234.972796356
 20
42.1364783229
 30
0.0
 10
235.0480528235
 20
42.4805632414
 30
0.0
 10
235.0480528235
 20
42.7313966427
 30
0.0
  0
SPLINE
  5
344
100
AcDbEntity
  8
0
100
AcDbSpline
 62
7
  6
CONTINUOUS
 70
0
 71
3
 72
9
 73
5
 74
0
 42
0.0000001
 43
0.0000001
 44
0.0000000001
 40
0.0
 40
0.0
 40
0.0
 40
0.0
 40
0.240649044
 40
1.0
 40
1.0
 40
1.0
 40
1.0
 10
235.0480528235
 20
332.3313966427
 30
0.0
 10
235.0480528235
 20
332.4135316164
 30
0.0
 10
235.0250499066
 20
332.754975852
 30
0.0
 10
234.9067821521
 20
333.0856189884
 30
0.0
 10
234.7863447752
 20
333.3151064239
 30
0.0
  0
SPLINE
  5
345
100
AcDbEntity
  8
0
100
AcDbSpline
 62
7
  6
CONTINUOUS
 70
0
 71
3
 72
9
 73
5
 74
0
 42
0.0000001
 43
0.0000001
 44
0.0000000001
 40
0.0
 40
0.0
 40
0.0
 40
0.0
 40
0.2403080807
 40
1.0
 40
1.0
 40
1.0
 40
1.0
 10
234.7863447752
 20
333.3151064239
 30
0.0
 10
234.7645480633
 20
333.3566389752
 30
0.0
 10
234.6695757393
 20
333.5272254996
 30
0.0
 10
234.5590505344
 20
333.6888971765
 30
0.0
 10
234.4693393653
 20
333.8069613362
 30
0.0
  0
SPLINE
  5
346
100
AcDbEntity
  8
0
100
AcDbSpline
 62
7
  6
CONTINUOUS
 70
0
 71
3
 72
9
 73
5
 74
0
 42
0.0000001
 43
0.0000001
 44
0.0000000001
 40
0.0
 40
0.0
 40
0.0
 40
0.0
 40
0.4514447027
 40
1.0
 40
1.0
 40
1.0
 40
1.0
 10
209.0377562121
 20
55.1052026345
 30
0.0
 10
209.0377562121
 20
55.376250689
 30
0.0
 10
209.2318258554
 20
55.9756382998
 30
0.0
 10
209.6267487532
 20
56.4359621667
 30
0.0
 10
209.8555778566
 20
56.6728395637
 30
0.0
  0
SPLINE
  5
347
100
AcDbEntity
  8
0
100
AcDbSpline
 62
7
  6
CONTINUOUS
 70
0
 71
3
 72
9
 73
5
 74
0
 42
0.0000001
 43
0.0000001
 44
0.0000000001
 40
0.0
 40
0.0
 40
0.0
 40
0.0
 40
0.2378160357
 40
1.0
 40
1.0
 40
1.0
 40
1.0
 10
209.8555778566
 20
56.6728395637
 30
0.0
 10
209.9339887824
 20
56.75400833
 30
0.0
 10
210.2728660446
 20
57.0865059261
 30
0.0
 10
210.6357523649
 20
57.393110107
 30
0.0
 10
210.9131327818
 20
57.6252427586
 30
0.0
  0
LINE
  5
348
100
AcDbEntity
  8
0
100
AcDbLine
 62
7
  6
CONTINUOUS
 10
210.9131327818
 20
57.6252427586
 11
211.037743235
 21
57.7293874737
  0
SPLINE
  5
349
100
AcDbEntity
  8
0
100
AcDbSpline
 62
7
  6
CONTINUOUS
 70
0
 71
3
 72
9
 73
5
 74
0
 42
0.0000001
 43
0.0000001
 44
0.0000000001
 40
0.0
 40
0.0
 40
0.0
 40
0.0
 40
0.2592742201
 40
1.0
 40
1.0
 40
1.0
 40
1.0
 10
205.8377562121
 20
38.5313966427
 30
0.0
 10
205.9804081916
 20
38.5938320038
 30
0.0
 10
206.530466609
 20
38.8347920883
 30
0.0
 10
207.0784902245
 20
39.0816669951
 30
0.0
 10
207.4749029222
 20
39.2835755049
 30
0.0
  0
SPLINE
  5
34A
100
AcDbEntity
  8
0
100
AcDbSpline
 62
7
  6
CONTINUOUS
 70
0
 71
3
 72
9
 73
5
 74
0
 42
0.0000001
 43
0.0000001
 44
0.0000000001
 40
0.0
 40
0.0
 40
0.0
 40
0.0
 40
0.2748870918
 40
1.0
 40
1.0
 40
1.0
 40
1.0
 10
207.4749029222
 20
39.2835755049
 30
0.0
 10
207.5654432488
 20
39.3296912387
 30
0.0
 10
207.8925248242
 20
39.5014979163
 30
0.0
 10
208.2116805845
 20
39.691388412
 30
0.0
 10
208.4266710556
 20
39.8514445428
 30
0.0
  0
SPLINE
  5
34B
100
AcDbEntity
  8
0
100
AcDbSpline
 62
7
  6
CONTINUOUS
 70
0
 71
3
 72
10
 73
6
 74
0
 42
0.0000001
 43
0.0000001
 44
0.0000000001
 40
0.0
 40
0.0
 40
0.0
 40
0.0
 40
0.3099653237
 40
0.6907340864
 40
1.0
 40
1.0
 40
1.0
 40
1.0
 10
208.4266710556
 20
39.8514445428
 30
0.0
 10
208.5181884464
 20
39.9195774204
 30
0.0
 10
208.7145802604
 20
40.0813282518
 30
0.0
 10
208.9593557677
 20
40.3631267419
 30
0.0
 10
209.0377562121
 20
40.6175597317
 30
0.0
 10
209.0377562121
 20
40.7313966427
 30
0.0
  0
SPLINE
  5
34C
100
AcDbEntity
  8
0
100
AcDbSpline
 62
7
  6
CONTINUOUS
 70
0
 71
3
 72
10
 73
6
 74
0
 42
0.0000001
 43
0.0000001
 44
0.0000000001
 40
0.0
 40
0.0
 40
0.0
 40
0.0
 40
0.2019734172
 40
0.5532178307
 40
1.0
 40
1.0
 40
1.0
 40
1.0
 10
209.0377562121
 20
334.3313966426
 30
0.0
 10
209.0377562121
 20
334.4058280231
 30
0.0
 10
208.9979833596
 20
334.6108219281
 30
0.0
 10
208.7844396884
 20
334.9225398756
 30
0.0
 10
208.5586062903
 20
335.1131354854
 30
0.0
 10
208.4265336888
 20
335.2114510274
 30
0.0
  0
SPLINE
  5
34D
100
AcDbEntity
  8
0
100
AcDbSpline
 62
7
  6
CONTINUOUS
 70
0
 71
3
 72
9
 73
5
 74
0
 42
0.0000001
 43
0.0000001
 44
0.0000000001
 40
0.0
 40
0.0
 40
0.0
 40
0.0
 40
0.2238720851
 40
1.0
 40
1.0
 40
1.0
 40
1.0
 10
208.4265336888
 20
335.2114510274
 30
0.0
 10
208.360168846
 20
335.2608533668
 30
0.0
 10
208.0559596749
 20
335.4711043379
 30
0.0
 10
207.7307121414
 20
335.6489176442
 30
0.0
 10
207.4751329253
 20
335.7791006419
 30
0.0
  0
SPLINE
  5
34E
100
AcDbEntity
  8
0
100
AcDbSpline
 62
7
  6
CONTINUOUS
 70
0
 71
3
 72
9
 73
5
 74
0
 42
0.0000001
 43
0.0000001
 44
0.0000000001
 40
0.0
 40
0.0
 40
0.0
 40
0.0
 40
0.2366443733
 40
1.0
 40
1.0
 40
1.0
 40
1.0
 10
207.4751329253
 20
335.7791006419
 30
0.0
 10
207.3484648145
 20
335.8436208898
 30
0.0
 10
206.8086631698
 20
336.1073921703
 30
0.0
 10
206.2578350984
 20
336.3475381562
 30
0.0
 10
205.8377562121
 20
336.5313966422
 30
0.0
  0
LINE
  5
34F
100
AcDbEntity
  8
0
100
AcDbLine
 62
7
  6
CONTINUOUS
 10
211.0377432298
 20
317.3334058069
 11
210.9131598436
 21
317.4375278697
  0
SPLINE
  5
350
100
AcDbEntity
  8
0
100
AcDbSpline
 62
7
  6
CONTINUOUS
 70
0
 71
3
 72
9
 73
5
 74
0
 42
0.0000001
 43
0.0000001
 44
0.0000000001
 40
0.0
 40
0.0
 40
0.0
 40
0.0
 40
0.2596861376
 40
1.0
 40
1.0
 40
1.0
 40
1.0
 10
210.9131598436
 20
317.4375278697
 30
0.0
 10
210.8186227288
 20
317.5166435243
 30
0.0
 10
210.4554710706
 20
317.8221466853
 30
0.0
 10
210.0992898641
 20
318.1376196728
 30
0.0
 10
209.8551469028
 20
318.390399673
 30
0.0
  0
SPLINE
  5
351
100
AcDbEntity
  8
0
100
AcDbSpline
 62
7
  6
CONTINUOUS
 70
0
 71
3
 72
9
 73
5
 74
0
 42
0.0000001
 43
0.0000001
 44
0.0000000001
 40
0.0
 40
0.0
 40
0.0
 40
0.0
 40
0.5485384179
 40
1.0
 40
1.0
 40
1.0
 40
1.0
 10
209.8551469028
 20
318.390399673
 30
0.0
 10
209.6264261658
 20
318.6272118573
 30
0.0
 10
209.2316963374
 20
319.0874338401
 30
0.0
 10
209.0377562121
 20
319.686624688
 30
0.0
 10
209.0377562121
 20
319.9575906508
 30
0.0
  0
SPLINE
  5
352
100
AcDbEntity
  8
0
100
AcDbSpline
 62
7
  6
CONTINUOUS
 70
0
 71
3
 72
9
 73
5
 74
0
 42
0.0000001
 43
0.0000001
 44
0.0000000001
 40
0.0
 40
0.0
 40
0.0
 40
0.0
 40
0.2536476482
 40
1.0
 40
1.0
 40
1.0
 40
1.0
 10
34.2377562121
 20
336.5313966427
 30
0.0
 10
34.1721944765
 20
336.5086305169
 30
0.0
 10
33.9137280707
 20
336.4188598883
 30
0.0
 10
33.6556346616
 20
336.3279303386
 30
0.0
 10
33.4641684297
 20
336.2569095535
 30
0.0
  0
SPLINE
  5
353
100
AcDbEntity
  8
0
100
AcDbSpline
 62
7
  6
CONTINUOUS
 70
0
 71
3
 72
9
 73
5
 74
0
 42
0.0000001
 43
0.0000001
 44
0.0000000001
 40
0.0
 40
0.0
 40
0.0
 40
0.0
 40
0.2677931156
 40
1.0
 40
1.0
 40
1.0
 40
1.0
 10
33.4641684297
 20
336.2569095535
 30
0.0
 10
33.4007500996
 20
336.2333857209
 30
0.0
 10
33.1644899957
 20
336.1441285023
 30
0.0
 10
32.9304174634
 20
336.0484599935
 30
0.0
 10
32.7628976323
 20
335.9700911483
 30
0.0
  0
SPLINE
  5
354
100
AcDbEntity
  8
0
100
AcDbSpline
 62
7
  6
CONTINUOUS
 70
0
 71
3
 72
10
 73
6
 74
0
 42
0.0000001
 43
0.0000001
 44
0.0000000001
 40
0.0
 40
0.0
 40
0.0
 40
0.0
 40
0.346786814
 40
0.6272508575
 40
1.0
 40
1.0
 40
1.0
 40
1.0
 10
32.7628976323
 20
335.9700911483
 30
0.0
 10
32.6585854457
 20
335.9212919969
 30
0.0
 10
32.4711623438
 20
335.8249759677
 30
0.0
 10
32.1990909264
 20
335.6491331802
 30
0.0
 10
32.0377562121
 20
335.4551807717
 30
0.0
 10
32.0377562121
 20
335.3313966426
 30
0.0
  0
SPLINE
  5
355
100
AcDbEntity
  8
0
100
AcDbSpline
 62
7
  6
CONTINUOUS
 70
0
 71
3
 72
10
 73
6
 74
0
 42
0.0000001
 43
0.0000001
 44
0.0000000001
 40
0.0
 40
0.0
 40
0.0
 40
0.0
 40
0.3727548981
 40
0.6532162464
 40
1.0
 40
1.0
 40
1.0
 40
1.0
 10
32.0377562121
 20
39.7313966427
 30
0.0
 10
32.0377562121
 20
39.6076241476
 30
0.0
 10
32.1990624876
 20
39.4136867084
 30
0.0
 10
32.471100105
 20
39.237853879
 30
0.0
 10
32.6584983084
 20
39.1415447954
 30
0.0
 10
32.7627971249
 20
39.092749202
 30
0.0
  0
SPLINE
  5
356
100
AcDbEntity
  8
0
100
AcDbSpline
 62
7
  6
CONTINUOUS
 70
0
 71
3
 72
9
 73
5
 74
0
 42
0.0000001
 43
0.0000001
 44
0.0000000001
 40
0.0
 40
0.0
 40
0.0
 40
0.0
 40
0.2306002888
 40
1.0
 40
1.0
 40
1.0
 40
1.0
 10
32.7627971249
 20
39.092749202
 30
0.0
 10
32.8155601502
 20
39.0680643282
 30
0.0
 10
33.0461777698
 20
38.964881523
 30
0.0
 10
33.2818753284
 20
38.8735027159
 30
0.0
 10
33.4641005706
 20
38.805908917
 30
0.0
  0
SPLINE
  5
357
100
AcDbEntity
  8
0
100
AcDbSpline
 62
7
  6
CONTINUOUS
 70
0
 71
3
 72
9
 73
5
 74
0
 42
0.0000001
 43
0.0000001
 44
0.0000000001
 40
0.0
 40
0.0
 40
0.0
 40
0.0
 40
0.244227079
 40
1.0
 40
1.0
 40
1.0
 40
1.0
 10
33.4641005706
 20
38.805908917
 30
0.0
 10
33.5267594728
 20
38.7826665101
 30
0.0
 10
33.7838567506
 20
38.6889447143
 30
0.0
 10
34.0423887565
 20
38.5992374345
 30
0.0
 10
34.2377562121
 20
38.5313966426
 30
0.0
  0
ENDSEC
  0
SECTION
  2
OBJECTS
  0
DICTIONARY
  5
C
100
AcDbDictionary
280
0
281
1
  3
ACAD_GROUP
350
D
  3
ACAD_MLINESTYLE
350
17
  3
ACAD_LAYOUT
350
1A
  3
ACAD_PLOTSETTINGS
350
19
  3
ACAD_PLOTSTYLENAME
350
E
  0
DICTIONARY
  5
D
102
{ACAD_REACTORS
330
C
102
}
100
AcDbDictionary
280
0
281
1
  0
ACDBDICTIONARYWDFLT
  5
E
102
{ACAD_REACTORS
330
C
102
}
100
AcDbDictionary
281
1
  3
Normal
350
F
100
AcDbDictionaryWithDefault
340
F
  0
DICTIONARY
  5
17
102
{ACAD_REACTORS
330
C
102
}
100
AcDbDictionary
280
0
281
1
  3
Standard
350
18
  0
DICTIONARY
  5
19
102
{ACAD_REACTORS
330
C
102
}
100
AcDbDictionary
281
1
  0
DICTIONARY
  5
1A
102
{ACAD_REACTORS
330
C
102
}
100
AcDbDictionary
281
1
  3
Model
350
358
  3
Layout1
350
359
  0
ACDBPLACEHOLDER
  5
F
102
{ACAD_REACTORS
330
E
102
}
  0
MLINESTYLE
  5
18
102
{ACAD_REACTORS
330
17
102
}
100
AcDbMlineStyle
  2
STANDARD
 70
0
  3

 62
256
 51
90.0
 52
90.0
 71
2
 49
0.5
 62
256
  6
BYLAYER
 49
-0.5
 62
256
  6
BYLAYER
  0
LAYOUT
  5
358
102
{ACAD_REACTORS
330
1A
102
}
100
AcDbPlotSettings
  1

  2
none_device
  4

  6

 40
0.0
 41
0.0
 42
0.0
 43
0.0
 44
210.0
 45
297.0
 46
0.0
 47
0.0
 48
0.0
 49
0.0
140
0.0
141
0.0
142
1.0
143
1.0
 70
1024
 72
1
 73
0
 74
0
  7

 75
0
147
1.0
148
0.0
149
0.0
100
AcDbLayout
  1
Model
 70
0
 71
0
 10
0.0
 20
0.0
 11
210.0
 21
297.0
 12
0.0
 22
0.0
 32
0.0
 14
0.0
 24
0.0
 34
0.0
 15
0.0
 25
0.0
 35
0.0
146
0.0
 13
0.0
 23
0.0
 33
0.0
 16
1.0
 26
0.0
 36
0.0
 17
0.0
 27
1.0
 37
0.0
 76
0
330
210
345
0
346
0
  0
LAYOUT
  5
359
102
{ACAD_REACTORS
330
1A
102
}
100
AcDbPlotSettings
  1

  2
none_device
  4

  6

 40
0.0
 41
0.0
 42
0.0
 43
0.0
 44
210.0
 45
297.0
 46
0.0
 47
0.0
 48
0.0
 49
0.0
140
0.0
141
0.0
142
1.0
143
1.0
 70
0
 72
1
 73
0
 74
0
  7

 75
0
147
1.0
148
0.0
149
0.0
100
AcDbLayout
  1
Layout1
 70
0
 71
1
 10
0.0
 20
0.0
 11
210.0
 21
297.0
 12
0.0
 22
0.0
 32
0.0
 14
0.0
 24
0.0
 34
0.0
 15
0.0
 25
0.0
 35
0.0
146
0.0
 13
0.0
 23
0.0
 33
0.0
 16
1.0
 26
0.0
 36
0.0
 17
0.0
 27
1.0
 37
0.0
 76
0
330
211
345
0
346
0
  0
ENDSEC
  0
EOF
