999
DXF file: C:\Users\sesa63760\Dev\_Creo\CAD\MCADPD0005315_3D-CAD\drw0001_1.dxf
999
Pro/ENGINEER 2019471 by Parametric Technology Corporation
  0
SECTION
  2
HEADER
  9
$ACADVER
  1
AC1024
  9
$DWGCODEPAGE
  3
ANSI_1252
  9
$EXTMAX
 10
308.9475121024
 20
436.9400528305
 30
0.0
  9
$EXTMIN
 10
0.0
 20
0.0
 30
0.0
  9
$LIMMIN
 10
0.0
 20
0.0
  9
$LIMMAX
 10
308.9475121024
 20
436.9400528305
  9
$VIEWCTR
 10
154.4737560512
 20
218.4700264152
  9
$VIEWSIZE
 40
436.9400528305
  9
$CLAYER
  8
0
  9
$LTSCALE
 40
28.4820182586
  9
$CELTYPE
  6
BYLAYER
  9
$DIMSCALE
 40
1.0
  9
$DIMASZ
 40
3.6779465726
  9
$DIMEXO
 40
1.0
  9
$DIMDLI
 40
19.6784853423
  9
$DIMEXE
 40
1.0
  9
$DIMCEN
 40
4.6606938969
  9
$DIMLFAC
 40
1.0
  9
$DIMBLK
  1
_FILLED
  9
$DIMALT
 70
0
  9
$DIMALTF
 40
0.0393700787
  9
$DIMTXT
 40
5.1491252017
  9
$DIMTOL
 70
1
  9
$DIMLIM
 70
0
  9
$DIMTFAC
 40
1.0
  9
$DIMTP
 40
0.01
  9
$DIMTM
 40
0.01
  9
$DIMGAP
 40
0.625
  9
$DIMDSEP
 70
46
  9
$AUNITS
 70
0
  9
$PDMODE
 70
3
  9
$PDSIZE
 40
0.3125
  9
$HANDSEED
  5
3CB
  9
$TILEMODE
 70
1
  9
$MEASUREMENT
 70
1
  9
$INSUNITS
 70
4
  0
ENDSEC
  0
SECTION
  2
CLASSES
  0
CLASS
  1
ACDBDICTIONARYWDFLT
  2
AcDbDictionaryWithDefault
  3
AutoCAD 2000
 90
0
 91
1
280
0
281
0
  0
CLASS
  1
ACDBPLACEHOLDER
  2
AcDbPlaceHolder
  3
AutoCAD 2000
 90
0
 91
1
280
0
281
0
  0
CLASS
  1
LAYOUT
  2
AcDbLayout
  3
AutoCAD 2000
 90
0
 91
0
280
0
281
0
  0
ENDSEC
  0
SECTION
  2
TABLES
  0
TABLE
  2
VPORT
  5
8
100
AcDbSymbolTable
 70
2
  0
VPORT
  5
1F4
100
AcDbSymbolTableRecord
100
AcDbViewportTableRecord
  2
*ACTIVE
 70
0
 10
0.0
 20
0.0
 11
1.0
 21
1.0
 12
154.4737560512
 22
218.4700264152
 13
0.0
 23
0.0
 14
1.0
 24
1.0
 15
0.0
 25
0.0
 16
0.0
 26
0.0
 36
1.0
 17
0.0
 27
0.0
 37
0.0
 40
436.9400528305
 41
0.7070707071
 42
50.0
 43
0.0
 44
0.0
 50
0.0
 51
0.0
 71
0
 72
100
 73
1
 74
1
 75
0
 76
0
 77
0
 78
0
  0
ENDTAB
  0
TABLE
  2
LTYPE
  5
5
100
AcDbSymbolTable
 70
6
  0
LTYPE
  5
14
100
AcDbSymbolTableRecord
100
AcDbLinetypeTableRecord
  2
BYBLOCK
 70
0
  3

 72
65
 73
0
 40
0.0
  0
LTYPE
  5
15
100
AcDbSymbolTableRecord
100
AcDbLinetypeTableRecord
  2
BYLAYER
 70
0
  3

 72
65
 73
0
 40
0.0
  0
LTYPE
  5
16
100
AcDbSymbolTableRecord
100
AcDbLinetypeTableRecord
  2
CONTINUOUS
 70
64
  3
Solid line
 72
65
 73
0
 40
0.0
  0
LTYPE
  5
1F5
100
AcDbSymbolTableRecord
100
AcDbLinetypeTableRecord
  2
CENTER
 70
64
  3
____ _ ____ _ ____ _ ____ _ ____ _ ____ _ ____
 72
65
 73
4
 40
0.6
 49
0.375
 74
0
 49
-0.075
 74
0
 49
0.075
 74
0
 49
-0.075
 74
0
  0
LTYPE
  5
1F6
100
AcDbSymbolTableRecord
100
AcDbLinetypeTableRecord
  2
HIDDEN
 70
64
  3
- - - - - - - - - - - - - - - - - - - -
 72
65
 73
2
 40
0.2
 49
0.1
 74
0
 49
-0.1
 74
0
  0
LTYPE
  5
1F7
100
AcDbSymbolTableRecord
100
AcDbLinetypeTableRecord
  2
PHANTOM
 70
64
  3
_____ _ _ _____ _ _ _____ _ _ _____
 72
65
 73
6
 40
0.8
 49
0.45
 74
0
 49
-0.05
 74
0
 49
0.1
 74
0
 49
-0.05
 74
0
 49
0.1
 74
0
 49
-0.05
 74
0
  0
LTYPE
  5
1F8
100
AcDbSymbolTableRecord
100
AcDbLinetypeTableRecord
  2
DOT
 70
64
  3
. . . . . . . . . . . . . . . . . . . .
 72
65
 73
2
 40
0.2
 49
0.1
 74
0
 49
-0.1
 74
0
  0
LTYPE
  5
1F9
100
AcDbSymbolTableRecord
100
AcDbLinetypeTableRecord
  2
DASHED
 70
64
  3
- - - - - - - - - - - - - - - - - - - -
 72
65
 73
2
 40
0.2
 49
0.1
 74
0
 49
-0.1
 74
0
  0
ENDTAB
  0
TABLE
  2
LAYER
  5
2
100
AcDbSymbolTable
 70
36
  0
LAYER
  5
10
100
AcDbSymbolTableRecord
100
AcDbLayerTableRecord
  2
0
 70
0
 62
7
  6
CONTINUOUS
370
-3
390
F
  0
LAYER
  5
1FA
100
AcDbSymbolTableRecord
100
AcDbLayerTableRecord
  2
DEFAULT_1
 70
0
 62
7
  6
CENTER
370
-3
390
F
  0
LAYER
  5
1FB
100
AcDbSymbolTableRecord
100
AcDbLayerTableRecord
  2
DEFAULT_2
 70
0
 62
7
  6
HIDDEN
370
-3
390
F
  0
LAYER
  5
1FC
100
AcDbSymbolTableRecord
100
AcDbLayerTableRecord
  2
DEFAULT_3
 70
0
 62
7
  6
PHANTOM
370
-3
390
F
  0
LAYER
  5
1FD
100
AcDbSymbolTableRecord
100
AcDbLayerTableRecord
  2
00_COMPONENTS
 70
0
 62
7
  6
CONTINUOUS
370
-3
390
F
  0
LAYER
  5
1FE
100
AcDbSymbolTableRecord
100
AcDbLayerTableRecord
  2
01_1_DEFAULT_DATUMS
 70
0
 62
7
  6
CONTINUOUS
370
-3
390
F
  0
LAYER
  5
1FF
100
AcDbSymbolTableRecord
100
AcDbLayerTableRecord
  2
01_PLANES
 70
0
 62
7
  6
CONTINUOUS
370
-3
390
F
  0
LAYER
  5
200
100
AcDbSymbolTableRecord
100
AcDbLayerTableRecord
  2
02_COORD_SYS
 70
0
 62
7
  6
CONTINUOUS
370
-3
390
F
  0
LAYER
  5
201
100
AcDbSymbolTableRecord
100
AcDbLayerTableRecord
  2
03_AXES
 70
0
 62
7
  6
CONTINUOUS
370
-3
390
F
  0
LAYER
  5
202
100
AcDbSymbolTableRecord
100
AcDbLayerTableRecord
  2
04_POINTS
 70
0
 62
7
  6
CONTINUOUS
370
-3
390
F
  0
LAYER
  5
203
100
AcDbSymbolTableRecord
100
AcDbLayerTableRecord
  2
05_CURVES
 70
0
 62
7
  6
CONTINUOUS
370
-3
390
F
  0
LAYER
  5
204
100
AcDbSymbolTableRecord
100
AcDbLayerTableRecord
  2
06_SURFS
 70
0
 62
7
  6
CONTINUOUS
370
-3
390
F
  0
LAYER
  5
205
100
AcDbSymbolTableRecord
100
AcDbLayerTableRecord
  2
07_COSMETICS
 70
0
 62
7
  6
CONTINUOUS
370
-3
390
F
  0
LAYER
  5
206
100
AcDbSymbolTableRecord
100
AcDbLayerTableRecord
  2
10_NOTES
 70
0
 62
7
  6
CONTINUOUS
370
-3
390
F
  0
LAYER
  5
207
100
AcDbSymbolTableRecord
100
AcDbLayerTableRecord
  2
11_NOTES_PUB
 70
0
 62
7
  6
CONTINUOUS
370
-3
390
F
  0
LAYER
  5
208
100
AcDbSymbolTableRecord
100
AcDbLayerTableRecord
  2
13_REF_GTOL
 70
0
 62
7
  6
CONTINUOUS
370
-3
390
F
  0
LAYER
  5
209
100
AcDbSymbolTableRecord
100
AcDbLayerTableRecord
  2
16_MISC
 70
0
 62
7
  6
CONTINUOUS
370
-3
390
F
  0
LAYER
  5
20A
100
AcDbSymbolTableRecord
100
AcDbLayerTableRecord
  2
17_NO_PRINT
 70
0
 62
7
  6
CONTINUOUS
370
-3
390
F
  0
LAYER
  5
20B
100
AcDbSymbolTableRecord
100
AcDbLayerTableRecord
  2
18_DATUM_CAMS_JOINTS
 70
0
 62
7
  6
CONTINUOUS
370
-3
390
F
  0
LAYER
  5
20C
100
AcDbSymbolTableRecord
100
AcDbLayerTableRecord
  2
19_DATUM_FUNCTIONAL
 70
0
 62
7
  6
CONTINUOUS
370
-3
390
F
  0
LAYER
  5
20D
100
AcDbSymbolTableRecord
100
AcDbLayerTableRecord
  2
20_DATUM_KINEMATIC_SCHEME
 70
0
 62
7
  6
CONTINUOUS
370
-3
390
F
  0
ENDTAB
  0
TABLE
  2
STYLE
  5
3
100
AcDbSymbolTable
 70
1
  0
STYLE
  5
11
100
AcDbSymbolTableRecord
100
AcDbTextStyleTableRecord
  2
STANDARD
 70
0
 40
0.0
 41
1.0
 50
0.0
 71
0
 42
0.2
  3
ARIAL.TTF
  4

  0
STYLE
  5
20E
100
AcDbSymbolTableRecord
100
AcDbTextStyleTableRecord
  2
TEXTSTYLE_1
 70
0
 40
0.0
 41
0.8
 50
0.0
 71
0
 42
0.2
  3
gdt
  4

  0
ENDTAB
  0
TABLE
  2
VIEW
  5
6
100
AcDbSymbolTable
 70
0
  0
ENDTAB
  0
TABLE
  2
UCS
  5
7
100
AcDbSymbolTable
 70
0
  0
ENDTAB
  0
TABLE
  2
APPID
  5
9
100
AcDbSymbolTable
 70
1
  0
APPID
  5
20F
100
AcDbSymbolTableRecord
100
AcDbRegAppTableRecord
  2
ACAD
 70
0
  0
ENDTAB
  0
TABLE
  2
BLOCK_RECORD
  5
1
100
AcDbSymbolTable
 70
0
  0
BLOCK_RECORD
  5
210
100
AcDbSymbolTableRecord
100
AcDbBlockTableRecord
  2
*Model_Space
  0
BLOCK_RECORD
  5
211
100
AcDbSymbolTableRecord
100
AcDbBlockTableRecord
  2
*Paper_Space
  0
BLOCK_RECORD
  5
212
100
AcDbSymbolTableRecord
100
AcDbBlockTableRecord
  2
_FILLED
  0
ENDTAB
  0
TABLE
  2
DIMSTYLE
  5
A
100
AcDbSymbolTable
 70
1
100
AcDbDimStyleTable
 71
0
  0
DIMSTYLE
105
213
100
AcDbSymbolTableRecord
100
AcDbDimStyleTableRecord
  2
STANDARD
 70
0
  3

  4

 40
1.0
 41
3.6779465726
 42
1.0
 43
0.38
 44
1.0
 45
0.0
 46
0.0
 47
0.01
 48
0.01
140
5.1491252017
141
0.09
142
0.0
143
25.4
144
1.0
145
0.0
146
1.0
147
0.625
 71
1
 72
0
 73
0
 74
0
 75
0
 76
0
 77
1
 78
8
 79
2
170
0
171
1
172
0
173
0
174
0
175
0
176
0
177
0
178
0
270
2
179
2
271
2
272
2
273
2
274
2
275
0
280
0
281
0
282
0
283
1
284
8
285
0
286
0
287
3
288
0
340
11
278
46
341
212
342
212
343
212
344
212
  0
ENDTAB
  0
ENDSEC
  0
SECTION
  2
BLOCKS
  0
BLOCK
  5
20
100
AcDbEntity
  8
0
100
AcDbBlockBegin
  2
*Model_Space
 70
0
 10
0.0
 20
0.0
 30
0.0
  3
*Model_Space
  1

  0
ENDBLK
  5
21
100
AcDbEntity
  8
0
100
AcDbBlockEnd
  0
BLOCK
  5
1C
100
AcDbEntity
  8
0
100
AcDbBlockBegin
  2
*Paper_Space
 70
0
 10
0.0
 20
0.0
 30
0.0
  3
*Paper_Space
  1

  0
ENDBLK
  5
1D
100
AcDbEntity
  8
0
100
AcDbBlockEnd
  0
BLOCK
  5
214
100
AcDbEntity
  8
0
100
AcDbBlockBegin
  2
_FILLED
 70
64
 10
0.0
 20
0.0
  3
_FILLED
  1

  0
SOLID
  5
215
100
AcDbEntity
  8
0
  6
BYBLOCK
 62
0
100
AcDbTrace
 10
0.0
 20
0.0
 11
-1.0
 21
0.25
 12
-1.0
 22
-0.25
 13
-1.0
 23
-0.25
  0
ENDBLK
  5
216
100
AcDbEntity
  8
0
  6
BYBLOCK
 62
0
100
AcDbBlockEnd
  0
ENDSEC
  0
SECTION
  2
ENTITIES
  0
LINE
  5
217
100
AcDbEntity
  8
0
100
AcDbLine
 62
7
  6
BYLAYER
 10
35.8404957964
 20
245.2003398623
 11
35.8404957964
 21
231.337810166
  0
LINE
  5
218
100
AcDbEntity
  8
0
100
AcDbLine
 62
7
  6
BYLAYER
 10
39.0807396626
 20
226.5359423243
 11
39.0807396626
 21
179.0000071996
  0
LINE
  5
219
100
AcDbEntity
  8
0
100
AcDbLine
 62
7
  6
BYLAYER
 10
42.0389909068
 20
224.7651016563
 11
42.0389909068
 21
174.8767412455
  0
LINE
  5
21A
100
AcDbEntity
  8
0
100
AcDbLine
 62
7
  6
BYLAYER
 10
42.1211913872
 20
247.2187855359
 11
42.1211913872
 21
248.1789208608
  0
LINE
  5
21B
100
AcDbEntity
  8
0
100
AcDbLine
 62
7
  6
BYLAYER
 10
39.5075557545
 20
226.2265933595
 11
39.5099273599
 21
240.0366414878
  0
LINE
  5
21C
100
AcDbEntity
  8
0
100
AcDbLine
 62
7
  6
BYLAYER
 10
42.1211913891
 20
248.8939610685
 11
42.1215041878
 21
248.8667172381
  0
LINE
  5
21D
100
AcDbEntity
  8
0
100
AcDbLine
 62
7
  6
BYLAYER
 10
49.6211581451
 20
253.4136788779
 11
49.6212246293
 21
244.1835894594
  0
LINE
  5
21E
100
AcDbEntity
  8
0
100
AcDbLine
 62
7
  6
BYLAYER
 10
50.6211581451
 20
253.5955452848
 11
50.6212246292
 21
244.3065097261
  0
LINE
  5
21F
100
AcDbEntity
  8
0
100
AcDbLine
 62
7
  6
BYLAYER
 10
58.1211913872
 20
248.9395165488
 11
58.1211913872
 21
249.6682927873
  0
LINE
  5
220
100
AcDbEntity
  8
0
100
AcDbLine
 62
7
  6
BYLAYER
 10
58.3711053847
 20
249.6551142603
 11
58.371134976
 21
249.6682926386
  0
LINE
  5
221
100
AcDbEntity
  8
0
100
AcDbLine
 62
7
  6
BYLAYER
 10
58.3701582428
 20
249.6551157254
 11
58.3708547589
 21
249.6682926246
  0
LINE
  5
222
100
AcDbEntity
  8
0
100
AcDbLine
 62
7
  6
BYLAYER
 10
139.478711032
 20
118.6211652726
 11
42.0389909068
 21
174.8767412455
  0
LINE
  5
223
100
AcDbEntity
  8
0
100
AcDbLine
 62
7
  6
BYLAYER
 10
39.5101696112
 20
250.261986492
 11
158.2699420742
 21
318.827555152
  0
LINE
  5
224
100
AcDbEntity
  8
0
100
AcDbLine
 62
7
  6
BYLAYER
 10
139.037639661
 20
298.8297779215
 11
139.0386500733
 21
298.8305925374
  0
LINE
  5
225
100
AcDbEntity
  8
0
100
AcDbLine
 62
7
  6
BYLAYER
 10
166.554949438
 20
317.6662636969
 11
160.766664062
 21
314.324415525
  0
LINE
  5
226
100
AcDbEntity
  8
0
100
AcDbLine
 62
7
  6
BYLAYER
 10
160.5886680453
 20
314.2216500903
 11
55.2445797035
 21
253.4015753755
  0
LINE
  5
227
100
AcDbEntity
  8
0
100
AcDbLine
 62
7
  6
BYLAYER
 10
55.0665836868
 20
253.2988099408
 11
50.6211837145
 21
250.7322723903
  0
LINE
  5
228
100
AcDbEntity
  8
0
100
AcDbLine
 62
7
  6
BYLAYER
 10
49.6211878779
 20
250.1549279711
 11
48.7075900088
 21
249.627465144
  0
LINE
  5
229
100
AcDbEntity
  8
0
100
AcDbLine
 62
7
  6
BYLAYER
 10
147.7259454858
 20
298.9278870178
 11
145.2246844742
 21
297.4837919195
  0
LINE
  5
22A
100
AcDbEntity
  8
0
100
AcDbLine
 62
7
  6
BYLAYER
 10
149.1298824212
 20
299.0852549008
 11
148.2463110926
 21
298.5751278014
  0
LINE
  5
22B
100
AcDbEntity
  8
0
100
AcDbLine
 62
7
  6
BYLAYER
 10
145.8421580461
 20
297.1870976783
 11
144.9585867175
 21
296.6769705789
  0
LINE
  5
22C
100
AcDbEntity
  8
0
100
AcDbLine
 62
7
  6
BYLAYER
 10
145.2414306075
 20
296.5136742771
 11
145.9835811687
 21
296.9421525457
  0
LINE
  5
22D
100
AcDbEntity
  8
0
100
AcDbLine
 62
7
  6
BYLAYER
 10
148.6705757501
 20
298.4934803304
 11
149.4127263113
 21
298.921958599
  0
LWPOLYLINE
  5
22E
100
AcDbEntity
  8
0
100
AcDbPolyline
 62
7
  6
BYLAYER
 90
3
 70
0
 10
139.0387341261
 20
298.8306319596
 10
138.5868565955
 20
298.3563052538
 10
138.1484745607
 20
297.1351050996
  0
LINE
  5
22F
100
AcDbEntity
  8
0
100
AcDbLine
 62
7
  6
BYLAYER
 10
143.1897495967
 20
293.6144820442
 11
143.5535512877
 21
293.8245217946
  0
LINE
  5
230
100
AcDbEntity
  8
0
100
AcDbLine
 62
7
  6
BYLAYER
 10
147.7259454858
 20
298.9278870178
 11
147.8719043975
 21
299.1320070741
  0
LINE
  5
231
100
AcDbEntity
  8
0
100
AcDbLine
 62
7
  6
BYLAYER
 10
135.0482342169
 20
270.9623332092
 11
117.1286282719
 21
260.6165056494
  0
LINE
  5
232
100
AcDbEntity
  8
0
100
AcDbLine
 62
7
  6
BYLAYER
 10
134.9540031673
 20
270.569732814
 11
117.6286260334
 21
260.5669813703
  0
LINE
  5
233
100
AcDbEntity
  8
0
100
AcDbLine
 62
7
  6
BYLAYER
 10
137.7675231609
 20
169.4974581114
 11
39.5075557545
 21
226.2265933595
  0
LINE
  5
234
100
AcDbEntity
  8
0
100
AcDbLine
 62
7
  6
BYLAYER
 10
115.8964003463
 20
258.7298770669
 11
115.8964003463
 21
255.5471506449
  0
LINE
  5
235
100
AcDbEntity
  8
0
100
AcDbLine
 62
7
  6
BYLAYER
 10
116.9215369161
 20
254.1182961064
 11
116.921536924
 21
257.3010225238
  0
LINE
  5
236
100
AcDbEntity
  8
0
100
AcDbLine
 62
7
  6
BYLAYER
 10
137.7652902098
 20
183.3100990977
 11
39.5099273599
 21
240.0366414878
  0
LINE
  5
237
100
AcDbEntity
  8
0
100
AcDbLine
 62
7
  6
BYLAYER
 10
134.3730597489
 20
259.5464695668
 11
134.3730597489
 21
266.6041205911
  0
LINE
  5
238
100
AcDbEntity
  8
0
100
AcDbLine
 62
7
  6
BYLAYER
 10
138.1451486322
 20
297.0555816784
 11
137.8273164621
 21
283.8962916253
  0
LINE
  5
239
100
AcDbEntity
  8
0
100
AcDbLine
 62
7
  6
BYLAYER
 10
138.4134817463
 20
283.0893891214
 11
138.7316329536
 21
296.2576217497
  0
LINE
  5
23A
100
AcDbEntity
  8
0
100
AcDbLine
 62
7
  6
BYLAYER
 10
138.148292093
 20
297.1319596941
 11
138.1452348217
 21
297.0556391584
  0
LINE
  5
23B
100
AcDbEntity
  8
0
100
AcDbLine
 62
7
  6
BYLAYER
 10
138.1484756218
 20
297.1351226626
 11
138.148292093
 21
297.1319596941
  0
LWPOLYLINE
  5
23C
100
AcDbEntity
  8
0
100
AcDbPolyline
 62
7
  6
BYLAYER
 90
5
 70
0
 10
137.8273820871
 20
283.8954638818
 10
137.2572406489
 20
279.5954120256
 10
135.8742708514
 20
274.4038984937
 10
134.5565035218
 20
268.9136065318
 10
134.3731954172
 20
266.6093656249
  0
LINE
  5
23D
100
AcDbEntity
  8
0
100
AcDbLine
 62
7
  6
BYLAYER
 10
48.7075900088
 20
249.627465144
 11
49.6211954853
 21
249.1000067089
  0
LINE
  5
23E
100
AcDbEntity
  8
0
100
AcDbLine
 62
7
  6
BYLAYER
 10
50.6211996487
 20
248.5226670972
 11
54.9870206556
 21
246.0021161861
  0
LINE
  5
23F
100
AcDbEntity
  8
0
100
AcDbLine
 62
7
  6
BYLAYER
 10
55.165292098
 20
245.8991934492
 11
140.1627596686
 21
196.8269928285
  0
LINE
  5
240
100
AcDbEntity
  8
0
100
AcDbLine
 62
7
  6
BYLAYER
 10
140.341031111
 20
196.7240700916
 11
146.1911706486
 21
193.3465668641
  0
LINE
  5
241
100
AcDbEntity
  8
0
100
AcDbLine
 62
7
  6
BYLAYER
 10
152.2290157675
 20
188.7550968764
 11
152.2058115425
 21
188.7879275557
  0
LINE
  5
242
100
AcDbEntity
  8
0
100
AcDbLine
 62
7
  6
BYLAYER
 10
152.2287530327
 20
188.7545380649
 11
152.2057926932
 21
188.7879205519
  0
LINE
  5
243
100
AcDbEntity
  8
0
100
AcDbLine
 62
7
  6
BYLAYER
 10
137.7675231609
 20
169.4974581114
 11
137.7652902098
 21
183.3100990977
  0
LINE
  5
244
100
AcDbEntity
  8
0
100
AcDbLine
 62
7
  6
BYLAYER
 10
138.6911665505
 20
192.0046367775
 11
138.6911665505
 21
193.1667945534
  0
LINE
  5
245
100
AcDbEntity
  8
0
100
AcDbLine
 62
7
  6
BYLAYER
 10
139.478711032
 20
118.6211652726
 11
139.478711032
 21
168.7105052502
  0
LINE
  5
246
100
AcDbEntity
  8
0
100
AcDbLine
 62
7
  6
BYLAYER
 10
143.9143714018
 20
300.0481363576
 11
143.9143714018
 21
299.639885149
  0
LINE
  5
247
100
AcDbEntity
  8
0
100
AcDbLine
 62
7
  6
BYLAYER
 10
145.8421580461
 20
296.8605023552
 11
145.8421580461
 21
297.1870976783
  0
LINE
  5
248
100
AcDbEntity
  8
0
100
AcDbLine
 62
7
  6
BYLAYER
 10
146.1911333084
 20
198.5245580685
 11
146.1911997926
 21
187.6922333543
  0
LINE
  5
249
100
AcDbEntity
  8
0
100
AcDbLine
 62
7
  6
BYLAYER
 10
147.1911997926
 20
187.7255600181
 11
147.1911333084
 21
198.5245604722
  0
LINE
  5
24A
100
AcDbEntity
  8
0
100
AcDbLine
 62
7
  6
BYLAYER
 10
147.5193930027
 20
298.9996690776
 11
147.5193930027
 21
299.4079202862
  0
LINE
  5
24B
100
AcDbEntity
  8
0
100
AcDbLine
 62
7
  6
BYLAYER
 10
143.1897495967
 20
293.6144820442
 11
143.1919039958
 21
293.6869646882
  0
LINE
  5
24C
100
AcDbEntity
  8
0
100
AcDbLine
 62
7
  6
BYLAYER
 10
143.4725934867
 20
293.4511857424
 11
143.4747478859
 21
293.5236683864
  0
LINE
  5
24D
100
AcDbEntity
  8
0
100
AcDbLine
 62
7
  6
BYLAYER
 10
175.2337133479
 20
282.6566115951
 11
175.6009209863
 21
283.3747762452
  0
LINE
  5
24E
100
AcDbEntity
  8
0
100
AcDbLine
 62
7
  6
BYLAYER
 10
158.640990092
 20
236.8890176082
 11
196.1174934643
 21
258.5259577634
  0
LINE
  5
24F
100
AcDbEntity
  8
0
100
AcDbLine
 62
7
  6
BYLAYER
 10
196.824603198
 20
257.3012145967
 11
159.348099825
 21
235.6642744411
  0
LINE
  5
250
100
AcDbEntity
  8
0
100
AcDbLine
 62
7
  6
BYLAYER
 10
196.8246031895
 20
254.1184881697
 11
159.3480998171
 21
232.4815480145
  0
LINE
  5
251
100
AcDbEntity
  8
0
100
AcDbLine
 62
7
  6
BYLAYER
 10
148.6705757501
 20
298.3301840286
 11
148.6705757501
 21
298.4934803304
  0
LINE
  5
252
100
AcDbEntity
  8
0
100
AcDbLine
 62
7
  6
BYLAYER
 10
153.7622680119
 20
168.7105246699
 11
153.7622680119
 21
118.621199606
  0
LINE
  5
253
100
AcDbEntity
  8
0
100
AcDbLine
 62
7
  6
BYLAYER
 10
154.3983523489
 20
232.4815361168
 11
154.3983523574
 21
235.6642625338
  0
LINE
  5
254
100
AcDbEntity
  8
0
100
AcDbLine
 62
7
  6
BYLAYER
 10
154.6911665505
 20
191.8825001348
 11
154.6911665505
 21
193.1412296887
  0
LINE
  5
255
100
AcDbEntity
  8
0
100
AcDbLine
 62
7
  6
BYLAYER
 10
155.4734769617
 20
169.4975006712
 11
155.4762046313
 21
183.3105080516
  0
LINE
  5
256
100
AcDbEntity
  8
0
100
AcDbLine
 62
7
  6
BYLAYER
 10
175.5825236518
 20
270.0578965339
 11
175.9187525812
 21
270.7489308729
  0
LINE
  5
257
100
AcDbEntity
  8
0
100
AcDbLine
 62
7
  6
BYLAYER
 10
159.0549529473
 20
315.6827479451
 11
159.0549529473
 21
316.4060052593
  0
LINE
  5
258
100
AcDbEntity
  8
0
100
AcDbLine
 62
7
  6
BYLAYER
 10
159.3480998171
 20
232.4815480145
 11
159.348099825
 21
235.6642744411
  0
LINE
  5
259
100
AcDbEntity
  8
0
100
AcDbLine
 62
7
  6
BYLAYER
 10
166.5549197052
 20
320.9250146036
 11
166.5549861893
 21
312.4595565848
  0
LINE
  5
25A
100
AcDbEntity
  8
0
100
AcDbLine
 62
7
  6
BYLAYER
 10
167.4797156356
 20
284.5717089681
 11
167.4797156356
 21
284.69493059
  0
LINE
  5
25B
100
AcDbEntity
  8
0
100
AcDbLine
 62
7
  6
BYLAYER
 10
167.5549861893
 20
312.426222455
 11
167.5549197052
 21
320.9520120035
  0
LINE
  5
25C
100
AcDbEntity
  8
0
100
AcDbLine
 62
7
  6
BYLAYER
 10
167.309566882
 20
279.7585171663
 11
166.8473917051
 21
266.6734349296
  0
LINE
  5
25D
100
AcDbEntity
  8
0
100
AcDbLine
 62
7
  6
BYLAYER
 10
154.3983523489
 20
232.4815361168
 11
116.9215369161
 21
254.1182961064
  0
LINE
  5
25E
100
AcDbEntity
  8
0
100
AcDbLine
 62
7
  6
BYLAYER
 10
143.2674385529
 20
299.7722235818
 11
143.2892172529
 21
299.6878230825
  0
LINE
  5
25F
100
AcDbEntity
  8
0
100
AcDbLine
 62
7
  6
BYLAYER
 10
175.5977936649
 20
283.4498537214
 11
175.5977823676
 21
283.4500552315
  0
LINE
  5
260
100
AcDbEntity
  8
0
100
AcDbLine
 62
7
  6
BYLAYER
 10
175.6008332708
 20
283.3753071701
 11
175.5977936649
 21
283.4498537214
  0
LINE
  5
261
100
AcDbEntity
  8
0
100
AcDbLine
 62
7
  6
BYLAYER
 10
175.6008974523
 20
283.3756882043
 11
175.9187523471
 21
270.7489401766
  0
LINE
  5
262
100
AcDbEntity
  8
0
100
AcDbLine
 62
7
  6
BYLAYER
 10
170.0252894495
 20
285.9226086392
 11
170.0252894495
 21
286.1646095439
  0
LINE
  5
263
100
AcDbEntity
  8
0
100
AcDbLine
 62
7
  6
BYLAYER
 10
170.3817921588
 20
285.0175098409
 11
170.3817921588
 21
285.3889456515
  0
LINE
  5
264
100
AcDbEntity
  8
0
100
AcDbLine
 62
7
  6
BYLAYER
 10
175.0549529472
 20
315.7161023035
 11
175.0549529472
 21
316.431570124
  0
LINE
  5
265
100
AcDbEntity
  8
0
100
AcDbLine
 62
7
  6
BYLAYER
 10
179.3730597489
 20
259.5464695668
 11
179.3730597489
 21
266.604140862
  0
LINE
  5
266
100
AcDbEntity
  8
0
100
AcDbLine
 62
7
  6
BYLAYER
 10
147.1911700598
 20
193.4282177586
 11
152.9794554358
 21
196.7700659304
  0
LINE
  5
267
100
AcDbEntity
  8
0
100
AcDbLine
 62
7
  6
BYLAYER
 10
153.1574514525
 20
196.8728313652
 11
258.5015397942
 21
257.69290608
  0
LINE
  5
268
100
AcDbEntity
  8
0
100
AcDbLine
 62
7
  6
BYLAYER
 10
258.679535811
 20
257.7956715147
 11
263.1249357832
 21
260.3622090652
  0
LINE
  5
269
100
AcDbEntity
  8
0
100
AcDbLine
 62
7
  6
BYLAYER
 10
264.1249316199
 20
260.9395534844
 11
265.0385294889
 21
261.4670163115
  0
LINE
  5
26A
100
AcDbEntity
  8
0
100
AcDbLine
 62
7
  6
BYLAYER
 10
154.3983523574
 20
235.6642625338
 11
116.921536924
 21
257.3010225238
  0
LINE
  5
26B
100
AcDbEntity
  8
0
100
AcDbLine
 62
7
  6
BYLAYER
 10
117.6286407533
 20
258.5257690994
 11
155.1054561861
 21
236.8890091098
  0
LWPOLYLINE
  5
26C
100
AcDbEntity
  8
0
100
AcDbPolyline
 62
7
  6
BYLAYER
 90
3
 70
0
 10
179.3730513358
 20
266.6052456862
 10
179.3580603005
 20
267.0274358743
 10
178.3243855368
 20
270.4847944041
  0
LINE
  5
26D
100
AcDbEntity
  8
0
100
AcDbLine
 62
7
  6
BYLAYER
 10
155.4762046313
 20
183.3105080516
 11
274.2359068832
 21
251.8760578574
  0
LINE
  5
26E
100
AcDbEntity
  8
0
100
AcDbLine
 62
7
  6
BYLAYER
 10
151.0970823736
 20
256.5187822509
 11
137.2036369486
 21
264.5399852431
  0
LINE
  5
26F
100
AcDbEntity
  8
0
100
AcDbLine
 62
7
  6
BYLAYER
 10
143.2892172529
 20
299.6878230825
 11
144.3929778423
 21
297.6035119128
  0
LINE
  5
270
100
AcDbEntity
  8
0
100
AcDbLine
 62
7
  6
BYLAYER
 10
196.8246031895
 20
254.1184881697
 11
196.824603198
 21
257.3012145967
  0
LINE
  5
271
100
AcDbEntity
  8
0
100
AcDbLine
 62
7
  6
BYLAYER
 10
197.8497191514
 20
258.7300572325
 11
197.8497191514
 21
255.5473308106
  0
LINE
  5
272
100
AcDbEntity
  8
0
100
AcDbLine
 62
7
  6
BYLAYER
 10
274.2386374601
 20
238.0661887555
 11
155.4734769617
 21
169.4975006712
  0
LINE
  5
273
100
AcDbEntity
  8
0
100
AcDbLine
 62
7
  6
BYLAYER
 10
196.1174787445
 20
260.5671700343
 11
196.6174766628
 21
260.6166942228
  0
LINE
  5
274
100
AcDbEntity
  8
0
100
AcDbLine
 62
7
  6
BYLAYER
 10
117.1286282719
 20
260.6165056494
 11
117.6286260334
 21
260.5669813703
  0
LINE
  5
275
100
AcDbEntity
  8
0
100
AcDbLine
 62
7
  6
BYLAYER
 10
178.3246414807
 20
270.4842925927
 11
178.3251315368
 21
270.4833301829
  0
LWPOLYLINE
  5
276
100
AcDbEntity
  8
0
100
AcDbPolyline
 62
7
  6
BYLAYER
 90
3
 70
0
 10
176.7710517093
 20
267.125994654
 10
176.4067097429
 20
267.8562706897
 10
175.9186875441
 20
270.7485313077
  0
LWPOLYLINE
  5
277
100
AcDbEntity
  8
0
100
AcDbPolyline
 62
7
  6
BYLAYER
 90
3
 70
0
 10
175.5977820541
 20
283.4500608024
 10
175.4107046171
 20
284.231523682
 10
174.4100328764
 20
285.3355687408
  0
LINE
  5
278
100
AcDbEntity
  8
0
100
AcDbLine
 62
7
  6
BYLAYER
 10
138.4134817463
 20
283.0893891214
 11
166.8473917051
 21
266.6734349296
  0
LINE
  5
279
100
AcDbEntity
  8
0
100
AcDbLine
 62
7
  6
BYLAYER
 10
176.9394987054
 20
266.9208353208
 11
176.7710517093
 21
267.125994654
  0
LINE
  5
27A
100
AcDbEntity
  8
0
100
AcDbLine
 62
7
  6
BYLAYER
 10
143.1919039958
 20
293.6869646882
 11
138.7316329536
 21
296.2576217497
  0
LINE
  5
27B
100
AcDbEntity
  8
0
100
AcDbLine
 62
7
  6
BYLAYER
 10
175.8977864301
 20
271.5818102566
 11
176.5424825502
 21
271.2096031986
  0
LINE
  5
27C
100
AcDbEntity
  8
0
100
AcDbLine
 62
7
  6
BYLAYER
 10
196.1174787445
 20
260.5671700343
 11
178.4785083925
 21
270.7508039307
  0
LINE
  5
27D
100
AcDbEntity
  8
0
100
AcDbLine
 62
7
  6
BYLAYER
 10
196.617470261
 20
260.6166979189
 11
178.6245387422
 21
271.0046867671
  0
LINE
  5
27E
100
AcDbEntity
  8
0
100
AcDbLine
 62
7
  6
BYLAYER
 10
143.1897495967
 20
293.6144820442
 11
143.4725934867
 21
293.4511857424
  0
LINE
  5
27F
100
AcDbEntity
  8
0
100
AcDbLine
 62
7
  6
BYLAYER
 10
140.7998577134
 20
299.0779595713
 11
144.9585867175
 21
296.6769705789
  0
LINE
  5
280
100
AcDbEntity
  8
0
100
AcDbLine
 62
7
  6
BYLAYER
 10
145.2414306075
 20
296.5136742771
 11
168.7749661155
 21
282.9268885908
  0
LINE
  5
281
100
AcDbEntity
  8
0
100
AcDbLine
 62
7
  6
BYLAYER
 10
167.3382948681
 20
284.6132817592
 11
145.9835811687
 21
296.9421525457
  0
LINE
  5
282
100
AcDbEntity
  8
0
100
AcDbLine
 62
7
  6
BYLAYER
 10
145.8421580461
 20
297.1870976783
 11
167.4797156356
 21
284.69493059
  0
LINE
  5
283
100
AcDbEntity
  8
0
100
AcDbLine
 62
7
  6
BYLAYER
 10
169.8838686821
 20
286.0829607131
 11
148.2463110926
 21
298.5751278014
  0
LINE
  5
284
100
AcDbEntity
  8
0
100
AcDbLine
 62
7
  6
BYLAYER
 10
148.6705757501
 20
298.4934803304
 11
170.0252894495
 21
286.1646095439
  0
LINE
  5
285
100
AcDbEntity
  8
0
100
AcDbLine
 62
7
  6
BYLAYER
 10
167.309566882
 20
279.7585171663
 11
143.4747478859
 21
293.5236683864
  0
LINE
  5
286
100
AcDbEntity
  8
0
100
AcDbLine
 62
7
  6
BYLAYER
 10
172.9462624369
 20
285.3351725561
 11
149.4127263113
 21
298.921958599
  0
LINE
  5
287
100
AcDbEntity
  8
0
100
AcDbLine
 62
7
  6
BYLAYER
 10
149.1298824212
 20
299.0852549008
 11
144.9711533823
 21
301.4862439133
  0
LINE
  5
288
100
AcDbEntity
  8
0
100
AcDbLine
 62
7
  6
BYLAYER
 10
174.4098439372
 20
285.3356714757
 11
150.6627051025
 21
299.0457783104
  0
LINE
  5
289
100
AcDbEntity
  8
0
100
AcDbLine
 62
7
  6
BYLAYER
 10
150.3798612124
 20
299.2090746122
 11
146.0076018065
 21
301.7333426506
  0
LINE
  5
28A
100
AcDbEntity
  8
0
100
AcDbLine
 62
7
  6
BYLAYER
 10
271.7071880591
 20
186.7163244718
 11
153.7622680119
 21
118.621199606
  0
LINE
  5
28B
100
AcDbEntity
  8
0
100
AcDbLine
 62
7
  6
BYLAYER
 10
143.9143714018
 20
299.639885149
 11
147.5193930027
 21
298.9996690776
  0
LINE
  5
28C
100
AcDbEntity
  8
0
100
AcDbLine
 62
7
  6
BYLAYER
 10
147.5193930027
 20
299.4079202862
 11
143.9143714018
 21
300.0481363576
  0
LWPOLYLINE
  5
28D
100
AcDbEntity
  8
0
100
AcDbPolyline
 62
7
  6
BYLAYER
 90
3
 70
0
 10
146.0078526264
 20
301.7331963269
 10
145.0454701845
 20
302.0014990506
 10
144.2370733007
 20
301.8484994912
  0
LINE
  5
28E
100
AcDbEntity
  8
0
100
AcDbLine
 62
7
  6
BYLAYER
 10
255.3759603613
 20
261.4393488235
 11
255.3752647389
 21
261.4261888309
  0
LINE
  5
28F
100
AcDbEntity
  8
0
100
AcDbLine
 62
7
  6
BYLAYER
 10
265.0385294889
 20
261.4670163115
 11
264.1249240125
 21
261.9944747465
  0
LINE
  5
290
100
AcDbEntity
  8
0
100
AcDbLine
 62
7
  6
BYLAYER
 10
263.1249198491
 20
262.5718143583
 11
258.7590988422
 21
265.0923652694
  0
LINE
  5
291
100
AcDbEntity
  8
0
100
AcDbLine
 62
7
  6
BYLAYER
 10
258.5808273997
 20
265.1952880063
 11
173.5833598292
 21
314.267488627
  0
LINE
  5
292
100
AcDbEntity
  8
0
100
AcDbLine
 62
7
  6
BYLAYER
 10
173.4050883867
 20
314.3704113639
 11
167.5549488492
 21
317.7479145914
  0
LINE
  5
293
100
AcDbEntity
  8
0
100
AcDbLine
 62
7
  6
BYLAYER
 10
274.2362249767
 20
262.1013347635
 11
175.9808724263
 21
318.8277893062
  0
LINE
  5
294
100
AcDbEntity
  8
0
100
AcDbLine
 62
7
  6
BYLAYER
 10
255.6249281106
 20
260.4285573082
 11
255.6249281106
 21
261.4261886682
  0
LINE
  5
295
100
AcDbEntity
  8
0
100
AcDbLine
 62
7
  6
BYLAYER
 10
263.1249613526
 20
256.0575852043
 11
263.1248948685
 21
265.3774798306
  0
LINE
  5
296
100
AcDbEntity
  8
0
100
AcDbLine
 62
7
  6
BYLAYER
 10
255.3750140346
 20
261.4393502855
 11
255.3749845217
 21
261.4261888169
  0
LINE
  5
297
100
AcDbEntity
  8
0
100
AcDbLine
 62
7
  6
BYLAYER
 10
165.9523667012
 20
321.0205010526
 11
160.2246402975
 21
319.7592120299
  0
LINE
  5
298
100
AcDbEntity
  8
0
100
AcDbLine
 62
7
  6
BYLAYER
 10
169.7973992868
 20
320.8679686523
 11
165.9523667012
 21
321.0205010526
  0
LINE
  5
299
100
AcDbEntity
  8
0
100
AcDbLine
 62
7
  6
BYLAYER
 10
174.0308635266
 20
319.7575454727
 11
169.7973992868
 21
320.8679686523
  0
LINE
  5
29A
100
AcDbEntity
  8
0
100
AcDbLine
 62
7
  6
BYLAYER
 10
174.0308638672
 20
319.7575839089
 11
175.9808721094
 21
318.8277891514
  0
LINE
  5
29B
100
AcDbEntity
  8
0
100
AcDbLine
 62
7
  6
BYLAYER
 10
271.6249281087
 20
260.652055762
 11
271.62461531
 21
260.7063000678
  0
LINE
  5
29C
100
AcDbEntity
  8
0
100
AcDbLine
 62
7
  6
BYLAYER
 10
274.2386374601
 20
238.0661887555
 11
274.2359068832
 21
251.8760578574
  0
LINE
  5
29D
100
AcDbEntity
  8
0
100
AcDbLine
 62
7
  6
BYLAYER
 10
264.1249613526
 20
255.9083950156
 11
264.1248948685
 21
265.1985721586
  0
LINE
  5
29E
100
AcDbEntity
  8
0
100
AcDbLine
 62
7
  6
BYLAYER
 10
271.6249281106
 20
258.9766814168
 11
271.6249281106
 21
259.9368006674
  0
LINE
  5
29F
100
AcDbEntity
  8
0
100
AcDbLine
 62
7
  6
BYLAYER
 10
271.7071880591
 20
186.7163244718
 11
271.7071880591
 21
236.6046644865
  0
LINE
  5
2A0
100
AcDbEntity
  8
0
100
AcDbLine
 62
7
  6
BYLAYER
 10
274.6653798351
 20
238.3754895763
 11
274.6653798351
 21
190.8395560925
  0
LINE
  5
2A1
100
AcDbEntity
  8
0
100
AcDbLine
 62
7
  6
BYLAYER
 10
277.9056237013
 20
257.0399102239
 11
277.9056237013
 21
243.1773630021
  0
ARC
  5
2A2
100
AcDbEntity
  8
0
100
AcDbCircle
 62
7
  6
BYLAYER
 10
51.4262539421
 20
197.2014438798
 40
52.496465016
100
AcDbArc
 50
92.9685366516
 51
100.2093451074
  0
ARC
  5
2A3
100
AcDbEntity
  8
0
100
AcDbCircle
 62
7
  6
BYLAYER
 10
118.4495412631
 20
164.9639676227
 40
41.3167124655
100
AcDbArc
 50
30.8371938082
 51
35.1573148048
  0
ARC
  5
2A4
100
AcDbEntity
  8
0
100
AcDbCircle
 62
7
  6
BYLAYER
 10
146.6205789711
 20
149.2772156393
 40
37.5984658003
100
AcDbArc
 50
89.1310398983
 51
90.653379225
  0
ARC
  5
2A5
100
AcDbEntity
  8
0
100
AcDbCircle
 62
7
  6
BYLAYER
 10
66.1823031493
 20
219.6112764012
 40
33.5874197237
100
AcDbArc
 50
131.1913541028
 51
136.9541155371
  0
ARC
  5
2A6
100
AcDbEntity
  8
0
100
AcDbCircle
 62
7
  6
BYLAYER
 10
53.3043067451
 20
236.8442093093
 40
17.067460573
100
AcDbArc
 50
102.4779077497
 51
104.5007439568
  0
ARC
  5
2A7
100
AcDbEntity
  8
0
100
AcDbCircle
 62
7
  6
BYLAYER
 10
146.7411164641
 20
203.1546538824
 40
15.4921268848
100
AcDbArc
 50
267.9573481795
 51
271.6889342568
  0
ARC
  5
2A8
100
AcDbEntity
  8
0
100
AcDbCircle
 62
7
  6
BYLAYER
 10
146.7420519621
 20
203.1216174266
 40
15.4590772089
100
AcDbArc
 50
271.689077313
 51
272.0278275332
  0
ARC
  5
2A9
100
AcDbEntity
  8
0
100
AcDbCircle
 62
7
  6
BYLAYER
 10
146.690741691
 20
184.4040203153
 40
14.2738769507
100
AcDbArc
 50
87.9616440987
 51
91.987143201
  0
ARC
  5
2AA
100
AcDbEntity
  8
0
100
AcDbCircle
 62
7
  6
BYLAYER
 10
146.6907023774
 20
181.9592215822
 40
14.2691745066
100
AcDbArc
 50
87.9462134808
 51
92.065684601
  0
ARC
  5
2AB
100
AcDbEntity
  8
0
100
AcDbCircle
 62
7
  6
BYLAYER
 10
50.1207272153
 20
237.7126616381
 40
14.2691742956
100
AcDbArc
 50
87.9462184912
 51
92.0656937786
  0
ARC
  5
2AC
100
AcDbEntity
  8
0
100
AcDbCircle
 62
7
  6
BYLAYER
 10
144.7635540523
 20
190.5168004653
 40
7.8125827713
100
AcDbArc
 50
119.173957231
 51
119.9978943621
  0
ARC
  5
2AD
100
AcDbEntity
  8
0
100
AcDbCircle
 62
7
  6
BYLAYER
 10
144.5385220604
 20
190.9010425879
 40
7.3673039618
100
AcDbArc
 50
119.9762841246
 51
124.3355518818
  0
ARC
  5
2AE
100
AcDbEntity
  8
0
100
AcDbCircle
 62
7
  6
BYLAYER
 10
144.1421008843
 20
191.4953420255
 40
6.65296994
100
AcDbArc
 50
124.4032737239
 51
126.0090484855
  0
ARC
  5
2AF
100
AcDbEntity
  8
0
100
AcDbCircle
 62
7
  6
BYLAYER
 10
149.3227288489
 20
191.6097484472
 40
6.5119228534
100
AcDbArc
 50
53.9226318599
 51
54.7773055485
  0
ARC
  5
2B0
100
AcDbEntity
  8
0
100
AcDbCircle
 62
7
  6
BYLAYER
 10
144.0075914292
 20
191.681364217
 40
6.423412261
100
AcDbArc
 50
126.0140161097
 51
126.767214602
  0
ARC
  5
2B1
100
AcDbEntity
  8
0
100
AcDbCircle
 62
7
  6
BYLAYER
 10
149.795832109
 20
193.6878822749
 40
5.4605434623
100
AcDbArc
 50
296.1894603631
 51
299.984467922
  0
ARC
  5
2B2
100
AcDbEntity
  8
0
100
AcDbCircle
 62
7
  6
BYLAYER
 10
149.7290882046
 20
193.687969747
 40
5.2375672897
100
AcDbArc
 50
297.1198648177
 51
301.2155813089
  0
ARC
  5
2B3
100
AcDbEntity
  8
0
100
AcDbCircle
 62
7
  6
BYLAYER
 10
143.6515397566
 20
193.7201394
 40
5.2334619899
100
AcDbArc
 50
237.5983055802
 51
241.8425989606
  0
ARC
  5
2B4
100
AcDbEntity
  8
0
100
AcDbCircle
 62
7
  6
BYLAYER
 10
143.308865817
 20
193.0959765846
 40
4.8724517976
100
AcDbArc
 50
146.6456912863
 51
151.4319743166
  0
ARC
  5
2B5
100
AcDbEntity
  8
0
100
AcDbCircle
 62
7
  6
BYLAYER
 10
143.2701050365
 20
193.115713823
 40
4.8289719092
100
AcDbArc
 50
151.4177215184
 51
179.0804503973
  0
ARC
  5
2B6
100
AcDbEntity
  8
0
100
AcDbCircle
 62
7
  6
BYLAYER
 10
150.1200305582
 20
193.0949063142
 40
4.8214261202
100
AcDbArc
 50
0.0007517049
 51
0.8647432748
  0
ARC
  5
2B7
100
AcDbEntity
  8
0
100
AcDbCircle
 62
7
  6
BYLAYER
 10
143.2257659621
 20
193.1188843988
 40
4.7845882937
100
AcDbArc
 50
179.1098922187
 51
179.9709426019
  0
ARC
  5
2B8
100
AcDbEntity
  8
0
100
AcDbCircle
 62
7
  6
BYLAYER
 10
150.1788749165
 20
193.0906409945
 40
4.7625837285
100
AcDbArc
 50
340.0885061283
 51
0.0520744952
  0
ARC
  5
2B9
100
AcDbEntity
  8
0
100
AcDbCircle
 62
7
  6
BYLAYER
 10
143.1659574085
 20
193.1157058623
 40
4.7247824495
100
AcDbArc
 50
179.9320297852
 51
200.3726641581
  0
ARC
  5
2BA
100
AcDbEntity
  8
0
100
AcDbCircle
 62
7
  6
BYLAYER
 10
150.2464301031
 20
193.0680418592
 40
4.6913707863
100
AcDbArc
 50
336.5769592188
 51
340.0670235426
  0
ARC
  5
2BB
100
AcDbEntity
  8
0
100
AcDbCircle
 62
7
  6
BYLAYER
 10
143.2615790298
 20
193.1669311583
 40
4.5704123948
100
AcDbArc
 50
180.0017115702
 51
189.2037047652
  0
ARC
  5
2BC
100
AcDbEntity
  8
0
100
AcDbCircle
 62
7
  6
BYLAYER
 10
151.5084747862
 20
191.2312990983
 40
3.476161057
100
AcDbArc
 50
26.1251755829
 51
29.0789913076
  0
ARC
  5
2BD
100
AcDbEntity
  8
0
100
AcDbCircle
 62
7
  6
BYLAYER
 10
151.7020017461
 20
191.32498133
 40
3.2611546794
100
AcDbArc
 50
20.989286343
 51
26.1445954169
  0
ARC
  5
2BE
100
AcDbEntity
  8
0
100
AcDbCircle
 62
7
  6
BYLAYER
 10
141.4776769221
 20
191.4034076795
 40
3.0437662886
100
AcDbArc
 50
160.1259529456
 51
164.0237629421
  0
ARC
  5
2BF
100
AcDbEntity
  8
0
100
AcDbCircle
 62
7
  6
BYLAYER
 10
52.9467288253
 20
238.4983380095
 40
15.3751462095
100
AcDbArc
 50
98.6521312305
 51
102.5087057749
  0
ARC
  5
2C0
100
AcDbEntity
  8
0
100
AcDbCircle
 62
7
  6
BYLAYER
 10
47.4589678094
 20
258.574631566
 40
14.7059164723
100
AcDbArc
 50
278.4292694355
 51
282.5042774357
  0
ARC
  5
2C1
100
AcDbEntity
  8
0
100
AcDbCircle
 62
7
  6
BYLAYER
 10
51.0287697022
 20
239.7640039663
 40
13.4888954814
100
AcDbArc
 50
119.9842364833
 51
121.4789183336
  0
ARC
  5
2C2
100
AcDbEntity
  8
0
100
AcDbCircle
 62
7
  6
BYLAYER
 10
51.3622791797
 20
254.1961095269
 40
8.9599262071
100
AcDbArc
 50
293.862954178
 51
294.6255004667
  0
ARC
  5
2C3
100
AcDbEntity
  8
0
100
AcDbCircle
 62
7
  6
BYLAYER
 10
51.4683047782
 20
253.9655947698
 40
8.7061972802
100
AcDbArc
 50
294.6233253659
 51
295.8237165822
  0
ARC
  5
2C4
100
AcDbEntity
  8
0
100
AcDbCircle
 62
7
  6
BYLAYER
 10
51.8020991535
 20
253.2952820968
 40
7.957425443
100
AcDbArc
 50
295.7627266621
 51
299.9771994287
  0
ARC
  5
2C5
100
AcDbEntity
  8
0
100
AcDbCircle
 62
7
  6
BYLAYER
 10
52.0762256509
 20
252.8144344091
 40
7.4039352527
100
AcDbArc
 50
299.9988911832
 51
300.6664620787
  0
ARC
  5
2C6
100
AcDbEntity
  8
0
100
AcDbCircle
 62
7
  6
BYLAYER
 10
53.099019282
 20
247.4792884162
 40
6.2989612121
100
AcDbArc
 50
70.0852678379
 51
71.435636661
  0
ARC
  5
2C7
100
AcDbEntity
  8
0
100
AcDbCircle
 62
7
  6
BYLAYER
 10
46.9138713042
 20
249.21281552
 40
4.9234466627
100
AcDbArc
 50
228.6697466359
 51
236.5109580221
  0
ARC
  5
2C8
100
AcDbEntity
  8
0
100
AcDbCircle
 62
7
  6
BYLAYER
 10
46.6654307306
 20
248.9182646274
 40
4.5442189164
100
AcDbArc
 50
180.6499491447
 51
198.2635287728
  0
ARC
  5
2C9
100
AcDbEntity
  8
0
100
AcDbCircle
 62
7
  6
BYLAYER
 10
46.6140524061
 20
248.9028875078
 40
4.4906100118
100
AcDbArc
 50
198.2826526665
 51
199.5524789381
  0
ARC
  5
2CA
100
AcDbEntity
  8
0
100
AcDbCircle
 62
7
  6
BYLAYER
 10
44.9486648405
 20
247.1427093696
 40
3.0870960804
100
AcDbArc
 50
160.1376350087
 51
161.3972280456
  0
ARC
  5
2CB
100
AcDbEntity
  8
0
100
AcDbCircle
 62
7
  6
BYLAYER
 10
44.8997844306
 20
248.2296903586
 40
3.0333269538
100
AcDbArc
 50
191.2696144986
 51
199.2987440444
  0
ARC
  5
2CC
100
AcDbEntity
  8
0
100
AcDbCircle
 62
7
  6
BYLAYER
 10
44.7555795767
 20
248.1363596887
 40
2.8897379123
100
AcDbArc
 50
159.9883461659
 51
164.0063084965
  0
ARC
  5
2CD
100
AcDbEntity
  8
0
100
AcDbCircle
 62
7
  6
BYLAYER
 10
44.6701930831
 20
248.1826146409
 40
2.7989629658
100
AcDbArc
 50
180.0728317146
 51
191.2430052919
  0
ARC
  5
2CE
100
AcDbEntity
  8
0
100
AcDbCircle
 62
7
  6
BYLAYER
 10
44.6444931226
 20
248.1677764501
 40
2.7742951104
100
AcDbArc
 50
163.9979001631
 51
170.7916199768
  0
ARC
  5
2CF
100
AcDbEntity
  8
0
100
AcDbCircle
 62
7
  6
BYLAYER
 10
55.6141667119
 20
249.6681511347
 40
2.7569694967
100
AcDbArc
 50
353.8369088403
 51
359.7290645877
  0
ARC
  5
2D0
100
AcDbEntity
  8
0
100
AcDbCircle
 62
7
  6
BYLAYER
 10
55.6193474917
 20
249.6678780179
 40
2.7517875156
100
AcDbArc
 50
0.0086329403
 51
0.7903728193
  0
ARC
  5
2D1
100
AcDbEntity
  8
0
100
AcDbCircle
 62
7
  6
BYLAYER
 10
44.5864979354
 20
248.1789140125
 40
2.7152655606
100
AcDbArc
 50
170.8277733233
 51
179.9969884453
  0
ARC
  5
2D2
100
AcDbEntity
  8
0
100
AcDbCircle
 62
7
  6
BYLAYER
 10
55.4485342496
 20
249.6681152401
 40
2.6726031442
100
AcDbArc
 50
353.990490386
 51
0.0038032313
  0
ARC
  5
2D3
100
AcDbEntity
  8
0
100
AcDbCircle
 62
7
  6
BYLAYER
 10
150.2266464626
 20
298.2745665788
 40
0.8864834746
100
AcDbArc
 50
69.9084369706
 51
78.5541741822
  0
ARC
  5
2D4
100
AcDbEntity
  8
0
100
AcDbCircle
 62
7
  6
BYLAYER
 10
150.2395716172
 20
298.3116780583
 40
0.8471905721
100
AcDbArc
 50
60.0409603873
 51
69.8671827863
  0
ARC
  5
2D5
100
AcDbEntity
  8
0
100
AcDbCircle
 62
7
  6
BYLAYER
 10
138.8093113147
 20
297.0939368189
 40
0.6618660367
100
AcDbArc
 50
176.7078569788
 51
188.5534700995
  0
ARC
  5
2D6
100
AcDbEntity
  8
0
100
AcDbCircle
 62
7
  6
BYLAYER
 10
138.7656629357
 20
297.0409457944
 40
0.6206719089
100
AcDbArc
 50
178.6579326898
 51
187.9318170981
  0
ARC
  5
2D7
100
AcDbEntity
  8
0
100
AcDbCircle
 62
7
  6
BYLAYER
 10
262.324759657
 20
209.0812165272
 40
52.4560441297
100
AcDbArc
 50
79.7881352138
 51
87.0345266664
  0
ARC
  5
2D8
100
AcDbEntity
  8
0
100
AcDbCircle
 62
7
  6
BYLAYER
 10
174.0140710114
 20
165.4681422479
 40
40.3907817429
100
AcDbArc
 50
144.5967173241
 51
149.2116772316
  0
ARC
  5
2D9
100
AcDbEntity
  8
0
100
AcDbCircle
 62
7
  6
BYLAYER
 10
247.7186658646
 20
231.6108020858
 40
33.3651024901
100
AcDbArc
 50
43.0260172335
 51
48.6512247062
  0
ARC
  5
2DA
100
AcDbEntity
  8
0
100
AcDbCircle
 62
7
  6
BYLAYER
 10
168.5044326889
 20
267.1073913943
 40
9.0243219834
100
AcDbArc
 50
27.0374543077
 51
32.6092429196
  0
ARC
  5
2DB
100
AcDbEntity
  8
0
100
AcDbCircle
 62
7
  6
BYLAYER
 10
167.0593305173
 20
279.5866013198
 40
2.8194676703
100
AcDbArc
 50
359.5630913981
 51
1.0296291828
  0
ARC
  5
2DC
100
AcDbEntity
  8
0
100
AcDbCircle
 62
7
  6
BYLAYER
 10
173.1009009107
 20
282.6446193706
 40
2.1326634615
100
AcDbArc
 50
0.3241966705
 51
2.2444372012
  0
ARC
  5
2DD
100
AcDbEntity
  8
0
100
AcDbCircle
 62
7
  6
BYLAYER
 10
169.1090039637
 20
286.0372710636
 40
1.5499333136
100
AcDbArc
 50
299.9960760576
 51
301.3503382562
  0
ARC
  5
2DE
100
AcDbEntity
  8
0
100
AcDbCircle
 62
7
  6
BYLAYER
 10
174.9255097732
 20
283.4138172212
 40
0.6731738646
100
AcDbArc
 50
358.1580185943
 51
3.06828514
  0
ARC
  5
2DF
100
AcDbEntity
  8
0
100
AcDbCircle
 62
7
  6
BYLAYER
 10
160.3399638034
 20
302.7208416597
 40
21.5162692421
100
AcDbArc
 50
293.0808110623
 51
297.4321930961
  0
ARC
  5
2E0
100
AcDbEntity
  8
0
100
AcDbCircle
 62
7
  6
BYLAYER
 10
160.8927844972
 20
301.6373009241
 40
20.2998835313
100
AcDbArc
 50
297.4562573377
 51
297.6092645681
  0
ARC
  5
2E1
100
AcDbEntity
  8
0
100
AcDbCircle
 62
7
  6
BYLAYER
 10
167.1275236868
 20
301.3657480847
 40
19.2748132481
100
AcDbArc
 50
91.488686017
 51
91.7112722379
  0
ARC
  5
2E2
100
AcDbEntity
  8
0
100
AcDbCircle
 62
7
  6
BYLAYER
 10
167.1345539206
 20
301.3683336563
 40
19.2714968887
100
AcDbArc
 50
67.7548108209
 51
79.4699553003
  0
ARC
  5
2E3
100
AcDbEntity
  8
0
100
AcDbCircle
 62
7
  6
BYLAYER
 10
167.1161156776
 20
301.3710578441
 40
19.2687207344
100
AcDbArc
 50
101.2536699619
 51
112.2467487098
  0
ARC
  5
2E4
100
AcDbEntity
  8
0
100
AcDbCircle
 62
7
  6
BYLAYER
 10
167.125677138
 20
301.4379635992
 40
19.2025741357
100
AcDbArc
 50
88.7131454935
 51
91.4887761291
  0
ARC
  5
2E5
100
AcDbEntity
  8
0
100
AcDbCircle
 62
7
  6
BYLAYER
 10
168.797064252
 20
305.8306875449
 40
15.1572672863
100
AcDbArc
 50
118.6046414008
 51
119.9874862504
  0
ARC
  5
2E6
100
AcDbEntity
  8
0
100
AcDbCircle
 62
7
  6
BYLAYER
 10
167.0553778067
 20
326.6904611401
 40
14.2738769506
100
AcDbArc
 50
267.9616440987
 51
271.9871432009
  0
ARC
  5
2E7
100
AcDbEntity
  8
0
100
AcDbCircle
 62
7
  6
BYLAYER
 10
167.0544887749
 20
305.2239973726
 40
14.2691742868
100
AcDbArc
 50
87.9462220838
 51
92.0656937781
  0
ARC
  5
2E8
100
AcDbEntity
  8
0
100
AcDbCircle
 62
7
  6
BYLAYER
 10
167.0984316932
 20
307.2253528391
 40
13.2282244346
100
AcDbArc
 50
88.0130886918
 51
92.3680493495
  0
ARC
  5
2E9
100
AcDbEntity
  8
0
100
AcDbCircle
 62
7
  6
BYLAYER
 10
165.2901248945
 20
321.6968718529
 40
8.649555492
100
AcDbArc
 50
237.8698406823
 51
238.4682933492
  0
ARC
  5
2EA
100
AcDbEntity
  8
0
100
AcDbCircle
 62
7
  6
BYLAYER
 10
168.9301765203
 20
321.460427226
 40
8.3841016893
100
AcDbArc
 50
302.2583515445
 51
302.757334661
  0
ARC
  5
2EB
100
AcDbEntity
  8
0
100
AcDbCircle
 62
7
  6
BYLAYER
 10
168.9842789289
 20
320.3704236985
 40
7.4554605157
100
AcDbArc
 50
299.9984165577
 51
300.7620844296
  0
ARC
  5
2EC
100
AcDbEntity
  8
0
100
AcDbCircle
 62
7
  6
BYLAYER
 10
169.1096978115
 20
320.1606817967
 40
7.2110810802
100
AcDbArc
 50
300.7581540612
 51
302.2197084435
  0
ARC
  5
2ED
100
AcDbEntity
  8
0
100
AcDbCircle
 62
7
  6
BYLAYER
 10
171.8556098738
 20
314.4873058309
 40
3.4949781144
100
AcDbArc
 50
26.452001078
 51
29.3892452249
  0
ARC
  5
2EE
100
AcDbEntity
  8
0
100
AcDbCircle
 62
7
  6
BYLAYER
 10
174.0254726935
 20
316.387108267
 40
1.279474148
100
AcDbArc
 50
359.9537298353
 51
5.5037568288
  0
ARC
  5
2EF
100
AcDbEntity
  8
0
100
AcDbCircle
 62
7
  6
BYLAYER
 10
160.3321283205
 20
316.4047671792
 40
1.2771748149
100
AcDbArc
 50
170.0855845101
 51
179.9445053258
  0
ARC
  5
2F0
100
AcDbEntity
  8
0
100
AcDbCircle
 62
7
  6
BYLAYER
 10
160.0677023045
 20
316.3595015048
 40
1.2630109324
100
AcDbArc
 50
174.4521465153
 51
179.9897474307
  0
ARC
  5
2F1
100
AcDbEntity
  8
0
100
AcDbCircle
 62
7
  6
BYLAYER
 10
260.4721279273
 20
248.5603020805
 40
17.1287775977
100
AcDbArc
 50
74.9958102739
 51
77.6740748047
  0
ARC
  5
2F2
100
AcDbEntity
  8
0
100
AcDbCircle
 62
7
  6
BYLAYER
 10
260.8542853135
 20
250.3369081419
 40
15.3115449994
100
AcDbArc
 50
77.651966496
 51
81.4960386474
  0
ARC
  5
2F3
100
AcDbEntity
  8
0
100
AcDbCircle
 62
7
  6
BYLAYER
 10
266.3228775706
 20
270.2698506014
 40
14.6768509356
100
AcDbArc
 50
257.3212631127
 51
261.407207452
  0
ARC
  5
2F4
100
AcDbEntity
  8
0
100
AcDbCircle
 62
7
  6
BYLAYER
 10
263.6244639373
 20
249.4705574228
 40
14.2691743918
100
AcDbArc
 50
87.946222095
 51
92.065688938
  0
ARC
  5
2F5
100
AcDbEntity
  8
0
100
AcDbCircle
 62
7
  6
BYLAYER
 10
262.2624635535
 20
256.9385368165
 40
9.0403752676
100
AcDbArc
 50
114.0318074941
 51
115.9404445011
  0
ARC
  5
2F6
100
AcDbEntity
  8
0
100
AcDbCircle
 62
7
  6
BYLAYER
 10
262.2971353874
 20
265.7635441768
 40
8.7506583441
100
AcDbArc
 50
244.8774906198
 51
245.5808461023
  0
ARC
  5
2F7
100
AcDbEntity
  8
0
100
AcDbCircle
 62
7
  6
BYLAYER
 10
261.9662940679
 20
257.5414750565
 40
8.3686285305
100
AcDbArc
 50
115.922760793
 51
119.2109637982
  0
ARC
  5
2F8
100
AcDbEntity
  8
0
100
AcDbCircle
 62
7
  6
BYLAYER
 10
261.7250013548
 20
257.9803065583
 40
7.8678473174
100
AcDbArc
 50
119.2368470035
 51
119.9983587594
  0
ARC
  5
2F9
100
AcDbEntity
  8
0
100
AcDbCircle
 62
7
  6
BYLAYER
 10
260.709636842
 20
259.1470570182
 40
6.4119363476
100
AcDbArc
 50
108.0532227703
 51
109.3906535955
  0
ARC
  5
2FA
100
AcDbEntity
  8
0
100
AcDbCircle
 62
7
  6
BYLAYER
 10
266.5980717817
 20
261.3127642808
 40
5.3681012648
100
AcDbArc
 50
294.9641640597
 51
300.5641381205
  0
ARC
  5
2FB
100
AcDbEntity
  8
0
100
AcDbCircle
 62
7
  6
BYLAYER
 10
266.8450922496
 20
260.9984745389
 40
5.2289451567
100
AcDbArc
 50
299.9875824943
 51
303.8938594027
  0
ARC
  5
2FC
100
AcDbEntity
  8
0
100
AcDbCircle
 62
7
  6
BYLAYER
 10
266.730889181
 20
261.0851783279
 40
5.1045981902
100
AcDbArc
 50
300.579450707
 51
304.6026184067
  0
ARC
  5
2FD
100
AcDbEntity
  8
0
100
AcDbCircle
 62
7
  6
BYLAYER
 10
266.8709156538
 20
260.8837606602
 40
4.8592908646
100
AcDbArc
 50
304.5922905844
 51
310.1923803609
  0
ARC
  5
2FE
100
AcDbEntity
  8
0
100
AcDbCircle
 62
7
  6
BYLAYER
 10
267.0193232791
 20
260.6531962089
 40
4.6056033474
100
AcDbArc
 50
351.600209638
 51
359.9922207844
  0
ARC
  5
2FF
100
AcDbEntity
  8
0
100
AcDbCircle
 62
7
  6
BYLAYER
 10
267.0595893036
 20
260.6473452042
 40
4.5649145515
100
AcDbArc
 50
343.6529486265
 51
351.5990323616
  0
ARC
  5
300
100
AcDbEntity
  8
0
100
AcDbCircle
 62
7
  6
BYLAYER
 10
268.8027889233
 20
258.9019155148
 40
3.0817150357
100
AcDbArc
 50
18.1849629755
 51
20.9629158983
  0
ARC
  5
301
100
AcDbEntity
  8
0
100
AcDbCircle
 62
7
  6
BYLAYER
 10
268.9035662585
 20
259.8860712885
 40
2.9780802817
100
AcDbArc
 50
16.8060219948
 51
21.2818465258
  0
ARC
  5
302
100
AcDbEntity
  8
0
100
AcDbCircle
 62
7
  6
BYLAYER
 10
268.9737043004
 20
259.9081363573
 40
2.9045582936
100
AcDbArc
 50
15.9214755508
 51
16.7893835928
  0
ARC
  5
303
100
AcDbEntity
  8
0
100
AcDbCircle
 62
7
  6
BYLAYER
 10
269.0263326126
 20
259.9226567733
 40
2.8499656828
100
AcDbArc
 50
11.576916299
 51
15.9309966117
  0
ARC
  5
304
100
AcDbEntity
  8
0
100
AcDbCircle
 62
7
  6
BYLAYER
 10
269.0394911504
 20
259.9384608814
 40
2.8353958875
100
AcDbArc
 50
351.2165074538
 51
359.9692837794
  0
ARC
  5
305
100
AcDbEntity
  8
0
100
AcDbCircle
 62
7
  6
BYLAYER
 10
269.0854047329
 20
259.9356786769
 40
2.7894821831
100
AcDbArc
 50
0.0259245023
 51
11.5583851002
  0
ARC
  5
306
100
AcDbEntity
  8
0
100
AcDbCircle
 62
7
  6
BYLAYER
 10
258.1319527327
 20
261.4263303382
 40
2.7569694419
100
AcDbArc
 50
173.8369090823
 51
179.7294163706
  0
ARC
  5
307
100
AcDbEntity
  8
0
100
AcDbCircle
 62
7
  6
BYLAYER
 10
258.1267732452
 20
261.4266034441
 40
2.7517887547
100
AcDbArc
 50
180.0086330714
 51
180.7913651523
  0
ARC
  5
308
100
AcDbEntity
  8
0
100
AcDbCircle
 62
7
  6
BYLAYER
 10
258.2975852482
 20
261.4263662154
 40
2.6726031442
100
AcDbArc
 50
173.990490386
 51
180.0038032312
  0
SPLINE
  5
309
100
AcDbEntity
  8
0
100
AcDbSpline
 62
7
  6
BYLAYER
 70
0
 71
3
 72
11
 73
7
 74
0
 42
0.0000001
 43
0.0000001
 44
0.0000000001
 40
0.0
 40
0.0
 40
0.0
 40
0.0
 40
0.237228705
 40
0.5000005261
 40
0.7627720609
 40
1.0
 40
1.0
 40
1.0
 40
1.0
 10
139.478711032
 20
118.6211652726
 30
0.0
 10
140.492597887
 20
118.0358106665
 30
0.0
 10
142.8504696836
 20
117.1815488454
 30
0.0
 10
146.6205007503
 20
116.772349186
 30
0.0
 10
150.3905261287
 20
117.1815660497
 30
0.0
 10
152.7483886515
 20
118.0358395786
 30
0.0
 10
153.7622680119
 20
118.621199606
 30
0.0
  0
SPLINE
  5
30A
100
AcDbEntity
  8
0
100
AcDbSpline
 62
7
  6
BYLAYER
 70
0
 71
3
 72
11
 73
7
 74
0
 42
0.0000001
 43
0.0000001
 44
0.0000000001
 40
0.0
 40
0.0
 40
0.0
 40
0.0
 40
0.2897776971
 40
0.5490719787
 40
0.7822272299
 40
1.0
 40
1.0
 40
1.0
 40
1.0
 10
271.7071880591
 20
186.7163244718
 30
0.0
 10
272.1504767179
 20
186.9722557706
 30
0.0
 10
272.9546083633
 20
187.5258854932
 30
0.0
 10
273.9153390899
 20
188.5359843211
 30
0.0
 10
274.5232433023
 20
189.6530038551
 30
0.0
 10
274.6653055971
 20
190.4548810954
 30
0.0
 10
274.6653055922
 20
190.8395560924
 30
0.0
  0
SPLINE
  5
30B
100
AcDbEntity
  8
0
100
AcDbSpline
 62
7
  6
BYLAYER
 70
0
 71
3
 72
9
 73
5
 74
0
 42
0.0000001
 43
0.0000001
 44
0.0000000001
 40
0.0
 40
0.0
 40
0.0
 40
0.0
 40
0.2222895698
 40
1.0
 40
1.0
 40
1.0
 40
1.0
 10
150.4025614038
 20
299.1434203549
 30
0.0
 10
150.327937985
 20
299.1585850059
 30
0.0
 10
149.9831821389
 20
299.1847379278
 30
0.0
 10
149.6434501613
 20
299.0551662808
 30
0.0
 10
149.4127263113
 20
298.921958599
 30
0.0
  0
SPLINE
  5
30C
100
AcDbEntity
  8
0
100
AcDbSpline
 62
7
  6
BYLAYER
 70
0
 71
3
 72
11
 73
7
 74
0
 42
0.0000001
 43
0.0000001
 44
0.0000000001
 40
0.0
 40
0.0
 40
0.0
 40
0.0
 40
0.237228705
 40
0.5000005261
 40
0.7627720609
 40
1.0
 40
1.0
 40
1.0
 40
1.0
 10
137.767523161
 20
169.4974581114
 30
0.0
 10
139.0243413218
 20
168.7718502234
 30
0.0
 10
141.9471685389
 20
167.7129038867
 30
0.0
 10
146.6205139801
 20
167.2056583684
 30
0.0
 10
151.2938523699
 20
167.7129252133
 30
0.0
 10
154.2166680913
 20
168.7718860629
 30
0.0
 10
155.4734769617
 20
169.4975006712
 30
0.0
  0
SPLINE
  5
30D
100
AcDbEntity
  8
0
100
AcDbSpline
 62
7
  6
BYLAYER
 70
0
 71
3
 72
11
 73
7
 74
0
 42
0.0000001
 43
0.0000001
 44
0.0000000001
 40
0.0
 40
0.0
 40
0.0
 40
0.0
 40
0.2897776971
 40
0.5490719787
 40
0.7822272299
 40
1.0
 40
1.0
 40
1.0
 40
1.0
 10
274.2386374601
 20
238.0661887555
 30
0.0
 10
274.7881398371
 20
238.383442207
 30
0.0
 10
275.7849446094
 20
239.0697238039
 30
0.0
 10
276.975870223
 20
240.3218463112
 30
0.0
 10
277.7294306923
 20
241.7065081494
 30
0.0
 10
277.9055316756
 20
242.7005183522
 30
0.0
 10
277.9055316695
 20
243.1773630021
 30
0.0
  0
SPLINE
  5
30E
100
AcDbEntity
  8
0
100
AcDbSpline
 62
7
  6
BYLAYER
 70
0
 71
3
 72
9
 73
5
 74
0
 42
0.0000001
 43
0.0000001
 44
0.0000000001
 40
0.0
 40
0.0
 40
0.0
 40
0.0
 40
0.2615734858
 40
1.0
 40
1.0
 40
1.0
 40
1.0
 10
144.237904302
 20
301.8488441114
 30
0.0
 10
143.7528101203
 20
301.6474409143
 30
0.0
 10
141.9227754538
 20
300.8220022936
 30
0.0
 10
140.191585843
 20
299.760913024
 30
0.0
 10
139.0376403809
 20
298.8297779927
 30
0.0
  0
SPLINE
  5
30F
100
AcDbEntity
  8
0
100
AcDbSpline
 62
7
  6
BYLAYER
 70
0
 71
3
 72
11
 73
7
 74
0
 42
0.0000001
 43
0.0000001
 44
0.0000000001
 40
0.0
 40
0.0
 40
0.0
 40
0.0
 40
0.2907473717
 40
0.5494922142
 40
0.7818601489
 40
1.0
 40
1.0
 40
1.0
 40
1.0
 10
39.5101699958
 20
250.2619862431
 30
0.0
 10
38.9619596395
 20
249.9453606157
 30
0.0
 10
37.9664380157
 20
249.2688008239
 30
0.0
 10
36.7712865943
 20
248.0350903584
 30
0.0
 10
36.0150045842
 20
246.6634087065
 30
0.0
 10
35.8404685198
 20
245.6753339189
 30
0.0
 10
35.8404993844
 20
245.2003535148
 30
0.0
  0
SPLINE
  5
310
100
AcDbEntity
  8
0
100
AcDbSpline
 62
7
  6
BYLAYER
 70
0
 71
3
 72
9
 73
5
 74
0
 42
0.0000001
 43
0.0000001
 44
0.0000000001
 40
0.0
 40
0.0
 40
0.0
 40
0.0
 40
0.2412225452
 40
1.0
 40
1.0
 40
1.0
 40
1.0
 10
158.269942511
 20
318.8275486972
 30
0.0
 10
158.4208244024
 20
318.9146279635
 30
0.0
 10
159.0536754505
 20
319.2627889929
 30
0.0
 10
159.7140876752
 20
319.5601757627
 30
0.0
 10
160.2246413572
 20
319.7592086461
 30
0.0
  0
SPLINE
  5
311
100
AcDbEntity
  8
0
100
AcDbSpline
 62
7
  6
BYLAYER
 70
0
 71
3
 72
9
 73
5
 74
0
 42
0.0000001
 43
0.0000001
 44
0.0000000001
 40
0.0
 40
0.0
 40
0.0
 40
0.0
 40
0.5413285749
 40
1.0
 40
1.0
 40
1.0
 40
1.0
 10
173.5833598292
 20
314.267488627
 30
0.0
 10
173.8203122483
 20
314.4157119112
 30
0.0
 10
174.2461420499
 20
314.7093281446
 30
0.0
 10
174.6307611049
 20
315.0580976248
 30
0.0
 10
174.7881100518
 20
315.2350820047
 30
0.0
  0
SPLINE
  5
312
100
AcDbEntity
  8
0
100
AcDbSpline
 62
7
  6
BYLAYER
 70
0
 71
3
 72
9
 73
5
 74
0
 42
0.0000001
 43
0.0000001
 44
0.0000000001
 40
0.0
 40
0.0
 40
0.0
 40
0.0
 40
0.2717514046
 40
1.0
 40
1.0
 40
1.0
 40
1.0
 10
174.7881100518
 20
315.2350820047
 30
0.0
 10
174.8325510491
 20
315.2850687539
 30
0.0
 10
174.9901729443
 20
315.4738933026
 30
0.0
 10
175.122663777
 20
315.6858089896
 30
0.0
 10
175.1920626977
 20
315.8510710371
 30
0.0
  0
SPLINE
  5
313
100
AcDbEntity
  8
0
100
AcDbSpline
 62
7
  6
BYLAYER
 70
0
 71
3
 72
9
 73
5
 74
0
 42
0.0000001
 43
0.0000001
 44
0.0000000001
 40
0.0
 40
0.0
 40
0.0
 40
0.0
 40
0.2597485198
 40
1.0
 40
1.0
 40
1.0
 40
1.0
 10
175.1920626977
 20
315.8510710371
 30
0.0
 10
175.2104599345
 20
315.8948810129
 30
0.0
 10
175.2740820294
 20
316.0664107615
 30
0.0
 10
175.304815378
 20
316.2506602261
 30
0.0
 10
175.3049464243
 20
316.3860750064
 30
0.0
  0
SPLINE
  5
314
100
AcDbEntity
  8
0
100
AcDbSpline
 62
7
  6
BYLAYER
 70
0
 71
3
 72
11
 73
7
 74
0
 42
0.0000001
 43
0.0000001
 44
0.0000000001
 40
0.0
 40
0.0
 40
0.0
 40
0.0
 40
0.2299360868
 40
0.4737456591
 40
0.7312076699
 40
1.0
 40
1.0
 40
1.0
 40
1.0
 10
44.0624375165
 20
244.8862899143
 30
0.0
 10
44.4314626015
 20
244.6478691805
 30
0.0
 10
45.2571484553
 20
244.2531657288
 30
0.0
 10
46.6265597286
 20
243.9360033119
 30
0.0
 10
48.1021562941
 20
243.8615564044
 30
0.0
 10
49.1065794354
 20
243.9527232899
 30
0.0
 10
49.6146842417
 20
244.0275746144
 30
0.0
  0
SPLINE
  5
315
100
AcDbEntity
  8
0
100
AcDbSpline
 62
7
  6
BYLAYER
 70
0
 71
3
 72
9
 73
5
 74
0
 42
0.0000001
 43
0.0000001
 44
0.0000000001
 40
0.0
 40
0.0
 40
0.0
 40
0.0
 40
0.5126560765
 40
1.0
 40
1.0
 40
1.0
 40
1.0
 10
50.6429825356
 20
244.2175416967
 30
0.0
 10
51.4499023972
 20
244.3957894307
 30
0.0
 10
52.9981945405
 20
244.8648974943
 30
0.0
 10
54.4740959855
 20
245.5258709342
 30
0.0
 10
55.165292098
 20
245.8991934492
 30
0.0
  0
SPLINE
  5
316
100
AcDbEntity
  8
0
100
AcDbSpline
 62
7
  6
BYLAYER
 70
0
 71
3
 72
9
 73
5
 74
0
 42
0.0000001
 43
0.0000001
 44
0.0000000001
 40
0.0
 40
0.0
 40
0.0
 40
0.0
 40
0.5380580251
 40
1.0
 40
1.0
 40
1.0
 40
1.0
 10
44.0624370872
 20
244.8862900072
 30
0.0
 10
43.5898235013
 20
245.1916375416
 30
0.0
 10
42.7692012958
 20
245.8617672716
 30
0.0
 10
42.1960817281
 20
246.7710983199
 30
0.0
 10
42.0369055892
 20
247.2271948983
 30
0.0
  0
SPLINE
  5
317
100
AcDbEntity
  8
0
100
AcDbSpline
 62
7
  6
BYLAYER
 70
0
 71
3
 72
9
 73
5
 74
0
 42
0.0000001
 43
0.0000001
 44
0.0000000001
 40
0.0
 40
0.0
 40
0.0
 40
0.0
 40
0.2563630303
 40
1.0
 40
1.0
 40
1.0
 40
1.0
 10
172.8886081797
 20
313.8116422882
 30
0.0
 10
172.9501228966
 20
313.8471576146
 30
0.0
 10
173.1881572993
 20
313.9889686101
 30
0.0
 10
173.4183089131
 20
314.1441556405
 30
0.0
 10
173.5833598292
 20
314.267488627
 30
0.0
  0
SPLINE
  5
318
100
AcDbEntity
  8
0
100
AcDbSpline
 62
7
  6
BYLAYER
 70
0
 71
3
 72
9
 73
5
 74
0
 42
0.0000001
 43
0.0000001
 44
0.0000000001
 40
0.0
 40
0.0
 40
0.0
 40
0.0
 40
0.2555706535
 40
1.0
 40
1.0
 40
1.0
 40
1.0
 10
55.165292098
 20
245.8991934492
 30
0.0
 10
55.2342094432
 20
245.9299360802
 30
0.0
 10
55.5023887315
 20
246.0535031684
 30
0.0
 10
55.7644849168
 20
246.1904018382
 30
0.0
 10
55.9548466197
 20
246.3003065625
 30
0.0
  0
SPLINE
  5
319
100
AcDbEntity
  8
0
100
AcDbSpline
 62
7
  6
BYLAYER
 70
0
 71
3
 72
9
 73
5
 74
0
 42
0.0000001
 43
0.0000001
 44
0.0000000001
 40
0.0
 40
0.0
 40
0.0
 40
0.0
 40
0.2674781404
 40
1.0
 40
1.0
 40
1.0
 40
1.0
 10
55.9548466197
 20
246.3003065625
 30
0.0
 10
56.1115212196
 20
246.390762145
 30
0.0
 10
56.6847362493
 20
246.7491131411
 30
0.0
 10
57.2085929718
 20
247.1942900582
 30
0.0
 10
57.5292164716
 20
247.5720082344
 30
0.0
  0
SPLINE
  5
31A
100
AcDbEntity
  8
0
100
AcDbSpline
 62
7
  6
BYLAYER
 70
0
 71
3
 72
9
 73
5
 74
0
 42
0.0000001
 43
0.0000001
 44
0.0000000001
 40
0.0
 40
0.0
 40
0.0
 40
0.0
 40
0.5210682213
 40
1.0
 40
1.0
 40
1.0
 40
1.0
 10
57.5292164716
 20
247.5720082344
 30
0.0
 10
57.7543693383
 20
247.8372549497
 30
0.0
 10
58.130650454
 20
248.3998732826
 30
0.0
 10
58.3208761258
 20
249.0542264501
 30
0.0
 10
58.3552018314
 20
249.372165866
 30
0.0
  0
SPLINE
  5
31B
100
AcDbEntity
  8
0
100
AcDbSpline
 62
7
  6
BYLAYER
 70
0
 71
3
 72
9
 73
5
 74
0
 42
0.0000001
 43
0.0000001
 44
0.0000000001
 40
0.0
 40
0.0
 40
0.0
 40
0.0
 40
0.4667425809
 40
1.0
 40
1.0
 40
1.0
 40
1.0
 10
160.5886680453
 20
314.2216500903
 30
0.0
 10
161.3792952452
 20
313.64555004
 30
0.0
 10
163.338383019
 20
312.779387337
 30
0.0
 10
165.4307186046
 20
312.4653381363
 30
0.0
 10
166.5476771604
 20
312.4256161268
 30
0.0
  0
SPLINE
  5
31C
100
AcDbEntity
  8
0
100
AcDbSpline
 62
7
  6
BYLAYER
 70
0
 71
3
 72
9
 73
5
 74
0
 42
0.0000001
 43
0.0000001
 44
0.0000000001
 40
0.0
 40
0.0
 40
0.0
 40
0.0
 40
0.5253535801
 40
1.0
 40
1.0
 40
1.0
 40
1.0
 10
167.5503279021
 20
312.425168027
 30
0.0
 10
168.5224437213
 20
312.4589453606
 30
0.0
 10
170.3711227833
 20
312.7091958506
 30
0.0
 10
172.1275290604
 20
313.3722356767
 30
0.0
 10
172.8886081797
 20
313.8116422882
 30
0.0
  0
SPLINE
  5
31D
100
AcDbEntity
  8
0
100
AcDbSpline
 62
7
  6
BYLAYER
 70
0
 71
3
 72
15
 73
11
 74
0
 42
0.0000001
 43
0.0000001
 44
0.0000000001
 40
0.0
 40
0.0
 40
0.0
 40
0.0
 40
0.1667492846
 40
0.3310006504
 40
0.4870679553
 40
0.6290371337
 40
0.7517430611
 40
0.8526208898
 40
0.9330055244
 40
1.0
 40
1.0
 40
1.0
 40
1.0
 10
167.5549197052
 20
320.9520120035
 30
0.0
 10
168.0514330819
 20
320.8459186997
 30
0.0
 10
169.027349709
 20
320.5880730684
 30
0.0
 10
170.4272225456
 20
320.0944497993
 30
0.0
 10
171.7176562119
 20
319.5289680198
 30
0.0
 10
172.8496174442
 20
318.9261214875
 30
0.0
 10
173.780910966
 20
318.3124737801
 30
0.0
 10
174.4812828076
 20
317.7014055728
 30
0.0
 10
174.9368591769
 20
317.0859960042
 30
0.0
 10
175.0551855233
 20
316.6355050125
 30
0.0
 10
175.0552196878
 20
316.4315188395
 30
0.0
  0
SPLINE
  5
31E
100
AcDbEntity
  8
0
100
AcDbSpline
 62
7
  6
BYLAYER
 70
0
 71
3
 72
9
 73
5
 74
0
 42
0.0000001
 43
0.0000001
 44
0.0000000001
 40
0.0
 40
0.0
 40
0.0
 40
0.0
 40
0.5103454685
 40
1.0
 40
1.0
 40
1.0
 40
1.0
 10
152.524821783
 20
188.9581729537
 30
0.0
 10
152.9762075354
 20
189.2187790837
 30
0.0
 10
153.7909129927
 20
189.8667748015
 30
0.0
 10
154.3523980156
 20
190.7442769305
 30
0.0
 10
154.5512077452
 20
191.203142584
 30
0.0
  0
SPLINE
  5
31F
100
AcDbEntity
  8
0
100
AcDbSpline
 62
7
  6
BYLAYER
 70
0
 71
3
 72
9
 73
5
 74
0
 42
0.0000001
 43
0.0000001
 44
0.0000000001
 40
0.0
 40
0.0
 40
0.0
 40
0.0
 40
0.4868504935
 40
1.0
 40
1.0
 40
1.0
 40
1.0
 10
258.5015397942
 20
257.69290608
 30
0.0
 10
259.2018828045
 20
257.3059572064
 30
0.0
 10
260.7022816005
 20
256.6217276709
 30
0.0
 10
262.2786013153
 20
256.1353085013
 30
0.0
 10
263.1015413111
 20
255.9508790571
 30
0.0
  0
SPLINE
  5
320
100
AcDbEntity
  8
0
100
AcDbSpline
 62
7
  6
BYLAYER
 70
0
 71
3
 72
10
 73
6
 74
0
 42
0.0000001
 43
0.0000001
 44
0.0000000001
 40
0.0
 40
0.0
 40
0.0
 40
0.0
 40
0.268214564
 40
0.525859655
 40
1.0
 40
1.0
 40
1.0
 40
1.0
 10
264.1299951404
 20
255.7577446194
 30
0.0
 10
264.6125142256
 20
255.6852474788
 30
0.0
 10
265.5683846529
 20
255.5935855066
 30
0.0
 10
267.3870117077
 20
255.6584799017
 30
0.0
 10
268.7115882471
 20
256.038233434
 30
0.0
 10
269.458583343
 20
256.4695086794
 30
0.0
  0
SPLINE
  5
321
100
AcDbEntity
  8
0
100
AcDbSpline
 62
7
  6
BYLAYER
 70
0
 71
3
 72
9
 73
5
 74
0
 42
0.0000001
 43
0.0000001
 44
0.0000000001
 40
0.0
 40
0.0
 40
0.0
 40
0.0
 40
0.4757700752
 40
1.0
 40
1.0
 40
1.0
 40
1.0
 10
141.0917512904
 20
188.8676564514
 30
0.0
 10
141.834465436
 20
188.4860459756
 30
0.0
 10
143.5177052366
 20
187.9207584001
 30
0.0
 10
145.269442249
 20
187.7051784295
 30
0.0
 10
146.1889236421
 20
187.6723711533
 30
0.0
  0
SPLINE
  5
322
100
AcDbEntity
  8
0
100
AcDbSpline
 62
7
  6
BYLAYER
 70
0
 71
3
 72
9
 73
5
 74
0
 42
0.0000001
 43
0.0000001
 44
0.0000000001
 40
0.0
 40
0.0
 40
0.0
 40
0.0
 40
0.5234149248
 40
1.0
 40
1.0
 40
1.0
 40
1.0
 10
147.2890695352
 20
187.6722213243
 30
0.0
 10
148.172803602
 20
187.7035123839
 30
0.0
 10
149.8592239747
 20
187.9049663744
 30
0.0
 10
151.4833839063
 20
188.4323925578
 30
0.0
 10
152.205806738
 20
188.7879276838
 30
0.0
  0
SPLINE
  5
323
100
AcDbEntity
  8
0
100
AcDbSpline
 62
7
  6
BYLAYER
 70
0
 71
3
 72
9
 73
5
 74
0
 42
0.0000001
 43
0.0000001
 44
0.0000000001
 40
0.0
 40
0.0
 40
0.0
 40
0.0
 40
0.2435108328
 40
1.0
 40
1.0
 40
1.0
 40
1.0
 10
178.3251315368
 20
270.4833301829
 30
0.0
 10
178.1919422402
 20
270.7451824309
 30
0.0
 10
177.5999186761
 20
271.7974426465
 30
0.0
 10
176.8396893738
 20
272.751198439
 30
0.0
 10
176.2049735891
 20
273.4069943905
 30
0.0
  0
SPLINE
  5
324
100
AcDbEntity
  8
0
100
AcDbSpline
 62
7
  6
BYLAYER
 70
0
 71
3
 72
9
 73
5
 74
0
 42
0.0000001
 43
0.0000001
 44
0.0000000001
 40
0.0
 40
0.0
 40
0.0
 40
0.0
 40
0.5335389846
 40
1.0
 40
1.0
 40
1.0
 40
1.0
 10
147.1911333084
 20
198.5245604722
 30
0.0
 10
148.2772659718
 20
198.4852944453
 30
0.0
 10
150.3106351335
 20
198.1782194807
 30
0.0
 10
152.21349151
 20
197.3323666236
 30
0.0
 10
152.9794554358
 20
196.7700659304
 30
0.0
  0
SPLINE
  5
325
100
AcDbEntity
  8
0
100
AcDbSpline
 62
7
  6
BYLAYER
 70
0
 71
3
 72
9
 73
5
 74
0
 42
0.0000001
 43
0.0000001
 44
0.0000000001
 40
0.0
 40
0.0
 40
0.0
 40
0.0
 40
0.2434994789
 40
1.0
 40
1.0
 40
1.0
 40
1.0
 10
140.341031111
 20
196.7240700916
 30
0.0
 10
140.3948663949
 20
196.7646331799
 30
0.0
 10
140.6187016777
 20
196.9275581879
 30
0.0
 10
140.8529282877
 20
197.0760710923
 30
0.0
 10
141.0342887493
 20
197.1807789786
 30
0.0
  0
SPLINE
  5
326
100
AcDbEntity
  8
0
100
AcDbSpline
 62
7
  6
BYLAYER
 70
0
 71
3
 72
9
 73
5
 74
0
 42
0.0000001
 43
0.0000001
 44
0.0000000001
 40
0.0
 40
0.0
 40
0.0
 40
0.0
 40
0.4746169433
 40
1.0
 40
1.0
 40
1.0
 40
1.0
 10
141.0342887493
 20
197.1807789786
 30
0.0
 10
141.7695809667
 20
197.6052976042
 30
0.0
 10
143.4660613499
 20
198.2468601296
 30
0.0
 10
145.2518906319
 20
198.4905978968
 30
0.0
 10
146.1911333084
 20
198.5245580685
 30
0.0
  0
SPLINE
  5
327
100
AcDbEntity
  8
0
100
AcDbSpline
 62
7
  6
BYLAYER
 70
0
 71
3
 72
15
 73
11
 74
0
 42
0.0000001
 43
0.0000001
 44
0.0000000001
 40
0.0
 40
0.0
 40
0.0
 40
0.0
 40
0.1662754088
 40
0.3300778756
 40
0.4858520256
 40
0.6277916293
 40
0.7507239079
 40
0.8519597741
 40
0.9328347406
 40
1.0
 40
1.0
 40
1.0
 40
1.0
 10
264.1248948685
 20
265.1985721586
 30
0.0
 10
264.6184877904
 20
265.0931028878
 30
0.0
 10
265.5887708719
 20
264.8370300052
 30
0.0
 10
266.9812134368
 20
264.3470963335
 30
0.0
 10
268.2661729031
 20
263.785703952
 30
0.0
 10
269.3953813253
 20
263.1866920347
 30
0.0
 10
270.3268682283
 20
262.5765487509
 30
0.0
 10
271.0305286831
 20
261.9688845456
 30
0.0
 10
271.493076831
 20
261.3583685212
 30
0.0
 10
271.6200892244
 20
260.9101325184
 30
0.0
 10
271.62461531
 20
260.7063000678
 30
0.0
  0
SPLINE
  5
328
100
AcDbEntity
  8
0
100
AcDbSpline
 62
7
  6
BYLAYER
 70
0
 71
3
 72
9
 73
5
 74
0
 42
0.0000001
 43
0.0000001
 44
0.0000000001
 40
0.0
 40
0.0
 40
0.0
 40
0.0
 40
0.244262536
 40
1.0
 40
1.0
 40
1.0
 40
1.0
 10
257.9680503094
 20
264.6921147043
 30
0.0
 10
258.0305798025
 20
264.7282159085
 30
0.0
 10
258.2886883481
 20
264.8723318205
 30
0.0
 10
258.5548054845
 20
265.001986992
 30
0.0
 10
258.7590988422
 20
265.0923652694
 30
0.0
  0
SPLINE
  5
329
100
AcDbEntity
  8
0
100
AcDbSpline
 62
7
  6
BYLAYER
 70
0
 71
3
 72
10
 73
6
 74
0
 42
0.0000001
 43
0.0000001
 44
0.0000000001
 40
0.0
 40
0.0
 40
0.0
 40
0.0
 40
0.2473074765
 40
0.4941554821
 40
1.0
 40
1.0
 40
1.0
 40
1.0
 10
115.8964003463
 20
258.7298770669
 30
0.0
 10
115.8964003463
 20
258.9234508438
 30
0.0
 10
115.9591601812
 20
259.3130649775
 30
0.0
 10
116.3155210917
 20
260.0204250097
 30
0.0
 10
116.7857360725
 20
260.4185379274
 30
0.0
 10
117.1286282719
 20
260.6165056494
 30
0.0
  0
SPLINE
  5
32A
100
AcDbEntity
  8
0
100
AcDbSpline
 62
7
  6
BYLAYER
 70
0
 71
3
 72
9
 73
5
 74
0
 42
0.0000001
 43
0.0000001
 44
0.0000000001
 40
0.0
 40
0.0
 40
0.0
 40
0.0
 40
0.234342147
 40
1.0
 40
1.0
 40
1.0
 40
1.0
 10
258.7590988422
 20
265.0923652694
 30
0.0
 10
259.0836492454
 20
265.2055366687
 30
0.0
 10
260.5087494512
 20
265.5746976813
 30
0.0
 10
262.0131831919
 20
265.5363877659
 30
0.0
 10
263.1248948685
 20
265.3774798306
 30
0.0
  0
SPLINE
  5
32B
100
AcDbEntity
  8
0
100
AcDbSpline
 62
7
  6
BYLAYER
 70
0
 71
3
 72
10
 73
6
 74
0
 42
0.0000001
 43
0.0000001
 44
0.0000000001
 40
0.0
 40
0.0
 40
0.0
 40
0.0
 40
0.5058310863
 40
0.752683944
 40
1.0
 40
1.0
 40
1.0
 40
1.0
 10
196.617470261
 20
260.6166979189
 30
0.0
 10
196.9603587938
 20
260.4187356107
 30
0.0
 10
197.4306032203
 20
260.0206479999
 30
0.0
 10
197.7869385685
 20
259.3132647248
 30
0.0
 10
197.8497191514
 20
258.9236399891
 30
0.0
 10
197.8497191514
 20
258.7300572325
 30
0.0
  0
SPLINE
  5
32C
100
AcDbEntity
  8
0
100
AcDbSpline
 62
7
  6
BYLAYER
 70
0
 71
3
 72
11
 73
7
 74
0
 42
0.0000001
 43
0.0000001
 44
0.0000000001
 40
0.0
 40
0.0
 40
0.0
 40
0.0
 40
0.2179880431
 40
0.4527466686
 40
0.7124764913
 40
1.0
 40
1.0
 40
1.0
 40
1.0
 10
255.6396693073
 20
261.7061704639
 30
0.0
 10
255.6694849751
 20
261.9894312143
 30
0.0
 10
255.8277634997
 20
262.5705160664
 30
0.0
 10
256.3207456263
 20
263.3718380969
 30
0.0
 10
257.0482553718
 20
264.0997841786
 30
0.0
 10
257.6427001686
 20
264.5042748342
 30
0.0
 10
257.9680503094
 20
264.6921147043
 30
0.0
  0
SPLINE
  5
32D
100
AcDbEntity
  8
0
100
AcDbSpline
 62
7
  6
BYLAYER
 70
0
 71
3
 72
9
 73
5
 74
0
 42
0.0000001
 43
0.0000001
 44
0.0000000001
 40
0.0
 40
0.0
 40
0.0
 40
0.0
 40
0.4804058234
 40
1.0
 40
1.0
 40
1.0
 40
1.0
 10
255.3752469648
 20
261.3885971458
 30
0.0
 10
255.3798742919
 20
261.0535794505
 30
0.0
 10
255.5222096012
 20
260.353477004
 30
0.0
 10
255.8868705952
 20
259.7451414208
 30
0.0
 10
256.110603623
 20
259.4600740997
 30
0.0
  0
SPLINE
  5
32E
100
AcDbEntity
  8
0
100
AcDbSpline
 62
7
  6
BYLAYER
 70
0
 71
3
 72
9
 73
5
 74
0
 42
0.0000001
 43
0.0000001
 44
0.0000000001
 40
0.0
 40
0.0
 40
0.0
 40
0.0
 40
0.2265392504
 40
1.0
 40
1.0
 40
1.0
 40
1.0
 10
256.110603623
 20
259.4600740997
 30
0.0
 10
256.249984338
 20
259.2824834801
 30
0.0
 10
256.927893449
 20
258.5475147578
 30
0.0
 10
257.8006099673
 20
258.0135383855
 30
0.0
 10
258.5015397942
 20
257.69290608
 30
0.0
  0
SPLINE
  5
32F
100
AcDbEntity
  8
0
100
AcDbSpline
 62
7
  6
BYLAYER
 70
0
 71
3
 72
9
 73
5
 74
0
 42
0.0000001
 43
0.0000001
 44
0.0000000001
 40
0.0
 40
0.0
 40
0.0
 40
0.0
 40
0.4893261116
 40
1.0
 40
1.0
 40
1.0
 40
1.0
 10
138.6911666371
 20
193.1667946285
 30
0.0
 10
138.6911641713
 20
193.8213900535
 30
0.0
 10
138.9854537975
 20
195.1754173348
 30
0.0
 10
139.8270943829
 20
196.2739949966
 30
0.0
 10
140.341031111
 20
196.7240700916
 30
0.0
  0
SPLINE
  5
330
100
AcDbEntity
  8
0
100
AcDbSpline
 62
7
  6
BYLAYER
 70
0
 71
3
 72
9
 73
5
 74
0
 42
0.0000001
 43
0.0000001
 44
0.0000000001
 40
0.0
 40
0.0
 40
0.0
 40
0.0
 40
0.4889433938
 40
1.0
 40
1.0
 40
1.0
 40
1.0
 10
154.6911365857
 20
193.1411411865
 30
0.0
 10
154.6910797401
 20
193.8108747763
 30
0.0
 10
154.385231021
 20
195.1978006533
 30
0.0
 10
153.5116199087
 20
196.3152762879
 30
0.0
 10
152.9794554358
 20
196.7700659305
 30
0.0
  0
SPLINE
  5
331
100
AcDbEntity
  8
0
100
AcDbSpline
 62
7
  6
BYLAYER
 70
0
 71
3
 72
9
 73
5
 74
0
 42
0.0000001
 43
0.0000001
 44
0.0000000001
 40
0.0
 40
0.0
 40
0.0
 40
0.0
 40
0.4875470738
 40
1.0
 40
1.0
 40
1.0
 40
1.0
 10
138.7367186687
 20
191.4708917752
 30
0.0
 10
138.9389861694
 20
190.9265846681
 30
0.0
 10
139.5700896833
 20
189.8780889607
 30
0.0
 10
140.5488909363
 20
189.1465775836
 30
0.0
 10
141.0917627071
 20
188.8676479205
 30
0.0
  0
SPLINE
  5
332
100
AcDbEntity
  8
0
100
AcDbSpline
 62
7
  6
BYLAYER
 70
0
 71
3
 72
9
 73
5
 74
0
 42
0.0000001
 43
0.0000001
 44
0.0000000001
 40
0.0
 40
0.0
 40
0.0
 40
0.0
 40
0.2469416751
 40
1.0
 40
1.0
 40
1.0
 40
1.0
 10
271.8416346975
 20
259.5054927763
 30
0.0
 10
271.8349720582
 20
259.4622656139
 30
0.0
 10
271.8040321547
 20
259.2878409922
 30
0.0
 10
271.7574180452
 20
259.116259554
 30
0.0
 10
271.714551092
 20
258.9899562332
 30
0.0
  0
SPLINE
  5
333
100
AcDbEntity
  8
0
100
AcDbSpline
 62
7
  6
BYLAYER
 70
0
 71
3
 72
9
 73
5
 74
0
 42
0.0000001
 43
0.0000001
 44
0.0000000001
 40
0.0
 40
0.0
 40
0.0
 40
0.0
 40
0.4635097971
 40
1.0
 40
1.0
 40
1.0
 40
1.0
 10
271.714551092
 20
258.9899562332
 30
0.0
 10
271.5615157526
 20
258.5390524456
 30
0.0
 10
271.0124581167
 20
257.6384072166
 30
0.0
 10
270.2184588846
 20
256.965527411
 30
0.0
 10
269.7610463769
 20
256.6580731356
 30
0.0
  0
SPLINE
  5
334
100
AcDbEntity
  8
0
100
AcDbSpline
 62
7
  6
BYLAYER
 70
0
 71
3
 72
13
 73
9
 74
0
 42
0.0000001
 43
0.0000001
 44
0.0000000001
 40
0.0
 40
0.0
 40
0.0
 40
0.0
 40
0.150882322
 40
0.2550856171
 40
0.3795935478
 40
0.5214106592
 40
0.6756278001
 40
1.0
 40
1.0
 40
1.0
 40
1.0
 10
159.0740267858
 20
316.6246672385
 30
0.0
 10
159.1507551968
 20
317.0653267418
 30
0.0
 10
159.6496760685
 20
317.7165212648
 30
0.0
 10
160.519879569
 20
318.4118172849
 30
0.0
 10
161.4541127698
 20
319.0005285579
 30
0.0
 10
162.5618075684
 20
319.5726131727
 30
0.0
 10
164.2526814631
 20
320.2991475393
 30
0.0
 10
165.6150929751
 20
320.7215473827
 30
0.0
 10
166.5549197052
 20
320.9250146036
 30
0.0
  0
SPLINE
  5
335
100
AcDbEntity
  8
0
100
AcDbSpline
 62
7
  6
BYLAYER
 70
0
 71
3
 72
9
 73
5
 74
0
 42
0.0000001
 43
0.0000001
 44
0.0000000001
 40
0.0
 40
0.0
 40
0.0
 40
0.0
 40
0.2435893429
 40
1.0
 40
1.0
 40
1.0
 40
1.0
 10
158.8046913924
 20
316.3597275094
 30
0.0
 10
158.8046914527
 20
316.3132394592
 30
0.0
 10
158.8152155488
 20
316.1223969703
 30
0.0
 10
158.869833979
 20
315.9351515231
 30
0.0
 10
158.9284726625
 20
315.803239732
 30
0.0
  0
SPLINE
  5
336
100
AcDbEntity
  8
0
100
AcDbSpline
 62
7
  6
BYLAYER
 70
0
 71
3
 72
9
 73
5
 74
0
 42
0.0000001
 43
0.0000001
 44
0.0000000001
 40
0.0
 40
0.0
 40
0.0
 40
0.0
 40
0.2316272634
 40
1.0
 40
1.0
 40
1.0
 40
1.0
 10
158.9284726625
 20
315.803239732
 30
0.0
 10
158.9499681445
 20
315.7548841524
 30
0.0
 10
159.0528496429
 20
315.5505794115
 30
0.0
 10
159.191537038
 20
315.3657831443
 30
0.0
 10
159.3080084126
 20
315.2344434822
 30
0.0
  0
SPLINE
  5
337
100
AcDbEntity
  8
0
100
AcDbSpline
 62
7
  6
BYLAYER
 70
0
 71
3
 72
9
 73
5
 74
0
 42
0.0000001
 43
0.0000001
 44
0.0000000001
 40
0.0
 40
0.0
 40
0.0
 40
0.0
 40
0.456221215
 40
1.0
 40
1.0
 40
1.0
 40
1.0
 10
159.3080084126
 20
315.2344434822
 30
0.0
 10
159.4731832618
 20
315.0481830474
 30
0.0
 10
159.8818908338
 20
314.6815562445
 30
0.0
 10
160.3352008893
 20
314.3759273183
 30
0.0
 10
160.5886680453
 20
314.2216500903
 30
0.0
  0
SPLINE
  5
338
100
AcDbEntity
  8
0
100
AcDbSpline
 62
7
  6
BYLAYER
 70
0
 71
3
 72
11
 73
7
 74
0
 42
0.0000001
 43
0.0000001
 44
0.0000000001
 40
0.0
 40
0.0
 40
0.0
 40
0.0
 40
0.2181421733
 40
0.4505091474
 40
0.7092123996
 40
1.0
 40
1.0
 40
1.0
 40
1.0
 10
277.9056201062
 20
257.0399235223
 30
0.0
 10
277.9055891497
 20
257.5148790593
 30
0.0
 10
277.7311362313
 20
258.5028942834
 30
0.0
 10
276.9748746342
 20
259.8743922133
 30
0.0
 10
275.7798808405
 20
261.1080600436
 30
0.0
 10
274.784486303
 20
261.7846885868
 30
0.0
 10
274.2362246953
 20
262.1013208617
 30
0.0
  0
SPLINE
  5
339
100
AcDbEntity
  8
0
100
AcDbSpline
 62
7
  6
BYLAYER
 70
0
 71
3
 72
11
 73
7
 74
0
 42
0.0000001
 43
0.0000001
 44
0.0000000001
 40
0.0
 40
0.0
 40
0.0
 40
0.0
 40
0.2177723091
 40
0.4509273687
 40
0.7102218233
 40
1.0
 40
1.0
 40
1.0
 40
1.0
 10
35.8405878283
 20
231.337810166
 30
0.0
 10
35.8405878344
 20
230.8609603828
 30
0.0
 10
36.0166928391
 20
229.866938711
 30
0.0
 10
36.7702696104
 20
228.4822634659
 30
0.0
 10
37.9612194116
 20
227.2301316772
 30
0.0
 10
38.9580431015
 20
226.5438474604
 30
0.0
 10
39.5075557545
 20
226.2265933595
 30
0.0
  0
SPLINE
  5
33A
100
AcDbEntity
  8
0
100
AcDbSpline
 62
7
  6
BYLAYER
 70
0
 71
3
 72
11
 73
7
 74
0
 42
0.0000001
 43
0.0000001
 44
0.0000000001
 40
0.0
 40
0.0
 40
0.0
 40
0.0
 40
0.2177723091
 40
0.4509273687
 40
0.7102218233
 40
1.0
 40
1.0
 40
1.0
 40
1.0
 10
39.0808139056
 20
179.0000071996
 30
0.0
 10
39.0808139105
 20
178.6153280614
 30
0.0
 10
39.2228794494
 20
177.813441569
 30
0.0
 10
39.8307968129
 20
176.6964112195
 30
0.0
 10
40.7915470519
 20
175.6863049044
 30
0.0
 10
41.5956939582
 20
175.1326730681
 30
0.0
 10
42.0389909068
 20
174.8767412455
 30
0.0
  0
SPLINE
  5
33B
100
AcDbEntity
  8
0
100
AcDbSpline
 62
7
  6
BYLAYER
 70
0
 71
3
 72
11
 73
7
 74
0
 42
0.0000001
 43
0.0000001
 44
0.0000000001
 40
0.0
 40
0.0
 40
0.0
 40
0.0
 40
0.2372531816
 40
0.5000006935
 40
0.7627478297
 40
1.0
 40
1.0
 40
1.0
 40
1.0
 10
167.3382948681
 20
284.6132817592
 30
0.0
 10
167.5290450267
 20
284.5031545952
 30
0.0
 10
167.972603661
 20
284.3424277051
 30
0.0
 10
168.681800254
 20
284.2655868784
 30
0.0
 10
169.390995532
 20
284.3424310937
 30
0.0
 10
169.8345520853
 20
284.5031601479
 30
0.0
 10
170.0253006366
 20
284.6132882179
 30
0.0
  0
SPLINE
  5
33C
100
AcDbEntity
  8
0
100
AcDbSpline
 62
7
  6
BYLAYER
 70
0
 71
3
 72
9
 73
5
 74
0
 42
0.0000001
 43
0.0000001
 44
0.0000000001
 40
0.0
 40
0.0
 40
0.0
 40
0.0
 40
0.2729611054
 40
1.0
 40
1.0
 40
1.0
 40
1.0
 10
170.0253006366
 20
284.6132882179
 30
0.0
 10
170.0713273906
 20
284.6398616182
 30
0.0
 10
170.2351752069
 20
284.7445139736
 30
0.0
 10
170.38121153
 20
284.8822879347
 30
0.0
 10
170.4587992436
 20
285.0006896025
 30
0.0
  0
SPLINE
  5
33D
100
AcDbEntity
  8
0
100
AcDbSpline
 62
7
  6
BYLAYER
 70
0
 71
3
 72
9
 73
5
 74
0
 42
0.0000001
 43
0.0000001
 44
0.0000000001
 40
0.0
 40
0.0
 40
0.0
 40
0.0
 40
0.2592344937
 40
1.0
 40
1.0
 40
1.0
 40
1.0
 10
170.4587992436
 20
285.0006896025
 30
0.0
 10
170.4701461044
 20
285.018005324
 30
0.0
 10
170.5115681388
 20
285.0862830684
 30
0.0
 10
170.5429638223
 20
285.160854077
 30
0.0
 10
170.5585410825
 20
285.2179234057
 30
0.0
  0
SPLINE
  5
33E
100
AcDbEntity
  8
0
100
AcDbSpline
 62
7
  6
BYLAYER
 70
0
 71
3
 72
8
 73
4
 74
0
 42
0.0000001
 43
0.0000001
 44
0.0000000001
 40
0.0
 40
0.0
 40
0.0
 40
0.0
 40
1.0
 40
1.0
 40
1.0
 40
1.0
 10
170.5585410825
 20
285.2179234057
 30
0.0
 10
170.5736891334
 20
285.27342027
 30
0.0
 10
170.5816858661
 20
285.3314185668
 30
0.0
 10
170.5816858482
 20
285.3889456508
 30
0.0
  0
SPLINE
  5
33F
100
AcDbEntity
  8
0
100
AcDbSpline
 62
7
  6
BYLAYER
 70
0
 71
3
 72
11
 73
7
 74
0
 42
0.0000001
 43
0.0000001
 44
0.0000000001
 40
0.0
 40
0.0
 40
0.0
 40
0.0
 40
0.2362339405
 40
0.4978381177
 40
0.760613325
 40
1.0
 40
1.0
 40
1.0
 40
1.0
 10
145.2414306075
 20
296.5136742771
 30
0.0
 10
144.9963716505
 20
296.3721902668
 30
0.0
 10
144.5314223454
 20
295.9839615536
 30
0.0
 10
143.9840259487
 20
295.2475327591
 30
0.0
 10
143.6019404305
 20
294.409111655
 30
0.0
 10
143.4832670575
 20
293.8102875499
 30
0.0
 10
143.4747478859
 20
293.5236683864
 30
0.0
  0
SPLINE
  5
340
100
AcDbEntity
  8
0
100
AcDbSpline
 62
7
  6
BYLAYER
 70
0
 71
3
 72
9
 73
5
 74
0
 42
0.0000001
 43
0.0000001
 44
0.0000000001
 40
0.0
 40
0.0
 40
0.0
 40
0.0
 40
0.2860329354
 40
1.0
 40
1.0
 40
1.0
 40
1.0
 10
169.8838686821
 20
286.0829607131
 30
0.0
 10
169.944197417
 20
286.0481306898
 30
0.0
 10
170.1459833471
 20
285.9145068319
 30
0.0
 10
170.3151975273
 20
285.709717908
 30
0.0
 10
170.3609863572
 20
285.5419736283
 30
0.0
  0
SPLINE
  5
341
100
AcDbEntity
  8
0
100
AcDbSpline
 62
7
  6
BYLAYER
 70
0
 71
3
 72
8
 73
4
 74
0
 42
0.0000001
 43
0.0000001
 44
0.0000000001
 40
0.0
 40
0.0
 40
0.0
 40
0.0
 40
1.0
 40
1.0
 40
1.0
 40
1.0
 10
170.3609863572
 20
285.5419736283
 30
0.0
 10
170.3745412877
 20
285.492316058
 30
0.0
 10
170.3816970503
 20
285.4404200188
 30
0.0
 10
170.3816970388
 20
285.3889456522
 30
0.0
  0
SPLINE
  5
342
100
AcDbEntity
  8
0
100
AcDbSpline
 62
7
  6
BYLAYER
 70
0
 71
3
 72
11
 73
7
 74
0
 42
0.0000001
 43
0.0000001
 44
0.0000000001
 40
0.0
 40
0.0
 40
0.0
 40
0.0
 40
0.2027519006
 40
0.4616870669
 40
0.743219348
 40
1.0
 40
1.0
 40
1.0
 40
1.0
 10
144.3929778423
 20
297.6035119128
 30
0.0
 10
144.4215702789
 20
297.5495187411
 30
0.0
 10
144.5372927548
 20
297.4565526412
 30
0.0
 10
144.7553840799
 20
297.3956700078
 30
0.0
 10
144.9984893267
 20
297.3966362394
 30
0.0
 10
145.1576735784
 20
297.4451033918
 30
0.0
 10
145.2246844742
 20
297.4837919195
 30
0.0
  0
SPLINE
  5
343
100
AcDbEntity
  8
0
100
AcDbSpline
 62
7
  6
BYLAYER
 70
0
 71
3
 72
15
 73
11
 74
0
 42
0.0000001
 43
0.0000001
 44
0.0000000001
 40
0.0
 40
0.0
 40
0.0
 40
0.0
 40
0.1668714428
 40
0.3312386661
 40
0.4875024455
 40
0.6296753381
 40
0.7524865832
 40
0.85325949
 40
0.9334091959
 40
1.0
 40
1.0
 40
1.0
 40
1.0
 10
49.6211581451
 20
253.4136788779
 30
0.0
 10
49.1248834893
 20
253.3062381957
 30
0.0
 10
48.1495814813
 20
253.0458418964
 30
0.0
 10
46.750145881
 20
252.5499297576
 30
0.0
 10
45.4597426411
 20
251.9827051219
 30
0.0
 10
44.327465016
 20
251.3790216094
 30
0.0
 10
43.3957211792
 20
250.7662171171
 30
0.0
 10
42.6954483344
 20
250.1572548043
 30
0.0
 10
42.2392911718
 20
249.5456297578
 30
0.0
 10
42.1212139
 20
249.0972951121
 30
0.0
 10
42.1211929257
 20
248.894666545
 30
0.0
  0
SPLINE
  5
344
100
AcDbEntity
  8
0
100
AcDbSpline
 62
7
  6
BYLAYER
 70
0
 71
3
 72
11
 73
7
 74
0
 42
0.0000001
 43
0.0000001
 44
0.0000000001
 40
0.0
 40
0.0
 40
0.0
 40
0.0
 40
0.2960688352
 40
0.5579551822
 40
0.7886259166
 40
1.0
 40
1.0
 40
1.0
 40
1.0
 10
55.0665836868
 20
253.2988099408
 30
0.0
 10
55.5151794204
 20
253.0951274384
 30
0.0
 10
56.3323191828
 20
252.6407701026
 30
0.0
 10
57.3264663268
 20
251.7647814392
 30
0.0
 10
57.9679146819
 20
250.7615285505
 30
0.0
 10
58.1210839601
 20
250.020027995
 30
0.0
 10
58.1211373879
 20
249.6682926446
 30
0.0
  0
SPLINE
  5
345
100
AcDbEntity
  8
0
100
AcDbSpline
 62
7
  6
BYLAYER
 70
0
 71
3
 72
9
 73
5
 74
0
 42
0.0000001
 43
0.0000001
 44
0.0000000001
 40
0.0
 40
0.0
 40
0.0
 40
0.0
 40
0.2661607549
 40
1.0
 40
1.0
 40
1.0
 40
1.0
 10
50.6211581451
 20
253.5955452848
 30
0.0
 10
51.0142422034
 20
253.6529498224
 30
0.0
 10
52.4957953884
 20
253.8055411014
 30
0.0
 10
54.035813917
 20
253.6691466076
 30
0.0
 10
55.0665836868
 20
253.2988099408
 30
0.0
  0
SPLINE
  5
346
100
AcDbEntity
  8
0
100
AcDbSpline
 62
7
  6
BYLAYER
 70
0
 71
3
 72
9
 73
5
 74
0
 42
0.0000001
 43
0.0000001
 44
0.0000000001
 40
0.0
 40
0.0
 40
0.0
 40
0.0
 40
0.5242427792
 40
1.0
 40
1.0
 40
1.0
 40
1.0
 10
146.1911997926
 20
188.4678213734
 30
0.0
 10
145.3066708641
 20
188.3427734537
 30
0.0
 10
143.5874688058
 20
188.2652465147
 30
0.0
 10
141.8965292495
 20
188.723234157
 30
0.0
 10
141.1818931586
 20
189.1060338442
 30
0.0
  0
SPLINE
  5
347
100
AcDbEntity
  8
0
100
AcDbSpline
 62
7
  6
BYLAYER
 70
0
 71
3
 72
9
 73
5
 74
0
 42
0.0000001
 43
0.0000001
 44
0.0000000001
 40
0.0
 40
0.0
 40
0.0
 40
0.0
 40
0.5111025737
 40
1.0
 40
1.0
 40
1.0
 40
1.0
 10
140.8471799163
 20
189.3014642269
 30
0.0
 10
140.292234601
 20
189.6539392362
 30
0.0
 10
139.3298557358
 20
190.5733340205
 30
0.0
 10
138.8507344275
 20
191.8151766018
 30
0.0
 10
138.7500064668
 20
192.435916475
 30
0.0
  0
SPLINE
  5
348
100
AcDbEntity
  8
0
100
AcDbSpline
 62
7
  6
BYLAYER
 70
0
 71
3
 72
13
 73
9
 74
0
 42
0.0000001
 43
0.0000001
 44
0.0000000001
 40
0.0
 40
0.0
 40
0.0
 40
0.0
 40
0.1141482394
 40
0.2372650169
 40
0.4999578596
 40
0.7626648463
 40
0.8858128204
 40
1.0
 40
1.0
 40
1.0
 40
1.0
 10
155.4762041855
 20
183.3105020429
 30
0.0
 10
154.8715810763
 20
182.9608692722
 30
0.0
 10
153.5452004206
 20
182.3517475961
 30
0.0
 10
150.6031930028
 20
181.4870654223
 30
0.0
 10
146.6215033629
 20
181.0769014305
 30
0.0
 10
142.6395423356
 20
181.4865745726
 30
0.0
 10
139.6969971153
 20
182.3512679005
 30
0.0
 10
138.3701680841
 20
182.9604305691
 30
0.0
 10
137.7652905157
 20
183.3100992462
 30
0.0
  0
SPLINE
  5
349
100
AcDbEntity
  8
0
100
AcDbSpline
 62
7
  6
BYLAYER
 70
0
 71
3
 72
9
 73
5
 74
0
 42
0.0000001
 43
0.0000001
 44
0.0000000001
 40
0.0
 40
0.0
 40
0.0
 40
0.0
 40
0.2540312132
 40
1.0
 40
1.0
 40
1.0
 40
1.0
 10
271.4800241981
 20
260.4324695147
 30
0.0
 10
271.4994822335
 20
260.397472574
 30
0.0
 10
271.5737533051
 20
260.2584311151
 30
0.0
 10
271.6384797572
 20
260.1142500608
 30
0.0
 10
271.6805319617
 20
260.0044410548
 30
0.0
  0
SPLINE
  5
34A
100
AcDbEntity
  8
0
100
AcDbSpline
 62
7
  6
BYLAYER
 70
0
 71
3
 72
9
 73
5
 74
0
 42
0.0000001
 43
0.0000001
 44
0.0000000001
 40
0.0
 40
0.0
 40
0.0
 40
0.0
 40
0.2477630761
 40
1.0
 40
1.0
 40
1.0
 40
1.0
 10
153.9251842834
 20
186.1429231805
 30
0.0
 10
154.0621333817
 20
185.9140214774
 30
0.0
 10
154.6072051853
 20
184.9855410339
 30
0.0
 10
155.1124341979
 20
184.0339936495
 30
0.0
 10
155.4762940627
 20
183.3104776095
 30
0.0
  0
SPLINE
  5
34B
100
AcDbEntity
  8
0
100
AcDbSpline
 62
7
  6
BYLAYER
 70
0
 71
3
 72
9
 73
5
 74
0
 42
0.0000001
 43
0.0000001
 44
0.0000000001
 40
0.0
 40
0.0
 40
0.0
 40
0.0
 40
0.7504938678
 40
1.0
 40
1.0
 40
1.0
 40
1.0
 10
39.509802948
 20
240.0365746079
 30
0.0
 10
40.0106307323
 20
240.6876291357
 30
0.0
 10
40.7142496612
 20
241.5276318279
 30
0.0
 10
41.4502601668
 20
242.3376684988
 30
0.0
 10
41.6363716596
 20
242.537506161
 30
0.0
  0
SPLINE
  5
34C
100
AcDbEntity
  8
0
100
AcDbSpline
 62
7
  6
BYLAYER
 70
0
 71
3
 72
11
 73
7
 74
0
 42
0.0000001
 43
0.0000001
 44
0.0000000001
 40
0.0
 40
0.0
 40
0.0
 40
0.0
 40
0.2177434119
 40
0.4508805377
 40
0.710457812
 40
1.0
 40
1.0
 40
1.0
 40
1.0
 10
115.8965961817
 20
255.5471506464
 30
0.0
 10
115.896596223
 20
255.4138672398
 30
0.0
 10
115.9455409135
 20
255.1359838056
 30
0.0
 10
116.156338944
 20
254.7487420434
 30
0.0
 10
116.4895172873
 20
254.3989642875
 30
0.0
 10
116.7680483601
 20
254.2069107608
 30
0.0
 10
116.9215369161
 20
254.1182961064
 30
0.0
  0
SPLINE
  5
34D
100
AcDbEntity
  8
0
100
AcDbSpline
 62
7
  6
BYLAYER
 70
0
 71
3
 72
11
 73
7
 74
0
 42
0.0000001
 43
0.0000001
 44
0.0000000001
 40
0.0
 40
0.0
 40
0.0
 40
0.0
 40
0.1860285573
 40
0.4019092361
 40
0.6712809942
 40
1.0
 40
1.0
 40
1.0
 40
1.0
 10
144.2377729158
 20
301.8487961614
 30
0.0
 10
144.2873303142
 20
301.869377096
 30
0.0
 10
144.4080886789
 20
301.8841107945
 30
0.0
 10
144.5945398662
 20
301.8180088437
 30
0.0
 10
144.7875077238
 20
301.6814695846
 30
0.0
 10
144.9089517468
 20
301.5578129125
 30
0.0
 10
144.9711505485
 20
301.4862424482
 30
0.0
  0
SPLINE
  5
34E
100
AcDbEntity
  8
0
100
AcDbSpline
 62
7
  6
BYLAYER
 70
0
 71
3
 72
9
 73
5
 74
0
 42
0.0000001
 43
0.0000001
 44
0.0000000001
 40
0.0
 40
0.0
 40
0.0
 40
0.0
 40
0.522207826
 40
1.0
 40
1.0
 40
1.0
 40
1.0
 10
264.1249613526
 20
255.9521645066
 30
0.0
 10
264.9543008551
 20
255.8325899627
 30
0.0
 10
266.5703545128
 20
255.7473320032
 30
0.0
 10
268.1688081968
 20
256.1223218723
 30
0.0
 10
268.8636860291
 20
256.446194311
 30
0.0
  0
SPLINE
  5
34F
100
AcDbEntity
  8
0
100
AcDbSpline
 62
7
  6
BYLAYER
 70
0
 71
3
 72
9
 73
5
 74
0
 42
0.0000001
 43
0.0000001
 44
0.0000000001
 40
0.0
 40
0.0
 40
0.0
 40
0.0
 40
0.5072099044
 40
1.0
 40
1.0
 40
1.0
 40
1.0
 10
270.0068886864
 20
257.1718365169
 30
0.0
 10
270.3484938935
 20
257.4607270114
 30
0.0
 10
270.9442615206
 20
258.1306614765
 30
0.0
 10
271.317517549
 20
258.9454671862
 30
0.0
 10
271.4399648311
 20
259.3625280573
 30
0.0
  0
SPLINE
  5
350
100
AcDbEntity
  8
0
100
AcDbSpline
 62
7
  6
BYLAYER
 70
0
 71
3
 72
9
 73
5
 74
0
 42
0.0000001
 43
0.0000001
 44
0.0000000001
 40
0.0
 40
0.0
 40
0.0
 40
0.0
 40
0.2542863353
 40
1.0
 40
1.0
 40
1.0
 40
1.0
 10
140.1627596686
 20
196.8269928285
 30
0.0
 10
140.0730235154
 20
196.7490171514
 30
0.0
 10
139.7304644957
 20
196.430713879
 30
0.0
 10
139.4306326834
 20
196.0661410372
 30
0.0
 10
139.2389721896
 20
195.7749227172
 30
0.0
  0
SPLINE
  5
351
100
AcDbEntity
  8
0
100
AcDbSpline
 62
7
  6
BYLAYER
 70
0
 71
3
 72
9
 73
5
 74
0
 42
0.0000001
 43
0.0000001
 44
0.0000000001
 40
0.0
 40
0.0
 40
0.0
 40
0.0
 40
0.2478051696
 40
1.0
 40
1.0
 40
1.0
 40
1.0
 10
139.3157949289
 20
186.1428825537
 30
0.0
 10
139.1783850668
 20
185.9141942112
 30
0.0
 10
138.632458826
 20
184.9861530098
 30
0.0
 10
138.128809553
 20
184.0337010233
 30
0.0
 10
137.7651657828
 20
183.3100977503
 30
0.0
  0
SPLINE
  5
352
100
AcDbEntity
  8
0
100
AcDbSpline
 62
7
  6
BYLAYER
 70
0
 71
3
 72
11
 73
7
 74
0
 42
0.0000001
 43
0.0000001
 44
0.0000000001
 40
0.0
 40
0.0
 40
0.0
 40
0.0
 40
0.2186934627
 40
0.4537281735
 40
0.7131607178
 40
1.0
 40
1.0
 40
1.0
 40
1.0
 10
58.1064501905
 20
249.3883109915
 30
0.0
 10
58.0771931471
 20
249.1103573957
 30
0.0
 10
57.9238996951
 20
248.5406402009
 30
0.0
 10
57.4473915136
 20
247.7526681498
 30
0.0
 10
56.7437484711
 20
247.0342469205
 30
0.0
 10
56.1678354747
 20
246.632907495
 30
0.0
 10
55.8525252214
 20
246.4459323262
 30
0.0
  0
SPLINE
  5
353
100
AcDbEntity
  8
0
100
AcDbSpline
 62
7
  6
BYLAYER
 70
0
 71
3
 72
11
 73
7
 74
0
 42
0.0000001
 43
0.0000001
 44
0.0000000001
 40
0.0
 40
0.0
 40
0.0
 40
0.0
 40
0.2953547499
 40
0.5568628916
 40
0.7878198637
 40
1.0
 40
1.0
 40
1.0
 40
1.0
 10
258.581998284
 20
257.8406799373
 30
0.0
 10
258.1465234099
 20
258.0448894241
 30
0.0
 10
257.3537504121
 20
258.4980402678
 30
0.0
 10
256.3915757093
 20
259.3651928099
 30
0.0
 10
255.7723965335
 20
260.3533197483
 30
0.0
 10
255.6250345952
 20
261.0806586098
 30
0.0
 10
255.6249821099
 20
261.4261888109
 30
0.0
  0
SPLINE
  5
354
100
AcDbEntity
  8
0
100
AcDbSpline
 62
7
  6
BYLAYER
 70
0
 71
3
 72
9
 73
5
 74
0
 42
0.0000001
 43
0.0000001
 44
0.0000000001
 40
0.0
 40
0.0
 40
0.0
 40
0.0
 40
0.5131084128
 40
1.0
 40
1.0
 40
1.0
 40
1.0
 10
263.1249613526
 20
256.1340261062
 30
0.0
 10
262.3300136933
 20
256.3075954413
 30
0.0
 10
260.8063793381
 20
256.7686147729
 30
0.0
 10
259.3564040357
 20
257.4242010282
 30
0.0
 10
258.679535811
 20
257.7956715147
 30
0.0
  0
SPLINE
  5
355
100
AcDbEntity
  8
0
100
AcDbSpline
 62
7
  6
BYLAYER
 70
0
 71
3
 72
9
 73
5
 74
0
 42
0.0000001
 43
0.0000001
 44
0.0000000001
 40
0.0
 40
0.0
 40
0.0
 40
0.0
 40
0.4501693781
 40
1.0
 40
1.0
 40
1.0
 40
1.0
 10
138.1509290038
 20
296.9552964426
 30
0.0
 10
138.1702181616
 20
296.8166233245
 30
0.0
 10
138.3214117192
 20
296.5232681764
 30
0.0
 10
138.5813392236
 20
296.3389289533
 30
0.0
 10
138.7318359829
 20
296.2577308558
 30
0.0
  0
SPLINE
  5
356
100
AcDbEntity
  8
0
100
AcDbSpline
 62
7
  6
BYLAYER
 70
0
 71
3
 72
11
 73
7
 74
0
 42
0.0000001
 43
0.0000001
 44
0.0000000001
 40
0.0
 40
0.0
 40
0.0
 40
0.0
 40
0.2874624054
 40
0.5471963626
 40
0.7819965455
 40
1.0
 40
1.0
 40
1.0
 40
1.0
 10
257.7912728781
 20
264.794174893
 30
0.0
 10
257.4564381671
 20
264.6008591364
 30
0.0
 10
256.844552151
 20
264.1846319511
 30
0.0
 10
256.0952523306
 20
263.4358171348
 30
0.0
 10
255.5866813964
 20
262.6116258707
 30
0.0
 10
255.4223908141
 20
262.0138333904
 30
0.0
 10
255.3909176664
 20
261.7223155895
 30
0.0
  0
SPLINE
  5
357
100
AcDbEntity
  8
0
100
AcDbSpline
 62
7
  6
BYLAYER
 70
0
 71
3
 72
9
 73
5
 74
0
 42
0.0000001
 43
0.0000001
 44
0.0000000001
 40
0.0
 40
0.0
 40
0.0
 40
0.0
 40
0.4678597398
 40
1.0
 40
1.0
 40
1.0
 40
1.0
 10
153.078519011
 20
196.9294457607
 30
0.0
 10
152.2896653503
 20
197.4864306353
 30
0.0
 10
150.3566786601
 20
198.3243287385
 30
0.0
 10
148.2960966564
 20
198.629829829
 30
0.0
 10
147.1984423374
 20
198.6688653287
 30
0.0
  0
SPLINE
  5
358
100
AcDbEntity
  8
0
100
AcDbSpline
 62
7
  6
BYLAYER
 70
0
 71
3
 72
9
 73
5
 74
0
 42
0.0000001
 43
0.0000001
 44
0.0000000001
 40
0.0
 40
0.0
 40
0.0
 40
0.0
 40
0.5242728374
 40
1.0
 40
1.0
 40
1.0
 40
1.0
 10
146.1957915957
 20
198.6693134285
 30
0.0
 10
145.2451160712
 20
198.6362810638
 30
0.0
 10
143.4334732704
 20
198.394912561
 30
0.0
 10
141.7088649837
 20
197.7590956874
 30
0.0
 10
140.955210285
 20
197.3383081658
 30
0.0
  0
SPLINE
  5
359
100
AcDbEntity
  8
0
100
AcDbSpline
 62
7
  6
BYLAYER
 70
0
 71
3
 72
11
 73
7
 74
0
 42
0.0000001
 43
0.0000001
 44
0.0000000001
 40
0.0
 40
0.0
 40
0.0
 40
0.0
 40
0.2372524156
 40
0.4999996414
 40
0.7627470637
 40
1.0
 40
1.0
 40
1.0
 40
1.0
 10
158.640990092
 20
236.8890176082
 30
0.0
 10
158.3900048966
 20
236.744112103
 30
0.0
 10
157.80637741
 20
236.532626455
 30
0.0
 10
156.8732254053
 20
236.4315158456
 30
0.0
 10
155.9400723165
 20
236.5326223968
 30
0.0
 10
155.3564429773
 20
236.7441050965
 30
0.0
 10
155.1054561861
 20
236.8890091098
 30
0.0
  0
SPLINE
  5
35A
100
AcDbEntity
  8
0
100
AcDbSpline
 62
7
  6
BYLAYER
 70
0
 71
3
 72
12
 73
8
 74
0
 42
0.0000001
 43
0.0000001
 44
0.0000000001
 40
0.0
 40
0.0
 40
0.0
 40
0.0
 40
0.2836495334
 40
0.5180727628
 40
0.628665516
 40
0.7426046656
 40
1.0
 40
1.0
 40
1.0
 40
1.0
 10
117.6286407533
 20
258.5257690994
 30
0.0
 10
117.4418055788
 20
258.6336359973
 30
0.0
 10
117.1199040378
 20
258.8765731831
 30
0.0
 10
116.8919751489
 20
259.3256774469
 30
0.0
 10
116.8940938474
 20
259.6806044658
 30
0.0
 10
117.0068174058
 20
260.0343174037
 30
0.0
 10
117.2032199984
 20
260.2554083136
 30
0.0
 10
117.3548221777
 20
260.3792724364
 30
0.0
  0
SPLINE
  5
35B
100
AcDbEntity
  8
0
100
AcDbSpline
 62
7
  6
BYLAYER
 70
0
 71
3
 72
9
 73
5
 74
0
 42
0.0000001
 43
0.0000001
 44
0.0000000001
 40
0.0
 40
0.0
 40
0.0
 40
0.0
 40
0.2419502939
 40
1.0
 40
1.0
 40
1.0
 40
1.0
 10
117.3548221777
 20
260.3792724364
 30
0.0
 10
117.3755680977
 20
260.3962225568
 30
0.0
 10
117.462866162
 20
260.4643680934
 30
0.0
 10
117.5559361095
 20
260.5250140737
 30
0.0
 10
117.6286260334
 20
260.5669813703
 30
0.0
  0
SPLINE
  5
35C
100
AcDbEntity
  8
0
100
AcDbSpline
 62
7
  6
BYLAYER
 70
0
 71
3
 72
9
 73
5
 74
0
 42
0.0000001
 43
0.0000001
 44
0.0000000001
 40
0.0
 40
0.0
 40
0.0
 40
0.0
 40
0.2581345826
 40
1.0
 40
1.0
 40
1.0
 40
1.0
 10
196.1174787445
 20
260.5671700343
 30
0.0
 10
196.1422298172
 20
260.5528803191
 30
0.0
 10
196.2370740938
 20
260.4957577661
 30
0.0
 10
196.327664892
 20
260.4314404858
 30
0.0
 10
196.3912722636
 20
260.379472984
 30
0.0
  0
SPLINE
  5
35D
100
AcDbEntity
  8
0
100
AcDbSpline
 62
7
  6
BYLAYER
 70
0
 71
3
 72
12
 73
8
 74
0
 42
0.0000001
 43
0.0000001
 44
0.0000000001
 40
0.0
 40
0.0
 40
0.0
 40
0.0
 40
0.2573979161
 40
0.371337601
 40
0.4819303505
 40
0.7163522632
 40
1.0
 40
1.0
 40
1.0
 40
1.0
 10
196.3912722636
 20
260.379472984
 30
0.0
 10
196.5428791506
 20
260.2556094918
 30
0.0
 10
196.7392891178
 20
260.0345196096
 30
0.0
 10
196.8520226845
 20
259.6808047966
 30
0.0
 10
196.8541493907
 20
259.3258760201
 30
0.0
 10
196.6262279996
 20
258.8767662762
 30
0.0
 10
196.3043279019
 20
258.6338260323
 30
0.0
 10
196.1174934643
 20
258.5259577634
 30
0.0
  0
SPLINE
  5
35E
100
AcDbEntity
  8
0
100
AcDbSpline
 62
7
  6
BYLAYER
 70
0
 71
3
 72
11
 73
7
 74
0
 42
0.0000001
 43
0.0000001
 44
0.0000000001
 40
0.0
 40
0.0
 40
0.0
 40
0.0
 40
0.2898008952
 40
0.5490522654
 40
0.7822315883
 40
1.0
 40
1.0
 40
1.0
 40
1.0
 10
172.7830285647
 20
250.3610525901
 30
0.0
 10
173.770641921
 20
250.9312480236
 30
0.0
 10
175.5621127357
 20
252.1644091115
 30
0.0
 10
177.7021101003
 20
254.4148702065
 30
0.0
 10
179.0567390792
 20
256.9030113978
 30
0.0
 10
179.3730556085
 20
258.6895287224
 30
0.0
 10
179.3730361482
 20
259.546469552
 30
0.0
  0
SPLINE
  5
35F
100
AcDbEntity
  8
0
100
AcDbSpline
 62
7
  6
BYLAYER
 70
0
 71
3
 72
9
 73
5
 74
0
 42
0.0000001
 43
0.0000001
 44
0.0000000001
 40
0.0
 40
0.0
 40
0.0
 40
0.0
 40
0.4666074163
 40
1.0
 40
1.0
 40
1.0
 40
1.0
 10
138.1548068878
 20
296.9954959443
 30
0.0
 10
138.1769580656
 20
296.8485764585
 30
0.0
 10
138.3322536152
 20
296.5503305018
 30
0.0
 10
138.5871038568
 20
296.3505745394
 30
0.0
 10
138.7319426201
 20
296.2618646942
 30
0.0
  0
SPLINE
  5
360
100
AcDbEntity
  8
0
100
AcDbSpline
 62
7
  6
BYLAYER
 70
0
 71
3
 72
9
 73
5
 74
0
 42
0.0000001
 43
0.0000001
 44
0.0000000001
 40
0.0
 40
0.0
 40
0.0
 40
0.0
 40
0.4999988716
 40
1.0
 40
1.0
 40
1.0
 40
1.0
 10
158.640990092
 20
236.8890176082
 30
0.0
 10
158.8508709549
 20
236.7678455768
 30
0.0
 10
159.1825000835
 20
236.3851629778
 30
0.0
 10
159.3480998171
 20
235.9066237051
 30
0.0
 10
159.3480998171
 20
235.6642744365
 30
0.0
  0
SPLINE
  5
361
100
AcDbEntity
  8
0
100
AcDbSpline
 62
7
  6
BYLAYER
 70
0
 71
3
 72
11
 73
7
 74
0
 42
0.0000001
 43
0.0000001
 44
0.0000000001
 40
0.0
 40
0.0
 40
0.0
 40
0.0
 40
0.2372465442
 40
0.4999994738
 40
0.7627526897
 40
1.0
 40
1.0
 40
1.0
 40
1.0
 10
159.3480998171
 20
235.6642744365
 30
0.0
 10
158.9967285582
 20
235.4614113565
 30
0.0
 10
158.179655954
 20
235.1653162606
 30
0.0
 10
156.8732299765
 20
235.0237472572
 30
0.0
 10
155.5668020286
 20
235.1653102977
 30
0.0
 10
154.7497262098
 20
235.4614013353
 30
0.0
 10
154.3983523532
 20
235.6642625363
 30
0.0
  0
SPLINE
  5
362
100
AcDbEntity
  8
0
100
AcDbSpline
 62
7
  6
BYLAYER
 70
0
 71
3
 72
9
 73
5
 74
0
 42
0.0000001
 43
0.0000001
 44
0.0000000001
 40
0.0
 40
0.0
 40
0.0
 40
0.0
 40
0.5000016722
 40
1.0
 40
1.0
 40
1.0
 40
1.0
 10
154.3983523489
 20
235.6642625388
 30
0.0
 10
154.3983523489
 20
235.9066119618
 30
0.0
 10
154.5639504383
 20
236.3851510214
 30
0.0
 10
154.8955765198
 20
236.7678357513
 30
0.0
 10
155.1054561861
 20
236.8890091098
 30
0.0
  0
SPLINE
  5
363
100
AcDbEntity
  8
0
100
AcDbSpline
 62
7
  6
BYLAYER
 70
0
 71
3
 72
11
 73
7
 74
0
 42
0.0000001
 43
0.0000001
 44
0.0000000001
 40
0.0
 40
0.0
 40
0.0
 40
0.0
 40
0.2177486812
 40
0.4508908274
 40
0.7104626199
 40
1.0
 40
1.0
 40
1.0
 40
1.0
 10
197.8495565484
 20
258.7300572325
 30
0.0
 10
197.8495565542
 20
258.5967708333
 30
0.0
 10
197.8006080117
 20
258.318880765
 30
0.0
 10
197.589793526
 20
257.9316458098
 30
0.0
 10
197.2566185508
 20
257.5818714198
 30
0.0
 10
196.9780882939
 20
257.3898287293
 30
0.0
 10
196.8246031938
 20
257.3012145942
 30
0.0
  0
SPLINE
  5
364
100
AcDbEntity
  8
0
100
AcDbSpline
 62
7
  6
BYLAYER
 70
0
 71
3
 72
9
 73
5
 74
0
 42
0.0000001
 43
0.0000001
 44
0.0000000001
 40
0.0
 40
0.0
 40
0.0
 40
0.0
 40
0.5000011284
 40
1.0
 40
1.0
 40
1.0
 40
1.0
 10
196.8246031895
 20
257.3012145917
 30
0.0
 10
196.8246031895
 20
257.5435638603
 30
0.0
 10
196.6590034558
 20
258.0221031329
 30
0.0
 10
196.3273743272
 20
258.4047857319
 30
0.0
 10
196.1174934643
 20
258.5259577634
 30
0.0
  0
SPLINE
  5
365
100
AcDbEntity
  8
0
100
AcDbSpline
 62
7
  6
BYLAYER
 70
0
 71
3
 72
9
 73
5
 74
0
 42
0.0000001
 43
0.0000001
 44
0.0000000001
 40
0.0
 40
0.0
 40
0.0
 40
0.0
 40
0.4689700512
 40
1.0
 40
1.0
 40
1.0
 40
1.0
 10
139.0385810848
 20
298.8304179858
 30
0.0
 10
139.2615943518
 20
299.0097794978
 30
0.0
 10
139.8634223987
 20
299.2425819246
 30
0.0
 10
140.4884792405
 20
299.1677190701
 30
0.0
 10
140.799865778
 20
299.077965564
 30
0.0
  0
SPLINE
  5
366
100
AcDbEntity
  8
0
100
AcDbSpline
 62
7
  6
BYLAYER
 70
0
 71
3
 72
17
 73
13
 74
0
 42
0.0000001
 43
0.0000001
 44
0.0000000001
 40
0.0
 40
0.0
 40
0.0
 40
0.0
 40
0.0428598891
 40
0.087489495
 40
0.13532293
 40
0.1872871977
 40
0.3045521534
 40
0.438221076
 40
0.5825677837
 40
0.7297222853
 40
0.8713118099
 40
1.0
 40
1.0
 40
1.0
 40
1.0
 10
134.3730833496
 20
259.5464695817
 30
0.0
 10
134.3730978953
 20
258.9059472302
 30
0.0
 10
134.5443962808
 20
257.5928818023
 30
0.0
 10
135.2975162933
 20
255.6970237223
 30
0.0
 10
136.5193407045
 20
253.8995092293
 30
0.0
 10
138.8197455387
 20
251.590956326
 30
0.0
 10
142.7394260691
 20
249.2050985113
 30
0.0
 10
148.3752180798
 20
247.3224712863
 30
0.0
 10
154.6998093097
 20
246.4340029133
 30
0.0
 10
161.2004377379
 20
246.6137343461
 30
0.0
 10
167.3464312381
 20
247.8435999336
 30
0.0
 10
171.1174956523
 20
249.3994624547
 30
0.0
 10
172.7830285647
 20
250.3610525901
 30
0.0
  0
SPLINE
  5
367
100
AcDbEntity
  8
0
100
AcDbSpline
 62
7
  6
BYLAYER
 70
0
 71
3
 72
11
 73
7
 74
0
 42
0.0000001
 43
0.0000001
 44
0.0000000001
 40
0.0
 40
0.0
 40
0.0
 40
0.0
 40
0.2372531816
 40
0.5000006935
 40
0.7627478297
 40
1.0
 40
1.0
 40
1.0
 40
1.0
 10
154.3983523489
 20
232.4815361168
 30
0.0
 10
154.7497342201
 20
232.278670289
 30
0.0
 10
155.5668159145
 20
231.9825944379
 30
0.0
 10
156.8732306912
 20
231.8410455471
 30
0.0
 10
158.1796430455
 20
231.9826006804
 30
0.0
 10
158.9967209068
 20
232.278680517
 30
0.0
 10
159.3480998171
 20
232.4815480145
 30
0.0
  0
SPLINE
  5
368
100
AcDbEntity
  8
0
100
AcDbSpline
 62
7
  6
BYLAYER
 70
0
 71
3
 72
11
 73
7
 74
0
 42
0.0000001
 43
0.0000001
 44
0.0000000001
 40
0.0
 40
0.0
 40
0.0
 40
0.0
 40
0.2895416687
 40
0.549118971
 40
0.7822562702
 40
1.0
 40
1.0
 40
1.0
 40
1.0
 10
196.8246031895
 20
254.1184881697
 30
0.0
 10
196.9780888514
 20
254.2071026293
 30
0.0
 10
197.2566145779
 20
254.3991556359
 30
0.0
 10
197.5897864137
 20
254.7489306912
 30
0.0
 10
197.8005796948
 20
255.1361688187
 30
0.0
 10
197.8495233575
 20
255.414048927
 30
0.0
 10
197.8495233161
 20
255.5473308091
 30
0.0
  0
SPLINE
  5
369
100
AcDbEntity
  8
0
100
AcDbSpline
 62
7
  6
BYLAYER
 70
0
 71
3
 72
9
 73
5
 74
0
 42
0.0000001
 43
0.0000001
 44
0.0000000001
 40
0.0
 40
0.0
 40
0.0
 40
0.0
 40
0.4999983278
 40
1.0
 40
1.0
 40
1.0
 40
1.0
 10
117.6286407533
 20
258.5257690994
 30
0.0
 10
117.418761087
 20
258.4045957408
 30
0.0
 10
117.0871350056
 20
258.021911011
 30
0.0
 10
116.9215369161
 20
257.5433719514
 30
0.0
 10
116.9215369161
 20
257.3010225284
 30
0.0
  0
SPLINE
  5
36A
100
AcDbEntity
  8
0
100
AcDbSpline
 62
7
  6
BYLAYER
 70
0
 71
3
 72
11
 73
7
 74
0
 42
0.0000001
 43
0.0000001
 44
0.0000000001
 40
0.0
 40
0.0
 40
0.0
 40
0.0
 40
0.2895378634
 40
0.5491098265
 40
0.7822517759
 40
1.0
 40
1.0
 40
1.0
 40
1.0
 10
116.9215369161
 20
257.3010225284
 30
0.0
 10
116.768048943
 20
257.3896368462
 30
0.0
 10
116.4895133933
 20
257.5816802694
 30
0.0
 10
116.1563316617
 20
257.9314572532
 30
0.0
 10
115.9455126137
 20
258.318695956
 30
0.0
 10
115.8965629552
 20
258.5965892301
 30
0.0
 10
115.8965629494
 20
258.7298770669
 30
0.0
  0
SPLINE
  5
36B
100
AcDbEntity
  8
0
100
AcDbSpline
 62
7
  6
BYLAYER
 70
0
 71
3
 72
8
 73
4
 74
0
 42
0.0000001
 43
0.0000001
 44
0.0000000001
 40
0.0
 40
0.0
 40
0.0
 40
0.0
 40
1.0
 40
1.0
 40
1.0
 40
1.0
 10
175.2335302366
 20
282.656686558
 30
0.0
 10
175.3510272604
 20
278.4571478269
 30
0.0
 10
175.4673279752
 20
274.2575754269
 30
0.0
 10
175.5823385816
 20
270.0579678661
 30
0.0
  0
SPLINE
  5
36C
100
AcDbEntity
  8
0
100
AcDbSpline
 62
7
  6
BYLAYER
 70
0
 71
3
 72
9
 73
5
 74
0
 42
0.0000001
 43
0.0000001
 44
0.0000000001
 40
0.0
 40
0.0
 40
0.0
 40
0.0
 40
0.5415589149
 40
1.0
 40
1.0
 40
1.0
 40
1.0
 10
175.5823385816
 20
270.0579678661
 30
0.0
 10
175.5994032556
 20
269.4309211682
 30
0.0
 10
175.7075983421
 20
268.2728427653
 30
0.0
 10
176.0175562864
 20
267.1471992644
 30
0.0
 10
176.219824057
 20
266.6562268834
 30
0.0
  0
SPLINE
  5
36D
100
AcDbEntity
  8
0
100
AcDbSpline
 62
7
  6
BYLAYER
 70
0
 71
3
 72
15
 73
11
 74
0
 42
0.0000001
 43
0.0000001
 44
0.0000000001
 40
0.0
 40
0.0
 40
0.0
 40
0.0
 40
0.1838617993
 40
0.3351662334
 40
0.4561891091
 40
0.5541284706
 40
0.6433951267
 40
0.7413049399
 40
0.8589491741
 40
1.0
 40
1.0
 40
1.0
 40
1.0
 10
176.219824057
 20
266.6562268834
 30
0.0
 10
176.3459292806
 20
266.3501267978
 30
0.0
 10
176.6195427419
 20
265.8076807819
 30
0.0
 10
177.1381166619
 20
265.1611305835
 30
0.0
 10
177.6900919788
 20
264.7672508497
 30
0.0
 10
178.254598896
 20
264.6430159916
 30
0.0
 10
178.7629991258
 20
264.8277657209
 30
0.0
 10
179.1233128058
 20
265.2666274915
 30
0.0
 10
179.3335608846
 20
265.8819768251
 30
0.0
 10
179.3730416346
 20
266.3501761161
 30
0.0
 10
179.3730503502
 20
266.6041499576
 30
0.0
  0
SPLINE
  5
36E
100
AcDbEntity
  8
0
100
AcDbSpline
 62
7
  6
BYLAYER
 70
0
 71
3
 72
9
 73
5
 74
0
 42
0.0000001
 43
0.0000001
 44
0.0000000001
 40
0.0
 40
0.0
 40
0.0
 40
0.0
 40
0.2382440741
 40
1.0
 40
1.0
 40
1.0
 40
1.0
 10
172.654368284
 20
319.1284307556
 30
0.0
 10
172.4803275842
 20
319.2247326009
 30
0.0
 10
171.7357338458
 20
319.6033090472
 30
0.0
 10
170.9421622072
 20
319.8825294265
 30
0.0
 10
170.3271563302
 20
320.0445207168
 30
0.0
  0
SPLINE
  5
36F
100
AcDbEntity
  8
0
100
AcDbSpline
 62
7
  6
BYLAYER
 70
0
 71
3
 72
9
 73
5
 74
0
 42
0.0000001
 43
0.0000001
 44
0.0000000001
 40
0.0
 40
0.0
 40
0.0
 40
0.0
 40
0.259165577
 40
1.0
 40
1.0
 40
1.0
 40
1.0
 10
163.3397576275
 20
319.893694192
 30
0.0
 10
163.1787425662
 20
319.8431776532
 30
0.0
 10
162.5620091602
 20
319.634289732
 30
0.0
 10
161.9637723152
 20
319.3689553204
 30
0.0
 10
161.5403120101
 20
319.1379143893
 30
0.0
  0
SPLINE
  5
370
100
AcDbEntity
  8
0
100
AcDbSpline
 62
7
  6
BYLAYER
 70
0
 71
3
 72
12
 73
8
 74
0
 42
0.0000001
 43
0.0000001
 44
0.0000000001
 40
0.0
 40
0.0
 40
0.0
 40
0.0
 40
0.3379807234
 40
0.6245473221
 40
0.8473172998
 40
0.9323322543
 40
1.0
 40
1.0
 40
1.0
 40
1.0
 10
176.542484672
 20
271.2096036431
 30
0.0
 10
176.8082369976
 20
270.7862226002
 30
0.0
 10
177.2493205831
 20
269.9698545628
 30
0.0
 10
177.67647948
 20
268.7882014509
 30
0.0
 10
177.8126736604
 20
267.9068907801
 30
0.0
 10
177.7509589986
 20
267.3521057395
 30
0.0
 10
177.6678139414
 20
267.1367953067
 30
0.0
 10
177.6123838983
 20
267.053466271
 30
0.0
  0
SPLINE
  5
371
100
AcDbEntity
  8
0
100
AcDbSpline
 62
7
  6
BYLAYER
 70
0
 71
3
 72
10
 73
6
 74
0
 42
0.0000001
 43
0.0000001
 44
0.0000000001
 40
0.0
 40
0.0
 40
0.0
 40
0.0
 40
0.2497305279
 40
0.4790731592
 40
1.0
 40
1.0
 40
1.0
 40
1.0
 10
177.6123838983
 20
267.053466271
 30
0.0
 10
177.5772195564
 20
267.0006030484
 30
0.0
 10
177.4940327859
 20
266.9072448247
 30
0.0
 10
177.253257786
 20
266.8012961605
 30
0.0
 10
177.0484829414
 20
266.8631678532
 30
0.0
 10
176.9323155848
 20
266.92676897
 30
0.0
  0
SPLINE
  5
372
100
AcDbEntity
  8
0
100
AcDbSpline
 62
7
  6
BYLAYER
 70
0
 71
3
 72
9
 73
5
 74
0
 42
0.0000001
 43
0.0000001
 44
0.0000000001
 40
0.0
 40
0.0
 40
0.0
 40
0.0
 40
0.2469099545
 40
1.0
 40
1.0
 40
1.0
 40
1.0
 10
39.510084178
 20
250.2620420849
 30
0.0
 10
39.6782114945
 20
250.3384433348
 30
0.0
 10
40.3671606109
 20
250.6300203832
 30
0.0
 10
41.0867951163
 20
250.8481182188
 30
0.0
 10
41.6363119958
 20
250.9717932965
 30
0.0
  0
SPLINE
  5
373
100
AcDbEntity
  8
0
100
AcDbSpline
 62
7
  6
BYLAYER
 70
0
 71
3
 72
9
 73
5
 74
0
 42
0.0000001
 43
0.0000001
 44
0.0000000001
 40
0.0
 40
0.0
 40
0.0
 40
0.0
 40
0.4895125106
 40
1.0
 40
1.0
 40
1.0
 40
1.0
 10
154.9409075594
 20
193.1676714911
 30
0.0
 10
154.9305445063
 20
193.854287558
 30
0.0
 10
154.6016850815
 20
195.2692067731
 30
0.0
 10
153.703451878
 20
196.4094644982
 30
0.0
 10
153.1574514525
 20
196.8728313652
 30
0.0
  0
SPLINE
  5
374
100
AcDbEntity
  8
0
100
AcDbSpline
 62
7
  6
BYLAYER
 70
0
 71
3
 72
11
 73
7
 74
0
 42
0.0000001
 43
0.0000001
 44
0.0000000001
 40
0.0
 40
0.0
 40
0.0
 40
0.0
 40
0.2573605905
 40
0.5173487971
 40
0.7665234273
 40
1.0
 40
1.0
 40
1.0
 40
1.0
 10
176.5424825494
 20
271.2096032002
 30
0.0
 10
176.7158796122
 20
271.2390014234
 30
0.0
 10
177.0727414561
 20
271.259555097
 30
0.0
 10
177.5924913203
 20
271.1506769022
 30
0.0
 10
178.0412206523
 20
270.8925302969
 30
0.0
 10
178.2519251848
 20
270.6263086014
 30
0.0
 10
178.324634555
 20
270.4842890559
 30
0.0
  0
SPLINE
  5
375
100
AcDbEntity
  8
0
100
AcDbSpline
 62
7
  6
BYLAYER
 70
0
 71
3
 72
9
 73
5
 74
0
 42
0.0000001
 43
0.0000001
 44
0.0000000001
 40
0.0
 40
0.0
 40
0.0
 40
0.0
 40
0.522199907
 40
1.0
 40
1.0
 40
1.0
 40
1.0
 10
175.2319282306
 20
282.7281418763
 30
0.0
 10
175.3343153422
 20
282.8160331717
 30
0.0
 10
175.5117818409
 20
283.0111242289
 30
0.0
 10
175.5943868479
 20
283.2687784297
 30
0.0
 10
175.5983357933
 20
283.3921793245
 30
0.0
  0
SPLINE
  5
376
100
AcDbEntity
  8
0
100
AcDbSpline
 62
7
  6
BYLAYER
 70
0
 71
3
 72
9
 73
5
 74
0
 42
0.0000001
 43
0.0000001
 44
0.0000000001
 40
0.0
 40
0.0
 40
0.0
 40
0.0
 40
0.2415558262
 40
1.0
 40
1.0
 40
1.0
 40
1.0
 10
175.2335302366
 20
282.656686558
 30
0.0
 10
175.0480941214
 20
282.5055449226
 30
0.0
 10
174.2665570395
 20
281.8969242919
 30
0.0
 10
173.4335334627
 20
281.3554601687
 30
0.0
 10
172.7830285647
 20
280.9798932325
 30
0.0
  0
SPLINE
  5
377
100
AcDbEntity
  8
0
100
AcDbSpline
 62
7
  6
BYLAYER
 70
0
 71
3
 72
9
 73
5
 74
0
 42
0.0000001
 43
0.0000001
 44
0.0000000001
 40
0.0
 40
0.0
 40
0.0
 40
0.0
 40
0.2427878668
 40
1.0
 40
1.0
 40
1.0
 40
1.0
 10
172.7830285647
 20
280.9798932325
 30
0.0
 10
172.5565081141
 20
280.8491123701
 30
0.0
 10
171.6135805681
 20
280.327732443
 30
0.0
 10
170.6337817002
 20
279.8738956697
 30
0.0
 10
169.8787162161
 20
279.565101696
 30
0.0
  0
SPLINE
  5
378
100
AcDbEntity
  8
0
100
AcDbSpline
 62
7
  6
BYLAYER
 70
0
 71
3
 72
11
 73
7
 74
0
 42
0.0000001
 43
0.0000001
 44
0.0000000001
 40
0.0
 40
0.0
 40
0.0
 40
0.0
 40
0.2513613351
 40
0.5242717449
 40
0.7836467871
 40
1.0
 40
1.0
 40
1.0
 40
1.0
 10
169.8783429461
 20
279.6372656091
 30
0.0
 10
169.8747822716
 20
279.9322797516
 30
0.0
 10
169.799785546
 20
280.5464647316
 30
0.0
 10
169.572030065
 20
281.4399641841
 30
0.0
 10
169.2400092788
 20
282.256101572
 30
0.0
 10
168.9415466338
 20
282.7352136586
 30
0.0
 10
168.7749689492
 20
282.9268900558
 30
0.0
  0
SPLINE
  5
379
100
AcDbEntity
  8
0
100
AcDbSpline
 62
7
  6
BYLAYER
 70
0
 71
3
 72
8
 73
4
 74
0
 42
0.0000001
 43
0.0000001
 44
0.0000000001
 40
0.0
 40
0.0
 40
0.0
 40
0.0
 40
1.0
 40
1.0
 40
1.0
 40
1.0
 10
169.371730871
 20
266.4722932368
 30
0.0
 10
169.5415972677
 20
270.8365288979
 30
0.0
 10
169.7106009515
 20
275.2007982285
 30
0.0
 10
169.8787162161
 20
279.565101696
 30
0.0
  0
SPLINE
  5
37A
100
AcDbEntity
  8
0
100
AcDbSpline
 62
7
  6
BYLAYER
 70
0
 71
3
 72
10
 73
6
 74
0
 42
0.0000001
 43
0.0000001
 44
0.0000000001
 40
0.0
 40
0.0
 40
0.0
 40
0.0
 40
0.5172446193
 40
0.7800467875
 40
1.0
 40
1.0
 40
1.0
 40
1.0
 10
169.3717308616
 20
266.4722932327
 30
0.0
 10
168.9502475698
 20
266.3244659846
 30
0.0
 10
168.2530767775
 20
266.2622740799
 30
0.0
 10
167.4015779534
 20
266.4173615942
 30
0.0
 10
167.0112899798
 20
266.5774505342
 30
0.0
 10
166.8473917578
 20
266.6734348969
 30
0.0
  0
SPLINE
  5
37B
100
AcDbEntity
  8
0
100
AcDbSpline
 62
7
  6
BYLAYER
 70
0
 71
3
 72
13
 73
9
 74
0
 42
0.0000001
 43
0.0000001
 44
0.0000000001
 40
0.0
 40
0.0
 40
0.0
 40
0.0
 40
0.070821379
 40
0.1573433015
 40
0.2608878216
 40
0.3812447062
 40
0.6673939612
 40
1.0
 40
1.0
 40
1.0
 40
1.0
 10
41.6363052896
 20
250.9717891188
 30
0.0
 10
41.5264682126
 20
250.801925315
 30
0.0
 10
41.3380191778
 20
250.3888492476
 30
0.0
 10
41.1545919144
 20
249.6644254666
 30
0.0
 10
41.0467769537
 20
248.7824911566
 30
0.0
 10
41.0031538759
 20
247.3249306794
 30
0.0
 10
41.1675052074
 20
245.2150446967
 30
0.0
 10
41.4539660494
 20
243.4698329931
 30
0.0
 10
41.6363661122
 20
242.5375105242
 30
0.0
  0
SPLINE
  5
37C
100
AcDbEntity
  8
0
100
AcDbSpline
 62
7
  6
BYLAYER
 70
0
 71
3
 72
15
 73
11
 74
0
 42
0.0000001
 43
0.0000001
 44
0.0000000001
 40
0.0
 40
0.0
 40
0.0
 40
0.0
 40
0.1112839707
 40
0.2300274199
 40
0.3534333145
 40
0.4794750401
 40
0.6074687091
 40
0.7373355619
 40
0.8684961093
 40
1.0
 40
1.0
 40
1.0
 40
1.0
 10
166.8474004148
 20
266.6734298176
 30
0.0
 10
166.8180012747
 20
265.8740504675
 30
0.0
 10
166.5516671656
 20
264.2252325932
 30
0.0
 10
165.6088322949
 20
261.8455472452
 30
0.0
 10
164.087026299
 20
259.6482214666
 30
0.0
 10
162.0075597453
 20
257.8569510741
 30
0.0
 10
159.4918237159
 20
256.6503291171
 30
0.0
 10
156.7322734597
 20
256.0735613567
 30
0.0
 10
153.8968910047
 20
256.0498455713
 30
0.0
 10
152.0223122545
 20
256.3252217303
 30
0.0
 10
151.0970781838
 20
256.5187755758
 30
0.0
  0
SPLINE
  5
37D
100
AcDbEntity
  8
0
100
AcDbSpline
 62
7
  6
BYLAYER
 70
0
 71
3
 72
15
 73
11
 74
0
 42
0.0000001
 43
0.0000001
 44
0.0000000001
 40
0.0
 40
0.0
 40
0.0
 40
0.0
 40
0.0983117617
 40
0.2006214475
 40
0.3143411211
 40
0.4430154311
 40
0.5838419322
 40
0.7291207304
 40
0.8701798066
 40
1.0
 40
1.0
 40
1.0
 40
1.0
 10
137.2036628683
 20
264.539990666
 30
0.0
 10
136.8724430904
 20
265.0676881
 30
0.0
 10
136.3159710446
 20
266.2268903089
 30
0.0
 10
135.9222969588
 20
268.1989315803
 30
0.0
 10
135.9771848936
 20
270.3957137742
 30
0.0
 10
136.3925936429
 20
272.792773236
 30
0.0
 10
137.0268075067
 20
275.3440478156
 30
0.0
 10
137.6971167896
 20
277.9669460267
 30
0.0
 10
138.2224566849
 20
280.5533142077
 30
0.0
 10
138.3947788104
 20
282.2668780435
 30
0.0
 10
138.4135012833
 20
283.0893780308
 30
0.0
  0
SPLINE
  5
37E
100
AcDbEntity
  8
0
100
AcDbSpline
 62
7
  6
BYLAYER
 70
0
 71
3
 72
15
 73
11
 74
0
 42
0.0000001
 43
0.0000001
 44
0.0000000001
 40
0.0
 40
0.0
 40
0.0
 40
0.0
 40
0.1122713951
 40
0.2331926039
 40
0.359156218
 40
0.4872616523
 40
0.6159998564
 40
0.7447725066
 40
0.8730691654
 40
1.0
 40
1.0
 40
1.0
 40
1.0
 10
169.371730871
 20
266.4722932368
 30
0.0
 10
169.3339331561
 20
265.5080535784
 30
0.0
 10
168.982042427
 20
263.5112189709
 30
0.0
 10
167.769920617
 20
260.6464889012
 30
0.0
 10
165.8660281728
 20
258.0092903007
 30
0.0
 10
163.3408756845
 20
255.8498330809
 30
0.0
 10
160.3532359923
 20
254.345140452
 30
0.0
 10
157.1112989865
 20
253.5409280031
 30
0.0
 10
153.7993590853
 20
253.3672551757
 30
0.0
 10
151.6092050821
 20
253.5955289666
 30
0.0
 10
150.5335723896
 20
253.7778738091
 30
0.0
  0
SPLINE
  5
37F
100
AcDbEntity
  8
0
100
AcDbSpline
 62
7
  6
BYLAYER
 70
0
 71
3
 72
11
 73
7
 74
0
 42
0.0000001
 43
0.0000001
 44
0.0000000001
 40
0.0
 40
0.0
 40
0.0
 40
0.0
 40
0.2415090638
 40
0.5292061768
 40
0.8003620397
 40
1.0
 40
1.0
 40
1.0
 40
1.0
 10
150.5335784723
 20
253.777872778
 30
0.0
 10
150.533578447
 20
254.0045525644
 30
0.0
 10
150.5668715317
 20
254.5012173847
 30
0.0
 10
150.6838685734
 20
255.2443092161
 30
0.0
 10
150.8579393628
 20
255.9352675337
 30
0.0
 10
151.0121383286
 20
256.3517641535
 30
0.0
 10
151.0970877371
 20
256.5187813416
 30
0.0
  0
SPLINE
  5
380
100
AcDbEntity
  8
0
100
AcDbSpline
 62
7
  6
BYLAYER
 70
0
 71
3
 72
11
 73
7
 74
0
 42
0.0000001
 43
0.0000001
 44
0.0000000001
 40
0.0
 40
0.0
 40
0.0
 40
0.0
 40
0.2931846886
 40
0.4311405981
 40
0.5618694768
 40
1.0
 40
1.0
 40
1.0
 40
1.0
 10
150.5335723896
 20
253.7778738091
 30
0.0
 10
148.7911247537
 20
254.0732840067
 30
0.0
 10
146.2540266744
 20
254.6949692694
 30
0.0
 10
143.0912989615
 20
255.931738882
 30
0.0
 10
139.3045708368
 20
257.8427795617
 30
0.0
 10
136.4820275218
 20
260.2276072829
 30
0.0
 10
135.2846688678
 20
262.581633196
 30
0.0
  0
SPLINE
  5
381
100
AcDbEntity
  8
0
100
AcDbSpline
 62
7
  6
BYLAYER
 70
0
 71
3
 72
11
 73
7
 74
0
 42
0.0000001
 43
0.0000001
 44
0.0000000001
 40
0.0
 40
0.0
 40
0.0
 40
0.0
 40
0.2931842931
 40
0.4311399718
 40
0.5618687538
 40
1.0
 40
1.0
 40
1.0
 40
1.0
 10
151.0970823736
 20
256.5187822509
 30
0.0
 10
149.5095221142
 20
256.7879330941
 30
0.0
 10
147.1979503973
 20
257.3543648019
 30
0.0
 10
144.3163628964
 20
258.4812057576
 30
0.0
 10
140.866237738
 20
260.2223821744
 30
0.0
 10
138.2945648201
 20
262.3952039212
 30
0.0
 10
137.2036369486
 20
264.5399852431
 30
0.0
  0
SPLINE
  5
382
100
AcDbEntity
  8
0
100
AcDbSpline
 62
7
  6
BYLAYER
 70
0
 71
3
 72
11
 73
7
 74
0
 42
0.0000001
 43
0.0000001
 44
0.0000000001
 40
0.0
 40
0.0
 40
0.0
 40
0.0
 40
0.2526766716
 40
0.52594065
 40
0.7832840019
 40
1.0
 40
1.0
 40
1.0
 40
1.0
 10
137.2036369488
 20
264.5399852421
 30
0.0
 10
136.9590460435
 20
264.4985166156
 30
0.0
 10
136.4610727713
 20
264.331333046
 30
0.0
 10
135.8272521165
 20
263.8738854925
 30
0.0
 10
135.3943234614
 20
263.262440343
 30
0.0
 10
135.2846688707
 20
262.794407871
 30
0.0
 10
135.2846688708
 20
262.5816331903
 30
0.0
  0
SPLINE
  5
383
100
AcDbEntity
  8
0
100
AcDbSpline
 62
7
  6
BYLAYER
 70
0
 71
3
 72
9
 73
5
 74
0
 42
0.0000001
 43
0.0000001
 44
0.0000000001
 40
0.0
 40
0.0
 40
0.0
 40
0.0
 40
0.4837185053
 40
1.0
 40
1.0
 40
1.0
 40
1.0
 10
135.2846688678
 20
262.581633196
 30
0.0
 10
134.9809528508
 20
263.178758864
 30
0.0
 10
134.5047964555
 20
264.4971558197
 30
0.0
 10
134.3729655393
 20
265.8894310378
 30
0.0
 10
134.3730597751
 20
266.6044564516
 30
0.0
  0
SPLINE
  5
384
100
AcDbEntity
  8
0
100
AcDbSpline
 62
7
  6
BYLAYER
 70
0
 71
3
 72
8
 73
4
 74
0
 42
0.0000001
 43
0.0000001
 44
0.0000000001
 40
0.0
 40
0.0
 40
0.0
 40
0.0
 40
1.0
 40
1.0
 40
1.0
 40
1.0
 10
143.3650686371
 20
299.5353381535
 30
0.0
 10
143.3804786284
 20
299.5474109492
 30
0.0
 10
143.3968608111
 20
299.5583046732
 30
0.0
 10
143.4138141597
 20
299.5680926352
 30
0.0
  0
SPLINE
  5
385
100
AcDbEntity
  8
0
100
AcDbSpline
 62
7
  6
BYLAYER
 70
0
 71
3
 72
9
 73
5
 74
0
 42
0.0000001
 43
0.0000001
 44
0.0000000001
 40
0.0
 40
0.0
 40
0.0
 40
0.0
 40
0.2423807015
 40
1.0
 40
1.0
 40
1.0
 40
1.0
 10
159.8211333779
 20
319.2054610477
 30
0.0
 10
159.9597228696
 20
319.2187933681
 30
0.0
 10
160.5334016018
 20
319.2535374183
 30
0.0
 10
161.1108727406
 20
319.2084796466
 30
0.0
 10
161.5403081571
 20
319.1379128099
 30
0.0
  0
SPLINE
  5
386
100
AcDbEntity
  8
0
100
AcDbSpline
 62
7
  6
BYLAYER
 70
0
 71
3
 72
9
 73
5
 74
0
 42
0.0000001
 43
0.0000001
 44
0.0000000001
 40
0.0
 40
0.0
 40
0.0
 40
0.0
 40
0.2400975558
 40
1.0
 40
1.0
 40
1.0
 40
1.0
 10
175.0552196878
 20
316.4315188395
 30
0.0
 10
175.0552295262
 20
316.3727762427
 30
0.0
 10
175.0382305779
 20
316.1280094337
 30
0.0
 10
174.9498705604
 20
315.891535759
 30
0.0
 10
174.8598030164
 20
315.7288900443
 30
0.0
  0
SPLINE
  5
387
100
AcDbEntity
  8
0
100
AcDbSpline
 62
7
  6
BYLAYER
 70
0
 71
3
 72
9
 73
5
 74
0
 42
0.0000001
 43
0.0000001
 44
0.0000000001
 40
0.0
 40
0.0
 40
0.0
 40
0.0
 40
0.4398338249
 40
1.0
 40
1.0
 40
1.0
 40
1.0
 10
174.8598030164
 20
315.7288900443
 30
0.0
 10
174.7225725313
 20
315.4810765776
 30
0.0
 10
174.2917302409
 20
314.9860483633
 30
0.0
 10
173.7700580979
 20
314.6048668511
 30
0.0
 10
173.4666641347
 20
314.4096512927
 30
0.0
  0
SPLINE
  5
388
100
AcDbEntity
  8
0
100
AcDbSpline
 62
7
  6
BYLAYER
 70
0
 71
3
 72
11
 73
7
 74
0
 42
0.0000001
 43
0.0000001
 44
0.0000000001
 40
0.0
 40
0.0
 40
0.0
 40
0.0
 40
0.3312145729
 40
0.6051721451
 40
0.822968051
 40
1.0
 40
1.0
 40
1.0
 40
1.0
 10
161.2212977148
 20
318.9589209738
 30
0.0
 10
160.8809303696
 20
318.7624109685
 30
0.0
 10
160.2723996102
 20
318.3785515388
 30
0.0
 10
159.5128309772
 20
317.7595207599
 30
0.0
 10
158.9983078397
 20
317.1454460071
 30
0.0
 10
158.8308904028
 20
316.6906916986
 30
0.0
 10
158.810607567
 20
316.4816057072
 30
0.0
  0
SPLINE
  5
389
100
AcDbEntity
  8
0
100
AcDbSpline
 62
7
  6
BYLAYER
 70
0
 71
3
 72
10
 73
6
 74
0
 42
0.0000001
 43
0.0000001
 44
0.0000000001
 40
0.0
 40
0.0
 40
0.0
 40
0.0
 40
0.3883506594
 40
0.6651412103
 40
1.0
 40
1.0
 40
1.0
 40
1.0
 10
175.2990483528
 20
316.5098239369
 30
0.0
 10
175.251769536
 20
317.0010274819
 30
0.0
 10
174.6857326048
 20
317.7475882535
 30
0.0
 10
173.695759178
 20
318.5143488495
 30
0.0
 10
173.02666373
 20
318.9224295149
 30
0.0
 10
172.6543569801
 20
319.1284383151
 30
0.0
  0
SPLINE
  5
38A
100
AcDbEntity
  8
0
100
AcDbSpline
 62
7
  6
BYLAYER
 70
0
 71
3
 72
11
 73
7
 74
0
 42
0.0000001
 43
0.0000001
 44
0.0000000001
 40
0.0
 40
0.0
 40
0.0
 40
0.0
 40
0.2115719102
 40
0.4425465327
 40
0.7044069233
 40
1.0
 40
1.0
 40
1.0
 40
1.0
 10
58.3708731909
 20
249.7058366441
 30
0.0
 10
58.3659261184
 20
250.0644535741
 30
0.0
 10
58.2014991474
 20
250.8182358692
 30
0.0
 10
57.5433805379
 20
251.8373992462
 30
0.0
 10
56.5308293579
 20
252.7289995427
 30
0.0
 10
55.7002495699
 20
253.1931344244
 30
0.0
 10
55.2445797035
 20
253.4015753755
 30
0.0
  0
SPLINE
  5
38B
100
AcDbEntity
  8
0
100
AcDbSpline
 62
7
  6
BYLAYER
 70
0
 71
3
 72
9
 73
5
 74
0
 42
0.0000001
 43
0.0000001
 44
0.0000000001
 40
0.0
 40
0.0
 40
0.0
 40
0.0
 40
0.2433040259
 40
1.0
 40
1.0
 40
1.0
 40
1.0
 10
42.0403152685
 20
249.1252605628
 30
0.0
 10
42.064859301
 20
249.192695176
 30
0.0
 10
42.1758189687
 20
249.4661529795
 30
0.0
 10
42.3261849225
 20
249.7230426716
 30
0.0
 10
42.4558127858
 20
249.9047265846
 30
0.0
  0
SPLINE
  5
38C
100
AcDbEntity
  8
0
100
AcDbSpline
 62
7
  6
BYLAYER
 70
0
 71
3
 72
9
 73
5
 74
0
 42
0.0000001
 43
0.0000001
 44
0.0000000001
 40
0.0
 40
0.0
 40
0.0
 40
0.0
 40
0.2310982121
 40
1.0
 40
1.0
 40
1.0
 40
1.0
 10
42.4558127858
 20
249.9047265846
 30
0.0
 10
42.5478304866
 20
250.0336968191
 30
0.0
 10
42.9816867294
 20
250.5664442254
 30
0.0
 10
43.5355954575
 20
250.9923902021
 30
0.0
 10
43.9850727245
 20
251.2677703018
 30
0.0
  0
SPLINE
  5
38D
100
AcDbEntity
  8
0
100
AcDbSpline
 62
7
  6
BYLAYER
 70
0
 71
3
 72
9
 73
5
 74
0
 42
0.0000001
 43
0.0000001
 44
0.0000000001
 40
0.0
 40
0.0
 40
0.0
 40
0.0
 40
0.2964155984
 40
1.0
 40
1.0
 40
1.0
 40
1.0
 10
144.9711825198
 20
301.4862334713
 30
0.0
 10
145.0374436264
 20
301.5403580125
 30
0.0
 10
145.2688781456
 20
301.7086868029
 30
0.0
 10
145.562135328
 20
301.822680003
 30
0.0
 10
145.7646186794
 20
301.8071027348
 30
0.0
  0
SPLINE
  5
38E
100
AcDbEntity
  8
0
100
AcDbSpline
 62
7
  6
BYLAYER
 70
0
 71
3
 72
8
 73
4
 74
0
 42
0.0000001
 43
0.0000001
 44
0.0000000001
 40
0.0
 40
0.0
 40
0.0
 40
0.0
 40
1.0
 40
1.0
 40
1.0
 40
1.0
 10
145.7646186794
 20
301.8071027348
 30
0.0
 10
145.8488977603
 20
301.8006190518
 30
0.0
 10
145.9340356487
 20
301.7757186217
 30
0.0
 10
146.0073099248
 20
301.7335774058
 30
0.0
  0
SPLINE
  5
38F
100
AcDbEntity
  8
0
100
AcDbSpline
 62
7
  6
BYLAYER
 70
0
 71
3
 72
9
 73
5
 74
0
 42
0.0000001
 43
0.0000001
 44
0.0000000001
 40
0.0
 40
0.0
 40
0.0
 40
0.0
 40
0.746869627
 40
1.0
 40
1.0
 40
1.0
 40
1.0
 10
41.8941834155
 20
247.5738438215
 30
0.0
 10
41.9123991089
 20
247.7143061288
 30
0.0
 10
41.9512762998
 20
247.9008903954
 30
0.0
 10
42.0075479136
 20
248.0820122505
 30
0.0
 10
42.0228603377
 20
248.1275089539
 30
0.0
  0
SPLINE
  5
390
100
AcDbEntity
  8
0
100
AcDbSpline
 62
7
  6
BYLAYER
 70
0
 71
3
 72
9
 73
5
 74
0
 42
0.0000001
 43
0.0000001
 44
0.0000000001
 40
0.0
 40
0.0
 40
0.0
 40
0.0
 40
0.2565739163
 40
1.0
 40
1.0
 40
1.0
 40
1.0
 10
149.1298824212
 20
299.0852549008
 30
0.0
 10
149.1502357259
 20
299.0970058166
 30
0.0
 10
149.2302514179
 20
299.1415946012
 30
0.0
 10
149.3130501327
 20
299.1812496129
 30
0.0
 10
149.3759511521
 20
299.2073395302
 30
0.0
  0
SPLINE
  5
391
100
AcDbEntity
  8
0
100
AcDbSpline
 62
7
  6
BYLAYER
 70
0
 71
3
 72
9
 73
5
 74
0
 42
0.0000001
 43
0.0000001
 44
0.0000000001
 40
0.0
 40
0.0
 40
0.0
 40
0.0
 40
0.2770982703
 40
1.0
 40
1.0
 40
1.0
 40
1.0
 10
149.3759511521
 20
299.2073395302
 30
0.0
 10
149.4430055112
 20
299.2351521586
 30
0.0
 10
149.6894538412
 20
299.3219695026
 30
0.0
 10
149.9653627901
 20
299.3440555227
 30
0.0
 10
150.1495814607
 20
299.3001254224
 30
0.0
  0
SPLINE
  5
392
100
AcDbEntity
  8
0
100
AcDbSpline
 62
7
  6
BYLAYER
 70
0
 71
3
 72
8
 73
4
 74
0
 42
0.0000001
 43
0.0000001
 44
0.0000000001
 40
0.0
 40
0.0
 40
0.0
 40
0.0
 40
1.0
 40
1.0
 40
1.0
 40
1.0
 10
150.1495814607
 20
299.3001254224
 30
0.0
 10
150.2298664158
 20
299.2809800984
 30
0.0
 10
150.3083123748
 20
299.250220452
 30
0.0
 10
150.3797983885
 20
299.2089655459
 30
0.0
  0
SPLINE
  5
393
100
AcDbEntity
  8
0
100
AcDbSpline
 62
7
  6
BYLAYER
 70
0
 71
3
 72
9
 73
5
 74
0
 42
0.0000001
 43
0.0000001
 44
0.0000000001
 40
0.0
 40
0.0
 40
0.0
 40
0.0
 40
0.2455813606
 40
1.0
 40
1.0
 40
1.0
 40
1.0
 10
173.4050883867
 20
314.3704113639
 30
0.0
 10
173.3693059795
 20
314.3434505152
 30
0.0
 10
173.2223979863
 20
314.2352692327
 30
0.0
 10
173.0708416911
 20
314.1334283709
 30
0.0
 10
172.9544105545
 20
314.060036399
 30
0.0
  0
SPLINE
  5
394
100
AcDbEntity
  8
0
100
AcDbSpline
 62
7
  6
BYLAYER
 70
0
 71
3
 72
9
 73
5
 74
0
 42
0.0000001
 43
0.0000001
 44
0.0000000001
 40
0.0
 40
0.0
 40
0.0
 40
0.0
 40
0.4746169433
 40
1.0
 40
1.0
 40
1.0
 40
1.0
 10
172.7118307484
 20
313.9137024769
 30
0.0
 10
171.976538531
 20
313.4891838513
 30
0.0
 10
170.2800581479
 20
312.8476213259
 30
0.0
 10
168.4942288658
 20
312.6038835587
 30
0.0
 10
167.5549861893
 20
312.569923387
 30
0.0
  0
SPLINE
  5
395
100
AcDbEntity
  8
0
100
AcDbSpline
 62
7
  6
BYLAYER
 70
0
 71
3
 72
9
 73
5
 74
0
 42
0.0000001
 43
0.0000001
 44
0.0000000001
 40
0.0
 40
0.0
 40
0.0
 40
0.0
 40
0.2455896089
 40
1.0
 40
1.0
 40
1.0
 40
1.0
 10
55.1044180351
 20
253.4504933358
 30
0.0
 10
55.0349206597
 20
253.4738389369
 30
0.0
 10
54.7503186301
 20
253.5640391485
 30
0.0
 10
54.4598094966
 20
253.6353153169
 30
0.0
 10
54.2389580936
 20
253.6793959448
 30
0.0
  0
SPLINE
  5
396
100
AcDbEntity
  8
0
100
AcDbSpline
 62
7
  6
BYLAYER
 70
0
 71
3
 72
9
 73
5
 74
0
 42
0.0000001
 43
0.0000001
 44
0.0000000001
 40
0.0
 40
0.0
 40
0.0
 40
0.0
 40
0.2441530654
 40
1.0
 40
1.0
 40
1.0
 40
1.0
 10
54.2389580936
 20
253.6793959448
 30
0.0
 10
54.1146208522
 20
253.7042129194
 30
0.0
 10
53.6028865518
 20
253.7933490989
 30
0.0
 10
53.0831595301
 20
253.8338783762
 30
0.0
 10
52.6907277494
 20
253.841936121
 30
0.0
  0
SPLINE
  5
397
100
AcDbEntity
  8
0
100
AcDbSpline
 62
7
  6
BYLAYER
 70
0
 71
3
 72
9
 73
5
 74
0
 42
0.0000001
 43
0.0000001
 44
0.0000000001
 40
0.0
 40
0.0
 40
0.0
 40
0.0
 40
0.2448415037
 40
1.0
 40
1.0
 40
1.0
 40
1.0
 10
52.6907277494
 20
253.841936121
 30
0.0
 10
52.5223599156
 20
253.8453931933
 30
0.0
 10
51.8343736301
 20
253.8425769567
 30
0.0
 10
51.1473218494
 20
253.7762512557
 30
0.0
 10
50.6337700445
 20
253.6985137533
 30
0.0
  0
SPLINE
  5
398
100
AcDbEntity
  8
0
100
AcDbSpline
 62
7
  6
BYLAYER
 70
0
 71
3
 72
9
 73
5
 74
0
 42
0.0000001
 43
0.0000001
 44
0.0000000001
 40
0.0
 40
0.0
 40
0.0
 40
0.0
 40
0.5238412685
 40
1.0
 40
1.0
 40
1.0
 40
1.0
 10
49.0307413445
 20
253.3679755016
 30
0.0
 10
48.1638117264
 20
253.1439609985
 30
0.0
 10
46.5400808271
 20
252.5926044965
 30
0.0
 10
44.9923958228
 20
251.854533738
 30
0.0
 10
44.2875361547
 20
251.4475852481
 30
0.0
  0
SPLINE
  5
399
100
AcDbEntity
  8
0
100
AcDbSpline
 62
7
  6
BYLAYER
 70
0
 71
3
 72
11
 73
7
 74
0
 42
0.0000001
 43
0.0000001
 44
0.0000000001
 40
0.0
 40
0.0
 40
0.0
 40
0.0
 40
0.2173440879
 40
0.4512344251
 40
0.7110548136
 40
1.0
 40
1.0
 40
1.0
 40
1.0
 10
35.8404993844
 20
245.2003535148
 30
0.0
 10
35.8405305115
 20
244.7213349033
 30
0.0
 10
36.018194092
 20
243.7206026493
 30
0.0
 10
36.7704093213
 20
242.3222996423
 30
0.0
 10
37.9585782298
 20
241.050922803
 30
0.0
 10
38.9582246785
 20
240.3546997379
 30
0.0
 10
39.5099276496
 20
240.0366278011
 30
0.0
  0
SPLINE
  5
39A
100
AcDbEntity
  8
0
100
AcDbSpline
 62
7
  6
BYLAYER
 70
0
 71
3
 72
9
 73
5
 74
0
 42
0.0000001
 43
0.0000001
 44
0.0000000001
 40
0.0
 40
0.0
 40
0.0
 40
0.0
 40
0.2553344911
 40
1.0
 40
1.0
 40
1.0
 40
1.0
 10
43.9850998817
 20
251.2677874
 30
0.0
 10
43.7835687336
 20
251.2608337217
 30
0.0
 10
42.9950292752
 20
251.2163507725
 30
0.0
 10
42.2100661446
 20
251.1009979219
 30
0.0
 10
41.6363305209
 20
250.9718049138
 30
0.0
  0
SPLINE
  5
39B
100
AcDbEntity
  8
0
100
AcDbSpline
 62
7
  6
BYLAYER
 70
0
 71
3
 72
10
 73
6
 74
0
 42
0.0000001
 43
0.0000001
 44
0.0000000001
 40
0.0
 40
0.0
 40
0.0
 40
0.0
 40
0.4152526751
 40
0.689710792
 40
1.0
 40
1.0
 40
1.0
 40
1.0
 10
147.8723255358
 20
299.1320071545
 30
0.0
 10
147.8722878537
 20
299.1977624869
 30
0.0
 10
147.7978726138
 20
299.3020084361
 30
0.0
 10
147.657996486
 20
299.3736578572
 30
0.0
 10
147.5677704129
 20
299.3993289381
 30
0.0
 10
147.5193930027
 20
299.4079202862
 30
0.0
  0
SPLINE
  5
39C
100
AcDbEntity
  8
0
100
AcDbSpline
 62
7
  6
BYLAYER
 70
0
 71
3
 72
9
 73
5
 74
0
 42
0.0000001
 43
0.0000001
 44
0.0000000001
 40
0.0
 40
0.0
 40
0.0
 40
0.0
 40
0.5335389846
 40
1.0
 40
1.0
 40
1.0
 40
1.0
 10
166.5549861893
 20
312.5699209833
 30
0.0
 10
165.468853526
 20
312.6091870102
 30
0.0
 10
163.4354843643
 20
312.9162619748
 30
0.0
 10
161.5326279878
 20
313.7621148319
 30
0.0
 10
160.766664062
 20
314.324415525
 30
0.0
  0
SPLINE
  5
39D
100
AcDbEntity
  8
0
100
AcDbSpline
 62
7
  6
BYLAYER
 70
0
 71
3
 72
8
 73
4
 74
0
 42
0.0000001
 43
0.0000001
 44
0.0000000001
 40
0.0
 40
0.0
 40
0.0
 40
0.0
 40
1.0
 40
1.0
 40
1.0
 40
1.0
 10
170.5816858482
 20
285.3889456508
 30
0.0
 10
170.5816858304
 20
285.4464974564
 30
0.0
 10
170.573682027
 20
285.5045210212
 30
0.0
 10
170.5585213592
 20
285.5600400673
 30
0.0
  0
SPLINE
  5
39E
100
AcDbEntity
  8
0
100
AcDbSpline
 62
7
  6
BYLAYER
 70
0
 71
3
 72
9
 73
5
 74
0
 42
0.0000001
 43
0.0000001
 44
0.0000000001
 40
0.0
 40
0.0
 40
0.0
 40
0.0
 40
0.2214949284
 40
1.0
 40
1.0
 40
1.0
 40
1.0
 10
170.5585213592
 20
285.5600400673
 30
0.0
 10
170.5426006075
 20
285.6183425747
 30
0.0
 10
170.4346728472
 20
285.8722712822
 30
0.0
 10
170.2092543362
 20
286.0583997698
 30
0.0
 10
170.0252894495
 20
286.1646095439
 30
0.0
  0
SPLINE
  5
39F
100
AcDbEntity
  8
0
100
AcDbSpline
 62
7
  6
BYLAYER
 70
0
 71
3
 72
11
 73
7
 74
0
 42
0.0000001
 43
0.0000001
 44
0.0000000001
 40
0.0
 40
0.0
 40
0.0
 40
0.0
 40
0.2298409929
 40
0.4828649529
 40
0.7454910599
 40
1.0
 40
1.0
 40
1.0
 40
1.0
 10
175.231928285
 20
282.7281404459
 30
0.0
 10
175.2199939787
 20
283.0084615105
 30
0.0
 10
175.0639893944
 20
283.593989891
 30
0.0
 10
174.549339849
 20
284.3598413319
 30
0.0
 10
173.8247624156
 20
284.9750043417
 30
0.0
 10
173.2447878502
 20
285.2491179891
 30
0.0
 10
172.9462537198
 20
285.3351669401
 30
0.0
  0
SPLINE
  5
3A0
100
AcDbEntity
  8
0
100
AcDbSpline
 62
7
  6
BYLAYER
 70
0
 71
3
 72
9
 73
5
 74
0
 42
0.0000001
 43
0.0000001
 44
0.0000000001
 40
0.0
 40
0.0
 40
0.0
 40
0.0
 40
0.240382756
 40
1.0
 40
1.0
 40
1.0
 40
1.0
 10
172.9462624369
 20
285.3351725561
 30
0.0
 10
172.747857911
 20
285.180478046
 30
0.0
 10
171.9061925191
 20
284.5579318247
 30
0.0
 10
171.0050340355
 20
284.0174344452
 30
0.0
 10
170.300548833
 20
283.6489924548
 30
0.0
  0
SPLINE
  5
3A1
100
AcDbEntity
  8
0
100
AcDbSpline
 62
7
  6
BYLAYER
 70
0
 71
3
 72
10
 73
6
 74
0
 42
0.0000001
 43
0.0000001
 44
0.0000000001
 40
0.0
 40
0.0
 40
0.0
 40
0.0
 40
0.2252450312
 40
0.4657896011
 40
1.0
 40
1.0
 40
1.0
 40
1.0
 10
137.8276514892
 20
283.8951383096
 30
0.0
 10
137.8257402564
 20
283.8171073365
 30
0.0
 10
137.8545434301
 20
283.653665137
 30
0.0
 10
138.0307757298
 20
283.3497100032
 30
0.0
 10
138.2525871561
 20
283.1809449671
 30
0.0
 10
138.4134816856
 20
283.0893888229
 30
0.0
  0
SPLINE
  5
3A2
100
AcDbEntity
  8
0
100
AcDbSpline
 62
7
  6
BYLAYER
 70
0
 71
3
 72
9
 73
5
 74
0
 42
0.0000001
 43
0.0000001
 44
0.0000000001
 40
0.0
 40
0.0
 40
0.0
 40
0.0
 40
0.5680356551
 40
1.0
 40
1.0
 40
1.0
 40
1.0
 10
160.6899071276
 20
314.3720642304
 30
0.0
 10
160.3497911887
 20
314.5856858574
 30
0.0
 10
159.7737938013
 20
314.9993132636
 30
0.0
 10
159.311180939
 20
315.5597880327
 30
0.0
 10
159.1845263129
 20
315.8377162599
 30
0.0
  0
SPLINE
  5
3A3
100
AcDbEntity
  8
0
100
AcDbSpline
 62
7
  6
BYLAYER
 70
0
 71
3
 72
9
 73
5
 74
0
 42
0.0000001
 43
0.0000001
 44
0.0000000001
 40
0.0
 40
0.0
 40
0.0
 40
0.0
 40
0.2611200828
 40
1.0
 40
1.0
 40
1.0
 40
1.0
 10
159.1845263129
 20
315.8377162599
 30
0.0
 10
159.1633982956
 20
315.8840791333
 30
0.0
 10
159.0905222321
 20
316.0650918485
 30
0.0
 10
159.0549536558
 20
316.2618330655
 30
0.0
 10
159.0549541047
 20
316.4060042055
 30
0.0
  0
SPLINE
  5
3A4
100
AcDbEntity
  8
0
100
AcDbSpline
 62
7
  6
BYLAYER
 70
0
 71
3
 72
11
 73
7
 74
0
 42
0.0000001
 43
0.0000001
 44
0.0000000001
 40
0.0
 40
0.0
 40
0.0
 40
0.0
 40
0.225567651
 40
0.4851894521
 40
0.753789658
 40
1.0
 40
1.0
 40
1.0
 40
1.0
 10
168.774936978
 20
282.9268990538
 30
0.0
 10
168.5670619786
 20
282.7566721565
 30
0.0
 10
168.1824832978
 20
282.3153955783
 30
0.0
 10
167.7313199798
 20
281.5346684682
 30
0.0
 10
167.4161885512
 20
280.6629302713
 30
0.0
 10
167.3162573368
 20
280.0517693721
 30
0.0
 10
167.3094654768
 20
279.7585793898
 30
0.0
  0
SPLINE
  5
3A5
100
AcDbEntity
  8
0
100
AcDbSpline
 62
7
  6
BYLAYER
 70
0
 71
3
 72
10
 73
6
 74
0
 42
0.0000001
 43
0.0000001
 44
0.0000000001
 40
0.0
 40
0.0
 40
0.0
 40
0.0
 40
0.2459288831
 40
0.5090118866
 40
1.0
 40
1.0
 40
1.0
 40
1.0
 10
169.8697813093
 20
279.5616337451
 30
0.0
 10
169.6674971168
 20
279.4870246035
 30
0.0
 10
169.2268778696
 20
279.3879508358
 30
0.0
 10
168.3508139277
 20
279.3684947275
 30
0.0
 10
167.676249624
 20
279.5328443348
 30
0.0
 10
167.3097700462
 20
279.7586261946
 30
0.0
  0
SPLINE
  5
3A6
100
AcDbEntity
  8
0
100
AcDbSpline
 62
7
  6
BYLAYER
 70
0
 71
3
 72
10
 73
6
 74
0
 42
0.0000001
 43
0.0000001
 44
0.0000000001
 40
0.0
 40
0.0
 40
0.0
 40
0.0
 40
0.2248318787
 40
0.491524611
 40
1.0
 40
1.0
 40
1.0
 40
1.0
 10
167.3126874175
 20
279.7612529297
 30
0.0
 10
167.4858673744
 20
279.6677690926
 30
0.0
 10
167.895225845
 20
279.518865281
 30
0.0
 10
168.7637543718
 20
279.3961767878
 30
0.0
 10
169.4621052701
 20
279.4796503554
 30
0.0
 10
169.8783429188
 20
279.6372670735
 30
0.0
  0
SPLINE
  5
3A7
100
AcDbEntity
  8
0
100
AcDbSpline
 62
7
  6
BYLAYER
 70
0
 71
3
 72
9
 73
5
 74
0
 42
0.0000001
 43
0.0000001
 44
0.0000000001
 40
0.0
 40
0.0
 40
0.0
 40
0.0
 40
0.2692252075
 40
1.0
 40
1.0
 40
1.0
 40
1.0
 10
269.6836823391
 20
263.1097975115
 30
0.0
 10
269.8378336114
 20
263.0167960488
 30
0.0
 10
270.3970502749
 20
262.6510810547
 30
0.0
 10
270.9028261007
 20
262.1935869138
 30
0.0
 10
271.1999290328
 20
261.805601136
 30
0.0
  0
SPLINE
  5
3A8
100
AcDbEntity
  8
0
100
AcDbSpline
 62
7
  6
BYLAYER
 70
0
 71
3
 72
9
 73
5
 74
0
 42
0.0000001
 43
0.0000001
 44
0.0000000001
 40
0.0
 40
0.0
 40
0.0
 40
0.0
 40
0.2588745002
 40
1.0
 40
1.0
 40
1.0
 40
1.0
 10
271.1999290328
 20
261.805601136
 30
0.0
 10
271.2506800771
 20
261.7393255082
 30
0.0
 10
271.4386287274
 20
261.4773043472
 30
0.0
 10
271.5918811502
 20
261.1896893512
 30
0.0
 10
271.6785601452
 20
260.9669834463
 30
0.0
  0
SPLINE
  5
3A9
100
AcDbEntity
  8
0
100
AcDbSpline
 62
7
  6
BYLAYER
 70
0
 71
3
 72
9
 73
5
 74
0
 42
0.0000001
 43
0.0000001
 44
0.0000000001
 40
0.0
 40
0.0
 40
0.0
 40
0.0
 40
0.2551069831
 40
1.0
 40
1.0
 40
1.0
 40
1.0
 10
159.821148299
 20
319.2054690661
 30
0.0
 10
159.6857397388
 20
319.1923791877
 30
0.0
 10
159.1569640163
 20
319.1226384161
 30
0.0
 10
158.6374918322
 20
318.9780612024
 30
0.0
 10
158.2698566408
 20
318.8276194039
 30
0.0
  0
SPLINE
  5
3AA
100
AcDbEntity
  8
0
100
AcDbSpline
 62
7
  6
BYLAYER
 70
0
 71
3
 72
9
 73
5
 74
0
 42
0.0000001
 43
0.0000001
 44
0.0000000001
 40
0.0
 40
0.0
 40
0.0
 40
0.0
 40
0.2469222723
 40
1.0
 40
1.0
 40
1.0
 40
1.0
 10
274.2363420111
 20
262.1014222908
 30
0.0
 10
274.0681856582
 20
262.1778165342
 30
0.0
 10
273.3792019096
 20
262.4694301135
 30
0.0
 10
272.6596006423
 20
262.6879517921
 30
0.0
 10
272.109980683
 20
262.8113254649
 30
0.0
  0
SPLINE
  5
3AB
100
AcDbEntity
  8
0
100
AcDbSpline
 62
7
  6
BYLAYER
 70
0
 71
3
 72
11
 73
7
 74
0
 42
0.0000001
 43
0.0000001
 44
0.0000000001
 40
0.0
 40
0.0
 40
0.0
 40
0.0
 40
0.2393869001
 40
0.5021621874
 40
0.7637662825
 40
1.0
 40
1.0
 40
1.0
 40
1.0
 10
143.1919039958
 20
293.6869646882
 30
0.0
 10
143.2004231755
 20
293.9735841213
 30
0.0
 10
143.3190967095
 20
294.5724085876
 30
0.0
 10
143.7011825246
 20
295.4108298505
 30
0.0
 10
144.2485789254
 20
296.1472583061
 30
0.0
 10
144.7135279918
 20
296.5354867022
 30
0.0
 10
144.9585867175
 20
296.6769705789
 30
0.0
  0
SPLINE
  5
3AC
100
AcDbEntity
  8
0
100
AcDbSpline
 62
7
  6
BYLAYER
 70
0
 71
3
 72
11
 73
7
 74
0
 42
0.0000001
 43
0.0000001
 44
0.0000000001
 40
0.0
 40
0.0
 40
0.0
 40
0.0
 40
0.2349860809
 40
0.4930318108
 40
0.754720242
 40
1.0
 40
1.0
 40
1.0
 40
1.0
 10
138.7316966794
 20
296.2575886904
 30
0.0
 10
138.7410938369
 20
296.5440732206
 30
0.0
 10
138.8818599541
 20
297.1422490131
 30
0.0
 10
139.3385269997
 20
297.9522396215
 30
0.0
 10
139.9876163948
 20
298.6354646093
 30
0.0
 10
140.523011887
 20
298.964460031
 30
0.0
 10
140.7998400053
 20
299.0779669092
 30
0.0
  0
SPLINE
  5
3AD
100
AcDbEntity
  8
0
100
AcDbSpline
 62
7
  6
BYLAYER
 70
0
 71
3
 72
9
 73
5
 74
0
 42
0.0000001
 43
0.0000001
 44
0.0000000001
 40
0.0
 40
0.0
 40
0.0
 40
0.0
 40
0.2362565587
 40
1.0
 40
1.0
 40
1.0
 40
1.0
 10
140.7998577134
 20
299.0779595713
 30
0.0
 10
141.0994749462
 20
299.3115688644
 30
0.0
 10
142.4054936767
 20
300.2516968645
 30
0.0
 10
143.8418441539
 20
301.0034486334
 30
0.0
 10
144.9711533823
 20
301.4862439133
 30
0.0
  0
SPLINE
  5
3AE
100
AcDbEntity
  8
0
100
AcDbSpline
 62
7
  6
BYLAYER
 70
0
 71
3
 72
9
 73
5
 74
0
 42
0.0000001
 43
0.0000001
 44
0.0000000001
 40
0.0
 40
0.0
 40
0.0
 40
0.0
 40
0.2449228445
 40
1.0
 40
1.0
 40
1.0
 40
1.0
 10
272.109980683
 20
262.8113254649
 30
0.0
 10
271.9151048891
 20
262.8552050309
 30
0.0
 10
271.114933075
 20
263.0140219043
 30
0.0
 10
270.299251915
 20
263.0919790613
 30
0.0
 10
269.6836819165
 20
263.1097978972
 30
0.0
  0
SPLINE
  5
3AF
100
AcDbEntity
  8
0
100
AcDbSpline
 62
7
  6
BYLAYER
 70
0
 71
3
 72
11
 73
7
 74
0
 42
0.0000001
 43
0.0000001
 44
0.0000000001
 40
0.0
 40
0.0
 40
0.0
 40
0.0
 40
0.2372524156
 40
0.4999996414
 40
0.7627470637
 40
1.0
 40
1.0
 40
1.0
 40
1.0
 10
169.8838786916
 20
284.6949363689
 30
0.0
 10
169.7132087587
 20
284.5964006253
 30
0.0
 10
169.3163420678
 20
284.4525903847
 30
0.0
 10
168.6817987047
 20
284.3838351703
 30
0.0
 10
168.0472546042
 20
284.4525876251
 30
0.0
 10
167.6503866536
 20
284.5963958609
 30
0.0
 10
167.4797156356
 20
284.69493059
 30
0.0
  0
SPLINE
  5
3B0
100
AcDbEntity
  8
0
100
AcDbSpline
 62
7
  6
BYLAYER
 70
0
 71
3
 72
9
 73
5
 74
0
 42
0.0000001
 43
0.0000001
 44
0.0000000001
 40
0.0
 40
0.0
 40
0.0
 40
0.0
 40
0.2619879612
 40
1.0
 40
1.0
 40
1.0
 40
1.0
 10
143.9143714018
 20
300.0481363576
 30
0.0
 10
143.8704569887
 20
300.0559351217
 30
0.0
 10
143.701284728
 20
300.0713839512
 30
0.0
 10
143.5226227388
 20
300.0391641312
 30
0.0
 10
143.4138141597
 20
299.9763438437
 30
0.0
  0
SPLINE
  5
3B1
100
AcDbEntity
  8
0
100
AcDbSpline
 62
7
  6
BYLAYER
 70
0
 71
3
 72
9
 73
5
 74
0
 42
0.0000001
 43
0.0000001
 44
0.0000000001
 40
0.0
 40
0.0
 40
0.0
 40
0.0
 40
0.5507617557
 40
1.0
 40
1.0
 40
1.0
 40
1.0
 10
143.4138141597
 20
299.9763438437
 30
0.0
 10
143.3724648136
 20
299.9524709302
 30
0.0
 10
143.301435684
 20
299.8980880954
 30
0.0
 10
143.2673415675
 20
299.8111683887
 30
0.0
 10
143.267403523
 20
299.7722235632
 30
0.0
  0
SPLINE
  5
3B2
100
AcDbEntity
  8
0
100
AcDbSpline
 62
7
  6
BYLAYER
 70
0
 71
3
 72
9
 73
5
 74
0
 42
0.0000001
 43
0.0000001
 44
0.0000000001
 40
0.0
 40
0.0
 40
0.0
 40
0.0
 40
0.4724620944
 40
1.0
 40
1.0
 40
1.0
 40
1.0
 10
269.6836819165
 20
263.1097978972
 30
0.0
 10
268.9840122884
 20
263.531917738
 30
0.0
 10
267.4259627142
 20
264.2970482329
 30
0.0
 10
265.7879694562
 20
264.8692145656
 30
0.0
 10
264.9065916316
 20
265.1051065111
 30
0.0
  0
SPLINE
  5
3B3
100
AcDbEntity
  8
0
100
AcDbSpline
 62
7
  6
BYLAYER
 70
0
 71
3
 72
9
 73
5
 74
0
 42
0.0000001
 43
0.0000001
 44
0.0000000001
 40
0.0
 40
0.0
 40
0.0
 40
0.0
 40
0.2533105743
 40
1.0
 40
1.0
 40
1.0
 40
1.0
 10
263.1185227494
 20
265.4801125288
 30
0.0
 10
262.9897410915
 20
265.4992664435
 30
0.0
 10
262.480361066
 20
265.5679256739
 30
0.0
 10
261.9668508161
 20
265.6073721153
 30
0.0
 10
261.5831864115
 20
265.6171281883
 30
0.0
  0
SPLINE
  5
3B4
100
AcDbEntity
  8
0
100
AcDbSpline
 62
7
  6
BYLAYER
 70
0
 71
3
 72
9
 73
5
 74
0
 42
0.0000001
 43
0.0000001
 44
0.0000000001
 40
0.0
 40
0.0
 40
0.0
 40
0.0
 40
0.2574357645
 40
1.0
 40
1.0
 40
1.0
 40
1.0
 10
261.5831864115
 20
265.6171281883
 30
0.0
 10
261.404680831
 20
265.6216673466
 30
0.0
 10
260.7111257095
 20
265.6228034028
 30
0.0
 10
260.0161772306
 20
265.5525095908
 30
0.0
 10
259.511430791
 20
265.44995615
 30
0.0
  0
SPLINE
  5
3B5
100
AcDbEntity
  8
0
100
AcDbSpline
 62
7
  6
BYLAYER
 70
0
 71
3
 72
9
 73
5
 74
0
 42
0.0000001
 43
0.0000001
 44
0.0000000001
 40
0.0
 40
0.0
 40
0.0
 40
0.0
 40
0.2540412877
 40
1.0
 40
1.0
 40
1.0
 40
1.0
 10
259.511430791
 20
265.44995615
 30
0.0
 10
259.443738827
 20
265.436202623
 30
0.0
 10
259.178023407
 20
265.378496156
 30
0.0
 10
258.9154158083
 20
265.306197641
 30
0.0
 10
258.7225757847
 20
265.2433276881
 30
0.0
  0
SPLINE
  5
3B6
100
AcDbEntity
  8
0
100
AcDbSpline
 62
7
  6
BYLAYER
 70
0
 71
3
 72
9
 73
5
 74
0
 42
0.0000001
 43
0.0000001
 44
0.0000000001
 40
0.0
 40
0.0
 40
0.0
 40
0.0
 40
0.2398599868
 40
1.0
 40
1.0
 40
1.0
 40
1.0
 10
153.9252774199
 20
186.1427984932
 30
0.0
 10
153.39469783
 20
186.2536977445
 30
0.0
 10
151.1710129676
 20
186.6590739554
 30
0.0
 10
148.9083819293
 20
186.8453138116
 30
0.0
 10
147.1907835214
 20
186.8713574343
 30
0.0
  0
SPLINE
  5
3B7
100
AcDbEntity
  8
0
100
AcDbSpline
 62
7
  6
BYLAYER
 70
0
 71
3
 72
9
 73
5
 74
0
 42
0.0000001
 43
0.0000001
 44
0.0000000001
 40
0.0
 40
0.0
 40
0.0
 40
0.0
 40
0.2579987183
 40
1.0
 40
1.0
 40
1.0
 40
1.0
 10
146.1918296946
 20
186.8732367664
 30
0.0
 10
145.5966811449
 20
186.8664462105
 30
0.0
 10
143.2910355236
 20
186.7856308518
 30
0.0
 10
140.9912682817
 20
186.4929880662
 30
0.0
 10
139.3157267143
 20
186.1427679192
 30
0.0
  0
SPLINE
  5
3B8
100
AcDbEntity
  8
0
100
AcDbSpline
 62
7
  6
BYLAYER
 70
0
 71
3
 72
9
 73
5
 74
0
 42
0.0000001
 43
0.0000001
 44
0.0000000001
 40
0.0
 40
0.0
 40
0.0
 40
0.0
 40
0.2638666334
 40
1.0
 40
1.0
 40
1.0
 40
1.0
 10
147.5193930027
 20
298.9996690776
 30
0.0
 10
147.5383652901
 20
298.9962997876
 30
0.0
 10
147.6096888156
 20
298.9807756909
 30
0.0
 10
147.6791804543
 20
298.9547055793
 30
0.0
 10
147.7257911601
 20
298.9279240804
 30
0.0
  0
SPLINE
  5
3B9
100
AcDbEntity
  8
0
100
AcDbSpline
 62
7
  6
BYLAYER
 70
0
 71
3
 72
9
 73
5
 74
0
 42
0.0000001
 43
0.0000001
 44
0.0000000001
 40
0.0
 40
0.0
 40
0.0
 40
0.0
 40
0.2356587575
 40
1.0
 40
1.0
 40
1.0
 40
1.0
 10
143.4138141597
 20
299.5680926352
 30
0.0
 10
143.424677655
 20
299.5743646397
 30
0.0
 10
143.471860233
 20
299.5990895248
 30
0.0
 10
143.5225232063
 20
299.6168716692
 30
0.0
 10
143.5618924533
 20
299.627137644
 30
0.0
  0
SPLINE
  5
3BA
100
AcDbEntity
  8
0
100
AcDbSpline
 62
7
  6
BYLAYER
 70
0
 71
3
 72
8
 73
4
 74
0
 42
0.0000001
 43
0.0000001
 44
0.0000000001
 40
0.0
 40
0.0
 40
0.0
 40
0.0
 40
1.0
 40
1.0
 40
1.0
 40
1.0
 10
143.5618924533
 20
299.627137644
 30
0.0
 10
143.6184998194
 20
299.6418986526
 30
0.0
 10
143.6771533133
 20
299.6499341933
 30
0.0
 10
143.7356150374
 20
299.6520574195
 30
0.0
  0
SPLINE
  5
3BB
100
AcDbEntity
  8
0
100
AcDbSpline
 62
7
  6
BYLAYER
 70
0
 71
3
 72
8
 73
4
 74
0
 42
0.0000001
 43
0.0000001
 44
0.0000000001
 40
0.0
 40
0.0
 40
0.0
 40
0.0
 40
1.0
 40
1.0
 40
1.0
 40
1.0
 10
143.7356150374
 20
299.6520574195
 30
0.0
 10
143.7952991268
 20
299.6542250399
 30
0.0
 10
143.8555680423
 20
299.6503280423
 30
0.0
 10
143.9143714018
 20
299.639885149
 30
0.0
  0
SPLINE
  5
3BC
100
AcDbEntity
  8
0
100
AcDbSpline
 62
7
  6
BYLAYER
 70
0
 71
3
 72
9
 73
5
 74
0
 42
0.0000001
 43
0.0000001
 44
0.0000000001
 40
0.0
 40
0.0
 40
0.0
 40
0.0
 40
0.2592621818
 40
1.0
 40
1.0
 40
1.0
 40
1.0
 10
172.6543569801
 20
319.1284383151
 30
0.0
 10
172.8059870344
 20
319.15451662
 30
0.0
 10
173.393554175
 20
319.2377739076
 30
0.0
 10
173.9925488254
 20
319.2476195197
 30
0.0
 10
174.4301093332
 20
319.2055041168
 30
0.0
  0
SPLINE
  5
3BD
100
AcDbEntity
  8
0
100
AcDbSpline
 62
7
  6
BYLAYER
 70
0
 71
3
 72
9
 73
5
 74
0
 42
0.0000001
 43
0.0000001
 44
0.0000000001
 40
0.0
 40
0.0
 40
0.0
 40
0.0
 40
0.2556098131
 40
1.0
 40
1.0
 40
1.0
 40
1.0
 10
174.4301093332
 20
319.2055041168
 30
0.0
 10
174.565725682
 20
319.1922127153
 30
0.0
 10
175.0942902882
 20
319.1222869184
 30
0.0
 10
175.6137065254
 20
318.9781663396
 30
0.0
 10
175.9809894622
 20
318.82789321
 30
0.0
  0
SPLINE
  5
3BE
100
AcDbEntity
  8
0
100
AcDbSpline
 62
7
  6
BYLAYER
 70
0
 71
3
 72
9
 73
5
 74
0
 42
0.0000001
 43
0.0000001
 44
0.0000000001
 40
0.0
 40
0.0
 40
0.0
 40
0.0
 40
0.7504856302
 40
1.0
 40
1.0
 40
1.0
 40
1.0
 10
274.2359963138
 20
251.876014392
 30
0.0
 10
273.7348849505
 20
252.5266970448
 30
0.0
 10
273.0327482225
 20
253.3677152616
 30
0.0
 10
272.2963858005
 20
254.1772597953
 30
0.0
 10
272.1100403707
 20
254.3768404028
 30
0.0
  0
SPLINE
  5
3BF
100
AcDbEntity
  8
0
100
AcDbSpline
 62
7
  6
BYLAYER
 70
0
 71
3
 72
13
 73
9
 74
0
 42
0.0000001
 43
0.0000001
 44
0.0000000001
 40
0.0
 40
0.0
 40
0.0
 40
0.0
 40
0.3411430304
 40
0.6279972153
 40
0.7466230065
 40
0.8477250766
 40
0.9316102794
 40
1.0
 40
1.0
 40
1.0
 40
1.0
 10
272.1100470369
 20
254.376845727
 30
0.0
 10
272.2971337588
 20
255.3331252068
 30
0.0
 10
272.5866256087
 20
257.104753532
 30
0.0
 10
272.7461244153
 20
259.236884874
 30
0.0
 10
272.6946580271
 20
260.6843687799
 30
0.0
 10
272.5833432321
 20
261.5462490615
 30
0.0
 10
272.4003027357
 20
262.2486159656
 30
0.0
 10
272.2160648244
 20
262.6472921949
 30
0.0
 10
272.1099862129
 20
262.8113220136
 30
0.0
  0
SPLINE
  5
3C0
100
AcDbEntity
  8
0
100
AcDbSpline
 62
7
  6
BYLAYER
 70
0
 71
3
 72
11
 73
7
 74
0
 42
0.0000001
 43
0.0000001
 44
0.0000000001
 40
0.0
 40
0.0
 40
0.0
 40
0.0
 40
0.2889147698
 40
0.5488018093
 40
0.7826774094
 40
1.0
 40
1.0
 40
1.0
 40
1.0
 10
274.2359064862
 20
251.8760581144
 30
0.0
 10
274.7875996103
 20
252.1940669165
 30
0.0
 10
275.7873933797
 20
252.8903252838
 30
0.0
 10
276.9755708056
 20
254.1618688107
 30
0.0
 10
277.7279071564
 20
255.5602276673
 30
0.0
 10
277.9056513259
 20
256.5609319996
 30
0.0
 10
277.9056201062
 20
257.0399235223
 30
0.0
  0
SPLINE
  5
3C1
100
AcDbEntity
  8
0
100
AcDbSpline
 62
7
  6
BYLAYER
 70
0
 71
3
 72
9
 73
5
 74
0
 42
0.0000001
 43
0.0000001
 44
0.0000000001
 40
0.0
 40
0.0
 40
0.0
 40
0.0
 40
0.5236183968
 40
1.0
 40
1.0
 40
1.0
 40
1.0
 10
147.1911997926
 20
188.4408287809
 30
0.0
 10
148.0581442852
 20
188.3158323325
 30
0.0
 10
149.7449133094
 20
188.2327235362
 30
0.0
 10
151.4074928029
 20
188.6627514232
 30
0.0
 10
152.1166517024
 20
189.0262477842
 30
0.0
  0
SPLINE
  5
3C2
100
AcDbEntity
  8
0
100
AcDbSpline
 62
7
  6
BYLAYER
 70
0
 71
3
 72
11
 73
7
 74
0
 42
0.0000001
 43
0.0000001
 44
0.0000000001
 40
0.0
 40
0.0
 40
0.0
 40
0.0
 40
0.2604601194
 40
0.5111927085
 40
0.7565785218
 40
1.0
 40
1.0
 40
1.0
 40
1.0
 10
152.4435077456
 20
189.2086798847
 30
0.0
 10
152.7943337279
 20
189.4214450231
 30
0.0
 10
153.4362053043
 20
189.924749477
 30
0.0
 10
154.1574839462
 20
190.890563956
 30
0.0
 10
154.5942744442
 20
191.9841087699
 30
0.0
 10
154.691169133
 20
192.7576799426
 30
0.0
 10
154.6911365857
 20
193.1411411865
 30
0.0
  0
SPLINE
  5
3C3
100
AcDbEntity
  8
0
100
AcDbSpline
 62
7
  6
BYLAYER
 70
0
 71
3
 72
9
 73
5
 74
0
 42
0.0000001
 43
0.0000001
 44
0.0000000001
 40
0.0
 40
0.0
 40
0.0
 40
0.0
 40
0.487388199
 40
1.0
 40
1.0
 40
1.0
 40
1.0
 10
54.9870206556
 20
246.0021161861
 30
0.0
 10
54.3196062323
 20
245.6443239128
 30
0.0
 10
52.8945824684
 20
245.0124017295
 30
0.0
 10
51.3998506796
 20
244.5677759345
 30
0.0
 10
50.6212246292
 20
244.4001736976
 30
0.0
  0
SPLINE
  5
3C4
100
AcDbEntity
  8
0
100
AcDbSpline
 62
7
  6
BYLAYER
 70
0
 71
3
 72
8
 73
4
 74
0
 42
0.0000001
 43
0.0000001
 44
0.0000000001
 40
0.0
 40
0.0
 40
0.0
 40
0.0
 40
1.0
 40
1.0
 40
1.0
 40
1.0
 10
170.3816970388
 20
285.3889456522
 30
0.0
 10
170.3816970274
 20
285.3374546967
 30
0.0
 10
170.3745365212
 20
285.2855417017
 30
0.0
 10
170.3609731249
 20
285.2358692468
 30
0.0
  0
SPLINE
  5
3C5
100
AcDbEntity
  8
0
100
AcDbSpline
 62
7
  6
BYLAYER
 70
0
 71
3
 72
9
 73
5
 74
0
 42
0.0000001
 43
0.0000001
 44
0.0000000001
 40
0.0
 40
0.0
 40
0.0
 40
0.0
 40
0.22276161
 40
1.0
 40
1.0
 40
1.0
 40
1.0
 10
170.3609731249
 20
285.2358692468
 30
0.0
 10
170.3473504949
 20
285.1859798638
 30
0.0
 10
170.2569430706
 20
284.9695721468
 30
0.0
 10
170.0694786449
 20
284.8075135208
 30
0.0
 10
169.915387167
 20
284.7136248095
 30
0.0
  0
SPLINE
  5
3C6
100
AcDbEntity
  8
0
100
AcDbSpline
 62
7
  6
BYLAYER
 70
0
 71
3
 72
9
 73
5
 74
0
 42
0.0000001
 43
0.0000001
 44
0.0000000001
 40
0.0
 40
0.0
 40
0.0
 40
0.0
 40
0.4619738152
 40
1.0
 40
1.0
 40
1.0
 40
1.0
 10
174.4100739863
 20
285.3355765631
 30
0.0
 10
174.2096973222
 20
285.4511101199
 30
0.0
 10
173.6935005474
 20
285.5623076916
 30
0.0
 10
173.1959466159
 20
285.4363064782
 30
0.0
 10
172.9462794924
 20
285.3351655154
 30
0.0
  0
SPLINE
  5
3C7
100
AcDbEntity
  8
0
100
AcDbSpline
 62
7
  6
BYLAYER
 70
0
 71
3
 72
11
 73
7
 74
0
 42
0.0000001
 43
0.0000001
 44
0.0000000001
 40
0.0
 40
0.0
 40
0.0
 40
0.0
 40
0.2690939339
 40
0.5268283988
 40
0.7704111522
 40
1.0
 40
1.0
 40
1.0
 40
1.0
 10
49.6212246293
 20
244.2212612182
 30
0.0
 10
49.1230747638
 20
244.1508366087
 30
0.0
 10
48.1385372326
 20
244.068056105
 30
0.0
 10
46.6945779283
 20
244.1527447198
 30
0.0
 10
45.3580238935
 20
244.4753879383
 30
0.0
 10
44.5551093945
 20
244.8697046308
 30
0.0
 10
44.1972242547
 20
245.1067035087
 30
0.0
  0
SPLINE
  5
3C8
100
AcDbEntity
  8
0
100
AcDbSpline
 62
7
  6
BYLAYER
 70
0
 71
3
 72
9
 73
5
 74
0
 42
0.0000001
 43
0.0000001
 44
0.0000000001
 40
0.0
 40
0.0
 40
0.0
 40
0.0
 40
0.5066403811
 40
1.0
 40
1.0
 40
1.0
 40
1.0
 10
43.6624356996
 20
245.5157229392
 30
0.0
 10
43.371536793
 20
245.7722274688
 30
0.0
 10
42.8578014495
 20
246.3523577277
 30
0.0
 10
42.508786575
 20
247.0441232578
 30
0.0
 10
42.3823918403
 20
247.4000145479
 30
0.0
  0
ENDSEC
  0
SECTION
  2
OBJECTS
  0
DICTIONARY
  5
C
100
AcDbDictionary
280
0
281
1
  3
ACAD_GROUP
350
D
  3
ACAD_MLINESTYLE
350
17
  3
ACAD_LAYOUT
350
1A
  3
ACAD_PLOTSETTINGS
350
19
  3
ACAD_PLOTSTYLENAME
350
E
  0
DICTIONARY
  5
D
102
{ACAD_REACTORS
330
C
102
}
100
AcDbDictionary
280
0
281
1
  0
ACDBDICTIONARYWDFLT
  5
E
102
{ACAD_REACTORS
330
C
102
}
100
AcDbDictionary
281
1
  3
Normal
350
F
100
AcDbDictionaryWithDefault
340
F
  0
DICTIONARY
  5
17
102
{ACAD_REACTORS
330
C
102
}
100
AcDbDictionary
280
0
281
1
  3
Standard
350
18
  0
DICTIONARY
  5
19
102
{ACAD_REACTORS
330
C
102
}
100
AcDbDictionary
281
1
  0
DICTIONARY
  5
1A
102
{ACAD_REACTORS
330
C
102
}
100
AcDbDictionary
281
1
  3
Model
350
3C9
  3
Layout1
350
3CA
  0
ACDBPLACEHOLDER
  5
F
102
{ACAD_REACTORS
330
E
102
}
  0
MLINESTYLE
  5
18
102
{ACAD_REACTORS
330
17
102
}
100
AcDbMlineStyle
  2
STANDARD
 70
0
  3

 62
256
 51
90.0
 52
90.0
 71
2
 49
0.5
 62
256
  6
BYLAYER
 49
-0.5
 62
256
  6
BYLAYER
  0
LAYOUT
  5
3C9
102
{ACAD_REACTORS
330
1A
102
}
100
AcDbPlotSettings
  1

  2
none_device
  4

  6

 40
0.0
 41
0.0
 42
0.0
 43
0.0
 44
210.0
 45
297.0
 46
0.0
 47
0.0
 48
0.0
 49
0.0
140
0.0
141
0.0
142
1.0
143
1.0
 70
1024
 72
1
 73
0
 74
0
  7

 75
0
147
1.0
148
0.0
149
0.0
100
AcDbLayout
  1
Model
 70
0
 71
0
 10
0.0
 20
0.0
 11
210.0
 21
297.0
 12
0.0
 22
0.0
 32
0.0
 14
0.0
 24
0.0
 34
0.0
 15
0.0
 25
0.0
 35
0.0
146
0.0
 13
0.0
 23
0.0
 33
0.0
 16
1.0
 26
0.0
 36
0.0
 17
0.0
 27
1.0
 37
0.0
 76
0
330
210
345
0
346
0
  0
LAYOUT
  5
3CA
102
{ACAD_REACTORS
330
1A
102
}
100
AcDbPlotSettings
  1

  2
none_device
  4

  6

 40
0.0
 41
0.0
 42
0.0
 43
0.0
 44
210.0
 45
297.0
 46
0.0
 47
0.0
 48
0.0
 49
0.0
140
0.0
141
0.0
142
1.0
143
1.0
 70
0
 72
1
 73
0
 74
0
  7

 75
0
147
1.0
148
0.0
149
0.0
100
AcDbLayout
  1
Layout1
 70
0
 71
1
 10
0.0
 20
0.0
 11
210.0
 21
297.0
 12
0.0
 22
0.0
 32
0.0
 14
0.0
 24
0.0
 34
0.0
 15
0.0
 25
0.0
 35
0.0
146
0.0
 13
0.0
 23
0.0
 33
0.0
 16
1.0
 26
0.0
 36
0.0
 17
0.0
 27
1.0
 37
0.0
 76
0
330
211
345
0
346
0
  0
ENDSEC
  0
EOF
