999
DXF file: C:\Users\sesa63760\Dev\_Creo\CAD\MCADID0000002_3D-CAD\drw0001_1.dxf
999
Pro/ENGINEER 2019471 by Parametric Technology Corporation
  0
SECTION
  2
HEADER
  9
$ACADVER
  1
AC1024
  9
$DWGCODEPAGE
  3
ANSI_1252
  9
$EXTMAX
 10
210.5569132569
 20
297.7876344634
 30
0.0
  9
$EXTMIN
 10
0.0
 20
0.0
 30
0.0
  9
$LIMMIN
 10
0.0
 20
0.0
  9
$LIMMAX
 10
210.5569132569
 20
297.7876344634
  9
$VIEWCTR
 10
105.2784566285
 20
148.8938172317
  9
$VIEWSIZE
 40
297.7876344634
  9
$CLAYER
  8
0
  9
$LTSCALE
 40
19.4113420984
  9
$CELTYPE
  6
BYLAYER
  9
$DIMSCALE
 40
1.0
  9
$DIMASZ
 40
2.5066299197
  9
$DIMEXO
 40
1.0
  9
$DIMDLI
 40
13.4114727225
  9
$DIMEXE
 40
1.0
  9
$DIMCEN
 40
3.1764014343
  9
$DIMLFAC
 40
1.0
  9
$DIMBLK
  1
_FILLED
  9
$DIMALT
 70
0
  9
$DIMALTF
 40
0.0393700787
  9
$DIMTXT
 40
3.5092818876
  9
$DIMTOL
 70
1
  9
$DIMLIM
 70
0
  9
$DIMTFAC
 40
1.0
  9
$DIMTP
 40
0.01
  9
$DIMTM
 40
0.01
  9
$DIMGAP
 40
0.625
  9
$DIMDSEP
 70
46
  9
$AUNITS
 70
0
  9
$PDMODE
 70
3
  9
$PDSIZE
 40
0.3125
  9
$HANDSEED
  5
88C
  9
$TILEMODE
 70
1
  9
$MEASUREMENT
 70
1
  9
$INSUNITS
 70
4
  0
ENDSEC
  0
SECTION
  2
CLASSES
  0
CLASS
  1
ACDBDICTIONARYWDFLT
  2
AcDbDictionaryWithDefault
  3
AutoCAD 2000
 90
0
 91
1
280
0
281
0
  0
CLASS
  1
ACDBPLACEHOLDER
  2
AcDbPlaceHolder
  3
AutoCAD 2000
 90
0
 91
1
280
0
281
0
  0
CLASS
  1
LAYOUT
  2
AcDbLayout
  3
AutoCAD 2000
 90
0
 91
0
280
0
281
0
  0
ENDSEC
  0
SECTION
  2
TABLES
  0
TABLE
  2
VPORT
  5
8
100
AcDbSymbolTable
 70
2
  0
VPORT
  5
1F4
100
AcDbSymbolTableRecord
100
AcDbViewportTableRecord
  2
*ACTIVE
 70
0
 10
0.0
 20
0.0
 11
1.0
 21
1.0
 12
105.2784566285
 22
148.8938172317
 13
0.0
 23
0.0
 14
1.0
 24
1.0
 15
0.0
 25
0.0
 16
0.0
 26
0.0
 36
1.0
 17
0.0
 27
0.0
 37
0.0
 40
297.7876344634
 41
0.7070707071
 42
50.0
 43
0.0
 44
0.0
 50
0.0
 51
0.0
 71
0
 72
100
 73
1
 74
1
 75
0
 76
0
 77
0
 78
0
  0
ENDTAB
  0
TABLE
  2
LTYPE
  5
5
100
AcDbSymbolTable
 70
6
  0
LTYPE
  5
14
100
AcDbSymbolTableRecord
100
AcDbLinetypeTableRecord
  2
BYBLOCK
 70
0
  3

 72
65
 73
0
 40
0.0
  0
LTYPE
  5
15
100
AcDbSymbolTableRecord
100
AcDbLinetypeTableRecord
  2
BYLAYER
 70
0
  3

 72
65
 73
0
 40
0.0
  0
LTYPE
  5
16
100
AcDbSymbolTableRecord
100
AcDbLinetypeTableRecord
  2
CONTINUOUS
 70
64
  3
Solid line
 72
65
 73
0
 40
0.0
  0
LTYPE
  5
1F5
100
AcDbSymbolTableRecord
100
AcDbLinetypeTableRecord
  2
CENTER
 70
64
  3
____ _ ____ _ ____ _ ____ _ ____ _ ____ _ ____
 72
65
 73
4
 40
0.6
 49
0.375
 74
0
 49
-0.075
 74
0
 49
0.075
 74
0
 49
-0.075
 74
0
  0
LTYPE
  5
1F6
100
AcDbSymbolTableRecord
100
AcDbLinetypeTableRecord
  2
HIDDEN
 70
64
  3
- - - - - - - - - - - - - - - - - - - -
 72
65
 73
2
 40
0.2
 49
0.1
 74
0
 49
-0.1
 74
0
  0
LTYPE
  5
1F7
100
AcDbSymbolTableRecord
100
AcDbLinetypeTableRecord
  2
PHANTOM
 70
64
  3
_____ _ _ _____ _ _ _____ _ _ _____
 72
65
 73
6
 40
0.8
 49
0.45
 74
0
 49
-0.05
 74
0
 49
0.1
 74
0
 49
-0.05
 74
0
 49
0.1
 74
0
 49
-0.05
 74
0
  0
LTYPE
  5
1F8
100
AcDbSymbolTableRecord
100
AcDbLinetypeTableRecord
  2
DOT
 70
64
  3
. . . . . . . . . . . . . . . . . . . .
 72
65
 73
2
 40
0.2
 49
0.1
 74
0
 49
-0.1
 74
0
  0
LTYPE
  5
1F9
100
AcDbSymbolTableRecord
100
AcDbLinetypeTableRecord
  2
DASHED
 70
64
  3
- - - - - - - - - - - - - - - - - - - -
 72
65
 73
2
 40
0.2
 49
0.1
 74
0
 49
-0.1
 74
0
  0
ENDTAB
  0
TABLE
  2
LAYER
  5
2
100
AcDbSymbolTable
 70
36
  0
LAYER
  5
10
100
AcDbSymbolTableRecord
100
AcDbLayerTableRecord
  2
0
 70
0
 62
7
  6
CONTINUOUS
370
-3
390
F
  0
LAYER
  5
1FA
100
AcDbSymbolTableRecord
100
AcDbLayerTableRecord
  2
DEFAULT_1
 70
0
 62
7
  6
CENTER
370
-3
390
F
  0
LAYER
  5
1FB
100
AcDbSymbolTableRecord
100
AcDbLayerTableRecord
  2
DEFAULT_2
 70
0
 62
8
  6
HIDDEN
370
-3
390
F
  0
LAYER
  5
1FC
100
AcDbSymbolTableRecord
100
AcDbLayerTableRecord
  2
DEFAULT_3
 70
0
 62
7
  6
PHANTOM
370
-3
390
F
  0
LAYER
  5
1FD
100
AcDbSymbolTableRecord
100
AcDbLayerTableRecord
  2
00_COMPONENTS
 70
0
 62
7
  6
CONTINUOUS
370
-3
390
F
  0
LAYER
  5
1FE
100
AcDbSymbolTableRecord
100
AcDbLayerTableRecord
  2
01_1_DEFAULT_DATUMS
 70
0
 62
7
  6
CONTINUOUS
370
-3
390
F
  0
LAYER
  5
1FF
100
AcDbSymbolTableRecord
100
AcDbLayerTableRecord
  2
01_PLANES
 70
0
 62
7
  6
CONTINUOUS
370
-3
390
F
  0
LAYER
  5
200
100
AcDbSymbolTableRecord
100
AcDbLayerTableRecord
  2
02_COORD_SYS
 70
0
 62
7
  6
CONTINUOUS
370
-3
390
F
  0
LAYER
  5
201
100
AcDbSymbolTableRecord
100
AcDbLayerTableRecord
  2
03_AXES
 70
0
 62
7
  6
CONTINUOUS
370
-3
390
F
  0
LAYER
  5
202
100
AcDbSymbolTableRecord
100
AcDbLayerTableRecord
  2
04_POINTS
 70
0
 62
7
  6
CONTINUOUS
370
-3
390
F
  0
LAYER
  5
203
100
AcDbSymbolTableRecord
100
AcDbLayerTableRecord
  2
05_CURVES
 70
0
 62
7
  6
CONTINUOUS
370
-3
390
F
  0
LAYER
  5
204
100
AcDbSymbolTableRecord
100
AcDbLayerTableRecord
  2
06_SURFS
 70
0
 62
7
  6
CONTINUOUS
370
-3
390
F
  0
LAYER
  5
205
100
AcDbSymbolTableRecord
100
AcDbLayerTableRecord
  2
07_COSMETICS
 70
0
 62
7
  6
CONTINUOUS
370
-3
390
F
  0
LAYER
  5
206
100
AcDbSymbolTableRecord
100
AcDbLayerTableRecord
  2
10_NOTES
 70
0
 62
7
  6
CONTINUOUS
370
-3
390
F
  0
LAYER
  5
207
100
AcDbSymbolTableRecord
100
AcDbLayerTableRecord
  2
11_NOTES_PUB
 70
0
 62
7
  6
CONTINUOUS
370
-3
390
F
  0
LAYER
  5
208
100
AcDbSymbolTableRecord
100
AcDbLayerTableRecord
  2
13_REF_GTOL
 70
0
 62
7
  6
CONTINUOUS
370
-3
390
F
  0
LAYER
  5
209
100
AcDbSymbolTableRecord
100
AcDbLayerTableRecord
  2
16_MISC
 70
0
 62
7
  6
CONTINUOUS
370
-3
390
F
  0
LAYER
  5
20A
100
AcDbSymbolTableRecord
100
AcDbLayerTableRecord
  2
17_NO_PRINT
 70
0
 62
7
  6
CONTINUOUS
370
-3
390
F
  0
LAYER
  5
20B
100
AcDbSymbolTableRecord
100
AcDbLayerTableRecord
  2
18_DATUM_CAMS_JOINTS
 70
0
 62
7
  6
CONTINUOUS
370
-3
390
F
  0
LAYER
  5
20C
100
AcDbSymbolTableRecord
100
AcDbLayerTableRecord
  2
19_DATUM_FUNCTIONAL
 70
0
 62
7
  6
CONTINUOUS
370
-3
390
F
  0
LAYER
  5
20D
100
AcDbSymbolTableRecord
100
AcDbLayerTableRecord
  2
20_DATUM_KINEMATIC_SCHEME
 70
0
 62
7
  6
CONTINUOUS
370
-3
390
F
  0
ENDTAB
  0
TABLE
  2
STYLE
  5
3
100
AcDbSymbolTable
 70
1
  0
STYLE
  5
11
100
AcDbSymbolTableRecord
100
AcDbTextStyleTableRecord
  2
STANDARD
 70
0
 40
0.0
 41
0.8
 50
0.0
 71
0
 42
0.2
  3
txt
  4

  0
STYLE
  5
20E
100
AcDbSymbolTableRecord
100
AcDbTextStyleTableRecord
  2
TEXTSTYLE_1
 70
0
 40
0.0
 41
0.8
 50
0.0
 71
0
 42
0.2
  3
gdt
  4

  0
ENDTAB
  0
TABLE
  2
VIEW
  5
6
100
AcDbSymbolTable
 70
0
  0
ENDTAB
  0
TABLE
  2
UCS
  5
7
100
AcDbSymbolTable
 70
0
  0
ENDTAB
  0
TABLE
  2
APPID
  5
9
100
AcDbSymbolTable
 70
1
  0
APPID
  5
20F
100
AcDbSymbolTableRecord
100
AcDbRegAppTableRecord
  2
ACAD
 70
0
  0
ENDTAB
  0
TABLE
  2
BLOCK_RECORD
  5
1
100
AcDbSymbolTable
 70
0
  0
BLOCK_RECORD
  5
210
100
AcDbSymbolTableRecord
100
AcDbBlockTableRecord
  2
*Model_Space
  0
BLOCK_RECORD
  5
211
100
AcDbSymbolTableRecord
100
AcDbBlockTableRecord
  2
*Paper_Space
  0
BLOCK_RECORD
  5
212
100
AcDbSymbolTableRecord
100
AcDbBlockTableRecord
  2
_FILLED
  0
ENDTAB
  0
TABLE
  2
DIMSTYLE
  5
A
100
AcDbSymbolTable
 70
1
100
AcDbDimStyleTable
 71
0
  0
DIMSTYLE
105
213
100
AcDbSymbolTableRecord
100
AcDbDimStyleTableRecord
  2
STANDARD
 70
0
  3

  4

 40
1.0
 41
2.5066299197
 42
1.0
 43
0.38
 44
1.0
 45
0.0
 46
0.0
 47
0.01
 48
0.01
140
3.5092818876
141
0.09
142
0.0
143
25.4
144
1.0
145
0.0
146
1.0
147
0.625
 71
1
 72
0
 73
0
 74
0
 75
0
 76
0
 77
1
 78
8
 79
2
170
0
171
1
172
0
173
0
174
0
175
0
176
0
177
0
178
0
270
2
179
2
271
2
272
2
273
2
274
2
275
0
280
0
281
0
282
0
283
1
284
8
285
0
286
0
287
3
288
0
340
11
278
46
341
212
342
212
343
212
344
212
  0
ENDTAB
  0
ENDSEC
  0
SECTION
  2
BLOCKS
  0
BLOCK
  5
20
100
AcDbEntity
  8
0
100
AcDbBlockBegin
  2
*Model_Space
 70
0
 10
0.0
 20
0.0
 30
0.0
  3
*Model_Space
  1

  0
ENDBLK
  5
21
100
AcDbEntity
  8
0
100
AcDbBlockEnd
  0
BLOCK
  5
1C
100
AcDbEntity
  8
0
100
AcDbBlockBegin
  2
*Paper_Space
 70
0
 10
0.0
 20
0.0
 30
0.0
  3
*Paper_Space
  1

  0
ENDBLK
  5
1D
100
AcDbEntity
  8
0
100
AcDbBlockEnd
  0
BLOCK
  5
214
100
AcDbEntity
  8
0
100
AcDbBlockBegin
  2
_FILLED
 70
64
 10
0.0
 20
0.0
  3
_FILLED
  1

  0
SOLID
  5
215
100
AcDbEntity
  8
0
  6
BYBLOCK
 62
0
100
AcDbTrace
 10
0.0
 20
0.0
 11
-1.0
 21
0.25
 12
-1.0
 22
-0.25
 13
-1.0
 23
-0.25
  0
ENDBLK
  5
216
100
AcDbEntity
  8
0
  6
BYBLOCK
 62
0
100
AcDbBlockEnd
  0
ENDSEC
  0
SECTION
  2
ENTITIES
  0
LINE
  5
217
100
AcDbEntity
  8
0
100
AcDbLine
 62
7
  6
CONTINUOUS
 10
45.5720702109
 20
260.7768358177
 11
71.1268028878
 21
275.5307795386
  0
LINE
  5
218
100
AcDbEntity
  8
0
100
AcDbLine
 62
7
  6
CONTINUOUS
 10
48.1347942515
 20
256.7062892142
 11
48.0277972947
 21
256.6470444598
  0
LINE
  5
219
100
AcDbEntity
  8
0
100
AcDbLine
 62
7
  6
CONTINUOUS
 10
76.6593630447
 20
273.1748583814
 11
75.8971137834
 21
272.7767015645
  0
LINE
  5
21A
100
AcDbEntity
  8
0
100
AcDbLine
 62
7
  6
CONTINUOUS
 10
76.622046035
 20
273.1560983787
 11
76.6593630447
 21
273.1748583814
  0
LINE
  5
21B
100
AcDbEntity
  8
0
100
AcDbLine
 62
7
  6
CONTINUOUS
 10
50.8158622653
 20
255.1584088924
 11
52.3206012001
 21
256.0641553606
  0
LINE
  5
21C
100
AcDbEntity
  8
0
100
AcDbLine
 62
7
  6
CONTINUOUS
 10
54.9200236834
 20
260.5237479658
 11
71.2611933614
 21
269.9582703617
  0
LINE
  5
21D
100
AcDbEntity
  8
0
100
AcDbLine
 62
7
  6
CONTINUOUS
 10
56.5707717115
 20
259.5707097079
 11
71.2611935972
 21
268.0521781106
  0
LINE
  5
21E
100
AcDbEntity
  8
0
100
AcDbLine
 62
7
  6
CONTINUOUS
 10
73.3825225368
 20
268.7335480982
 11
57.0413528588
 21
259.2990257022
  0
LINE
  5
21F
100
AcDbEntity
  8
0
100
AcDbLine
 62
7
  6
CONTINUOUS
 10
58.4555723091
 20
258.4825441932
 11
74.7967419871
 21
267.9170665891
  0
LINE
  5
220
100
AcDbEntity
  8
0
100
AcDbLine
 62
7
  6
CONTINUOUS
 10
60.2068516812
 20
257.4714654499
 11
74.7967422373
 21
265.8948924089
  0
LINE
  5
221
100
AcDbEntity
  8
0
100
AcDbLine
 62
7
  6
CONTINUOUS
 10
76.9180711626
 20
266.6923443256
 11
60.5769014846
 21
257.2578219296
  0
LINE
  5
222
100
AcDbEntity
  8
0
100
AcDbLine
 62
7
  6
CONTINUOUS
 10
61.9911209349
 20
256.4413404206
 11
78.3322906129
 21
265.8758628165
  0
LINE
  5
223
100
AcDbEntity
  8
0
100
AcDbLine
 62
7
  6
CONTINUOUS
 10
63.8429316508
 20
255.3722211919
 11
78.3322908774
 21
263.7376067072
  0
LINE
  5
224
100
AcDbEntity
  8
0
100
AcDbLine
 62
7
  6
CONTINUOUS
 10
80.4536197883
 20
264.651140553
 11
64.1124501103
 21
255.216618157
  0
LINE
  5
225
100
AcDbEntity
  8
0
100
AcDbLine
 62
7
  6
CONTINUOUS
 10
85.2831395853
 20
267.3577996331
 11
86.7939772004
 21
268.2001480316
  0
LINE
  5
226
100
AcDbEntity
  8
0
100
AcDbLine
 62
7
  6
CONTINUOUS
 10
50.8533240991
 20
251.7530443279
 11
52.3739921907
 21
252.5463448
  0
LINE
  5
227
100
AcDbEntity
  8
0
100
AcDbLine
 62
7
  6
CONTINUOUS
 10
50.8158622653
 20
251.7345425514
 11
50.853179275
 21
251.753302554
  0
LINE
  5
228
100
AcDbEntity
  8
0
100
AcDbLine
 62
7
  6
CONTINUOUS
 10
138.2103113444
 20
31.4506475122
 11
137.6446259195
 21
31.4506461525
  0
LINE
  5
229
100
AcDbEntity
  8
0
100
AcDbLine
 62
7
  6
CONTINUOUS
 10
136.4425393867
 20
32.1446554352
 11
135.0283258244
 21
32.1446520358
  0
LINE
  5
22A
100
AcDbEntity
  8
0
100
AcDbLine
 62
7
  6
CONTINUOUS
 10
49.5012478153
 20
240.9482167691
 11
50.9602463165
 21
241.8503894484
  0
LINE
  5
22B
100
AcDbEntity
  8
0
100
AcDbLine
 62
7
  6
CONTINUOUS
 10
46.3747816998
 20
240.2220507102
 11
47.8489635259
 21
241.1154912752
  0
LINE
  5
22C
100
AcDbEntity
  8
0
100
AcDbLine
 62
7
  6
CONTINUOUS
 10
59.7284069084
 20
252.6038559122
 11
58.2694084072
 21
251.7315788644
  0
LINE
  5
22D
100
AcDbEntity
  8
0
100
AcDbLine
 62
7
  6
CONTINUOUS
 10
59.586997328
 20
250.9708857554
 11
88.1115661212
 21
267.4394549226
  0
LINE
  5
22E
100
AcDbEntity
  8
0
100
AcDbLine
 62
7
  6
CONTINUOUS
 10
63.9710411496
 20
253.2527732452
 11
65.5340751175
 21
254.1551859406
  0
LINE
  5
22F
100
AcDbEntity
  8
0
100
AcDbLine
 62
7
  6
CONTINUOUS
 10
81.8678392694
 20
263.5854327797
 11
83.4308732373
 21
264.4878454751
  0
LINE
  5
230
100
AcDbEntity
  8
0
100
AcDbLine
 62
7
  6
CONTINUOUS
 10
62.4704111342
 20
250.3812773561
 11
64.0688582414
 21
251.304135715
  0
LINE
  5
231
100
AcDbEntity
  8
0
100
AcDbLine
 62
7
  6
CONTINUOUS
 10
67.2705778001
 20
253.15263833
 11
81.9656563613
 21
261.6367952495
  0
LINE
  5
232
100
AcDbEntity
  8
0
100
AcDbLine
 62
7
  6
CONTINUOUS
 10
85.16737592
 20
263.4852978645
 11
85.2951384254
 21
263.5590611411
  0
LINE
  5
233
100
AcDbEntity
  8
0
100
AcDbLine
 62
7
  6
CONTINUOUS
 10
62.4154303406
 20
250.1544076458
 11
89.5257914594
 21
265.8064885052
  0
LINE
  5
234
100
AcDbEntity
  8
0
100
AcDbLine
 62
7
  6
CONTINUOUS
 10
47.8489635259
 20
241.1154912752
 11
45.5720702109
 21
239.8008887216
  0
LINE
  5
235
100
AcDbEntity
  8
0
100
AcDbLine
 62
7
  6
CONTINUOUS
 10
46.3747816998
 20
240.2220507102
 11
44.0871521528
 21
238.9012494129
  0
LINE
  5
236
100
AcDbEntity
  8
0
100
AcDbLine
 62
7
  6
CONTINUOUS
 10
63.8296497909
 20
249.3379261367
 11
90.9400109097
 21
264.9900069961
  0
LINE
  5
237
100
AcDbEntity
  8
0
100
AcDbLine
 62
7
  6
CONTINUOUS
 10
67.5065897753
 20
251.2115694726
 11
69.0696237432
 21
252.113982168
  0
LINE
  5
238
100
AcDbEntity
  8
0
100
AcDbLine
 62
7
  6
CONTINUOUS
 10
85.4033878952
 20
261.5442290071
 11
86.9664218631
 21
262.4466417025
  0
LINE
  5
239
100
AcDbEntity
  8
0
100
AcDbLine
 62
7
  6
CONTINUOUS
 10
89.0865285063
 20
261.8067077004
 11
88.5806910369
 21
261.5146640446
  0
LINE
  5
23A
100
AcDbEntity
  8
0
100
AcDbLine
 62
7
  6
CONTINUOUS
 10
85.4033881258
 20
259.6802583035
 11
70.6838929171
 21
251.1820045101
  0
LINE
  5
23B
100
AcDbEntity
  8
0
100
AcDbLine
 62
7
  6
CONTINUOUS
 10
67.5065900059
 20
249.347598769
 11
65.7459243945
 21
248.3310840721
  0
LINE
  5
23C
100
AcDbEntity
  8
0
100
AcDbLine
 62
7
  6
CONTINUOUS
 10
65.9509789664
 20
248.1132038732
 11
93.0613400852
 21
263.7652847326
  0
LINE
  5
23D
100
AcDbEntity
  8
0
100
AcDbLine
 62
7
  6
CONTINUOUS
 10
67.3651984167
 20
247.2967223641
 11
94.4755595355
 21
262.9488032235
  0
LINE
  5
23E
100
AcDbEntity
  8
0
100
AcDbLine
 62
7
  6
CONTINUOUS
 10
61.6313249788
 20
243.8436290941
 11
59.7104237896
 21
242.7346028954
  0
LINE
  5
23F
100
AcDbEntity
  8
0
100
AcDbLine
 62
7
  6
CONTINUOUS
 10
71.042138401
 20
249.1703657
 11
72.6051723689
 21
250.0727783954
  0
LINE
  5
240
100
AcDbEntity
  8
0
100
AcDbLine
 62
7
  6
CONTINUOUS
 10
88.9389365209
 20
259.5030252345
 11
90.5019704888
 21
260.4054379299
  0
LINE
  5
241
100
AcDbEntity
  8
0
100
AcDbLine
 62
7
  6
CONTINUOUS
 10
137.6446259195
 20
37.5195436856
 11
138.2103113444
 21
37.5138442042
  0
LINE
  5
242
100
AcDbEntity
  8
0
100
AcDbLine
 62
7
  6
CONTINUOUS
 10
135.0283258244
 20
38.2520302462
 11
136.4425393867
 21
38.2377815428
  0
LINE
  5
243
100
AcDbEntity
  8
0
100
AcDbLine
 62
7
  6
CONTINUOUS
 10
169.9219304324
 20
28.8886223724
 11
149.9024986901
 21
31.1111849024
  0
LINE
  5
244
100
AcDbEntity
  8
0
100
AcDbLine
 62
7
  6
CONTINUOUS
 10
169.8747214749
 20
33.2122431342
 11
150.2345480604
 21
35.3927003058
  0
LINE
  5
245
100
AcDbEntity
  8
0
100
AcDbLine
 62
7
  6
CONTINUOUS
 10
146.9564726779
 20
38.011097936
 11
138.8865229201
 21
38.9070258616
  0
LINE
  5
246
100
AcDbEntity
  8
0
100
AcDbLine
 62
7
  6
CONTINUOUS
 10
138.8865229201
 20
40.5400306958
 11
150.2345480604
 21
39.2801699869
  0
LINE
  5
247
100
AcDbEntity
  8
0
100
AcDbLine
 62
7
  6
CONTINUOUS
 10
150.2345480604
 20
39.574129721
 11
140.4301339169
 21
40.6626183347
  0
LINE
  5
248
100
AcDbEntity
  8
0
100
AcDbLine
 62
7
  6
CONTINUOUS
 10
173.5118786397
 20
25.9794894049
 11
171.2435349039
 21
26.3303925416
  0
LINE
  5
249
100
AcDbEntity
  8
0
100
AcDbLine
 62
7
  6
CONTINUOUS
 10
170.1738755
 20
34.4615358854
 11
170.0476160433
 21
34.4810676868
  0
LINE
  5
24A
100
AcDbEntity
  8
0
100
AcDbLine
 62
7
  6
CONTINUOUS
 10
53.7299582219
 20
57.0771935097
 11
53.6635348811
 21
57.1148728311
  0
LINE
  5
24B
100
AcDbEntity
  8
0
100
AcDbLine
 62
7
  6
CONTINUOUS
 10
50.1950827104
 20
59.0823879081
 11
49.7572958692
 21
59.330726985
  0
LINE
  5
24C
100
AcDbEntity
  8
0
100
AcDbLine
 62
7
  6
CONTINUOUS
 10
44.6669821274
 20
55.4591613934
 11
40.495034749
 21
57.8677818451
  0
LINE
  5
24D
100
AcDbEntity
  8
0
100
AcDbLine
 62
7
  6
CONTINUOUS
 10
85.6793461859
 20
31.7811976312
 11
100.9175607628
 21
22.9836093713
  0
LINE
  5
24E
100
AcDbEntity
  8
0
100
AcDbLine
 62
7
  6
CONTINUOUS
 10
48.9096345903
 20
53.8262017747
 11
46.7728821137
 21
55.0598493919
  0
LINE
  5
24F
100
AcDbEntity
  8
0
100
AcDbLine
 62
7
  6
CONTINUOUS
 10
50.3084307395
 20
53.0186456193
 11
52.4451832161
 21
51.7849980021
  0
LINE
  5
250
100
AcDbEntity
  8
0
100
AcDbLine
 62
7
  6
CONTINUOUS
 10
53.8439793652
 20
50.9774418467
 11
55.9807318418
 21
49.7437942295
  0
LINE
  5
251
100
AcDbEntity
  8
0
100
AcDbLine
 62
7
  6
CONTINUOUS
 10
57.3795279909
 20
48.9362380741
 11
59.5162804675
 21
47.7025904569
  0
LINE
  5
252
100
AcDbEntity
  8
0
100
AcDbLine
 62
7
  6
CONTINUOUS
 10
60.9150766167
 20
46.8950343015
 11
63.0518290933
 21
45.6613866843
  0
LINE
  5
253
100
AcDbEntity
  8
0
100
AcDbLine
 62
7
  6
CONTINUOUS
 10
64.4506252424
 20
44.8538305289
 11
66.587377719
 21
43.6201829117
  0
LINE
  5
254
100
AcDbEntity
  8
0
100
AcDbLine
 62
7
  6
CONTINUOUS
 10
67.9861738682
 20
42.8126267563
 11
70.1229263448
 21
41.5789791391
  0
LINE
  5
255
100
AcDbEntity
  8
0
100
AcDbLine
 62
7
  6
CONTINUOUS
 10
71.5217224939
 20
40.7714229837
 11
73.6584749705
 21
39.5377753665
  0
LINE
  5
256
100
AcDbEntity
  8
0
100
AcDbLine
 62
7
  6
CONTINUOUS
 10
75.0572711196
 20
38.7302192111
 11
77.1940235962
 21
37.4965715939
  0
LINE
  5
257
100
AcDbEntity
  8
0
100
AcDbLine
 62
7
  6
CONTINUOUS
 10
78.5928197454
 20
36.6890154385
 11
80.729572222
 21
35.4553678213
  0
LINE
  5
258
100
AcDbEntity
  8
0
100
AcDbLine
 62
7
  6
CONTINUOUS
 10
82.1283683711
 20
34.6478116659
 11
84.2651208477
 21
33.4141640487
  0
LINE
  5
259
100
AcDbEntity
  8
0
100
AcDbLine
 62
7
  6
CONTINUOUS
 10
49.8251206024
 20
57.7883122088
 11
49.7286953342
 21
57.8439821039
  0
LINE
  5
25A
100
AcDbEntity
  8
0
100
AcDbLine
 62
7
  6
CONTINUOUS
 10
108.5189903082
 20
24.3105381801
 11
103.7459996634
 21
27.0661632732
  0
LINE
  5
25B
100
AcDbEntity
  8
0
100
AcDbLine
 62
7
  6
CONTINUOUS
 10
44.8212740183
 20
63.5351071152
 11
46.6340194119
 21
62.4885417507
  0
LINE
  5
25C
100
AcDbEntity
  8
0
100
AcDbLine
 62
7
  6
CONTINUOUS
 10
48.356822644
 20
61.4939033426
 11
50.1695680377
 21
60.4473379781
  0
LINE
  5
25D
100
AcDbEntity
  8
0
100
AcDbLine
 62
7
  6
CONTINUOUS
 10
51.8923712698
 20
59.45269957
 11
53.7051166634
 21
58.4061342055
  0
LINE
  5
25E
100
AcDbEntity
  8
0
100
AcDbLine
 62
7
  6
CONTINUOUS
 10
55.4279198955
 20
57.4114957974
 11
57.2406652891
 21
56.3649304329
  0
LINE
  5
25F
100
AcDbEntity
  8
0
100
AcDbLine
 62
7
  6
CONTINUOUS
 10
58.9634685212
 20
55.3702920248
 11
60.7762139149
 21
54.3237266603
  0
LINE
  5
260
100
AcDbEntity
  8
0
100
AcDbLine
 62
7
  6
CONTINUOUS
 10
62.499017147
 20
53.3290882522
 11
64.3117625406
 21
52.2825228877
  0
LINE
  5
261
100
AcDbEntity
  8
0
100
AcDbLine
 62
7
  6
CONTINUOUS
 10
66.0345657727
 20
51.2878844796
 11
67.8473111663
 21
50.2413191151
  0
LINE
  5
262
100
AcDbEntity
  8
0
100
AcDbLine
 62
7
  6
CONTINUOUS
 10
69.5701143984
 20
49.246680707
 11
71.3828597921
 21
48.2001153425
  0
LINE
  5
263
100
AcDbEntity
  8
0
100
AcDbLine
 62
7
  6
CONTINUOUS
 10
73.1056630242
 20
47.2054769344
 11
74.9184084178
 21
46.1589115699
  0
LINE
  5
264
100
AcDbEntity
  8
0
100
AcDbLine
 62
7
  6
CONTINUOUS
 10
76.6412116499
 20
45.1642731618
 11
78.4539570435
 21
44.1177077973
  0
LINE
  5
265
100
AcDbEntity
  8
0
100
AcDbLine
 62
7
  6
CONTINUOUS
 10
80.1767602756
 20
43.1230693892
 11
81.9895056693
 21
42.0765040247
  0
LINE
  5
266
100
AcDbEntity
  8
0
100
AcDbLine
 62
7
  6
CONTINUOUS
 10
83.7123089014
 20
41.0818656166
 11
85.525054295
 21
40.0353002521
  0
LINE
  5
267
100
AcDbEntity
  8
0
100
AcDbLine
 62
7
  6
CONTINUOUS
 10
107.2849534175
 20
29.019923522
 11
105.0153920404
 21
30.330225751
  0
LINE
  5
268
100
AcDbEntity
  8
0
100
AcDbLine
 62
7
  6
CONTINUOUS
 10
53.777384219
 20
54.5400605142
 11
53.6157991041
 21
54.6334225212
  0
LINE
  5
269
100
AcDbEntity
  8
0
100
AcDbLine
 62
7
  6
CONTINUOUS
 10
57.3117204414
 20
52.5637162865
 11
57.1767146592
 21
52.641721063
  0
LINE
  5
26A
100
AcDbEntity
  8
0
100
AcDbLine
 62
7
  6
CONTINUOUS
 10
60.8460566637
 20
50.5873720588
 11
60.7376302143
 21
50.6500196048
  0
LINE
  5
26B
100
AcDbEntity
  8
0
100
AcDbLine
 62
7
  6
CONTINUOUS
 10
64.3803928861
 20
48.6110278311
 11
64.2985457694
 21
48.6583181466
  0
LINE
  5
26C
100
AcDbEntity
  8
0
100
AcDbLine
 62
7
  6
CONTINUOUS
 10
67.9147291085
 20
46.6346836034
 11
67.8594613245
 21
46.6666166885
  0
LINE
  5
26D
100
AcDbEntity
  8
0
100
AcDbLine
 62
7
  6
CONTINUOUS
 10
58.2694084072
 20
240.6203504067
 11
57.6926501308
 21
240.2189084343
  0
LINE
  5
26E
100
AcDbEntity
  8
0
100
AcDbLine
 62
7
  6
CONTINUOUS
 10
92.6586670503
 20
259.8156247332
 11
92.0911282628
 21
259.4879580175
  0
LINE
  5
26F
100
AcDbEntity
  8
0
100
AcDbLine
 62
7
  6
CONTINUOUS
 10
88.9389367479
 20
257.6680502612
 11
74.194330143
 21
249.155298483
  0
LINE
  5
270
100
AcDbEntity
  8
0
100
AcDbLine
 62
7
  6
CONTINUOUS
 10
71.042138628
 20
247.3353907267
 11
69.2440215138
 21
246.2972535236
  0
LINE
  5
271
100
AcDbEntity
  8
0
100
AcDbLine
 62
7
  6
CONTINUOUS
 10
69.4865275921
 20
246.0720001005
 11
96.5968887109
 21
261.72408096
  0
LINE
  5
272
100
AcDbEntity
  8
0
100
AcDbLine
 62
7
  6
CONTINUOUS
 10
70.9007470424
 20
245.2555185915
 11
98.0111081612
 21
260.9075994509
  0
LINE
  5
273
100
AcDbEntity
  8
0
100
AcDbLine
 62
7
  6
CONTINUOUS
 10
65.1298483808
 20
241.7810489261
 11
63.2459724154
 21
240.6933991228
  0
LINE
  5
274
100
AcDbEntity
  8
0
100
AcDbLine
 62
7
  6
CONTINUOUS
 10
74.5776870268
 20
247.1291619274
 11
76.1407209947
 21
248.0315746228
  0
LINE
  5
275
100
AcDbEntity
  8
0
100
AcDbLine
 62
7
  6
CONTINUOUS
 10
92.4744851466
 20
257.4618214619
 11
94.0375191145
 21
258.3642341573
  0
LINE
  5
276
100
AcDbEntity
  8
0
100
AcDbLine
 62
7
  6
CONTINUOUS
 10
96.2308055942
 20
257.8245417661
 11
95.6015654888
 21
257.4612519903
  0
LINE
  5
277
100
AcDbEntity
  8
0
100
AcDbLine
 62
7
  6
CONTINUOUS
 10
92.4744853701
 20
255.6558422189
 11
77.7047673689
 21
247.1285924558
  0
LINE
  5
278
100
AcDbEntity
  8
0
100
AcDbLine
 62
7
  6
CONTINUOUS
 10
74.5776872502
 20
245.3231826844
 11
72.742118633
 21
244.263422975
  0
LINE
  5
279
100
AcDbEntity
  8
0
100
AcDbLine
 62
7
  6
CONTINUOUS
 10
73.0220762179
 20
244.0307963279
 11
100.1324373366
 21
259.6828771874
  0
LINE
  5
27A
100
AcDbEntity
  8
0
100
AcDbLine
 62
7
  6
CONTINUOUS
 10
74.4362956681
 20
243.2143148189
 11
101.5466567869
 21
258.8663956783
  0
LINE
  5
27B
100
AcDbEntity
  8
0
100
AcDbLine
 62
7
  6
CONTINUOUS
 10
68.6283717828
 20
239.7184687582
 11
66.7815210411
 21
238.6521953502
  0
LINE
  5
27C
100
AcDbEntity
  8
0
100
AcDbLine
 62
7
  6
CONTINUOUS
 10
78.1132356525
 20
245.0879581548
 11
79.6762696204
 21
245.9903708502
  0
LINE
  5
27D
100
AcDbEntity
  8
0
100
AcDbLine
 62
7
  6
CONTINUOUS
 10
96.0100337724
 20
255.4206176893
 11
97.5730677403
 21
256.3230303847
  0
LINE
  5
27E
100
AcDbEntity
  8
0
100
AcDbLine
 62
7
  6
CONTINUOUS
 10
99.8029441382
 20
255.8334587989
 11
99.1120027147
 21
255.4345459632
  0
LINE
  5
27F
100
AcDbEntity
  8
0
100
AcDbLine
 62
7
  6
CONTINUOUS
 10
96.0100339922
 20
253.6436341765
 11
81.2152045948
 21
245.1018864287
  0
LINE
  5
280
100
AcDbEntity
  8
0
100
AcDbLine
 62
7
  6
CONTINUOUS
 10
78.1132358723
 20
243.3109746421
 11
76.2402157522
 21
242.2295924265
  0
LINE
  5
281
100
AcDbEntity
  8
0
100
AcDbLine
 62
7
  6
CONTINUOUS
 10
49.8783007441
 20
226.9260642697
 11
49.3692617996
 21
226.6321722524
  0
LINE
  5
282
100
AcDbEntity
  8
0
100
AcDbLine
 62
7
  6
CONTINUOUS
 10
76.5576248436
 20
241.9895925553
 11
103.6679859624
 21
257.6416734148
  0
LINE
  5
283
100
AcDbEntity
  8
0
100
AcDbLine
 62
7
  6
CONTINUOUS
 10
51.311379587
 20
225.8000171581
 11
51.1370343461
 21
225.6993594871
  0
LINE
  5
284
100
AcDbEntity
  8
0
100
AcDbLine
 62
7
  6
CONTINUOUS
 10
77.9718442939
 20
241.1731110463
 11
105.0822054127
 21
256.8251919057
  0
LINE
  5
285
100
AcDbEntity
  8
0
100
AcDbLine
 62
7
  6
CONTINUOUS
 10
72.1268951847
 20
237.6558885903
 11
70.3170696668
 21
236.6109915776
  0
LINE
  5
286
100
AcDbEntity
  8
0
100
AcDbLine
 62
7
  6
CONTINUOUS
 10
106.748926813
 20
53.701047156
 11
106.6180738932
 21
53.7136570504
  0
LINE
  5
287
100
AcDbEntity
  8
0
100
AcDbLine
 62
7
  6
CONTINUOUS
 10
171.2435349039
 20
36.5774978766
 11
171.821506558
 21
36.4880881178
  0
LINE
  5
288
100
AcDbEntity
  8
0
100
AcDbLine
 62
7
  6
CONTINUOUS
 10
170.0476160433
 20
42.6460918581
 11
170.1738755
 21
42.6265600567
  0
LINE
  5
289
100
AcDbEntity
  8
0
100
AcDbLine
 62
7
  6
CONTINUOUS
 10
140.4301339169
 20
40.6626183347
 11
136.7930060487
 21
41.5071030425
  0
LINE
  5
28A
100
AcDbEntity
  8
0
100
AcDbLine
 62
7
  6
CONTINUOUS
 10
142.9980568218
 20
40.7857780731
 11
136.9233599422
 21
42.1962285178
  0
LINE
  5
28B
100
AcDbEntity
  8
0
100
AcDbLine
 62
7
  6
CONTINUOUS
 10
46.1805661478
 20
60.5000567454
 11
46.6742657965
 21
60.3354941308
  0
LINE
  5
28C
100
AcDbEntity
  8
0
100
AcDbLine
 62
7
  6
CONTINUOUS
 10
46.1817839927
 20
60.5633641183
 11
46.6730673522
 21
60.3996069141
  0
LINE
  5
28D
100
AcDbEntity
  8
0
100
AcDbLine
 62
7
  6
CONTINUOUS
 10
128.7139404062
 20
28.4990616761
 11
113.6648318204
 21
36.8893619649
  0
LINE
  5
28E
100
AcDbEntity
  8
0
100
AcDbLine
 62
7
  6
CONTINUOUS
 10
105.0153920404
 20
40.2994190704
 11
107.2849534175
 21
38.9891168414
  0
LINE
  5
28F
100
AcDbEntity
  8
0
100
AcDbLine
 62
7
  6
CONTINUOUS
 10
63.8296497909
 20
249.3379261367
 11
63.1348885999
 21
248.1060536968
  0
LINE
  5
290
100
AcDbEntity
  8
0
100
AcDbLine
 62
7
  6
CONTINUOUS
 10
65.0509939862
 20
247.0991949189
 11
65.7459243945
 21
248.3310840721
  0
LINE
  5
291
100
AcDbEntity
  8
0
100
AcDbLine
 62
7
  6
CONTINUOUS
 10
61.6959838573
 20
248.9367869436
 11
62.4154303406
 21
250.1544076458
  0
LINE
  5
292
100
AcDbEntity
  8
0
100
AcDbLine
 62
7
  6
CONTINUOUS
 10
65.231532483
 20
246.895583171
 11
65.9509789664
 21
248.1132038732
  0
LINE
  5
293
100
AcDbEntity
  8
0
100
AcDbLine
 62
7
  6
CONTINUOUS
 10
81.6487842782
 20
243.0467543822
 11
83.2118182461
 21
243.9491670776
  0
LINE
  5
294
100
AcDbEntity
  8
0
100
AcDbLine
 62
7
  6
CONTINUOUS
 10
99.5455823981
 20
253.3794139167
 11
101.108616366
 21
254.2818266121
  0
LINE
  5
295
100
AcDbEntity
  8
0
100
AcDbLine
 62
7
  6
CONTINUOUS
 10
103.3750826822
 20
253.8423758317
 11
102.6224399406
 21
253.407839936
  0
LINE
  5
296
100
AcDbEntity
  8
0
100
AcDbLine
 62
7
  6
CONTINUOUS
 10
99.5455826144
 20
251.6314261342
 11
84.7256418207
 21
243.0751804016
  0
LINE
  5
297
100
AcDbEntity
  8
0
100
AcDbLine
 62
7
  6
CONTINUOUS
 10
81.6487844945
 20
241.2987665998
 11
79.7383128714
 21
240.195761878
  0
LINE
  5
298
100
AcDbEntity
  8
0
100
AcDbLine
 62
7
  6
CONTINUOUS
 10
80.0931734693
 20
239.9483887827
 11
107.2035345881
 21
255.6004696422
  0
LINE
  5
299
100
AcDbEntity
  8
0
100
AcDbLine
 62
7
  6
CONTINUOUS
 10
81.5073929196
 20
239.1319072737
 11
108.6177540384
 21
254.7839881331
  0
LINE
  5
29A
100
AcDbEntity
  8
0
100
AcDbLine
 62
7
  6
CONTINUOUS
 10
75.6254185867
 20
235.5933084224
 11
73.8526182926
 21
234.569787805
  0
LINE
  5
29B
100
AcDbEntity
  8
0
100
AcDbLine
 62
7
  6
CONTINUOUS
 10
85.184332904
 20
241.0055506096
 11
86.7473668719
 21
241.907963305
  0
LINE
  5
29C
100
AcDbEntity
  8
0
100
AcDbLine
 62
7
  6
CONTINUOUS
 10
103.0811310238
 20
251.3382101441
 11
104.6441649917
 21
252.2406228395
  0
LINE
  5
29D
100
AcDbEntity
  8
0
100
AcDbLine
 62
7
  6
CONTINUOUS
 10
106.9472212262
 20
251.8512928645
 11
106.1328771665
 21
251.3811339089
  0
LINE
  5
29E
100
AcDbEntity
  8
0
100
AcDbLine
 62
7
  6
CONTINUOUS
 10
103.0811312365
 20
249.6192180919
 11
88.2360790466
 21
241.0484743744
  0
LINE
  5
29F
100
AcDbEntity
  8
0
100
AcDbLine
 62
7
  6
CONTINUOUS
 10
85.1843331166
 20
239.2865585575
 11
83.2364099907
 21
238.1619313294
  0
LINE
  5
2A0
100
AcDbEntity
  8
0
100
AcDbLine
 62
7
  6
CONTINUOUS
 10
83.6287220951
 20
237.9071850101
 11
110.7390832138
 21
253.5592658696
  0
LINE
  5
2A1
100
AcDbEntity
  8
0
100
AcDbLine
 62
7
  6
CONTINUOUS
 10
85.0429415454
 20
237.0907035011
 11
112.1533026641
 21
252.7427843605
  0
LINE
  5
2A2
100
AcDbEntity
  8
0
100
AcDbLine
 62
7
  6
CONTINUOUS
 10
79.1239419887
 20
233.5307282545
 11
77.3881669183
 21
232.5285840324
  0
LINE
  5
2A3
100
AcDbEntity
  8
0
100
AcDbLine
 62
7
  6
CONTINUOUS
 10
88.7198815297
 20
238.964346837
 11
90.2829154976
 21
239.8667595324
  0
LINE
  5
2A4
100
AcDbEntity
  8
0
100
AcDbLine
 62
7
  6
CONTINUOUS
 10
106.6166796496
 20
249.2970063715
 11
108.1797136175
 21
250.1994190669
  0
LINE
  5
2A5
100
AcDbEntity
  8
0
100
AcDbLine
 62
7
  6
CONTINUOUS
 10
110.5193597702
 20
249.8602098973
 11
109.6433143924
 21
249.3544278818
  0
LINE
  5
2A6
100
AcDbEntity
  8
0
100
AcDbLine
 62
7
  6
CONTINUOUS
 10
106.6166798586
 20
247.6070100496
 11
91.7465162725
 21
239.0217683473
  0
LINE
  5
2A7
100
AcDbEntity
  8
0
100
AcDbLine
 62
7
  6
CONTINUOUS
 10
88.7198817388
 20
237.2743505152
 11
86.7345071099
 21
236.1281007809
  0
LINE
  5
2A8
100
AcDbEntity
  8
0
100
AcDbLine
 62
7
  6
CONTINUOUS
 10
87.1642707208
 20
235.8659812375
 11
114.2746318396
 21
251.518062097
  0
LWPOLYLINE
  5
2A9
100
AcDbEntity
  8
0
100
AcDbPolyline
 62
7
  6
CONTINUOUS
 90
4
 70
0
 10
49.7577927723
 20
59.3565575553
 10
49.8935838019
 20
59.3592831673
 10
50.0764152443
 20
59.5706816306
 10
50.0786177615
 20
59.6286933706
  0
LINE
  5
2AA
100
AcDbEntity
  8
0
100
AcDbLine
 62
7
  6
CONTINUOUS
 10
106.7136312751
 20
56.1645320446
 11
106.6744699693
 21
56.1650287487
  0
LINE
  5
2AB
100
AcDbEntity
  8
0
100
AcDbLine
 62
7
  6
CONTINUOUS
 10
106.7136312751
 20
64.4601966027
 11
106.6744741586
 21
64.4606923275
  0
LINE
  5
2AC
100
AcDbEntity
  8
0
100
AcDbLine
 62
7
  6
CONTINUOUS
 10
106.748926813
 20
61.996711714
 11
106.6180738932
 21
62.0093216084
  0
LINE
  5
2AD
100
AcDbEntity
  8
0
100
AcDbLine
 62
7
  6
CONTINUOUS
 10
171.2091355943
 20
44.8572407986
 11
170.8442497363
 21
44.9136870902
  0
LINE
  5
2AE
100
AcDbEntity
  8
0
100
AcDbLine
 62
7
  6
CONTINUOUS
 10
171.821506558
 20
45.4696147062
 11
171.2435349039
 21
45.559024465
  0
LINE
  5
2AF
100
AcDbEntity
  8
0
100
AcDbLine
 62
7
  6
CONTINUOUS
 10
111.7940080764
 20
61.8869937859
 11
109.0593523743
 21
62.3696838698
  0
LINE
  5
2B0
100
AcDbEntity
  8
0
100
AcDbLine
 62
7
  6
CONTINUOUS
 10
109.444503524
 20
62.5920496624
 11
111.7940080764
 21
62.1773420455
  0
LINE
  5
2B1
100
AcDbEntity
  8
0
100
AcDbLine
 62
7
  6
CONTINUOUS
 10
111.2584096756
 20
62.4865629309
 11
109.6363819869
 21
62.7728646691
  0
LINE
  5
2B2
100
AcDbEntity
  8
0
100
AcDbLine
 62
7
  6
CONTINUOUS
 10
128.7139404062
 20
32.1573057069
 11
113.6648318204
 21
40.8457236757
  0
LINE
  5
2B3
100
AcDbEntity
  8
0
100
AcDbLine
 62
7
  6
CONTINUOUS
 10
137.6446259195
 20
31.4506461525
 11
136.4425393867
 21
32.1446554352
  0
LINE
  5
2B4
100
AcDbEntity
  8
0
100
AcDbLine
 62
7
  6
CONTINUOUS
 10
115.7858202461
 20
44.5194037843
 11
130.8349288318
 21
35.8309858154
  0
LINE
  5
2B5
100
AcDbEntity
  8
0
100
AcDbLine
 62
7
  6
CONTINUOUS
 10
47.7192621833
 20
84.5635684147
 11
45.6844542454
 21
85.7383387485
  0
LINE
  5
2B6
100
AcDbEntity
  8
0
100
AcDbLine
 62
7
  6
CONTINUOUS
 10
106.8578569639
 20
51.5932330142
 11
106.7534404822
 21
51.6535165343
  0
LINE
  5
2B7
100
AcDbEntity
  8
0
100
AcDbLine
 62
7
  6
CONTINUOUS
 10
67.3651984167
 20
247.2967223641
 11
66.6704372256
 21
246.0648499242
  0
LINE
  5
2B8
100
AcDbEntity
  8
0
100
AcDbLine
 62
7
  6
CONTINUOUS
 10
70.9007470424
 20
245.2555185915
 11
70.2059858514
 21
244.0236461516
  0
LINE
  5
2B9
100
AcDbEntity
  8
0
100
AcDbLine
 62
7
  6
CONTINUOUS
 10
68.5490911054
 20
245.0653643704
 11
69.2440215138
 21
246.2972535236
  0
LINE
  5
2BA
100
AcDbEntity
  8
0
100
AcDbLine
 62
7
  6
CONTINUOUS
 10
72.0471882246
 20
243.0315338218
 11
72.742118633
 21
244.263422975
  0
LINE
  5
2BB
100
AcDbEntity
  8
0
100
AcDbLine
 62
7
  6
CONTINUOUS
 10
68.7670811087
 20
244.8543793984
 11
69.4865275921
 21
246.0720001005
  0
LINE
  5
2BC
100
AcDbEntity
  8
0
100
AcDbLine
 62
7
  6
CONTINUOUS
 10
72.3026297345
 20
242.8131756258
 11
73.0220762179
 21
244.0307963279
  0
LINE
  5
2BD
100
AcDbEntity
  8
0
100
AcDbLine
 62
7
  6
CONTINUOUS
 10
49.2765716492
 20
212.4677320178
 11
50.2217022579
 21
213.0606592974
  0
LINE
  5
2BE
100
AcDbEntity
  8
0
100
AcDbLine
 62
7
  6
CONTINUOUS
 10
88.5784901711
 20
235.0494997285
 11
115.6888512899
 21
250.7015805879
  0
LINE
  5
2BF
100
AcDbEntity
  8
0
100
AcDbLine
 62
7
  6
CONTINUOUS
 10
82.6224653906
 20
231.4681480866
 11
80.923715544
 21
230.4873802598
  0
LINE
  5
2C0
100
AcDbEntity
  8
0
100
AcDbLine
 62
7
  6
CONTINUOUS
 10
92.2554301554
 20
236.9231430644
 11
93.8184641233
 21
237.8255557598
  0
LINE
  5
2C1
100
AcDbEntity
  8
0
100
AcDbLine
 62
7
  6
CONTINUOUS
 10
110.1522282753
 20
247.2558025989
 11
111.7152622432
 21
248.1582152943
  0
LINE
  5
2C2
100
AcDbEntity
  8
0
100
AcDbLine
 62
7
  6
CONTINUOUS
 10
114.0914983142
 20
247.8691269302
 11
113.1537516183
 21
247.3277218546
  0
LINE
  5
2C3
100
AcDbEntity
  8
0
100
AcDbLine
 62
7
  6
CONTINUOUS
 10
110.1522284808
 20
245.5948020073
 11
95.2569534984
 21
236.9950623201
  0
LINE
  5
2C4
100
AcDbEntity
  8
0
100
AcDbLine
 62
7
  6
CONTINUOUS
 10
92.2554303609
 20
235.2621424729
 11
90.2326042291
 21
234.0942702324
  0
LINE
  5
2C5
100
AcDbEntity
  8
0
100
AcDbLine
 62
7
  6
CONTINUOUS
 10
90.6998193465
 20
233.8247774649
 11
117.8101804653
 21
249.4768583244
  0
LINE
  5
2C6
100
AcDbEntity
  8
0
100
AcDbLine
 62
7
  6
CONTINUOUS
 10
92.1140387968
 20
233.0082959559
 11
119.2243999156
 21
248.6603768153
  0
LINE
  5
2C7
100
AcDbEntity
  8
0
100
AcDbLine
 62
7
  6
CONTINUOUS
 10
86.1209887926
 20
229.4055679187
 11
84.4592641698
 21
228.4461764872
  0
LINE
  5
2C8
100
AcDbEntity
  8
0
100
AcDbLine
 62
7
  6
CONTINUOUS
 10
95.7909787812
 20
234.8819392918
 11
97.3540127491
 21
235.7843519872
  0
LINE
  5
2C9
100
AcDbEntity
  8
0
100
AcDbLine
 62
7
  6
CONTINUOUS
 10
113.687776901
 20
245.2145988263
 11
115.250810869
 21
246.1170115217
  0
LINE
  5
2CA
100
AcDbEntity
  8
0
100
AcDbLine
 62
7
  6
CONTINUOUS
 10
117.6636368581
 20
245.878043963
 11
116.6641888442
 21
245.3010158275
  0
LINE
  5
2CB
100
AcDbEntity
  8
0
100
AcDbLine
 62
7
  6
CONTINUOUS
 10
113.6877771029
 20
243.582593965
 11
98.7673907244
 21
234.968356293
  0
LINE
  5
2CC
100
AcDbEntity
  8
0
100
AcDbLine
 62
7
  6
CONTINUOUS
 10
95.7909789831
 20
233.2499344306
 11
93.7307013483
 21
232.0604396839
  0
LINE
  5
2CD
100
AcDbEntity
  8
0
100
AcDbLine
 62
7
  6
CONTINUOUS
 10
94.2353679723
 20
231.7835736923
 11
121.345729091
 21
247.4356545518
  0
LINE
  5
2CE
100
AcDbEntity
  8
0
100
AcDbLine
 62
7
  6
CONTINUOUS
 10
95.6495874226
 20
230.9670921833
 11
122.7599485413
 21
246.6191730427
  0
LINE
  5
2CF
100
AcDbEntity
  8
0
100
AcDbLine
 62
7
  6
CONTINUOUS
 10
89.6195121945
 20
227.3429877508
 11
87.9948127955
 21
226.4049727146
  0
LINE
  5
2D0
100
AcDbEntity
  8
0
100
AcDbLine
 62
7
  6
CONTINUOUS
 10
99.3265274069
 20
232.8407355192
 11
100.8895613748
 21
233.7431482146
  0
LINE
  5
2D1
100
AcDbEntity
  8
0
100
AcDbLine
 62
7
  6
CONTINUOUS
 10
117.2233255268
 20
243.1733950537
 11
118.7863594947
 21
244.0758077491
  0
LINE
  5
2D2
100
AcDbEntity
  8
0
100
AcDbLine
 62
7
  6
CONTINUOUS
 10
111.2393204646
 20
66.3623703113
 11
111.3192315011
 21
66.3750248406
  0
LINE
  5
2D3
100
AcDbEntity
  8
0
100
AcDbLine
 62
7
  6
CONTINUOUS
 10
106.7136312751
 20
73.3110828043
 11
106.6744699693
 21
73.3115795084
  0
LINE
  5
2D4
100
AcDbEntity
  8
0
100
AcDbLine
 62
7
  6
CONTINUOUS
 10
106.748926813
 20
70.8475979157
 11
106.6180738932
 21
70.8602078101
  0
LINE
  5
2D5
100
AcDbEntity
  8
0
100
AcDbLine
 62
7
  6
CONTINUOUS
 10
111.1423602388
 20
66.3775988193
 11
111.2393204646
 21
66.3623703113
  0
LINE
  5
2D6
100
AcDbEntity
  8
0
100
AcDbLine
 62
7
  6
CONTINUOUS
 10
111.7940080764
 20
62.7165602417
 11
109.8177302688
 21
63.0653901511
  0
LINE
  5
2D7
100
AcDbEntity
  8
0
100
AcDbLine
 62
7
  6
CONTINUOUS
 10
109.866660742
 20
63.3471017643
 11
111.7940080764
 21
63.0069085013
  0
LINE
  5
2D8
100
AcDbEntity
  8
0
100
AcDbLine
 62
7
  6
CONTINUOUS
 10
111.2584096756
 20
63.3161293867
 11
109.9528545131
 21
63.5465710215
  0
LINE
  5
2D9
100
AcDbEntity
  8
0
100
AcDbLine
 62
7
  6
CONTINUOUS
 10
111.7940080764
 20
63.5461266975
 11
109.9589616976
 21
63.8700280537
  0
LINE
  5
2DA
100
AcDbEntity
  8
0
100
AcDbLine
 62
7
  6
CONTINUOUS
 10
110.0086622121
 20
64.151603748
 11
111.7940080764
 21
63.8364749571
  0
LINE
  5
2DB
100
AcDbEntity
  8
0
100
AcDbLine
 62
7
  6
CONTINUOUS
 10
111.2584096756
 20
64.1456958425
 11
109.9810651743
 21
64.3711580547
  0
LINE
  5
2DC
100
AcDbEntity
  8
0
100
AcDbLine
 62
7
  6
CONTINUOUS
 10
111.7940080764
 20
64.3756931533
 11
109.9565178583
 21
64.700025868
  0
LINE
  5
2DD
100
AcDbEntity
  8
0
100
AcDbLine
 62
7
  6
CONTINUOUS
 10
109.8948759677
 20
65.0012544476
 11
111.7940080764
 21
64.6660414129
  0
LINE
  5
2DE
100
AcDbEntity
  8
0
100
AcDbLine
 62
7
  6
CONTINUOUS
 10
111.2584096756
 20
64.9752622983
 11
109.8492980194
 21
65.2239825386
  0
LINE
  5
2DF
100
AcDbEntity
  8
0
100
AcDbLine
 62
7
  6
CONTINUOUS
 10
111.7940080764
 20
65.2052596091
 11
109.7398129401
 21
65.5678425924
  0
LINE
  5
2E0
100
AcDbEntity
  8
0
100
AcDbLine
 62
7
  6
CONTINUOUS
 10
110.1249640898
 20
65.790208385
 11
111.7940080764
 21
65.4956078687
  0
LINE
  5
2E1
100
AcDbEntity
  8
0
100
AcDbLine
 62
7
  6
CONTINUOUS
 10
111.2584096756
 20
65.8048287541
 11
110.4097444398
 21
65.9546254153
  0
LINE
  5
2E2
100
AcDbEntity
  8
0
100
AcDbLine
 62
7
  6
CONTINUOUS
 10
111.7940080764
 20
66.034826065
 11
110.8402447964
 21
66.2031734285
  0
LINE
  5
2E3
100
AcDbEntity
  8
0
100
AcDbLine
 62
7
  6
CONTINUOUS
 10
111.3629662742
 20
66.4012568834
 11
111.7940080764
 21
66.3251743245
  0
LINE
  5
2E4
100
AcDbEntity
  8
0
100
AcDbLine
 62
7
  6
CONTINUOUS
 10
108.7377352617
 20
58.5594877941
 11
109.2977023171
 21
58.2951337998
  0
LINE
  5
2E5
100
AcDbEntity
  8
0
100
AcDbLine
 62
7
  6
CONTINUOUS
 10
109.2851489339
 20
58.4614136304
 11
108.7251818762
 21
58.7257676258
  0
LINE
  5
2E6
100
AcDbEntity
  8
0
100
AcDbLine
 62
7
  6
CONTINUOUS
 10
110.341621248
 20
59.6590137616
 11
110.9015883048
 21
59.3946597666
  0
LINE
  5
2E7
100
AcDbEntity
  8
0
100
AcDbLine
 62
7
  6
CONTINUOUS
 10
45.7771443959
 20
86.3488388589
 11
45.9217073502
 21
86.2799815433
  0
LINE
  5
2E8
100
AcDbEntity
  8
0
100
AcDbLine
 62
7
  6
CONTINUOUS
 10
47.7192621833
 20
85.7118430388
 11
46.7657323961
 21
86.2424727138
  0
LINE
  5
2E9
100
AcDbEntity
  8
0
100
AcDbLine
 62
7
  6
CONTINUOUS
 10
121.8115263944
 20
53.0133186395
 11
121.4518002602
 21
53.2138760527
  0
LINE
  5
2EA
100
AcDbEntity
  8
0
100
AcDbLine
 62
7
  6
CONTINUOUS
 10
107.3450801797
 20
51.5769338246
 11
107.1683027484
 21
51.6789940133
  0
LINE
  5
2EB
100
AcDbEntity
  8
0
100
AcDbLine
 62
7
  6
CONTINUOUS
 10
107.1626459506
 20
52.3622972307
 11
106.6379763425
 21
52.6652085174
  0
LINE
  5
2EC
100
AcDbEntity
  8
0
100
AcDbLine
 62
7
  6
CONTINUOUS
 10
107.9708656365
 20
53.6937403017
 11
108.3833474171
 21
53.4555992221
  0
LINE
  5
2ED
100
AcDbEntity
  8
0
100
AcDbLine
 62
7
  6
CONTINUOUS
 10
107.1626459506
 20
57.0286085446
 11
107.0243494306
 21
57.1084522714
  0
LINE
  5
2EE
100
AcDbEntity
  8
0
100
AcDbLine
 62
7
  6
CONTINUOUS
 10
136.5572497926
 20
40.3013058182
 11
122.5184224896
 21
48.4064502994
  0
LINE
  5
2EF
100
AcDbEntity
  8
0
100
AcDbLine
 62
7
  6
CONTINUOUS
 10
108.3833474171
 20
56.7116475612
 11
107.9708656365
 21
56.9497886407
  0
LINE
  5
2F0
100
AcDbEntity
  8
0
100
AcDbLine
 62
7
  6
CONTINUOUS
 10
107.9708656365
 20
57.4952316125
 11
107.8325691165
 21
57.5750753393
  0
LINE
  5
2F1
100
AcDbEntity
  8
0
100
AcDbLine
 62
7
  6
CONTINUOUS
 10
110.7906516715
 20
56.5971899198
 11
109.6854526237
 21
57.2352624524
  0
LINE
  5
2F2
100
AcDbEntity
  8
0
100
AcDbLine
 62
7
  6
CONTINUOUS
 10
111.2450522349
 20
56.4343874166
 11
111.3833487549
 21
56.3545436898
  0
LINE
  5
2F3
100
AcDbEntity
  8
0
100
AcDbLine
 62
7
  6
CONTINUOUS
 10
108.4671054842
 20
58.0942564053
 11
109.6226176022
 21
57.4271362652
  0
LINE
  5
2F4
100
AcDbEntity
  8
0
100
AcDbLine
 62
7
  6
CONTINUOUS
 10
108.994607925
 20
57.8519271031
 11
108.4671054842
 21
58.1564738895
  0
LINE
  5
2F5
100
AcDbEntity
  8
0
100
AcDbLine
 62
7
  6
CONTINUOUS
 10
108.2582299889
 20
58.3393047427
 11
107.4500117985
 21
58.8059191762
  0
LINE
  5
2F6
100
AcDbEntity
  8
0
100
AcDbLine
 62
7
  6
CONTINUOUS
 10
107.4500117985
 20
59.2621456767
 11
109.4436188616
 21
58.1111621408
  0
LINE
  5
2F7
100
AcDbEntity
  8
0
100
AcDbLine
 62
7
  6
CONTINUOUS
 10
109.6117336654
 20
59.2376154847
 11
107.4500117985
 21
60.485657952
  0
LINE
  5
2F8
100
AcDbEntity
  8
0
100
AcDbLine
 62
7
  6
CONTINUOUS
 10
107.1626459506
 20
60.9690492097
 11
107.0243494306
 21
61.0488929365
  0
LINE
  5
2F9
100
AcDbEntity
  8
0
100
AcDbLine
 62
7
  6
CONTINUOUS
 10
109.8901275749
 20
59.3983453239
 11
107.4500117985
 21
60.8071149536
  0
LINE
  5
2FA
100
AcDbEntity
  8
0
100
AcDbLine
 62
7
  6
CONTINUOUS
 10
116.6434941671
 20
57.1494656752
 11
116.8202715984
 21
57.0474054865
  0
LINE
  5
2FB
100
AcDbEntity
  8
0
100
AcDbLine
 62
7
  6
CONTINUOUS
 10
137.6446259195
 20
37.5195436856
 11
136.4425393867
 21
38.2377815428
  0
LINE
  5
2FC
100
AcDbEntity
  8
0
100
AcDbLine
 62
7
  6
CONTINUOUS
 10
47.1206528737
 20
98.909745368
 11
45.7771443959
 21
99.8211287415
  0
LINE
  5
2FD
100
AcDbEntity
  8
0
100
AcDbLine
 62
7
  6
CONTINUOUS
 10
40.3154296266
 20
181.6060148298
 11
40.3154296266
 21
197.1603858762
  0
LINE
  5
2FE
100
AcDbEntity
  8
0
100
AcDbLine
 62
7
  6
CONTINUOUS
 10
40.495034749
 20
57.8677818451
 11
40.495034749
 21
147.8641532717
  0
LINE
  5
2FF
100
AcDbEntity
  8
0
100
AcDbLine
 62
7
  6
CONTINUOUS
 10
40.495034749
 20
167.2939607782
 11
40.495034749
 21
181.5023221099
  0
LINE
  5
300
100
AcDbEntity
  8
0
100
AcDbLine
 62
7
  6
CONTINUOUS
 10
40.495034749
 20
197.1603863079
 11
40.495034749
 21
197.28556957
  0
LINE
  5
301
100
AcDbEntity
  8
0
100
AcDbLine
 62
7
  6
CONTINUOUS
 10
40.5073763524
 20
166.9771842232
 11
40.5073763524
 21
148.0264643153
  0
LINE
  5
302
100
AcDbEntity
  8
0
100
AcDbLine
 62
7
  6
CONTINUOUS
 10
49.5131760413
 20
213.0913340449
 11
50.7127702774
 21
219.3965528448
  0
LINE
  5
303
100
AcDbEntity
  8
0
100
AcDbLine
 62
7
  6
CONTINUOUS
 10
74.4362956681
 20
243.2143148189
 11
73.7415344771
 21
241.982442379
  0
LINE
  5
304
100
AcDbEntity
  8
0
100
AcDbLine
 62
7
  6
CONTINUOUS
 10
77.9718442939
 20
241.1731110463
 11
77.2770831028
 21
239.9412386064
  0
LINE
  5
305
100
AcDbEntity
  8
0
100
AcDbLine
 62
7
  6
CONTINUOUS
 10
81.5073929196
 20
239.1319072737
 11
80.8126317286
 21
237.9000348338
  0
LINE
  5
306
100
AcDbEntity
  8
0
100
AcDbLine
 62
7
  6
CONTINUOUS
 10
75.5452853439
 20
240.9977032733
 11
76.2402157522
 21
242.2295924265
  0
LINE
  5
307
100
AcDbEntity
  8
0
100
AcDbLine
 62
7
  6
CONTINUOUS
 10
79.0433824631
 20
238.9638727248
 11
79.7383128714
 21
240.195761878
  0
LINE
  5
308
100
AcDbEntity
  8
0
100
AcDbLine
 62
7
  6
CONTINUOUS
 10
75.8381783602
 20
240.7719718532
 11
76.5576248436
 21
241.9895925553
  0
LINE
  5
309
100
AcDbEntity
  8
0
100
AcDbLine
 62
7
  6
CONTINUOUS
 10
79.3737269859
 20
238.7307680806
 11
80.0931734693
 21
239.9483887827
  0
LINE
  5
30A
100
AcDbEntity
  8
0
100
AcDbLine
 62
7
  6
CONTINUOUS
 10
43.7764906876
 20
199.1801732073
 11
40.495034749
 21
197.28556957
  0
LINE
  5
30B
100
AcDbEntity
  8
0
100
AcDbLine
 62
7
  6
CONTINUOUS
 10
121.2357754021
 20
243.8869609958
 11
120.1746260701
 21
243.2743098004
  0
LINE
  5
30C
100
AcDbEntity
  8
0
100
AcDbLine
 62
7
  6
CONTINUOUS
 10
117.2233257251
 20
241.5703859227
 11
102.2778279503
 21
232.9416502659
  0
LINE
  5
30D
100
AcDbEntity
  8
0
100
AcDbLine
 62
7
  6
CONTINUOUS
 10
99.3265276052
 20
231.2377263882
 11
97.2287984676
 21
230.0266091353
  0
LINE
  5
30E
100
AcDbEntity
  8
0
100
AcDbLine
 62
7
  6
CONTINUOUS
 10
40.5043398382
 20
197.2694525866
 11
40.3154296266
 21
197.1603858762
  0
LINE
  5
30F
100
AcDbEntity
  8
0
100
AcDbLine
 62
7
  6
CONTINUOUS
 10
97.770916598
 20
229.7423699197
 11
124.8812777168
 21
245.3944507792
  0
LINE
  5
310
100
AcDbEntity
  8
0
100
AcDbLine
 62
7
  6
CONTINUOUS
 10
99.1851360483
 20
228.9258884107
 11
126.2954971671
 21
244.5779692701
  0
LINE
  5
311
100
AcDbEntity
  8
0
100
AcDbLine
 62
7
  6
CONTINUOUS
 10
93.1180355965
 20
225.2804075828
 11
91.5303614212
 21
224.363768942
  0
LINE
  5
312
100
AcDbEntity
  8
0
100
AcDbLine
 62
7
  6
CONTINUOUS
 10
102.8620760326
 20
230.7995317466
 11
104.4251100005
 21
231.701944442
  0
LINE
  5
313
100
AcDbEntity
  8
0
100
AcDbLine
 62
7
  6
CONTINUOUS
 10
120.7588741525
 20
241.132191281
 11
122.3219081204
 21
242.0346039765
  0
LINE
  5
314
100
AcDbEntity
  8
0
100
AcDbLine
 62
7
  6
CONTINUOUS
 10
124.8079139461
 20
241.8958780286
 11
123.6850632961
 21
241.2476037732
  0
LINE
  5
315
100
AcDbEntity
  8
0
100
AcDbLine
 62
7
  6
CONTINUOUS
 10
120.7588743472
 20
239.5581778804
 11
105.7882651762
 21
230.9149442387
  0
LINE
  5
316
100
AcDbEntity
  8
0
100
AcDbLine
 62
7
  6
CONTINUOUS
 10
102.8620762274
 20
229.2255183459
 11
100.7268955868
 21
227.9927785868
  0
LINE
  5
317
100
AcDbEntity
  8
0
100
AcDbLine
 62
7
  6
CONTINUOUS
 10
100.5993613865
 20
227.2929219933
 11
129.1239301797
 21
243.7614911604
  0
LINE
  5
318
100
AcDbEntity
  8
0
100
AcDbLine
 62
7
  6
CONTINUOUS
 10
45.4341961792
 20
194.3088246376
 11
45.3443939919
 21
194.25697763
  0
LINE
  5
319
100
AcDbEntity
  8
0
100
AcDbLine
 62
7
  6
CONTINUOUS
 10
96.6165589985
 20
223.2178274149
 11
95.065910047
 21
222.3225651694
  0
LINE
  5
31A
100
AcDbEntity
  8
0
100
AcDbLine
 62
7
  6
CONTINUOUS
 10
100.1150824004
 20
221.155247247
 11
98.6014586727
 21
220.2813613968
  0
LINE
  5
31B
100
AcDbEntity
  8
0
100
AcDbLine
 62
7
  6
CONTINUOUS
 10
111.2393204646
 20
83.508921071
 11
111.3192315011
 21
83.5215756003
  0
LINE
  5
31C
100
AcDbEntity
  8
0
100
AcDbLine
 62
7
  6
CONTINUOUS
 10
106.7136312751
 20
81.6067473624
 11
106.6744741586
 21
81.6072430872
  0
LINE
  5
31D
100
AcDbEntity
  8
0
100
AcDbLine
 62
7
  6
CONTINUOUS
 10
47.7192621833
 20
86.2000974474
 11
45.9217073502
 21
86.2799815433
  0
LINE
  5
31E
100
AcDbEntity
  8
0
100
AcDbLine
 62
7
  6
CONTINUOUS
 10
106.748926813
 20
79.1432624737
 11
106.6180738932
 21
79.1558723681
  0
LINE
  5
31F
100
AcDbEntity
  8
0
100
AcDbLine
 62
7
  6
CONTINUOUS
 10
111.7940080764
 20
79.0335445457
 11
109.0593523743
 21
79.5162346295
  0
LINE
  5
320
100
AcDbEntity
  8
0
100
AcDbLine
 62
7
  6
CONTINUOUS
 10
109.444503524
 20
79.7386004222
 11
111.7940080764
 21
79.3238928052
  0
LINE
  5
321
100
AcDbEntity
  8
0
100
AcDbLine
 62
7
  6
CONTINUOUS
 10
111.2584096756
 20
79.6331136906
 11
109.6363819869
 21
79.9194154288
  0
LINE
  5
322
100
AcDbEntity
  8
0
100
AcDbLine
 62
7
  6
CONTINUOUS
 10
111.7940080764
 20
79.8631110015
 11
109.8177302688
 21
80.2119409108
  0
LINE
  5
323
100
AcDbEntity
  8
0
100
AcDbLine
 62
7
  6
CONTINUOUS
 10
109.866660742
 20
80.493652524
 11
111.7940080764
 21
80.153459261
  0
LINE
  5
324
100
AcDbEntity
  8
0
100
AcDbLine
 62
7
  6
CONTINUOUS
 10
111.2584096756
 20
80.4626801464
 11
109.9528545131
 21
80.6931217813
  0
LINE
  5
325
100
AcDbEntity
  8
0
100
AcDbLine
 62
7
  6
CONTINUOUS
 10
111.7940080764
 20
80.6926774573
 11
109.9589616976
 21
81.0165788134
  0
LINE
  5
326
100
AcDbEntity
  8
0
100
AcDbLine
 62
7
  6
CONTINUOUS
 10
110.0086622121
 20
81.2981545077
 11
111.7940080764
 21
80.9830257168
  0
LINE
  5
327
100
AcDbEntity
  8
0
100
AcDbLine
 62
7
  6
CONTINUOUS
 10
111.2584096756
 20
81.2922466022
 11
109.9810651743
 21
81.5177088145
  0
LINE
  5
328
100
AcDbEntity
  8
0
100
AcDbLine
 62
7
  6
CONTINUOUS
 10
111.7940080764
 20
81.5222439131
 11
109.9565178583
 21
81.8465766277
  0
LINE
  5
329
100
AcDbEntity
  8
0
100
AcDbLine
 62
7
  6
CONTINUOUS
 10
109.8948759677
 20
82.1478052073
 11
111.7940080764
 21
81.8125921726
  0
LINE
  5
32A
100
AcDbEntity
  8
0
100
AcDbLine
 62
7
  6
CONTINUOUS
 10
111.2584096756
 20
82.121813058
 11
109.8492980194
 21
82.3705332983
  0
LINE
  5
32B
100
AcDbEntity
  8
0
100
AcDbLine
 62
7
  6
CONTINUOUS
 10
108.7377352617
 20
75.7060385538
 11
109.2977023171
 21
75.4416845595
  0
LINE
  5
32C
100
AcDbEntity
  8
0
100
AcDbLine
 62
7
  6
CONTINUOUS
 10
109.2851489339
 20
75.6079643901
 11
108.7251818762
 21
75.8723183855
  0
LINE
  5
32D
100
AcDbEntity
  8
0
100
AcDbLine
 62
7
  6
CONTINUOUS
 10
107.9708656365
 20
62.2175356351
 11
108.3833474171
 21
61.9793945555
  0
LINE
  5
32E
100
AcDbEntity
  8
0
100
AcDbLine
 62
7
  6
CONTINUOUS
 10
114.409680718
 20
58.5621920237
 11
109.596243397
 21
61.3411684879
  0
LINE
  5
32F
100
AcDbEntity
  8
0
100
AcDbLine
 62
7
  6
CONTINUOUS
 10
116.265108529
 20
57.5928177869
 11
116.8134605651
 21
57.2762337533
  0
LINE
  5
330
100
AcDbEntity
  8
0
100
AcDbLine
 62
7
  6
CONTINUOUS
 10
114.975436248
 20
58.4284239915
 11
114.8371397279
 21
58.5082677183
  0
LINE
  5
331
100
AcDbEntity
  8
0
100
AcDbLine
 62
7
  6
CONTINUOUS
 10
109.596243397
 20
61.8077876703
 11
108.8411723106
 21
62.2437183032
  0
LINE
  5
332
100
AcDbEntity
  8
0
100
AcDbLine
 62
7
  6
CONTINUOUS
 10
117.2091772369
 20
57.864263758
 11
116.2865481829
 21
58.3969318401
  0
LINE
  5
333
100
AcDbEntity
  8
0
100
AcDbLine
 62
7
  6
CONTINUOUS
 10
114.409680718
 20
59.7961721267
 11
112.1466467537
 21
61.1027058375
  0
LINE
  5
334
100
AcDbEntity
  8
0
100
AcDbLine
 62
7
  6
CONTINUOUS
 10
117.5273754356
 20
58.2721520575
 11
117.3505980043
 21
58.3742122462
  0
LINE
  5
335
100
AcDbEntity
  8
0
100
AcDbLine
 62
7
  6
CONTINUOUS
 10
114.813790561
 20
60.0294836606
 11
112.5507565967
 21
61.3360173714
  0
LINE
  5
336
100
AcDbEntity
  8
0
100
AcDbLine
 62
7
  6
CONTINUOUS
 10
111.2584096756
 20
62.4865629309
 11
111.7940080764
 21
62.1773420455
  0
LINE
  5
337
100
AcDbEntity
  8
0
100
AcDbLine
 62
7
  6
CONTINUOUS
 10
45.6844542454
 20
100.5440715962
 11
47.7192621833
 21
99.3693012624
  0
LINE
  5
338
100
AcDbEntity
  8
0
100
AcDbLine
 62
7
  6
CONTINUOUS
 10
107.1626459506
 20
65.6353605236
 11
106.939516467
 21
65.7641814767
  0
LINE
  5
339
100
AcDbEntity
  8
0
100
AcDbLine
 62
7
  6
CONTINUOUS
 10
111.2584096756
 20
63.3161293867
 11
111.7940080764
 21
63.0069085013
  0
LINE
  5
33A
100
AcDbEntity
  8
0
100
AcDbLine
 62
7
  6
CONTINUOUS
 10
108.3833474171
 20
65.2354428945
 11
107.9708656365
 21
65.4735839741
  0
LINE
  5
33B
100
AcDbEntity
  8
0
100
AcDbLine
 62
7
  6
CONTINUOUS
 10
111.2584096756
 20
64.1456958425
 11
111.7940080764
 21
63.8364749571
  0
LINE
  5
33C
100
AcDbEntity
  8
0
100
AcDbLine
 62
7
  6
CONTINUOUS
 10
111.2584096756
 20
64.9752622983
 11
111.7940080764
 21
64.6660414129
  0
LINE
  5
33D
100
AcDbEntity
  8
0
100
AcDbLine
 62
7
  6
CONTINUOUS
 10
109.6226176022
 20
65.9509315986
 11
109.1742137951
 21
66.2098118007
  0
LINE
  5
33E
100
AcDbEntity
  8
0
100
AcDbLine
 62
7
  6
CONTINUOUS
 10
111.2584096756
 20
65.8048287541
 11
111.7940080764
 21
65.4956078687
  0
LINE
  5
33F
100
AcDbEntity
  8
0
100
AcDbLine
 62
7
  6
CONTINUOUS
 10
106.8578569639
 20
68.7397837739
 11
106.7534404822
 21
68.800067294
  0
LINE
  5
340
100
AcDbEntity
  8
0
100
AcDbLine
 62
7
  6
CONTINUOUS
 10
107.3450801797
 20
68.7234845844
 11
107.1683027484
 21
68.825544773
  0
LINE
  5
341
100
AcDbEntity
  8
0
100
AcDbLine
 62
7
  6
CONTINUOUS
 10
111.5134516712
 20
66.4871499762
 11
111.7940080764
 21
66.3251743245
  0
LINE
  5
342
100
AcDbEntity
  8
0
100
AcDbLine
 62
7
  6
CONTINUOUS
 10
107.1626459506
 20
69.5088479904
 11
106.6379763425
 21
69.8117592771
  0
LINE
  5
343
100
AcDbEntity
  8
0
100
AcDbLine
 62
7
  6
CONTINUOUS
 10
114.409680718
 20
67.054878615
 11
113.362556769
 21
67.6594222322
  0
LINE
  5
344
100
AcDbEntity
  8
0
100
AcDbLine
 62
7
  6
CONTINUOUS
 10
107.9708656365
 20
70.8402910614
 11
108.3833474171
 21
70.6021499819
  0
LINE
  5
345
100
AcDbEntity
  8
0
100
AcDbLine
 62
7
  6
CONTINUOUS
 10
106.6379763425
 20
53.8898785348
 11
106.7105419116
 21
53.8266038458
  0
LINE
  5
346
100
AcDbEntity
  8
0
100
AcDbLine
 62
7
  6
CONTINUOUS
 10
106.6379763425
 20
62.1855430928
 11
106.7105419116
 21
62.1222684039
  0
LINE
  5
347
100
AcDbEntity
  8
0
100
AcDbLine
 62
7
  6
CONTINUOUS
 10
106.6739579679
 20
54.0979713583
 11
106.7136312751
 21
54.0563506999
  0
LINE
  5
348
100
AcDbEntity
  8
0
100
AcDbLine
 62
7
  6
CONTINUOUS
 10
109.2261000333
 20
41.8653506025
 11
102.6853350759
 21
50.0021005671
  0
LINE
  5
349
100
AcDbEntity
  8
0
100
AcDbLine
 62
7
  6
CONTINUOUS
 10
47.7192621833
 20
89.7183934998
 11
47.5449169424
 21
90.7594715967
  0
LINE
  5
34A
100
AcDbEntity
  8
0
100
AcDbLine
 62
7
  6
CONTINUOUS
 10
50.078655256
 20
59.6285643191
 11
50.0032028876
 21
60.5433867693
  0
LINE
  5
34B
100
AcDbEntity
  8
0
100
AcDbLine
 62
7
  6
CONTINUOUS
 10
46.6340194119
 20
62.4885417507
 11
46.7728821137
 21
55.0598493919
  0
LINE
  5
34C
100
AcDbEntity
  8
0
100
AcDbLine
 62
7
  6
CONTINUOUS
 10
50.1695680377
 20
60.4473379781
 11
50.3084307395
 21
53.0186456193
  0
LINE
  5
34D
100
AcDbEntity
  8
0
100
AcDbLine
 62
7
  6
CONTINUOUS
 10
41.9092541993
 20
147.2884395777
 11
41.9092541993
 21
166.0679951717
  0
LINE
  5
34E
100
AcDbEntity
  8
0
100
AcDbLine
 62
7
  6
CONTINUOUS
 10
44.0871521528
 20
199.8668483784
 11
44.0871521528
 21
238.9012494129
  0
LINE
  5
34F
100
AcDbEntity
  8
0
100
AcDbLine
 62
7
  6
CONTINUOUS
 10
45.5720702109
 20
239.8008887216
 11
45.5720702109
 21
260.7768358177
  0
LINE
  5
350
100
AcDbEntity
  8
0
100
AcDbLine
 62
7
  6
CONTINUOUS
 10
45.6844542454
 20
85.7383387485
 11
45.6844542454
 21
100.5440715962
  0
LINE
  5
351
100
AcDbEntity
  8
0
100
AcDbLine
 62
7
  6
CONTINUOUS
 10
45.7771443959
 20
99.8211287415
 11
45.7771443959
 21
86.3488388589
  0
LINE
  5
352
100
AcDbEntity
  8
0
100
AcDbLine
 62
7
  6
CONTINUOUS
 10
46.4058308777
 20
162.5187514044
 11
46.4058308777
 21
145.8237480162
  0
LINE
  5
353
100
AcDbEntity
  8
0
100
AcDbLine
 62
7
  6
CONTINUOUS
 10
46.4983963155
 20
144.5191896178
 11
46.4983963155
 21
163.7069964204
  0
LINE
  5
354
100
AcDbEntity
  8
0
100
AcDbLine
 62
7
  6
CONTINUOUS
 10
47.1206528737
 20
98.909745368
 11
47.1206528737
 21
91.1623341092
  0
LINE
  5
355
100
AcDbEntity
  8
0
100
AcDbLine
 62
7
  6
CONTINUOUS
 10
47.5449169424
 20
90.7594715967
 11
47.5449169424
 21
98.8883159762
  0
LINE
  5
356
100
AcDbEntity
  8
0
100
AcDbLine
 62
7
  6
CONTINUOUS
 10
47.5894673692
 20
179.9988373625
 11
47.5894673692
 21
190.36841806
  0
LINE
  5
357
100
AcDbEntity
  8
0
100
AcDbLine
 62
7
  6
CONTINUOUS
 10
47.6792695565
 20
180.05068437
 11
47.6792695565
 21
190.4202650676
  0
LINE
  5
358
100
AcDbEntity
  8
0
100
AcDbLine
 62
7
  6
CONTINUOUS
 10
47.7192621833
 20
99.3693012624
 11
47.7192621833
 21
84.5635684147
  0
LINE
  5
359
100
AcDbEntity
  8
0
100
AcDbLine
 62
7
  6
CONTINUOUS
 10
49.2765716492
 20
212.4677320178
 11
49.2765716492
 21
227.2734648654
  0
LINE
  5
35A
100
AcDbEntity
  8
0
100
AcDbLine
 62
7
  6
CONTINUOUS
 10
49.3692617996
 20
226.6321722524
 11
49.3692617996
 21
213.1598823698
  0
LINE
  5
35B
100
AcDbEntity
  8
0
100
AcDbLine
 62
7
  6
CONTINUOUS
 10
49.5012478153
 20
240.9482167691
 11
49.5012478153
 21
238.4170254919
  0
LINE
  5
35C
100
AcDbEntity
  8
0
100
AcDbLine
 62
7
  6
CONTINUOUS
 10
50.7127702774
 20
225.7207888789
 11
50.7127702774
 21
219.3965528448
  0
LINE
  5
35D
100
AcDbEntity
  8
0
100
AcDbLine
 62
7
  6
CONTINUOUS
 10
44.6669821274
 20
55.4591613934
 11
44.8212740183
 21
63.5351071152
  0
LINE
  5
35E
100
AcDbEntity
  8
0
100
AcDbLine
 62
7
  6
CONTINUOUS
 10
46.2233793348
 20
62.7256195463
 11
46.1326414199
 21
58.0087801322
  0
LINE
  5
35F
100
AcDbEntity
  8
0
100
AcDbLine
 62
7
  6
CONTINUOUS
 10
48.2179599422
 20
54.225552193
 11
48.356822644
 21
61.4939033426
  0
LINE
  5
360
100
AcDbEntity
  8
0
100
AcDbLine
 62
7
  6
CONTINUOUS
 10
85.0429415454
 20
237.0907035011
 11
84.3481803543
 21
235.8588310612
  0
LINE
  5
361
100
AcDbEntity
  8
0
100
AcDbLine
 62
7
  6
CONTINUOUS
 10
88.5784901711
 20
235.0494997285
 11
87.88372898
 21
233.8176272886
  0
LINE
  5
362
100
AcDbEntity
  8
0
100
AcDbLine
 62
7
  6
CONTINUOUS
 10
82.5414795823
 20
236.9300421763
 11
83.2364099907
 21
238.1619313295
  0
LINE
  5
363
100
AcDbEntity
  8
0
100
AcDbLine
 62
7
  6
CONTINUOUS
 10
86.0395767015
 20
234.8962116277
 11
86.7345071099
 21
236.1281007809
  0
LINE
  5
364
100
AcDbEntity
  8
0
100
AcDbLine
 62
7
  6
CONTINUOUS
 10
89.5376738208
 20
232.8623810792
 11
90.2326042291
 21
234.0942702324
  0
LINE
  5
365
100
AcDbEntity
  8
0
100
AcDbLine
 62
7
  6
CONTINUOUS
 10
82.9092756117
 20
236.689564308
 11
83.6287220951
 21
237.9071850101
  0
LINE
  5
366
100
AcDbEntity
  8
0
100
AcDbLine
 62
7
  6
CONTINUOUS
 10
86.4448242374
 20
234.6483605354
 11
87.1642707208
 21
235.8659812375
  0
LINE
  5
367
100
AcDbEntity
  8
0
100
AcDbLine
 62
7
  6
CONTINUOUS
 10
89.9803728632
 20
232.6071567628
 11
90.6998193465
 21
233.8247774649
  0
LINE
  5
368
100
AcDbEntity
  8
0
100
AcDbLine
 62
7
  6
CONTINUOUS
 10
47.5894673692
 20
190.36841806
 11
47.6792695565
 21
190.4202650676
  0
LINE
  5
369
100
AcDbEntity
  8
0
100
AcDbLine
 62
7
  6
CONTINUOUS
 10
108.8018341982
 20
222.5573292408
 11
137.3264029914
 21
239.025898408
  0
LINE
  5
36A
100
AcDbEntity
  8
0
100
AcDbLine
 62
7
  6
CONTINUOUS
 10
109.2755937692
 20
222.165403354
 11
136.8526434205
 21
238.0869253549
  0
LINE
  5
36B
100
AcDbEntity
  8
0
100
AcDbLine
 62
7
  6
CONTINUOUS
 10
138.2102901479
 20
238.5155974649
 11
109.6857213547
 21
222.0470282977
  0
LINE
  5
36C
100
AcDbEntity
  8
0
100
AcDbLine
 62
7
  6
CONTINUOUS
 10
109.4134790174
 20
220.0812795586
 11
109.2755937692
 21
220.0016719486
  0
LINE
  5
36D
100
AcDbEntity
  8
0
100
AcDbLine
 62
7
  6
CONTINUOUS
 10
109.2755937692
 20
219.021869048
 11
109.4134790174
 21
219.101476658
  0
LINE
  5
36E
100
AcDbEntity
  8
0
100
AcDbLine
 62
7
  6
CONTINUOUS
 10
47.6792695565
 20
180.05068437
 11
47.5894673692
 21
179.9988373625
  0
LINE
  5
36F
100
AcDbEntity
  8
0
100
AcDbLine
 62
7
  6
CONTINUOUS
 10
112.5141602552
 20
220.4140652796
 11
139.4336180578
 21
233.9147079465
  0
LINE
  5
370
100
AcDbEntity
  8
0
100
AcDbLine
 62
7
  6
CONTINUOUS
 10
111.1423602388
 20
83.524149579
 11
111.2393204646
 21
83.508921071
  0
LINE
  5
371
100
AcDbEntity
  8
0
100
AcDbLine
 62
7
  6
CONTINUOUS
 10
111.7940080764
 20
82.3518103689
 11
109.7398129401
 21
82.7143933521
  0
LINE
  5
372
100
AcDbEntity
  8
0
100
AcDbLine
 62
7
  6
CONTINUOUS
 10
110.1249640898
 20
82.9367591447
 11
111.7940080764
 21
82.6421586284
  0
LINE
  5
373
100
AcDbEntity
  8
0
100
AcDbLine
 62
7
  6
CONTINUOUS
 10
111.2584096756
 20
82.9513795138
 11
110.4097444398
 21
83.101176175
  0
LINE
  5
374
100
AcDbEntity
  8
0
100
AcDbLine
 62
7
  6
CONTINUOUS
 10
111.7940080764
 20
83.1813768247
 11
110.8402447964
 21
83.3497241882
  0
LINE
  5
375
100
AcDbEntity
  8
0
100
AcDbLine
 62
7
  6
CONTINUOUS
 10
111.3642784266
 20
83.5475760371
 11
111.7940080764
 21
83.4717250842
  0
LINE
  5
376
100
AcDbEntity
  8
0
100
AcDbLine
 62
7
  6
CONTINUOUS
 10
110.341621248
 20
76.8055645213
 11
110.9015883048
 21
76.5412105263
  0
LINE
  5
377
100
AcDbEntity
  8
0
100
AcDbLine
 62
7
  6
CONTINUOUS
 10
107.1626459506
 20
74.1751593043
 11
107.0243494306
 21
74.2550030311
  0
LINE
  5
378
100
AcDbEntity
  8
0
100
AcDbLine
 62
7
  6
CONTINUOUS
 10
116.5918756198
 20
69.005380176
 11
116.2865481829
 21
69.1816570659
  0
LINE
  5
379
100
AcDbEntity
  8
0
100
AcDbLine
 62
7
  6
CONTINUOUS
 10
108.3833474171
 20
73.8581983209
 11
107.9708656365
 21
74.0963394005
  0
LINE
  5
37A
100
AcDbEntity
  8
0
100
AcDbLine
 62
7
  6
CONTINUOUS
 10
107.9708656365
 20
74.6417823722
 11
107.8325691165
 21
74.721626099
  0
LINE
  5
37B
100
AcDbEntity
  8
0
100
AcDbLine
 62
7
  6
CONTINUOUS
 10
110.7906516715
 20
73.7437406795
 11
109.6854526237
 21
74.3818132122
  0
LINE
  5
37C
100
AcDbEntity
  8
0
100
AcDbLine
 62
7
  6
CONTINUOUS
 10
111.2450522349
 20
73.5809381763
 11
111.3833487549
 21
73.5010944495
  0
LINE
  5
37D
100
AcDbEntity
  8
0
100
AcDbLine
 62
7
  6
CONTINUOUS
 10
108.4671054842
 20
75.2408071651
 11
109.6226176022
 21
74.573687025
  0
LINE
  5
37E
100
AcDbEntity
  8
0
100
AcDbLine
 62
7
  6
CONTINUOUS
 10
108.994607925
 20
74.9984778629
 11
108.4671054842
 21
75.3030246492
  0
LINE
  5
37F
100
AcDbEntity
  8
0
100
AcDbLine
 62
7
  6
CONTINUOUS
 10
108.2582299889
 20
75.4858555024
 11
107.4500117985
 21
75.952469936
  0
LINE
  5
380
100
AcDbEntity
  8
0
100
AcDbLine
 62
7
  6
CONTINUOUS
 10
115.8954119647
 20
71.128833982
 11
116.2865481829
 21
70.9030164898
  0
LINE
  5
381
100
AcDbEntity
  8
0
100
AcDbLine
 62
7
  6
CONTINUOUS
 10
107.4500117985
 20
76.4086964364
 11
109.4436188616
 21
75.2577129006
  0
LINE
  5
382
100
AcDbEntity
  8
0
100
AcDbLine
 62
7
  6
CONTINUOUS
 10
117.3505980043
 20
71.3566006785
 11
117.5273754356
 21
71.2545404899
  0
LINE
  5
383
100
AcDbEntity
  8
0
100
AcDbLine
 62
7
  6
CONTINUOUS
 10
109.6117336654
 20
76.3841662444
 11
107.4500117985
 21
77.6322087117
  0
LINE
  5
384
100
AcDbEntity
  8
0
100
AcDbLine
 62
7
  6
CONTINUOUS
 10
107.1626459506
 20
78.1155999694
 11
107.0243494306
 21
78.1954436962
  0
LINE
  5
385
100
AcDbEntity
  8
0
100
AcDbLine
 62
7
  6
CONTINUOUS
 10
109.8901275749
 20
76.5448960836
 11
107.4500117985
 21
77.9536657133
  0
LINE
  5
386
100
AcDbEntity
  8
0
100
AcDbLine
 62
7
  6
CONTINUOUS
 10
116.6434941671
 20
74.2960164349
 11
116.8202715984
 21
74.1939562462
  0
LINE
  5
387
100
AcDbEntity
  8
0
100
AcDbLine
 62
7
  6
CONTINUOUS
 10
107.9708656365
 20
79.3640863948
 11
108.3833474171
 21
79.1259453152
  0
LINE
  5
388
100
AcDbEntity
  8
0
100
AcDbLine
 62
7
  6
CONTINUOUS
 10
114.409680718
 20
75.7087427834
 11
109.596243397
 21
78.4877192476
  0
LINE
  5
389
100
AcDbEntity
  8
0
100
AcDbLine
 62
7
  6
CONTINUOUS
 10
116.265108529
 20
74.7393685466
 11
116.8134605651
 21
74.422784513
  0
LINE
  5
38A
100
AcDbEntity
  8
0
100
AcDbLine
 62
7
  6
CONTINUOUS
 10
114.975436248
 20
75.5749747512
 11
114.8371397279
 21
75.654818478
  0
LINE
  5
38B
100
AcDbEntity
  8
0
100
AcDbLine
 62
7
  6
CONTINUOUS
 10
109.596243397
 20
78.95433843
 11
108.8411723106
 21
79.3902690629
  0
LINE
  5
38C
100
AcDbEntity
  8
0
100
AcDbLine
 62
7
  6
CONTINUOUS
 10
117.2091772369
 20
75.0108145177
 11
116.2865481829
 21
75.5434825998
  0
LINE
  5
38D
100
AcDbEntity
  8
0
100
AcDbLine
 62
7
  6
CONTINUOUS
 10
114.409680718
 20
76.9427228864
 11
112.1466467537
 21
78.2492565972
  0
LINE
  5
38E
100
AcDbEntity
  8
0
100
AcDbLine
 62
7
  6
CONTINUOUS
 10
117.5273754356
 20
75.4187028172
 11
117.3505980043
 21
75.5207630059
  0
LINE
  5
38F
100
AcDbEntity
  8
0
100
AcDbLine
 62
7
  6
CONTINUOUS
 10
114.813790561
 20
77.1760344204
 11
112.5507565967
 21
78.4825681311
  0
LINE
  5
390
100
AcDbEntity
  8
0
100
AcDbLine
 62
7
  6
CONTINUOUS
 10
111.2584096756
 20
79.6331136906
 11
111.7940080764
 21
79.3238928052
  0
LINE
  5
391
100
AcDbEntity
  8
0
100
AcDbLine
 62
7
  6
CONTINUOUS
 10
107.1626459506
 20
82.7819112833
 11
106.939516467
 21
82.9107322364
  0
LINE
  5
392
100
AcDbEntity
  8
0
100
AcDbLine
 62
7
  6
CONTINUOUS
 10
111.2584096756
 20
80.4626801464
 11
111.7940080764
 21
80.153459261
  0
LINE
  5
393
100
AcDbEntity
  8
0
100
AcDbLine
 62
7
  6
CONTINUOUS
 10
108.3833474171
 20
82.3819936543
 11
107.9708656365
 21
82.6201347338
  0
LINE
  5
394
100
AcDbEntity
  8
0
100
AcDbLine
 62
7
  6
CONTINUOUS
 10
111.2584096756
 20
81.2922466022
 11
111.7940080764
 21
80.9830257168
  0
LINE
  5
395
100
AcDbEntity
  8
0
100
AcDbLine
 62
7
  6
CONTINUOUS
 10
111.2584096756
 20
82.121813058
 11
111.7940080764
 21
81.8125921726
  0
LINE
  5
396
100
AcDbEntity
  8
0
100
AcDbLine
 62
7
  6
CONTINUOUS
 10
109.6226176022
 20
83.0974823583
 11
109.1742137951
 21
83.3563625604
  0
LINE
  5
397
100
AcDbEntity
  8
0
100
AcDbLine
 62
7
  6
CONTINUOUS
 10
106.6379763425
 20
71.0364292945
 11
106.7105419116
 21
70.9731546056
  0
LINE
  5
398
100
AcDbEntity
  8
0
100
AcDbLine
 62
7
  6
CONTINUOUS
 10
109.8418257819
 20
57.8994335243
 11
111.1920202691
 21
56.5524591324
  0
LINE
  5
399
100
AcDbEntity
  8
0
100
AcDbLine
 62
7
  6
CONTINUOUS
 10
111.2393204647
 20
56.6752119338
 11
109.8891259774
 21
58.0221863258
  0
LINE
  5
39A
100
AcDbEntity
  8
0
100
AcDbLine
 62
7
  6
CONTINUOUS
 10
111.5055653497
 20
58.9554324612
 11
112.8557598365
 21
57.6084580697
  0
LINE
  5
39B
100
AcDbEntity
  8
0
100
AcDbLine
 62
7
  6
CONTINUOUS
 10
106.6739579679
 20
62.3936359163
 11
106.7136312751
 21
62.3520152579
  0
LINE
  5
39C
100
AcDbEntity
  8
0
100
AcDbLine
 62
7
  6
CONTINUOUS
 10
110.7723072047
 20
44.0457484457
 11
105.0403721388
 21
51.3617737334
  0
LINE
  5
39D
100
AcDbEntity
  8
0
100
AcDbLine
 62
7
  6
CONTINUOUS
 10
53.7051166634
 20
58.4061342055
 11
53.8439793652
 21
50.9774418467
  0
LINE
  5
39E
100
AcDbEntity
  8
0
100
AcDbLine
 62
7
  6
CONTINUOUS
 10
57.2406652891
 20
56.3649304329
 11
57.3795279909
 21
48.9362380741
  0
LINE
  5
39F
100
AcDbEntity
  8
0
100
AcDbLine
 62
7
  6
CONTINUOUS
 10
60.7762139149
 20
54.3237266603
 11
60.9150766167
 21
46.8950343015
  0
LINE
  5
3A0
100
AcDbEntity
  8
0
100
AcDbLine
 62
7
  6
CONTINUOUS
 10
51.1370343461
 20
218.8911085224
 11
51.1370343461
 21
225.6993594871
  0
LINE
  5
3A1
100
AcDbEntity
  8
0
100
AcDbLine
 62
7
  6
CONTINUOUS
 10
51.311379587
 20
226.0986945316
 11
51.311379587
 21
211.292961684
  0
LINE
  5
3A2
100
AcDbEntity
  8
0
100
AcDbLine
 62
7
  6
CONTINUOUS
 10
58.2694084072
 20
240.6203504067
 11
58.2694084072
 21
251.7315788644
  0
LINE
  5
3A3
100
AcDbEntity
  8
0
100
AcDbLine
 62
7
  6
CONTINUOUS
 10
61.6959838573
 20
248.9367869436
 11
61.5849000418
 21
241.6523980094
  0
LINE
  5
3A4
100
AcDbEntity
  8
0
100
AcDbLine
 62
7
  6
CONTINUOUS
 10
49.7830686892
 20
60.6704784329
 11
49.6935510986
 21
56.0170752813
  0
LINE
  5
3A5
100
AcDbEntity
  8
0
100
AcDbLine
 62
7
  6
CONTINUOUS
 10
51.753508568
 20
52.1843484204
 11
51.8923712698
 21
59.45269957
  0
LINE
  5
3A6
100
AcDbEntity
  8
0
100
AcDbLine
 62
7
  6
CONTINUOUS
 10
53.6883811305
 20
58.4064561477
 11
53.6157991041
 21
54.6334225211
  0
LINE
  5
3A7
100
AcDbEntity
  8
0
100
AcDbLine
 62
7
  6
CONTINUOUS
 10
55.2890571937
 20
50.1431446478
 11
55.4279198955
 21
57.4114957974
  0
LINE
  5
3A8
100
AcDbEntity
  8
0
100
AcDbLine
 62
7
  6
CONTINUOUS
 10
57.244446698
 20
56.1626376421
 11
57.1767146592
 21
52.641721063
  0
LINE
  5
3A9
100
AcDbEntity
  8
0
100
AcDbLine
 62
7
  6
CONTINUOUS
 10
46.4058308777
 20
145.8237151774
 11
46.1950871884
 21
145.3639030871
  0
LINE
  5
3AA
100
AcDbEntity
  8
0
100
AcDbLine
 62
7
  6
CONTINUOUS
 10
92.1140387968
 20
233.0082959559
 11
91.4192776058
 21
231.776423516
  0
LINE
  5
3AB
100
AcDbEntity
  8
0
100
AcDbLine
 62
7
  6
CONTINUOUS
 10
95.6495874226
 20
230.9670921833
 11
94.9548262315
 21
229.7352197434
  0
LINE
  5
3AC
100
AcDbEntity
  8
0
100
AcDbLine
 62
7
  6
CONTINUOUS
 10
93.03577094
 20
230.8285505307
 11
93.7307013483
 21
232.0604396839
  0
LINE
  5
3AD
100
AcDbEntity
  8
0
100
AcDbLine
 62
7
  6
CONTINUOUS
 10
96.5338680592
 20
228.7947199822
 11
97.2287984676
 21
230.0266091353
  0
LINE
  5
3AE
100
AcDbEntity
  8
0
100
AcDbLine
 62
7
  6
CONTINUOUS
 10
93.5159214889
 20
230.5659529902
 11
94.2353679723
 21
231.7835736923
  0
LINE
  5
3AF
100
AcDbEntity
  8
0
100
AcDbLine
 62
7
  6
CONTINUOUS
 10
97.0514701146
 20
228.5247492176
 11
97.770916598
 21
229.7423699197
  0
LINE
  5
3B0
100
AcDbEntity
  8
0
100
AcDbLine
 62
7
  6
CONTINUOUS
 10
46.9318868848
 20
178.5453669978
 11
47.0216890721
 21
178.5972140054
  0
LINE
  5
3B1
100
AcDbEntity
  8
0
100
AcDbLine
 62
7
  6
CONTINUOUS
 10
40.7707336428
 20
167.129232718
 11
40.5073763524
 21
166.9771842232
  0
LINE
  5
3B2
100
AcDbEntity
  8
0
100
AcDbLine
 62
7
  6
CONTINUOUS
 10
111.2584096756
 20
82.9513795138
 11
111.7940080764
 21
82.6421586284
  0
LINE
  5
3B3
100
AcDbEntity
  8
0
100
AcDbLine
 62
7
  6
CONTINUOUS
 10
111.5134516712
 20
83.6337007359
 11
111.7940080764
 21
83.4717250842
  0
LINE
  5
3B4
100
AcDbEntity
  8
0
100
AcDbLine
 62
7
  6
CONTINUOUS
 10
114.409680718
 20
84.2014293747
 11
113.362556769
 21
84.8059729919
  0
LINE
  5
3B5
100
AcDbEntity
  8
0
100
AcDbLine
 62
7
  6
CONTINUOUS
 10
116.5918756198
 20
86.1519309357
 11
116.2865481829
 21
86.3282078256
  0
LINE
  5
3B6
100
AcDbEntity
  8
0
100
AcDbLine
 62
7
  6
CONTINUOUS
 10
115.8954119647
 20
88.2753847417
 11
116.2865481829
 21
88.0495672495
  0
LINE
  5
3B7
100
AcDbEntity
  8
0
100
AcDbLine
 62
7
  6
CONTINUOUS
 10
117.3505980043
 20
88.5031514382
 11
117.5273754356
 21
88.4010912496
  0
LINE
  5
3B8
100
AcDbEntity
  8
0
100
AcDbLine
 62
7
  6
CONTINUOUS
 10
106.6379763425
 20
79.3320938526
 11
106.7105419116
 21
79.2688191636
  0
LINE
  5
3B9
100
AcDbEntity
  8
0
100
AcDbLine
 62
7
  6
CONTINUOUS
 10
109.8418257819
 20
75.045984284
 11
111.1920202691
 21
73.6990098921
  0
LINE
  5
3BA
100
AcDbEntity
  8
0
100
AcDbLine
 62
7
  6
CONTINUOUS
 10
111.2393204647
 20
73.8217626935
 11
109.8891259774
 21
75.1687370856
  0
LINE
  5
3BB
100
AcDbEntity
  8
0
100
AcDbLine
 62
7
  6
CONTINUOUS
 10
111.5055653497
 20
76.101983221
 11
112.8557598365
 21
74.7550088294
  0
LINE
  5
3BC
100
AcDbEntity
  8
0
100
AcDbLine
 62
7
  6
CONTINUOUS
 10
106.6739579679
 20
71.244522118
 11
106.7136312751
 21
71.2029014596
  0
LINE
  5
3BD
100
AcDbEntity
  8
0
100
AcDbLine
 62
7
  6
CONTINUOUS
 10
106.6739579679
 20
79.5401866761
 11
106.7136312751
 21
79.4985660176
  0
LINE
  5
3BE
100
AcDbEntity
  8
0
100
AcDbLine
 62
7
  6
CONTINUOUS
 10
64.3117625406
 20
52.2825228877
 11
64.4506252424
 21
44.8538305289
  0
LINE
  5
3BF
100
AcDbEntity
  8
0
100
AcDbLine
 62
7
  6
CONTINUOUS
 10
67.8473111663
 20
50.2413191151
 11
67.9861738682
 21
42.8126267563
  0
LINE
  5
3C0
100
AcDbEntity
  8
0
100
AcDbLine
 62
7
  6
CONTINUOUS
 10
71.3828597921
 20
48.2001153425
 11
71.5217224939
 21
40.7714229837
  0
LINE
  5
3C1
100
AcDbEntity
  8
0
100
AcDbLine
 62
7
  6
CONTINUOUS
 10
59.7104237896
 20
242.7346028954
 11
59.586997328
 21
250.9708857554
  0
LINE
  5
3C2
100
AcDbEntity
  8
0
100
AcDbLine
 62
7
  6
CONTINUOUS
 10
62.4704111342
 20
250.3812773561
 11
62.4733354617
 21
250.1878389834
  0
LINE
  5
3C3
100
AcDbEntity
  8
0
100
AcDbLine
 62
7
  6
CONTINUOUS
 10
63.2459724154
 20
240.6933991228
 11
63.1348885999
 21
248.1060536968
  0
LINE
  5
3C4
100
AcDbEntity
  8
0
100
AcDbLine
 62
7
  6
CONTINUOUS
 10
66.7815210411
 20
238.6521953502
 11
66.6704372256
 21
246.0648499242
  0
LINE
  5
3C5
100
AcDbEntity
  8
0
100
AcDbLine
 62
7
  6
CONTINUOUS
 10
65.0509939862
 20
247.0991949189
 11
65.1298483808
 21
241.7810489261
  0
LINE
  5
3C6
100
AcDbEntity
  8
0
100
AcDbLine
 62
7
  6
CONTINUOUS
 10
68.5490911054
 20
245.0653643704
 11
68.6283717828
 21
239.7184687582
  0
LINE
  5
3C7
100
AcDbEntity
  8
0
100
AcDbLine
 62
7
  6
CONTINUOUS
 10
63.5395980269
 20
250.9985690117
 11
63.5395980269
 21
250.8034422878
  0
LINE
  5
3C8
100
AcDbEntity
  8
0
100
AcDbLine
 62
7
  6
CONTINUOUS
 10
63.9710413837
 20
251.3598068113
 11
63.9710411496
 21
253.2527732452
  0
LINE
  5
3C9
100
AcDbEntity
  8
0
100
AcDbLine
 62
7
  6
CONTINUOUS
 10
66.6932618285
 20
256.706641603
 11
66.6932618285
 21
257.0178502643
  0
LINE
  5
3CA
100
AcDbEntity
  8
0
100
AcDbLine
 62
7
  6
CONTINUOUS
 10
67.5065900059
 20
249.347598769
 11
67.5065897753
 21
251.2115694726
  0
LINE
  5
3CB
100
AcDbEntity
  8
0
100
AcDbLine
 62
7
  6
CONTINUOUS
 10
68.1852647617
 20
266.27630037
 11
68.1852647617
 21
265.7329278339
  0
LINE
  5
3CC
100
AcDbEntity
  8
0
100
AcDbLine
 62
7
  6
CONTINUOUS
 10
68.1852647617
 20
257.8792534175
 11
68.1852647617
 21
257.5680447562
  0
LINE
  5
3CD
100
AcDbEntity
  8
0
100
AcDbLine
 62
7
  6
CONTINUOUS
 10
69.6984828897
 20
262.5241379736
 11
69.6984798612
 21
262.9514268238
  0
LINE
  5
3CE
100
AcDbEntity
  8
0
100
AcDbLine
 62
7
  6
CONTINUOUS
 10
65.231532483
 20
246.895583171
 11
65.1204486675
 21
239.6111942367
  0
LINE
  5
3CF
100
AcDbEntity
  8
0
100
AcDbLine
 62
7
  6
CONTINUOUS
 10
68.7670811087
 20
244.8543793984
 11
68.6559972933
 21
237.5699904641
  0
LINE
  5
3D0
100
AcDbEntity
  8
0
100
AcDbLine
 62
7
  6
CONTINUOUS
 10
58.8246058194
 20
48.1019408752
 11
58.9634685212
 21
55.3702920248
  0
LINE
  5
3D1
100
AcDbEntity
  8
0
100
AcDbLine
 62
7
  6
CONTINUOUS
 10
60.7920274732
 20
53.4777539232
 11
60.7376302143
 21
50.6500196048
  0
LINE
  5
3D2
100
AcDbEntity
  8
0
100
AcDbLine
 62
7
  6
CONTINUOUS
 10
62.3601544452
 20
46.0607371026
 11
62.499017147
 21
53.3290882522
  0
LINE
  5
3D3
100
AcDbEntity
  8
0
100
AcDbLine
 62
7
  6
CONTINUOUS
 10
64.3396082484
 20
50.7928702043
 11
64.2985457694
 21
48.6583181467
  0
LINE
  5
3D4
100
AcDbEntity
  8
0
100
AcDbLine
 62
7
  6
CONTINUOUS
 10
65.8957030709
 20
44.01953333
 11
66.0345657727
 21
51.2878844796
  0
LINE
  5
3D5
100
AcDbEntity
  8
0
100
AcDbLine
 62
7
  6
CONTINUOUS
 10
67.8871890235
 20
48.1079864854
 11
67.8594613245
 21
46.6666166886
  0
LINE
  5
3D6
100
AcDbEntity
  8
0
100
AcDbLine
 62
7
  6
CONTINUOUS
 10
45.9217073502
 20
86.2799815433
 11
47.1206528737
 21
91.1623341092
  0
LINE
  5
3D7
100
AcDbEntity
  8
0
100
AcDbLine
 62
7
  6
CONTINUOUS
 10
99.1851360483
 20
228.9258884107
 11
98.4903748572
 21
227.6940159708
  0
LINE
  5
3D8
100
AcDbEntity
  8
0
100
AcDbLine
 62
7
  6
CONTINUOUS
 10
100.0319651784
 20
226.7608894336
 11
100.7268955868
 21
227.9927785868
  0
LINE
  5
3D9
100
AcDbEntity
  8
0
100
AcDbLine
 62
7
  6
CONTINUOUS
 10
46.1116733633
 20
163.9380605384
 11
45.7240318316
 21
163.7142569316
  0
LINE
  5
3DA
100
AcDbEntity
  8
0
100
AcDbLine
 62
7
  6
CONTINUOUS
 10
46.4058308777
 20
162.5187514044
 11
46.4983963155
 21
162.5721937658
  0
LINE
  5
3DB
100
AcDbEntity
  8
0
100
AcDbLine
 62
7
  6
CONTINUOUS
 10
106.7136312751
 20
107.6041843238
 11
106.6744699693
 21
107.6046810278
  0
LINE
  5
3DC
100
AcDbEntity
  8
0
100
AcDbLine
 62
7
  6
CONTINUOUS
 10
106.748926813
 20
105.1406994351
 11
106.6180738932
 21
105.1533093295
  0
LINE
  5
3DD
100
AcDbEntity
  8
0
100
AcDbLine
 62
7
  6
CONTINUOUS
 10
106.8578569639
 20
103.0328852934
 11
106.7534404822
 21
103.0931688134
  0
LINE
  5
3DE
100
AcDbEntity
  8
0
100
AcDbLine
 62
7
  6
CONTINUOUS
 10
107.3450801797
 20
103.0165861038
 11
107.1683027484
 21
103.1186462924
  0
LINE
  5
3DF
100
AcDbEntity
  8
0
100
AcDbLine
 62
7
  6
CONTINUOUS
 10
107.1626459506
 20
103.8019495099
 11
106.6379763425
 21
104.1048607966
  0
LINE
  5
3E0
100
AcDbEntity
  8
0
100
AcDbLine
 62
7
  6
CONTINUOUS
 10
107.9708656365
 20
105.1333925809
 11
108.3833474171
 21
104.8952515013
  0
LINE
  5
3E1
100
AcDbEntity
  8
0
100
AcDbLine
 62
7
  6
CONTINUOUS
 10
109.048489686
 20
57.7586016735
 11
108.994607925
 21
57.8519271031
  0
LINE
  5
3E2
100
AcDbEntity
  8
0
100
AcDbLine
 62
7
  6
CONTINUOUS
 10
110.7906516715
 20
56.5971899198
 11
110.9702575417
 21
56.2861051542
  0
LINE
  5
3E3
100
AcDbEntity
  8
0
100
AcDbLine
 62
7
  6
CONTINUOUS
 10
114.7599084896
 20
58.7643945565
 11
114.8371397279
 21
58.6306268703
  0
LINE
  5
3E4
100
AcDbEntity
  8
0
100
AcDbLine
 62
7
  6
CONTINUOUS
 10
51.311379587
 20
217.5593083519
 11
51.1370343461
 21
218.8911085224
  0
LINE
  5
3E5
100
AcDbEntity
  8
0
100
AcDbLine
 62
7
  6
CONTINUOUS
 10
74.9184084178
 20
46.1589115699
 11
75.0572711196
 21
38.7302192111
  0
LINE
  5
3E6
100
AcDbEntity
  8
0
100
AcDbLine
 62
7
  6
CONTINUOUS
 10
78.4539570435
 20
44.1177077973
 11
78.5928197454
 21
36.6890154385
  0
LINE
  5
3E7
100
AcDbEntity
  8
0
100
AcDbLine
 62
7
  6
CONTINUOUS
 10
70.3170696668
 20
236.6109915776
 11
70.2059858514
 21
244.0236461516
  0
LINE
  5
3E8
100
AcDbEntity
  8
0
100
AcDbLine
 62
7
  6
CONTINUOUS
 10
73.8526182926
 20
234.569787805
 11
73.7415344771
 21
241.982442379
  0
LINE
  5
3E9
100
AcDbEntity
  8
0
100
AcDbLine
 62
7
  6
CONTINUOUS
 10
77.3881669183
 20
232.5285840324
 11
77.2770831028
 21
239.9412386064
  0
LINE
  5
3EA
100
AcDbEntity
  8
0
100
AcDbLine
 62
7
  6
CONTINUOUS
 10
72.0471882246
 20
243.0315338218
 11
72.1268951847
 21
237.6558885903
  0
LINE
  5
3EB
100
AcDbEntity
  8
0
100
AcDbLine
 62
7
  6
CONTINUOUS
 10
75.5452853439
 20
240.9977032733
 11
75.6254185867
 21
235.5933084224
  0
LINE
  5
3EC
100
AcDbEntity
  8
0
100
AcDbLine
 62
7
  6
CONTINUOUS
 10
71.042138628
 20
247.3353907267
 11
71.042138401
 21
249.1703657
  0
LINE
  5
3ED
100
AcDbEntity
  8
0
100
AcDbLine
 62
7
  6
CONTINUOUS
 10
71.2611933614
 20
269.9582703617
 11
71.2611935972
 21
268.0521781106
  0
LINE
  5
3EE
100
AcDbEntity
  8
0
100
AcDbLine
 62
7
  6
CONTINUOUS
 10
73.436233887
 20
244.2699089424
 11
73.436233887
 21
244.6641682117
  0
LINE
  5
3EF
100
AcDbEntity
  8
0
100
AcDbLine
 62
7
  6
CONTINUOUS
 10
74.5776872502
 20
245.3231826844
 11
74.5776870268
 21
247.1291619274
  0
LINE
  5
3F0
100
AcDbEntity
  8
0
100
AcDbLine
 62
7
  6
CONTINUOUS
 10
74.7967419871
 20
267.9170665891
 11
74.7967422373
 21
265.8948924089
  0
LINE
  5
3F1
100
AcDbEntity
  8
0
100
AcDbLine
 62
7
  6
CONTINUOUS
 10
77.2999415024
 20
242.4181667199
 11
77.2999415024
 21
242.8414217215
  0
LINE
  5
3F2
100
AcDbEntity
  8
0
100
AcDbLine
 62
7
  6
CONTINUOUS
 10
78.1132358723
 20
243.3109746421
 11
78.1132356525
 21
245.0879581548
  0
LINE
  5
3F3
100
AcDbEntity
  8
0
100
AcDbLine
 62
7
  6
CONTINUOUS
 10
78.3322906129
 20
265.8758628165
 11
78.3322908774
 21
263.7376067072
  0
LINE
  5
3F4
100
AcDbEntity
  8
0
100
AcDbLine
 62
7
  6
CONTINUOUS
 10
72.3026297345
 20
242.8131756258
 11
72.191545919
 21
235.5287866915
  0
LINE
  5
3F5
100
AcDbEntity
  8
0
100
AcDbLine
 62
7
  6
CONTINUOUS
 10
75.8381783602
 20
240.7719718532
 11
75.7270945447
 21
233.4875829189
  0
LINE
  5
3F6
100
AcDbEntity
  8
0
100
AcDbLine
 62
7
  6
CONTINUOUS
 10
79.3737269859
 20
238.7307680806
 11
79.2626431705
 21
231.4463791463
  0
LINE
  5
3F7
100
AcDbEntity
  8
0
100
AcDbLine
 62
7
  6
CONTINUOUS
 10
69.4312516966
 20
41.9783295574
 11
69.5701143984
 21
49.246680707
  0
LINE
  5
3F8
100
AcDbEntity
  8
0
100
AcDbLine
 62
7
  6
CONTINUOUS
 10
72.9668003224
 20
39.9371257848
 11
73.1056630242
 21
47.2054769344
  0
LINE
  5
3F9
100
AcDbEntity
  8
0
100
AcDbLine
 62
7
  6
CONTINUOUS
 10
76.5023489481
 20
37.8959220122
 11
76.6412116499
 21
45.1642731618
  0
LINE
  5
3FA
100
AcDbEntity
  8
0
100
AcDbLine
 62
7
  6
CONTINUOUS
 10
40.6479683877
 20
147.9524490221
 11
40.495034749
 21
147.8641532717
  0
LINE
  5
3FB
100
AcDbEntity
  8
0
100
AcDbLine
 62
7
  6
CONTINUOUS
 10
46.4983963155
 20
145.8771903776
 11
46.4058308777
 21
145.8237480162
  0
LINE
  5
3FC
100
AcDbEntity
  8
0
100
AcDbLine
 62
7
  6
CONTINUOUS
 10
111.2393204646
 20
117.8020225905
 11
111.3192315011
 21
117.8146771198
  0
LINE
  5
3FD
100
AcDbEntity
  8
0
100
AcDbLine
 62
7
  6
CONTINUOUS
 10
102.6853350757
 20
117.2157793894
 11
109.2261000333
 21
117.8000753955
  0
LINE
  5
3FE
100
AcDbEntity
  8
0
100
AcDbLine
 62
7
  6
CONTINUOUS
 10
106.7136312751
 20
115.8998488818
 11
106.6744741586
 21
115.9003446067
  0
LINE
  5
3FF
100
AcDbEntity
  8
0
100
AcDbLine
 62
7
  6
CONTINUOUS
 10
106.748926813
 20
113.4363639932
 11
106.6180738932
 21
113.4489738876
  0
LINE
  5
400
100
AcDbEntity
  8
0
100
AcDbLine
 62
7
  6
CONTINUOUS
 10
111.1423602388
 20
117.8172510984
 11
111.2393204646
 21
117.8020225905
  0
LINE
  5
401
100
AcDbEntity
  8
0
100
AcDbLine
 62
7
  6
CONTINUOUS
 10
111.7940080764
 20
113.3266460651
 11
109.0593523743
 21
113.809336149
  0
LINE
  5
402
100
AcDbEntity
  8
0
100
AcDbLine
 62
7
  6
CONTINUOUS
 10
109.444503524
 20
114.0317019416
 11
111.7940080764
 21
113.6169943246
  0
LINE
  5
403
100
AcDbEntity
  8
0
100
AcDbLine
 62
7
  6
CONTINUOUS
 10
111.2584096756
 20
113.92621521
 11
109.6363819869
 21
114.2125169483
  0
LINE
  5
404
100
AcDbEntity
  8
0
100
AcDbLine
 62
7
  6
CONTINUOUS
 10
111.7940080764
 20
114.1562125209
 11
109.8177302688
 21
114.5050424303
  0
LINE
  5
405
100
AcDbEntity
  8
0
100
AcDbLine
 62
7
  6
CONTINUOUS
 10
109.866660742
 20
114.7867540434
 11
111.7940080764
 21
114.4465607804
  0
LINE
  5
406
100
AcDbEntity
  8
0
100
AcDbLine
 62
7
  6
CONTINUOUS
 10
111.2584096756
 20
114.7557816658
 11
109.9528545131
 21
114.9862233007
  0
LINE
  5
407
100
AcDbEntity
  8
0
100
AcDbLine
 62
7
  6
CONTINUOUS
 10
111.7940080764
 20
114.9857789767
 11
109.9589616976
 21
115.3096803328
  0
LINE
  5
408
100
AcDbEntity
  8
0
100
AcDbLine
 62
7
  6
CONTINUOUS
 10
110.0086622121
 20
115.5912560271
 11
111.7940080764
 21
115.2761272362
  0
LINE
  5
409
100
AcDbEntity
  8
0
100
AcDbLine
 62
7
  6
CONTINUOUS
 10
111.2584096756
 20
115.5853481216
 11
109.9810651743
 21
115.8108103339
  0
LINE
  5
40A
100
AcDbEntity
  8
0
100
AcDbLine
 62
7
  6
CONTINUOUS
 10
111.7940080764
 20
115.8153454325
 11
109.9565178583
 21
116.1396781471
  0
LINE
  5
40B
100
AcDbEntity
  8
0
100
AcDbLine
 62
7
  6
CONTINUOUS
 10
109.8948759677
 20
116.4409067268
 11
111.7940080764
 21
116.105693692
  0
LINE
  5
40C
100
AcDbEntity
  8
0
100
AcDbLine
 62
7
  6
CONTINUOUS
 10
111.2584096756
 20
116.4149145774
 11
109.8492980194
 21
116.6636348178
  0
LINE
  5
40D
100
AcDbEntity
  8
0
100
AcDbLine
 62
7
  6
CONTINUOUS
 10
111.7940080764
 20
116.6449118883
 11
109.7485786455
 21
117.0059476497
  0
LINE
  5
40E
100
AcDbEntity
  8
0
100
AcDbLine
 62
7
  6
CONTINUOUS
 10
110.1249640898
 20
117.2298606642
 11
111.7940080764
 21
116.9352601478
  0
LINE
  5
40F
100
AcDbEntity
  8
0
100
AcDbLine
 62
7
  6
CONTINUOUS
 10
111.2584096756
 20
117.2444810332
 11
110.4097444398
 21
117.3942776945
  0
LINE
  5
410
100
AcDbEntity
  8
0
100
AcDbLine
 62
7
  6
CONTINUOUS
 10
111.7940080764
 20
117.4744783441
 11
110.8402447964
 21
117.6428257076
  0
LINE
  5
411
100
AcDbEntity
  8
0
100
AcDbLine
 62
7
  6
CONTINUOUS
 10
111.3642784266
 20
117.8406775565
 11
111.7940080764
 21
117.7648266036
  0
LINE
  5
412
100
AcDbEntity
  8
0
100
AcDbLine
 62
7
  6
CONTINUOUS
 10
108.7377352617
 20
109.9991400733
 11
109.2977023171
 21
109.7347860789
  0
LINE
  5
413
100
AcDbEntity
  8
0
100
AcDbLine
 62
7
  6
CONTINUOUS
 10
109.2851489339
 20
109.9010659096
 11
108.7251818762
 21
110.165419905
  0
LINE
  5
414
100
AcDbEntity
  8
0
100
AcDbLine
 62
7
  6
CONTINUOUS
 10
110.341621248
 20
111.0986660408
 11
110.9015883048
 21
110.8343120458
  0
LINE
  5
415
100
AcDbEntity
  8
0
100
AcDbLine
 62
7
  6
CONTINUOUS
 10
45.7240318316
 20
145.3884866855
 11
41.9092541993
 21
147.2884395777
  0
LINE
  5
416
100
AcDbEntity
  8
0
100
AcDbLine
 62
7
  6
CONTINUOUS
 10
40.5073763524
 20
148.0264643153
 11
41.9092541993
 21
147.2884395777
  0
LINE
  5
417
100
AcDbEntity
  8
0
100
AcDbLine
 62
7
  6
CONTINUOUS
 10
46.4983963155
 20
144.5191896178
 11
40.495034749
 21
147.8641532717
  0
LINE
  5
418
100
AcDbEntity
  8
0
100
AcDbLine
 62
7
  6
CONTINUOUS
 10
107.1626459506
 20
108.4682608238
 11
107.0243494306
 21
108.5481045506
  0
LINE
  5
419
100
AcDbEntity
  8
0
100
AcDbLine
 62
7
  6
CONTINUOUS
 10
108.3833474171
 20
108.1512998403
 11
107.9708656365
 21
108.3894409199
  0
LINE
  5
41A
100
AcDbEntity
  8
0
100
AcDbLine
 62
7
  6
CONTINUOUS
 10
107.9708656365
 20
108.9348838917
 11
107.8325691165
 21
109.0147276184
  0
LINE
  5
41B
100
AcDbEntity
  8
0
100
AcDbLine
 62
7
  6
CONTINUOUS
 10
110.7906516715
 20
108.036842199
 11
109.6854526237
 21
108.6749147316
  0
LINE
  5
41C
100
AcDbEntity
  8
0
100
AcDbLine
 62
7
  6
CONTINUOUS
 10
111.2450522349
 20
107.8740396958
 11
111.3833487549
 21
107.794195969
  0
LINE
  5
41D
100
AcDbEntity
  8
0
100
AcDbLine
 62
7
  6
CONTINUOUS
 10
108.4671054842
 20
109.5339086845
 11
109.6226176022
 21
108.8667885444
  0
LINE
  5
41E
100
AcDbEntity
  8
0
100
AcDbLine
 62
7
  6
CONTINUOUS
 10
108.994607925
 20
109.2915793823
 11
108.4671054842
 21
109.5961261687
  0
LINE
  5
41F
100
AcDbEntity
  8
0
100
AcDbLine
 62
7
  6
CONTINUOUS
 10
108.2582299889
 20
109.7789570218
 11
107.4500117985
 21
110.2455714554
  0
LINE
  5
420
100
AcDbEntity
  8
0
100
AcDbLine
 62
7
  6
CONTINUOUS
 10
107.4500117985
 20
110.7017979558
 11
109.4436188616
 21
109.55081442
  0
LINE
  5
421
100
AcDbEntity
  8
0
100
AcDbLine
 62
7
  6
CONTINUOUS
 10
109.6117336654
 20
110.6772677639
 11
107.4500117985
 21
111.9253102312
  0
LINE
  5
422
100
AcDbEntity
  8
0
100
AcDbLine
 62
7
  6
CONTINUOUS
 10
107.1626459506
 20
112.4087014889
 11
107.0243494306
 21
112.4885452156
  0
LINE
  5
423
100
AcDbEntity
  8
0
100
AcDbLine
 62
7
  6
CONTINUOUS
 10
109.8901275749
 20
110.837997603
 11
107.4500117985
 21
112.2467672328
  0
LINE
  5
424
100
AcDbEntity
  8
0
100
AcDbLine
 62
7
  6
CONTINUOUS
 10
116.6434941671
 20
108.5891179543
 11
116.8202715984
 21
108.4870577657
  0
LINE
  5
425
100
AcDbEntity
  8
0
100
AcDbLine
 62
7
  6
CONTINUOUS
 10
107.9708656365
 20
113.6571879143
 11
108.3833474171
 21
113.4190468347
  0
LINE
  5
426
100
AcDbEntity
  8
0
100
AcDbLine
 62
7
  6
CONTINUOUS
 10
114.409680718
 20
110.0018443029
 11
109.596243397
 21
112.780820767
  0
LINE
  5
427
100
AcDbEntity
  8
0
100
AcDbLine
 62
7
  6
CONTINUOUS
 10
116.265108529
 20
109.0324700661
 11
116.8134605651
 21
108.7158860325
  0
LINE
  5
428
100
AcDbEntity
  8
0
100
AcDbLine
 62
7
  6
CONTINUOUS
 10
114.975436248
 20
109.8680762706
 11
114.8371397279
 21
109.9479199974
  0
LINE
  5
429
100
AcDbEntity
  8
0
100
AcDbLine
 62
7
  6
CONTINUOUS
 10
109.596243397
 20
113.2474399495
 11
108.8411723106
 21
113.6833705824
  0
LINE
  5
42A
100
AcDbEntity
  8
0
100
AcDbLine
 62
7
  6
CONTINUOUS
 10
117.2091772369
 20
109.3039160371
 11
116.2865481829
 21
109.8365841192
  0
LINE
  5
42B
100
AcDbEntity
  8
0
100
AcDbLine
 62
7
  6
CONTINUOUS
 10
114.409680718
 20
111.2358244059
 11
112.1466467537
 21
112.5423581166
  0
LINE
  5
42C
100
AcDbEntity
  8
0
100
AcDbLine
 62
7
  6
CONTINUOUS
 10
117.5273754356
 20
109.7118043367
 11
117.3505980043
 21
109.8138645253
  0
LINE
  5
42D
100
AcDbEntity
  8
0
100
AcDbLine
 62
7
  6
CONTINUOUS
 10
114.813790561
 20
111.4691359398
 11
112.5507565967
 21
112.7756696506
  0
LINE
  5
42E
100
AcDbEntity
  8
0
100
AcDbLine
 62
7
  6
CONTINUOUS
 10
111.2584096756
 20
113.92621521
 11
111.7940080764
 21
113.6169943246
  0
LINE
  5
42F
100
AcDbEntity
  8
0
100
AcDbLine
 62
7
  6
CONTINUOUS
 10
107.1626459506
 20
117.0750128027
 11
106.939516467
 21
117.2038337558
  0
LINE
  5
430
100
AcDbEntity
  8
0
100
AcDbLine
 62
7
  6
CONTINUOUS
 10
111.2584096756
 20
114.7557816658
 11
111.7940080764
 21
114.4465607804
  0
LINE
  5
431
100
AcDbEntity
  8
0
100
AcDbLine
 62
7
  6
CONTINUOUS
 10
108.3833474171
 20
116.6750951737
 11
107.9708656365
 21
116.9132362533
  0
LINE
  5
432
100
AcDbEntity
  8
0
100
AcDbLine
 62
7
  6
CONTINUOUS
 10
106.6379763425
 20
105.329530814
 11
106.7105419116
 21
105.266256125
  0
LINE
  5
433
100
AcDbEntity
  8
0
100
AcDbLine
 62
7
  6
CONTINUOUS
 10
106.6739579679
 20
105.5376236375
 11
106.7136312751
 21
105.496002979
  0
LINE
  5
434
100
AcDbEntity
  8
0
100
AcDbLine
 62
7
  6
CONTINUOUS
 10
109.048489686
 20
74.9051524332
 11
108.994607925
 21
74.9984778629
  0
LINE
  5
435
100
AcDbEntity
  8
0
100
AcDbLine
 62
7
  6
CONTINUOUS
 10
110.7906516715
 20
73.7437406795
 11
110.9702575417
 21
73.4326559139
  0
LINE
  5
436
100
AcDbEntity
  8
0
100
AcDbLine
 62
7
  6
CONTINUOUS
 10
114.7599084896
 20
75.9109453162
 11
114.8371397279
 21
75.7771776301
  0
LINE
  5
437
100
AcDbEntity
  8
0
100
AcDbLine
 62
7
  6
CONTINUOUS
 10
81.9895056693
 20
42.0765040247
 11
82.1283683711
 21
34.6478116659
  0
LINE
  5
438
100
AcDbEntity
  8
0
100
AcDbLine
 62
7
  6
CONTINUOUS
 10
85.525054295
 20
40.0353002521
 11
85.6793461859
 21
31.7811976312
  0
LINE
  5
439
100
AcDbEntity
  8
0
100
AcDbLine
 62
7
  6
CONTINUOUS
 10
80.923715544
 20
230.4873802598
 11
80.8126317286
 21
237.9000348338
  0
LINE
  5
43A
100
AcDbEntity
  8
0
100
AcDbLine
 62
7
  6
CONTINUOUS
 10
84.4592641698
 20
228.4461764872
 11
84.3481803543
 21
235.8588310612
  0
LINE
  5
43B
100
AcDbEntity
  8
0
100
AcDbLine
 62
7
  6
CONTINUOUS
 10
87.9948127955
 20
226.4049727146
 11
87.88372898
 21
233.8176272886
  0
LINE
  5
43C
100
AcDbEntity
  8
0
100
AcDbLine
 62
7
  6
CONTINUOUS
 10
79.0433824631
 20
238.9638727248
 11
79.1239419887
 21
233.5307282545
  0
LINE
  5
43D
100
AcDbEntity
  8
0
100
AcDbLine
 62
7
  6
CONTINUOUS
 10
82.5414795823
 20
236.9300421763
 11
82.6224653906
 21
231.4681480866
  0
LINE
  5
43E
100
AcDbEntity
  8
0
100
AcDbLine
 62
7
  6
CONTINUOUS
 10
85.2973486917
 20
263.4102597474
 11
85.2951384254
 21
263.5590611411
  0
LINE
  5
43F
100
AcDbEntity
  8
0
100
AcDbLine
 62
7
  6
CONTINUOUS
 10
86.0395767015
 20
234.8962116277
 11
86.1209887926
 21
229.4055679187
  0
LINE
  5
440
100
AcDbEntity
  8
0
100
AcDbLine
 62
7
  6
CONTINUOUS
 10
80.8354606885
 20
240.3769459504
 11
80.8354606885
 21
240.8291966844
  0
LINE
  5
441
100
AcDbEntity
  8
0
100
AcDbLine
 62
7
  6
CONTINUOUS
 10
81.1890126071
 20
248.7459511051
 11
81.1890126071
 21
249.1402103743
  0
LINE
  5
442
100
AcDbEntity
  8
0
100
AcDbLine
 62
7
  6
CONTINUOUS
 10
81.6487844945
 20
241.2987665998
 11
81.6487842782
 21
243.0467543822
  0
LINE
  5
443
100
AcDbEntity
  8
0
100
AcDbLine
 62
7
  6
CONTINUOUS
 10
81.8678395036
 20
261.6924663458
 11
81.8678392694
 21
263.5854327797
  0
LINE
  5
444
100
AcDbEntity
  8
0
100
AcDbLine
 62
7
  6
CONTINUOUS
 10
85.1843331166
 20
239.2865585575
 11
85.184332904
 21
241.0055506096
  0
LINE
  5
445
100
AcDbEntity
  8
0
100
AcDbLine
 62
7
  6
CONTINUOUS
 10
85.4033881258
 20
259.6802583035
 11
85.4033878952
 21
261.5442290071
  0
LINE
  5
446
100
AcDbEntity
  8
0
100
AcDbLine
 62
7
  6
CONTINUOUS
 10
88.7198817388
 20
237.2743505152
 11
88.7198815297
 21
238.964346837
  0
LINE
  5
447
100
AcDbEntity
  8
0
100
AcDbLine
 62
7
  6
CONTINUOUS
 10
88.9389367479
 20
257.6680502612
 11
88.9389365209
 21
259.5030252345
  0
LINE
  5
448
100
AcDbEntity
  8
0
100
AcDbLine
 62
7
  6
CONTINUOUS
 10
82.9092756117
 20
236.689564308
 11
82.7981917962
 21
229.4051753737
  0
LINE
  5
449
100
AcDbEntity
  8
0
100
AcDbLine
 62
7
  6
CONTINUOUS
 10
86.4448242374
 20
234.6483605354
 11
86.3337404219
 21
227.3639716011
  0
LINE
  5
44A
100
AcDbEntity
  8
0
100
AcDbLine
 62
7
  6
CONTINUOUS
 10
89.9803728632
 20
232.6071567628
 11
89.8692890477
 21
225.3227678285
  0
LINE
  5
44B
100
AcDbEntity
  8
0
100
AcDbLine
 62
7
  6
CONTINUOUS
 10
80.0378975738
 20
35.8547182396
 11
80.1767602756
 21
43.1230693892
  0
LINE
  5
44C
100
AcDbEntity
  8
0
100
AcDbLine
 62
7
  6
CONTINUOUS
 10
83.5734461996
 20
33.813514467
 11
83.7123089014
 21
41.0818656166
  0
LINE
  5
44D
100
AcDbEntity
  8
0
100
AcDbLine
 62
7
  6
CONTINUOUS
 10
46.1951037914
 20
145.3638748949
 11
46.4983963155
 21
145.5389798701
  0
LINE
  5
44E
100
AcDbEntity
  8
0
100
AcDbLine
 62
7
  6
CONTINUOUS
 10
109.4134790174
 20
178.8479074935
 11
109.2755937692
 21
178.7682998835
  0
LINE
  5
44F
100
AcDbEntity
  8
0
100
AcDbLine
 62
7
  6
CONTINUOUS
 10
109.2755937692
 20
177.788496983
 11
109.4134790174
 21
177.868104593
  0
LINE
  5
450
100
AcDbEntity
  8
0
100
AcDbLine
 62
7
  6
CONTINUOUS
 10
109.4488351146
 20
175.724785918
 11
109.2755937692
 21
175.6247655776
  0
LINE
  5
451
100
AcDbEntity
  8
0
100
AcDbLine
 62
7
  6
CONTINUOUS
 10
108.8018341982
 20
173.779861079
 11
109.6857213547
 21
174.2901705205
  0
LINE
  5
452
100
AcDbEntity
  8
0
100
AcDbLine
 62
7
  6
CONTINUOUS
 10
109.2261000333
 20
173.5263653646
 11
110.018076611
 21
173.9836105256
  0
LINE
  5
453
100
AcDbEntity
  8
0
100
AcDbLine
 62
7
  6
CONTINUOUS
 10
110.2418252724
 20
124.6706702559
 11
110.4918156075
 21
124.6954248049
  0
LINE
  5
454
100
AcDbEntity
  8
0
100
AcDbLine
 62
7
  6
CONTINUOUS
 10
111.2584096756
 20
115.5853481216
 11
111.7940080764
 21
115.2761272362
  0
LINE
  5
455
100
AcDbEntity
  8
0
100
AcDbLine
 62
7
  6
CONTINUOUS
 10
111.2584096756
 20
116.4149145774
 11
111.7940080764
 21
116.105693692
  0
LINE
  5
456
100
AcDbEntity
  8
0
100
AcDbLine
 62
7
  6
CONTINUOUS
 10
109.6226176022
 20
117.3905838778
 11
109.1742137951
 21
117.6494640798
  0
LINE
  5
457
100
AcDbEntity
  8
0
100
AcDbLine
 62
7
  6
CONTINUOUS
 10
111.2584096756
 20
117.2444810332
 11
111.7940080764
 21
116.9352601478
  0
LINE
  5
458
100
AcDbEntity
  8
0
100
AcDbLine
 62
7
  6
CONTINUOUS
 10
111.5134516712
 20
117.9268022553
 11
111.7940080764
 21
117.7648266036
  0
LINE
  5
459
100
AcDbEntity
  8
0
100
AcDbLine
 62
7
  6
CONTINUOUS
 10
114.409680718
 20
118.4945308942
 11
113.362556769
 21
119.0990745114
  0
LINE
  5
45A
100
AcDbEntity
  8
0
100
AcDbLine
 62
7
  6
CONTINUOUS
 10
116.5918756198
 20
120.4450324551
 11
116.2865481829
 21
120.6213093451
  0
LINE
  5
45B
100
AcDbEntity
  8
0
100
AcDbLine
 62
7
  6
CONTINUOUS
 10
110.1736191752
 20
124.4708906902
 11
109.9614862576
 21
124.5933629165
  0
LINE
  5
45C
100
AcDbEntity
  8
0
100
AcDbLine
 62
7
  6
CONTINUOUS
 10
110.065042418
 20
124.7727210512
 11
110.2418198493
 21
124.6706608626
  0
LINE
  5
45D
100
AcDbEntity
  8
0
100
AcDbLine
 62
7
  6
CONTINUOUS
 10
110.1382636889
 20
124.8995539365
 11
109.9614862576
 21
125.0016141251
  0
LINE
  5
45E
100
AcDbEntity
  8
0
100
AcDbLine
 62
7
  6
CONTINUOUS
 10
115.8954119647
 20
122.5684862612
 11
116.2865481829
 21
122.342668769
  0
LINE
  5
45F
100
AcDbEntity
  8
0
100
AcDbLine
 62
7
  6
CONTINUOUS
 10
40.495034749
 20
167.2939607782
 11
46.4983963155
 21
163.7069964204
  0
LINE
  5
460
100
AcDbEntity
  8
0
100
AcDbLine
 62
7
  6
CONTINUOUS
 10
41.9092541992
 20
166.0679951717
 11
45.7240318316
 21
163.7142569316
  0
LINE
  5
461
100
AcDbEntity
  8
0
100
AcDbLine
 62
7
  6
CONTINUOUS
 10
41.9092541993
 20
166.0679951717
 11
40.5073763524
 21
166.9771842232
  0
LINE
  5
462
100
AcDbEntity
  8
0
100
AcDbLine
 62
7
  6
CONTINUOUS
 10
106.6379763425
 20
113.625195372
 11
106.7105419116
 21
113.561920683
  0
LINE
  5
463
100
AcDbEntity
  8
0
100
AcDbLine
 62
7
  6
CONTINUOUS
 10
109.8418257819
 20
109.3390858035
 11
111.1920202691
 21
107.9921114115
  0
LINE
  5
464
100
AcDbEntity
  8
0
100
AcDbLine
 62
7
  6
CONTINUOUS
 10
111.2393204647
 20
108.1148642129
 11
109.8891259774
 21
109.461838605
  0
LINE
  5
465
100
AcDbEntity
  8
0
100
AcDbLine
 62
7
  6
CONTINUOUS
 10
111.5055653497
 20
110.3950847404
 11
112.8557598365
 21
109.0481103488
  0
LINE
  5
466
100
AcDbEntity
  8
0
100
AcDbLine
 62
7
  6
CONTINUOUS
 10
106.6739579679
 20
113.8332881955
 11
106.7136312751
 21
113.7916675371
  0
LINE
  5
467
100
AcDbEntity
  8
0
100
AcDbLine
 62
7
  6
CONTINUOUS
 10
109.048489686
 20
109.1982539526
 11
108.994607925
 21
109.2915793823
  0
LINE
  5
468
100
AcDbEntity
  8
0
100
AcDbLine
 62
7
  6
CONTINUOUS
 10
117.3202522686
 20
71.712307851
 11
117.5273754356
 21
71.2545404899
  0
LINE
  5
469
100
AcDbEntity
  8
0
100
AcDbLine
 62
7
  6
CONTINUOUS
 10
88.1115661212
 20
267.4394549226
 11
88.1479582046
 21
265.0110008531
  0
LINE
  5
46A
100
AcDbEntity
  8
0
100
AcDbLine
 62
7
  6
CONTINUOUS
 10
91.5303614212
 20
224.363768942
 11
91.4192776058
 21
231.776423516
  0
LINE
  5
46B
100
AcDbEntity
  8
0
100
AcDbLine
 62
7
  6
CONTINUOUS
 10
91.6594573931
 20
264.574622864
 11
91.6835068304
 21
262.9697970805
  0
LINE
  5
46C
100
AcDbEntity
  8
0
100
AcDbLine
 62
7
  6
CONTINUOUS
 10
95.065910047
 20
222.3225651694
 11
94.9548262315
 21
229.7352197434
  0
LINE
  5
46D
100
AcDbEntity
  8
0
100
AcDbLine
 62
7
  6
CONTINUOUS
 10
95.1950060188
 20
262.5334190914
 11
95.2190554561
 21
260.9285933079
  0
LINE
  5
46E
100
AcDbEntity
  8
0
100
AcDbLine
 62
7
  6
CONTINUOUS
 10
89.5376738208
 20
232.8623810792
 11
89.6195121945
 21
227.3429877508
  0
LINE
  5
46F
100
AcDbEntity
  8
0
100
AcDbLine
 62
7
  6
CONTINUOUS
 10
93.03577094
 20
230.8285505307
 11
93.1180355965
 21
225.2804075828
  0
LINE
  5
470
100
AcDbEntity
  8
0
100
AcDbLine
 62
7
  6
CONTINUOUS
 10
96.5338680592
 20
228.7947199822
 11
96.6165589985
 21
223.2178274149
  0
LINE
  5
471
100
AcDbEntity
  8
0
100
AcDbLine
 62
7
  6
CONTINUOUS
 10
92.2554303609
 20
235.2621424728
 11
92.2554301554
 21
236.9231430644
  0
LINE
  5
472
100
AcDbEntity
  8
0
100
AcDbLine
 62
7
  6
CONTINUOUS
 10
92.4744853701
 20
255.6558422189
 11
92.4744851466
 21
257.4618214619
  0
LINE
  5
473
100
AcDbEntity
  8
0
100
AcDbLine
 62
7
  6
CONTINUOUS
 10
95.7909789831
 20
233.2499344305
 11
95.7909787812
 21
234.8819392918
  0
LINE
  5
474
100
AcDbEntity
  8
0
100
AcDbLine
 62
7
  6
CONTINUOUS
 10
96.0100339922
 20
253.6436341766
 11
96.0100337724
 21
255.4206176893
  0
LINE
  5
475
100
AcDbEntity
  8
0
100
AcDbLine
 62
7
  6
CONTINUOUS
 10
93.5159214889
 20
230.5659529902
 11
93.4048376734
 21
223.2815640559
  0
LINE
  5
476
100
AcDbEntity
  8
0
100
AcDbLine
 62
7
  6
CONTINUOUS
 10
97.0514701146
 20
228.5247492176
 11
96.9403862991
 21
221.2403602833
  0
LINE
  5
477
100
AcDbEntity
  8
0
100
AcDbLine
 62
7
  6
CONTINUOUS
 10
139.4336180578
 20
189.9378877599
 11
112.5141602552
 21
172.5425285633
  0
LINE
  5
478
100
AcDbEntity
  8
0
100
AcDbLine
 62
7
  6
CONTINUOUS
 10
112.5141602552
 20
172.5425285633
 11
140.3316193233
 21
189.419338485
  0
LINE
  5
479
100
AcDbEntity
  8
0
100
AcDbLine
 62
7
  6
CONTINUOUS
 10
140.4730436235
 20
188.036042227
 11
138.2103113444
 21
186.7296609347
  0
LINE
  5
47A
100
AcDbEntity
  8
0
100
AcDbLine
 62
7
  6
CONTINUOUS
 10
130.8349680974
 20
179.1599625277
 11
135.0283258244
 21
181.5809842887
  0
LINE
  5
47B
100
AcDbEntity
  8
0
100
AcDbLine
 62
7
  6
CONTINUOUS
 10
140.0252033937
 20
182.6532641809
 11
138.559157037
 21
181.8068469747
  0
LINE
  5
47C
100
AcDbEntity
  8
0
100
AcDbLine
 62
7
  6
CONTINUOUS
 10
138.2103113444
 20
180.9311612835
 11
138.559157037
 21
181.1325662358
  0
LINE
  5
47D
100
AcDbEntity
  8
0
100
AcDbLine
 62
7
  6
CONTINUOUS
 10
140.0252033937
 20
181.978983442
 11
140.4730436235
 21
182.2375425758
  0
LINE
  5
47E
100
AcDbEntity
  8
0
100
AcDbLine
 62
7
  6
CONTINUOUS
 10
110.6544497845
 20
164.7846526726
 11
113.4360026704
 21
166.390573394
  0
LINE
  5
47F
100
AcDbEntity
  8
0
100
AcDbLine
 62
7
  6
CONTINUOUS
 10
117.3505980043
 20
122.7962529577
 11
117.5273754356
 21
122.6941927691
  0
LINE
  5
480
100
AcDbEntity
  8
0
100
AcDbLine
 62
7
  6
CONTINUOUS
 10
110.7906516715
 20
108.036842199
 11
110.9702575417
 21
107.7257574334
  0
LINE
  5
481
100
AcDbEntity
  8
0
100
AcDbLine
 62
7
  6
CONTINUOUS
 10
114.7599084896
 20
110.2040468357
 11
114.8371397279
 21
110.0702791495
  0
LINE
  5
482
100
AcDbEntity
  8
0
100
AcDbLine
 62
7
  6
CONTINUOUS
 10
117.3202522686
 20
88.8588586107
 11
117.5273754356
 21
88.4010912496
  0
LINE
  5
483
100
AcDbEntity
  8
0
100
AcDbLine
 62
7
  6
CONTINUOUS
 10
108.7251818762
 20
58.7257676258
 11
108.7377352617
 21
58.5594877941
  0
LINE
  5
484
100
AcDbEntity
  8
0
100
AcDbLine
 62
7
  6
CONTINUOUS
 10
108.7251818762
 20
75.8723183855
 11
108.7377352617
 21
75.7060385538
  0
LINE
  5
485
100
AcDbEntity
  8
0
100
AcDbLine
 62
7
  6
CONTINUOUS
 10
108.7251818762
 20
110.165419905
 11
108.7377352617
 21
109.9991400733
  0
LINE
  5
486
100
AcDbEntity
  8
0
100
AcDbLine
 62
7
  6
CONTINUOUS
 10
98.6014586727
 20
220.2813613968
 11
98.4903748572
 21
227.6940159708
  0
LINE
  5
487
100
AcDbEntity
  8
0
100
AcDbLine
 62
7
  6
CONTINUOUS
 10
98.7305546446
 20
260.4922153188
 11
98.7546040818
 21
258.8873895353
  0
LINE
  5
488
100
AcDbEntity
  8
0
100
AcDbLine
 62
7
  6
CONTINUOUS
 10
102.2661032703
 20
258.4510115462
 11
102.2901527076
 21
256.8461857626
  0
LINE
  5
489
100
AcDbEntity
  8
0
100
AcDbLine
 62
7
  6
CONTINUOUS
 10
105.801651896
 20
256.4098077736
 11
105.8257013333
 21
254.80498199
  0
LINE
  5
48A
100
AcDbEntity
  8
0
100
AcDbLine
 62
7
  6
CONTINUOUS
 10
100.0319651784
 20
226.7608894336
 11
100.1150824004
 21
221.155247247
  0
LINE
  5
48B
100
AcDbEntity
  8
0
100
AcDbLine
 62
7
  6
CONTINUOUS
 10
99.3265276052
 20
231.2377263882
 11
99.3265274069
 21
232.8407355192
  0
LINE
  5
48C
100
AcDbEntity
  8
0
100
AcDbLine
 62
7
  6
CONTINUOUS
 10
99.5455826144
 20
251.6314261342
 11
99.5455823981
 21
253.3794139167
  0
LINE
  5
48D
100
AcDbEntity
  8
0
100
AcDbLine
 62
7
  6
CONTINUOUS
 10
101.624670488
 20
115.7068050147
 11
101.624670488
 21
52.7357972056
  0
LINE
  5
48E
100
AcDbEntity
  8
0
100
AcDbLine
 62
7
  6
CONTINUOUS
 10
101.624670488
 20
25.8413782853
 11
101.624670488
 21
23.3918710339
  0
LINE
  5
48F
100
AcDbEntity
  8
0
100
AcDbLine
 62
7
  6
CONTINUOUS
 10
102.8620762274
 20
229.2255183459
 11
102.8620760326
 21
230.7995317466
  0
LINE
  5
490
100
AcDbEntity
  8
0
100
AcDbLine
 62
7
  6
CONTINUOUS
 10
103.0811312365
 20
249.6192180919
 11
103.0811310238
 21
251.3382101441
  0
LINE
  5
491
100
AcDbEntity
  8
0
100
AcDbLine
 62
7
  6
CONTINUOUS
 10
103.9982213661
 20
24.7622330924
 11
103.9982213661
 21
26.9205462995
  0
LINE
  5
492
100
AcDbEntity
  8
0
100
AcDbLine
 62
7
  6
CONTINUOUS
 10
103.9982213661
 20
54.106159264
 11
103.9982213661
 21
117.0771670731
  0
LINE
  5
493
100
AcDbEntity
  8
0
100
AcDbLine
 62
7
  6
CONTINUOUS
 10
105.0153920404
 20
30.330225751
 11
105.0153920404
 21
40.2994190704
  0
LINE
  5
494
100
AcDbEntity
  8
0
100
AcDbLine
 62
7
  6
CONTINUOUS
 10
106.6166798587
 20
247.6070100496
 11
106.6166796496
 21
249.2970063715
  0
LINE
  5
495
100
AcDbEntity
  8
0
100
AcDbLine
 62
7
  6
CONTINUOUS
 10
106.6379763425
 20
51.9851920879
 11
106.6379763425
 21
64.9675805203
  0
LINE
  5
496
100
AcDbEntity
  8
0
100
AcDbLine
 62
7
  6
CONTINUOUS
 10
106.6379763425
 20
69.1317428476
 11
106.6379763425
 21
82.11413128
  0
LINE
  5
497
100
AcDbEntity
  8
0
100
AcDbLine
 62
7
  6
CONTINUOUS
 10
106.6379763425
 20
103.4248443671
 11
106.6379763425
 21
116.4072327994
  0
LINE
  5
498
100
AcDbEntity
  8
0
100
AcDbLine
 62
7
  6
CONTINUOUS
 10
106.7136312751
 20
54.0664118135
 11
106.7136312751
 21
56.1645320446
  0
LINE
  5
499
100
AcDbEntity
  8
0
100
AcDbLine
 62
7
  6
CONTINUOUS
 10
106.7136312751
 20
62.3620763715
 11
106.7136312751
 21
64.4601966027
  0
LINE
  5
49A
100
AcDbEntity
  8
0
100
AcDbLine
 62
7
  6
CONTINUOUS
 10
106.7136312751
 20
71.2129625732
 11
106.7136312751
 21
73.3110828043
  0
LINE
  5
49B
100
AcDbEntity
  8
0
100
AcDbLine
 62
7
  6
CONTINUOUS
 10
106.7136312751
 20
79.5086271313
 11
106.7136312751
 21
81.6067473624
  0
LINE
  5
49C
100
AcDbEntity
  8
0
100
AcDbLine
 62
7
  6
CONTINUOUS
 10
106.7136312751
 20
105.5060640927
 11
106.7136312751
 21
107.6041843238
  0
LINE
  5
49D
100
AcDbEntity
  8
0
100
AcDbLine
 62
7
  6
CONTINUOUS
 10
106.7136312751
 20
113.8017286507
 11
106.7136312751
 21
115.8998488818
  0
LINE
  5
49E
100
AcDbEntity
  8
0
100
AcDbLine
 62
7
  6
CONTINUOUS
 10
107.0243494306
 20
57.1084522714
 11
107.0243494306
 21
61.0488929365
  0
LINE
  5
49F
100
AcDbEntity
  8
0
100
AcDbLine
 62
7
  6
CONTINUOUS
 10
107.0243494306
 20
74.2550030311
 11
107.0243494306
 21
78.1954436962
  0
LINE
  5
4A0
100
AcDbEntity
  8
0
100
AcDbLine
 62
7
  6
CONTINUOUS
 10
107.0243494306
 20
108.5481045506
 11
107.0243494306
 21
112.4885452156
  0
LINE
  5
4A1
100
AcDbEntity
  8
0
100
AcDbLine
 62
7
  6
CONTINUOUS
 10
107.1626459506
 20
117.0750128027
 11
107.1626459506
 21
112.4087014889
  0
LINE
  5
4A2
100
AcDbEntity
  8
0
100
AcDbLine
 62
7
  6
CONTINUOUS
 10
107.1626459506
 20
108.4682608238
 11
107.1626459506
 21
103.8019495099
  0
LINE
  5
4A3
100
AcDbEntity
  8
0
100
AcDbLine
 62
7
  6
CONTINUOUS
 10
107.1626459506
 20
82.7819112833
 11
107.1626459506
 21
78.1155999694
  0
LINE
  5
4A4
100
AcDbEntity
  8
0
100
AcDbLine
 62
7
  6
CONTINUOUS
 10
107.1626459506
 20
74.1751593043
 11
107.1626459506
 21
69.5088479904
  0
LINE
  5
4A5
100
AcDbEntity
  8
0
100
AcDbLine
 62
7
  6
CONTINUOUS
 10
107.1626459506
 20
65.6353605236
 11
107.1626459506
 21
60.9690492097
  0
LINE
  5
4A6
100
AcDbEntity
  8
0
100
AcDbLine
 62
7
  6
CONTINUOUS
 10
107.1626459506
 20
57.0286085446
 11
107.1626459506
 21
52.3622972307
  0
LINE
  5
4A7
100
AcDbEntity
  8
0
100
AcDbLine
 62
7
  6
CONTINUOUS
 10
107.2849534175
 20
38.9891168414
 11
107.2849534175
 21
29.019923522
  0
LINE
  5
4A8
100
AcDbEntity
  8
0
100
AcDbLine
 62
7
  6
CONTINUOUS
 10
107.4500117985
 20
57.4579028941
 11
107.4500117985
 21
61.134958969
  0
LINE
  5
4A9
100
AcDbEntity
  8
0
100
AcDbLine
 62
7
  6
CONTINUOUS
 10
107.4500117985
 20
74.6044536538
 11
107.4500117985
 21
78.2815097287
  0
LINE
  5
4AA
100
AcDbEntity
  8
0
100
AcDbLine
 62
7
  6
CONTINUOUS
 10
107.4500117985
 20
108.8975551733
 11
107.4500117985
 21
112.5746112481
  0
LINE
  5
4AB
100
AcDbEntity
  8
0
100
AcDbLine
 62
7
  6
CONTINUOUS
 10
107.9708656365
 20
53.399247237
 11
107.9708656365
 21
57.4952316125
  0
LINE
  5
4AC
100
AcDbEntity
  8
0
100
AcDbLine
 62
7
  6
CONTINUOUS
 10
107.9708656365
 20
61.4356722776
 11
107.9708656365
 21
65.5316566531
  0
LINE
  5
4AD
100
AcDbEntity
  8
0
100
AcDbLine
 62
7
  6
CONTINUOUS
 10
107.9708656365
 20
70.5457979967
 11
107.9708656365
 21
74.6417823722
  0
LINE
  5
4AE
100
AcDbEntity
  8
0
100
AcDbLine
 62
7
  6
CONTINUOUS
 10
107.9708656365
 20
78.5822230373
 11
107.9708656365
 21
82.6782074128
  0
LINE
  5
4AF
100
AcDbEntity
  8
0
100
AcDbLine
 62
7
  6
CONTINUOUS
 10
107.9708656365
 20
104.8388995161
 11
107.9708656365
 21
108.9348838917
  0
LINE
  5
4B0
100
AcDbEntity
  8
0
100
AcDbLine
 62
7
  6
CONTINUOUS
 10
107.9708656365
 20
112.8753245567
 11
107.9708656365
 21
116.9713089323
  0
LINE
  5
4B1
100
AcDbEntity
  8
0
100
AcDbLine
 62
7
  6
CONTINUOUS
 10
100.5993613865
 20
227.2929219933
 11
100.4759349249
 21
219.1991565107
  0
LINE
  5
4B2
100
AcDbEntity
  8
0
100
AcDbLine
 62
7
  6
CONTINUOUS
 10
109.7128258627
 20
249.3945601083
 11
109.7116000744
 21
249.3150040168
  0
LINE
  5
4B3
100
AcDbEntity
  8
0
100
AcDbLine
 62
7
  6
CONTINUOUS
 10
111.8211587512
 20
157.2248319476
 11
110.6544497845
 21
156.5512362324
  0
LINE
  5
4B4
100
AcDbEntity
  8
0
100
AcDbLine
 62
7
  6
CONTINUOUS
 10
113.4360026704
 20
156.2925186264
 11
110.6544497845
 21
154.686597905
  0
LINE
  5
4B5
100
AcDbEntity
  8
0
100
AcDbLine
 62
7
  6
CONTINUOUS
 10
46.1950871884
 20
145.3639030871
 11
45.724002178
 21
145.3885014545
  0
LINE
  5
4B6
100
AcDbEntity
  8
0
100
AcDbLine
 62
7
  6
CONTINUOUS
 10
40.3154296266
 20
181.6060148298
 11
45.3443939919
 21
178.7026065837
  0
LINE
  5
4B7
100
AcDbEntity
  8
0
100
AcDbLine
 62
7
  6
CONTINUOUS
 10
109.9614862576
 20
144.5976721362
 11
110.1382636889
 21
144.4956119476
  0
LINE
  5
4B8
100
AcDbEntity
  8
0
100
AcDbLine
 62
7
  6
CONTINUOUS
 10
110.4918156075
 20
145.1079852331
 11
110.3150381762
 21
145.2100454217
  0
LINE
  5
4B9
100
AcDbEntity
  8
0
100
AcDbLine
 62
7
  6
CONTINUOUS
 10
171.2435349039
 20
26.3303925416
 11
169.9219304324
 21
28.8886223724
  0
LINE
  5
4BA
100
AcDbEntity
  8
0
100
AcDbLine
 62
7
  6
CONTINUOUS
 10
110.0650478411
 20
124.7727304446
 11
109.9614862576
 21
125.0016141251
  0
LINE
  5
4BB
100
AcDbEntity
  8
0
100
AcDbLine
 62
7
  6
CONTINUOUS
 10
117.3202522686
 20
123.1519601301
 11
117.5273754356
 21
122.6941927691
  0
LINE
  5
4BC
100
AcDbEntity
  8
0
100
AcDbLine
 62
7
  6
CONTINUOUS
 10
109.3372005218
 20
254.368604001
 11
109.361249959
 21
252.7637782174
  0
LINE
  5
4BD
100
AcDbEntity
  8
0
100
AcDbLine
 62
7
  6
CONTINUOUS
 10
112.8727491475
 20
252.3274002284
 11
112.8967985848
 21
250.7225744448
  0
LINE
  5
4BE
100
AcDbEntity
  8
0
100
AcDbLine
 62
7
  6
CONTINUOUS
 10
108.2582314844
 20
57.2193944746
 11
108.2582299889
 21
58.3393047427
  0
LINE
  5
4BF
100
AcDbEntity
  8
0
100
AcDbLine
 62
7
  6
CONTINUOUS
 10
108.2582314844
 20
61.6575750131
 11
108.2582314844
 21
62.0516286388
  0
LINE
  5
4C0
100
AcDbEntity
  8
0
100
AcDbLine
 62
7
  6
CONTINUOUS
 10
108.2582314844
 20
74.3659452343
 11
108.2582299889
 21
75.4858555024
  0
LINE
  5
4C1
100
AcDbEntity
  8
0
100
AcDbLine
 62
7
  6
CONTINUOUS
 10
108.2582314844
 20
78.8041257728
 11
108.2582314844
 21
79.1981793985
  0
LINE
  5
4C2
100
AcDbEntity
  8
0
100
AcDbLine
 62
7
  6
CONTINUOUS
 10
108.2582314844
 20
108.6590467537
 11
108.2582299889
 21
109.7789570218
  0
LINE
  5
4C3
100
AcDbEntity
  8
0
100
AcDbLine
 62
7
  6
CONTINUOUS
 10
108.2582314844
 20
113.0972272923
 11
108.2582314844
 21
113.4912809179
  0
LINE
  5
4C4
100
AcDbEntity
  8
0
100
AcDbLine
 62
7
  6
CONTINUOUS
 10
108.4671054842
 20
58.0942564053
 11
108.4671054842
 21
58.1564738895
  0
LINE
  5
4C5
100
AcDbEntity
  8
0
100
AcDbLine
 62
7
  6
CONTINUOUS
 10
108.4671054842
 20
75.2408071651
 11
108.4671054842
 21
75.3030246492
  0
LINE
  5
4C6
100
AcDbEntity
  8
0
100
AcDbLine
 62
7
  6
CONTINUOUS
 10
108.4671054842
 20
109.5339086845
 11
108.4671054842
 21
109.5961261687
  0
LINE
  5
4C7
100
AcDbEntity
  8
0
100
AcDbLine
 62
7
  6
CONTINUOUS
 10
108.8018341982
 20
222.5573292408
 11
108.8018341982
 21
173.779861079
  0
LINE
  5
4C8
100
AcDbEntity
  8
0
100
AcDbLine
 62
7
  6
CONTINUOUS
 10
109.2261000333
 20
41.8653506025
 11
109.2261000333
 21
24.7187998428
  0
LINE
  5
4C9
100
AcDbEntity
  8
0
100
AcDbLine
 62
7
  6
CONTINUOUS
 10
109.2261000333
 20
117.8000753955
 11
109.2261000333
 21
173.5263653646
  0
LINE
  5
4CA
100
AcDbEntity
  8
0
100
AcDbLine
 62
7
  6
CONTINUOUS
 10
109.2694041137
 20
117.7210159965
 11
109.2694041137
 21
117.5945071671
  0
LINE
  5
4CB
100
AcDbEntity
  8
0
100
AcDbLine
 62
7
  6
CONTINUOUS
 10
109.2694041137
 20
83.427914477
 11
109.2694041137
 21
83.3014056476
  0
LINE
  5
4CC
100
AcDbEntity
  8
0
100
AcDbLine
 62
7
  6
CONTINUOUS
 10
109.2694041137
 20
66.2813637173
 11
109.2694041137
 21
66.1548548879
  0
LINE
  5
4CD
100
AcDbEntity
  8
0
100
AcDbLine
 62
7
  6
CONTINUOUS
 10
109.2755937692
 20
175.6247655776
 11
109.2755937692
 21
177.788496983
  0
LINE
  5
4CE
100
AcDbEntity
  8
0
100
AcDbLine
 62
7
  6
CONTINUOUS
 10
109.2755937692
 20
178.7682998835
 11
109.2755937692
 21
219.021869048
  0
LINE
  5
4CF
100
AcDbEntity
  8
0
100
AcDbLine
 62
7
  6
CONTINUOUS
 10
109.2755937692
 20
220.0016719486
 11
109.2755937692
 21
222.165403354
  0
LINE
  5
4D0
100
AcDbEntity
  8
0
100
AcDbLine
 62
7
  6
CONTINUOUS
 10
109.4077006338
 20
117.8008610529
 11
109.4077006338
 21
117.5146634403
  0
LINE
  5
4D1
100
AcDbEntity
  8
0
100
AcDbLine
 62
7
  6
CONTINUOUS
 10
109.4077006338
 20
83.5077595335
 11
109.4077006338
 21
83.2215619209
  0
LINE
  5
4D2
100
AcDbEntity
  8
0
100
AcDbLine
 62
7
  6
CONTINUOUS
 10
109.4077006338
 20
66.3612087738
 11
109.4077006338
 21
66.0750111612
  0
LINE
  5
4D3
100
AcDbEntity
  8
0
100
AcDbLine
 62
7
  6
CONTINUOUS
 10
109.4134790174
 20
177.868104593
 11
109.4134790174
 21
178.8479074935
  0
LINE
  5
4D4
100
AcDbEntity
  8
0
100
AcDbLine
 62
7
  6
CONTINUOUS
 10
109.4134790174
 20
219.101476658
 11
109.4134790174
 21
220.0812795586
  0
LINE
  5
4D5
100
AcDbEntity
  8
0
100
AcDbLine
 62
7
  6
CONTINUOUS
 10
109.4436203571
 20
57.530478035
 11
109.4436188616
 21
58.1111621408
  0
LINE
  5
4D6
100
AcDbEntity
  8
0
100
AcDbLine
 62
7
  6
CONTINUOUS
 10
109.4436203571
 20
74.6770287947
 11
109.4436188616
 21
75.2577129006
  0
LINE
  5
4D7
100
AcDbEntity
  8
0
100
AcDbLine
 62
7
  6
CONTINUOUS
 10
109.4436203571
 20
108.9701303141
 11
109.4436188616
 21
109.55081442
  0
LINE
  5
4D8
100
AcDbEntity
  8
0
100
AcDbLine
 62
7
  6
CONTINUOUS
 10
109.596243397
 20
113.7145702987
 11
109.596243397
 21
112.780820767
  0
LINE
  5
4D9
100
AcDbEntity
  8
0
100
AcDbLine
 62
7
  6
CONTINUOUS
 10
109.596243397
 20
79.4214687793
 11
109.596243397
 21
78.4877192476
  0
LINE
  5
4DA
100
AcDbEntity
  8
0
100
AcDbLine
 62
7
  6
CONTINUOUS
 10
109.596243397
 20
62.2749180195
 11
109.596243397
 21
61.3411684879
  0
LINE
  5
4DB
100
AcDbEntity
  8
0
100
AcDbLine
 62
7
  6
CONTINUOUS
 10
109.6857213547
 20
222.0470282977
 11
109.6857213547
 21
174.1754915814
  0
LINE
  5
4DC
100
AcDbEntity
  8
0
100
AcDbLine
 62
7
  6
CONTINUOUS
 10
109.961488024
 20
124.5933681692
 11
109.961488024
 21
144.842628114
  0
LINE
  5
4DD
100
AcDbEntity
  8
0
100
AcDbLine
 62
7
  6
CONTINUOUS
 10
110.1382636889
 20
124.8995539365
 11
110.1382636889
 21
144.4956119476
  0
LINE
  5
4DE
100
AcDbEntity
  8
0
100
AcDbLine
 62
7
  6
CONTINUOUS
 10
110.1522284808
 20
245.5948020073
 11
110.1522282753
 21
247.2558025989
  0
LINE
  5
4DF
100
AcDbEntity
  8
0
100
AcDbLine
 62
7
  6
CONTINUOUS
 10
110.6544497845
 20
154.686597905
 11
110.6544497845
 21
164.7846526726
  0
LINE
  5
4E0
100
AcDbEntity
  8
0
100
AcDbLine
 62
7
  6
CONTINUOUS
 10
110.7598647328
 20
124.0010203074
 11
110.7598647328
 21
118.6855895719
  0
LINE
  5
4E1
100
AcDbEntity
  8
0
100
AcDbLine
 62
7
  6
CONTINUOUS
 10
110.7598647328
 20
25.6043140191
 11
110.7598647328
 21
42.7508647788
  0
LINE
  5
4E2
100
AcDbEntity
  8
0
100
AcDbLine
 62
7
  6
CONTINUOUS
 10
111.7940080764
 20
116.9352601478
 11
111.7940080764
 21
116.6449118883
  0
LINE
  5
4E3
100
AcDbEntity
  8
0
100
AcDbLine
 62
7
  6
CONTINUOUS
 10
111.7940080764
 20
115.2761272362
 11
111.7940080764
 21
114.9857789767
  0
LINE
  5
4E4
100
AcDbEntity
  8
0
100
AcDbLine
 62
7
  6
CONTINUOUS
 10
111.7940080764
 20
113.6169943246
 11
111.7940080764
 21
113.3266460651
  0
LINE
  5
4E5
100
AcDbEntity
  8
0
100
AcDbLine
 62
7
  6
CONTINUOUS
 10
111.7940080764
 20
82.6421586284
 11
111.7940080764
 21
82.3518103689
  0
LINE
  5
4E6
100
AcDbEntity
  8
0
100
AcDbLine
 62
7
  6
CONTINUOUS
 10
111.7940080764
 20
80.9830257168
 11
111.7940080764
 21
80.6926774573
  0
LINE
  5
4E7
100
AcDbEntity
  8
0
100
AcDbLine
 62
7
  6
CONTINUOUS
 10
111.7940080764
 20
79.3238928052
 11
111.7940080764
 21
79.0335445457
  0
LINE
  5
4E8
100
AcDbEntity
  8
0
100
AcDbLine
 62
7
  6
CONTINUOUS
 10
111.7940080764
 20
65.4956078687
 11
111.7940080764
 21
65.2052596091
  0
LINE
  5
4E9
100
AcDbEntity
  8
0
100
AcDbLine
 62
7
  6
CONTINUOUS
 10
111.7940080764
 20
63.8364749571
 11
111.7940080764
 21
63.5461266975
  0
LINE
  5
4EA
100
AcDbEntity
  8
0
100
AcDbLine
 62
7
  6
CONTINUOUS
 10
111.7940080764
 20
62.1773420455
 11
111.7940080764
 21
61.8869937859
  0
LINE
  5
4EB
100
AcDbEntity
  8
0
100
AcDbLine
 62
7
  6
CONTINUOUS
 10
111.7940080764
 20
62.7165602417
 11
111.7940080764
 21
63.0069085013
  0
LINE
  5
4EC
100
AcDbEntity
  8
0
100
AcDbLine
 62
7
  6
CONTINUOUS
 10
111.7940080764
 20
64.3756931533
 11
111.7940080764
 21
64.6660414129
  0
LINE
  5
4ED
100
AcDbEntity
  8
0
100
AcDbLine
 62
7
  6
CONTINUOUS
 10
111.7940080764
 20
66.034826065
 11
111.7940080764
 21
66.3251743245
  0
LINE
  5
4EE
100
AcDbEntity
  8
0
100
AcDbLine
 62
7
  6
CONTINUOUS
 10
111.7940080764
 20
79.8631110015
 11
111.7940080764
 21
80.153459261
  0
LINE
  5
4EF
100
AcDbEntity
  8
0
100
AcDbLine
 62
7
  6
CONTINUOUS
 10
111.7940080764
 20
81.5222439131
 11
111.7940080764
 21
81.8125921726
  0
LINE
  5
4F0
100
AcDbEntity
  8
0
100
AcDbLine
 62
7
  6
CONTINUOUS
 10
111.7940080764
 20
83.1813768247
 11
111.7940080764
 21
83.4717250842
  0
LINE
  5
4F1
100
AcDbEntity
  8
0
100
AcDbLine
 62
7
  6
CONTINUOUS
 10
111.7940080764
 20
114.1562125209
 11
111.7940080764
 21
114.4465607804
  0
LINE
  5
4F2
100
AcDbEntity
  8
0
100
AcDbLine
 62
7
  6
CONTINUOUS
 10
111.7940080764
 20
115.8153454325
 11
111.7940080764
 21
116.105693692
  0
LINE
  5
4F3
100
AcDbEntity
  8
0
100
AcDbLine
 62
7
  6
CONTINUOUS
 10
111.7940080764
 20
117.4744783441
 11
111.7940080764
 21
117.7648266036
  0
LINE
  5
4F4
100
AcDbEntity
  8
0
100
AcDbLine
 62
7
  6
CONTINUOUS
 10
111.8211587512
 20
165.4582483878
 11
111.8211587512
 21
157.2248319476
  0
LINE
  5
4F5
100
AcDbEntity
  8
0
100
AcDbLine
 62
7
  6
CONTINUOUS
 10
112.1466467537
 20
118.2923754245
 11
112.1466467537
 21
112.5423581166
  0
LINE
  5
4F6
100
AcDbEntity
  8
0
100
AcDbLine
 62
7
  6
CONTINUOUS
 10
112.1466467537
 20
83.9992739051
 11
112.1466467537
 21
78.2492565972
  0
LINE
  5
4F7
100
AcDbEntity
  8
0
100
AcDbLine
 62
7
  6
CONTINUOUS
 10
112.1466467537
 20
66.8527231453
 11
112.1466467537
 21
61.1027058375
  0
LINE
  5
4F8
100
AcDbEntity
  8
0
100
AcDbLine
 62
7
  6
CONTINUOUS
 10
112.2630667197
 20
40.8385009632
 11
112.2630667197
 21
36.8822959596
  0
LINE
  5
4F9
100
AcDbEntity
  8
0
100
AcDbLine
 62
7
  6
CONTINUOUS
 10
112.5141602552
 20
220.4140652796
 11
112.5141602552
 21
172.5425285633
  0
LINE
  5
4FA
100
AcDbEntity
  8
0
100
AcDbLine
 62
7
  6
CONTINUOUS
 10
112.5507565967
 20
61.3360173714
 11
112.5507565967
 21
67.0860346793
  0
LINE
  5
4FB
100
AcDbEntity
  8
0
100
AcDbLine
 62
7
  6
CONTINUOUS
 10
112.5507565967
 20
78.4825681311
 11
112.5507565967
 21
84.232585439
  0
LINE
  5
4FC
100
AcDbEntity
  8
0
100
AcDbLine
 62
7
  6
CONTINUOUS
 10
112.5507565967
 20
112.7756696506
 11
112.5507565967
 21
118.5256869584
  0
LINE
  5
4FD
100
AcDbEntity
  8
0
100
AcDbLine
 62
7
  6
CONTINUOUS
 10
113.4360026704
 20
166.390573394
 11
113.4360026704
 21
156.2925186264
  0
LINE
  5
4FE
100
AcDbEntity
  8
0
100
AcDbLine
 62
7
  6
CONTINUOUS
 10
113.6648318204
 20
36.8893619649
 11
113.6648318204
 21
40.8457236757
  0
LINE
  5
4FF
100
AcDbEntity
  8
0
100
AcDbLine
 62
7
  6
CONTINUOUS
 10
113.6877771029
 20
243.582593965
 11
113.687776901
 21
245.2145988263
  0
LINE
  5
500
100
AcDbEntity
  8
0
100
AcDbLine
 62
7
  6
CONTINUOUS
 10
114.409680718
 20
119.7285109972
 11
114.409680718
 21
118.4945308942
  0
LINE
  5
501
100
AcDbEntity
  8
0
100
AcDbLine
 62
7
  6
CONTINUOUS
 10
114.409680718
 20
111.2358244059
 11
114.409680718
 21
110.0018443029
  0
LINE
  5
502
100
AcDbEntity
  8
0
100
AcDbLine
 62
7
  6
CONTINUOUS
 10
114.409680718
 20
85.4354094777
 11
114.409680718
 21
84.2014293747
  0
LINE
  5
503
100
AcDbEntity
  8
0
100
AcDbLine
 62
7
  6
CONTINUOUS
 10
114.409680718
 20
76.9427228864
 11
114.409680718
 21
75.7087427834
  0
LINE
  5
504
100
AcDbEntity
  8
0
100
AcDbLine
 62
7
  6
CONTINUOUS
 10
114.409680718
 20
68.288858718
 11
114.409680718
 21
67.054878615
  0
LINE
  5
505
100
AcDbEntity
  8
0
100
AcDbLine
 62
7
  6
CONTINUOUS
 10
114.409680718
 20
59.7961721267
 11
114.409680718
 21
58.5621920237
  0
LINE
  5
506
100
AcDbEntity
  8
0
100
AcDbLine
 62
7
  6
CONTINUOUS
 10
114.813790561
 20
58.7955035576
 11
114.813790561
 21
60.0294836606
  0
LINE
  5
507
100
AcDbEntity
  8
0
100
AcDbLine
 62
7
  6
CONTINUOUS
 10
114.813790561
 20
67.2881901489
 11
114.813790561
 21
68.5221702519
  0
LINE
  5
508
100
AcDbEntity
  8
0
100
AcDbLine
 62
7
  6
CONTINUOUS
 10
114.813790561
 20
75.9420543174
 11
114.813790561
 21
77.1760344204
  0
LINE
  5
509
100
AcDbEntity
  8
0
100
AcDbLine
 62
7
  6
CONTINUOUS
 10
114.813790561
 20
84.4347409086
 11
114.813790561
 21
85.6687210117
  0
LINE
  5
50A
100
AcDbEntity
  8
0
100
AcDbLine
 62
7
  6
CONTINUOUS
 10
114.813790561
 20
110.2351558368
 11
114.813790561
 21
111.4691359398
  0
LINE
  5
50B
100
AcDbEntity
  8
0
100
AcDbLine
 62
7
  6
CONTINUOUS
 10
114.813790561
 20
118.7278424281
 11
114.813790561
 21
119.9618225311
  0
LINE
  5
50C
100
AcDbEntity
  8
0
100
AcDbLine
 62
7
  6
CONTINUOUS
 10
114.8371397279
 20
119.9504202978
 11
114.8371397279
 21
109.9479199974
  0
LINE
  5
50D
100
AcDbEntity
  8
0
100
AcDbLine
 62
7
  6
CONTINUOUS
 10
114.8371397279
 20
85.6573187783
 11
114.8371397279
 21
75.654818478
  0
LINE
  5
50E
100
AcDbEntity
  8
0
100
AcDbLine
 62
7
  6
CONTINUOUS
 10
114.8371397279
 20
68.5107680186
 11
114.8371397279
 21
58.5082677183
  0
LINE
  5
50F
100
AcDbEntity
  8
0
100
AcDbLine
 62
7
  6
CONTINUOUS
 10
114.975436248
 20
120.0302653542
 11
114.975436248
 21
109.8680762706
  0
LINE
  5
510
100
AcDbEntity
  8
0
100
AcDbLine
 62
7
  6
CONTINUOUS
 10
114.975436248
 20
85.7371638348
 11
114.975436248
 21
75.5749747512
  0
LINE
  5
511
100
AcDbEntity
  8
0
100
AcDbLine
 62
7
  6
CONTINUOUS
 10
114.975436248
 20
68.5906130751
 11
114.975436248
 21
58.4284239915
  0
LINE
  5
512
100
AcDbEntity
  8
0
100
AcDbLine
 62
7
  6
CONTINUOUS
 10
116.2865481829
 20
57.629953197
 11
116.2865481829
 21
59.7038693365
  0
LINE
  5
513
100
AcDbEntity
  8
0
100
AcDbLine
 62
7
  6
CONTINUOUS
 10
116.2865481829
 20
68.8291003503
 11
116.2865481829
 21
70.9030164898
  0
LINE
  5
514
100
AcDbEntity
  8
0
100
AcDbLine
 62
7
  6
CONTINUOUS
 10
116.2865481829
 20
74.7765039567
 11
116.2865481829
 21
76.8504200962
  0
LINE
  5
515
100
AcDbEntity
  8
0
100
AcDbLine
 62
7
  6
CONTINUOUS
 10
116.2865481829
 20
85.97565111
 11
116.2865481829
 21
88.0495672495
  0
LINE
  5
516
100
AcDbEntity
  8
0
100
AcDbLine
 62
7
  6
CONTINUOUS
 10
116.2865481829
 20
109.0696054761
 11
116.2865481829
 21
111.1435216156
  0
LINE
  5
517
100
AcDbEntity
  8
0
100
AcDbLine
 62
7
  6
CONTINUOUS
 10
116.2865481829
 20
120.2687526295
 11
116.2865481829
 21
122.342668769
  0
LINE
  5
518
100
AcDbEntity
  8
0
100
AcDbLine
 62
7
  6
CONTINUOUS
 10
116.5918756198
 20
59.8801491621
 11
116.5918756198
 21
69.005380176
  0
LINE
  5
519
100
AcDbEntity
  8
0
100
AcDbLine
 62
7
  6
CONTINUOUS
 10
116.5918756198
 20
77.0266999218
 11
116.5918756198
 21
86.1519309357
  0
LINE
  5
51A
100
AcDbEntity
  8
0
100
AcDbLine
 62
7
  6
CONTINUOUS
 10
116.5918756198
 20
111.3198014413
 11
116.5918756198
 21
120.4450324551
  0
LINE
  5
51B
100
AcDbEntity
  8
0
100
AcDbLine
 62
7
  6
CONTINUOUS
 10
117.2091772369
 20
123.1519601301
 11
117.2091772369
 21
109.3039160371
  0
LINE
  5
51C
100
AcDbEntity
  8
0
100
AcDbLine
 62
7
  6
CONTINUOUS
 10
117.2091772369
 20
88.8588586107
 11
117.2091772369
 21
75.0108145177
  0
LINE
  5
51D
100
AcDbEntity
  8
0
100
AcDbLine
 62
7
  6
CONTINUOUS
 10
117.2091772369
 20
71.712307851
 11
117.2091772369
 21
57.864263758
  0
LINE
  5
51E
100
AcDbEntity
  8
0
100
AcDbLine
 62
7
  6
CONTINUOUS
 10
117.2233257251
 20
241.5703859227
 11
117.2233255268
 21
243.1733950537
  0
LINE
  5
51F
100
AcDbEntity
  8
0
100
AcDbLine
 62
7
  6
CONTINUOUS
 10
117.3505980043
 20
122.7962529577
 11
117.3505980043
 21
109.8138645253
  0
LINE
  5
520
100
AcDbEntity
  8
0
100
AcDbLine
 62
7
  6
CONTINUOUS
 10
117.3505980043
 20
88.5031514382
 11
117.3505980043
 21
75.5207630059
  0
LINE
  5
521
100
AcDbEntity
  8
0
100
AcDbLine
 62
7
  6
CONTINUOUS
 10
117.3505980043
 20
71.3566006785
 11
117.3505980043
 21
58.3742122462
  0
LINE
  5
522
100
AcDbEntity
  8
0
100
AcDbLine
 62
7
  6
CONTINUOUS
 10
117.5273754356
 20
122.6941927691
 11
117.5273754356
 21
109.7118043367
  0
LINE
  5
523
100
AcDbEntity
  8
0
100
AcDbLine
 62
7
  6
CONTINUOUS
 10
117.5273754356
 20
88.4010912496
 11
117.5273754356
 21
75.4187028172
  0
LINE
  5
524
100
AcDbEntity
  8
0
100
AcDbLine
 62
7
  6
CONTINUOUS
 10
117.5273754356
 20
71.2545404899
 11
117.5273754356
 21
58.2721520575
  0
LINE
  5
525
100
AcDbEntity
  8
0
100
AcDbLine
 62
7
  6
CONTINUOUS
 10
110.7723072047
 20
44.0457484457
 11
110.7598647328
 21
42.7508647788
  0
LINE
  5
526
100
AcDbEntity
  8
0
100
AcDbLine
 62
7
  6
CONTINUOUS
 10
113.285850484
 20
247.403988715
 11
113.2835210088
 21
247.252801157
  0
LINE
  5
527
100
AcDbEntity
  8
0
100
AcDbLine
 62
7
  6
CONTINUOUS
 10
116.8588751053
 20
245.4134173218
 11
116.8554419433
 21
245.1905982972
  0
LINE
  5
528
100
AcDbEntity
  8
0
100
AcDbLine
 62
7
  6
CONTINUOUS
 10
139.4336180578
 20
233.9147079465
 11
140.3316193233
 21
237.2908752013
  0
LINE
  5
529
100
AcDbEntity
  8
0
100
AcDbLine
 62
7
  6
CONTINUOUS
 10
110.1736191752
 20
145.2100520853
 11
136.8314338381
 21
160.6008566862
  0
LINE
  5
52A
100
AcDbEntity
  8
0
100
AcDbLine
 62
7
  6
CONTINUOUS
 10
110.3150381762
 20
145.2100454217
 11
136.4778801532
 21
160.315079115
  0
LINE
  5
52B
100
AcDbEntity
  8
0
100
AcDbLine
 62
7
  6
CONTINUOUS
 10
110.4918156075
 20
145.1079852331
 11
136.6546575844
 21
160.2130189263
  0
LINE
  5
52C
100
AcDbEntity
  8
0
100
AcDbLine
 62
7
  6
CONTINUOUS
 10
136.4778801532
 20
160.315079115
 11
136.7278704883
 21
160.3398336639
  0
LINE
  5
52D
100
AcDbEntity
  8
0
100
AcDbLine
 62
7
  6
CONTINUOUS
 10
136.7546542488
 20
139.9060230049
 11
136.8314338381
 21
139.8616952911
  0
LINE
  5
52E
100
AcDbEntity
  8
0
100
AcDbLine
 62
7
  6
CONTINUOUS
 10
40.3154296266
 20
197.1603858762
 11
45.3443939919
 21
194.25697763
  0
LINE
  5
52F
100
AcDbEntity
  8
0
100
AcDbLine
 62
7
  6
CONTINUOUS
 10
45.4341961792
 20
194.3088246376
 11
40.495034749
 21
197.1603863079
  0
LINE
  5
530
100
AcDbEntity
  8
0
100
AcDbLine
 62
7
  6
CONTINUOUS
 10
111.8211587512
 20
157.2248319476
 11
113.4360026704
 21
156.2925186264
  0
LINE
  5
531
100
AcDbEntity
  8
0
100
AcDbLine
 62
7
  6
CONTINUOUS
 10
171.1960260636
 20
36.6694607408
 11
171.2435349039
 21
36.5774978766
  0
LINE
  5
532
100
AcDbEntity
  8
0
100
AcDbLine
 62
7
  6
CONTINUOUS
 10
170.8442497363
 20
44.9136870902
 11
170.0071565147
 21
46.5340484742
  0
LINE
  5
533
100
AcDbEntity
  8
0
100
AcDbLine
 62
7
  6
CONTINUOUS
 10
171.2435349039
 20
45.559024465
 11
170.1294446295
 21
47.7155690556
  0
LINE
  5
534
100
AcDbEntity
  8
0
100
AcDbLine
 62
7
  6
CONTINUOUS
 10
116.4082977732
 20
250.2861964558
 11
116.4323472105
 21
248.6813706722
  0
LINE
  5
535
100
AcDbEntity
  8
0
100
AcDbLine
 62
7
  6
CONTINUOUS
 10
119.943846399
 20
248.2449926832
 11
119.9678958363
 21
246.6401668996
  0
LINE
  5
536
100
AcDbEntity
  8
0
100
AcDbLine
 62
7
  6
CONTINUOUS
 10
123.4793950247
 20
246.2037889106
 11
123.503444462
 21
244.598963127
  0
LINE
  5
537
100
AcDbEntity
  8
0
100
AcDbLine
 62
7
  6
CONTINUOUS
 10
120.7588743472
 20
239.5581778804
 11
120.7588741525
 21
241.132191281
  0
LINE
  5
538
100
AcDbEntity
  8
0
100
AcDbLine
 62
7
  6
CONTINUOUS
 10
121.4518002602
 20
53.2138760527
 11
121.4518002602
 21
53.4139238748
  0
LINE
  5
539
100
AcDbEntity
  8
0
100
AcDbLine
 62
7
  6
CONTINUOUS
 10
121.6285776914
 20
130.276037203
 11
121.6285776914
 21
53.7813478461
  0
LINE
  5
53A
100
AcDbEntity
  8
0
100
AcDbLine
 62
7
  6
CONTINUOUS
 10
121.8115263944
 20
49.6169427666
 11
121.8115263944
 21
53.0133186395
  0
LINE
  5
53B
100
AcDbEntity
  8
0
100
AcDbLine
 62
7
  6
CONTINUOUS
 10
120.4318997266
 20
243.4228459285
 11
120.4273628778
 21
243.1283954375
  0
LINE
  5
53C
100
AcDbEntity
  8
0
100
AcDbLine
 62
7
  6
CONTINUOUS
 10
124.0049243479
 20
241.4322745352
 11
123.9992838122
 21
241.0661925777
  0
LINE
  5
53D
100
AcDbEntity
  8
0
100
AcDbLine
 62
7
  6
CONTINUOUS
 10
46.3568955347
 20
100.1558462196
 11
45.7771443959
 21
99.8211287415
  0
LINE
  5
53E
100
AcDbEntity
  8
0
100
AcDbLine
 62
7
  6
CONTINUOUS
 10
47.7192621833
 20
98.9889736471
 11
47.5449169424
 21
98.8883159762
  0
LINE
  5
53F
100
AcDbEntity
  8
0
100
AcDbLine
 62
7
  6
CONTINUOUS
 10
171.2091355942
 20
162.7193647112
 11
171.3789742506
 21
162.7911214988
  0
LINE
  5
540
100
AcDbEntity
  8
0
100
AcDbLine
 62
7
  6
CONTINUOUS
 10
127.0149436504
 20
244.162585138
 11
127.0389930877
 21
242.5577593544
  0
LINE
  5
541
100
AcDbEntity
  8
0
100
AcDbLine
 62
7
  6
CONTINUOUS
 10
127.8865702974
 20
180.8294650152
 11
127.8865702974
 21
181.8689462524
  0
LINE
  5
542
100
AcDbEntity
  8
0
100
AcDbLine
 62
7
  6
CONTINUOUS
 10
128.7139404062
 20
32.1572603665
 11
128.7139404062
 21
28.4990616761
  0
LINE
  5
543
100
AcDbEntity
  8
0
100
AcDbLine
 62
7
  6
CONTINUOUS
 10
128.7139404062
 20
180.3845281085
 11
128.7139404062
 21
182.3709104335
  0
LINE
  5
544
100
AcDbEntity
  8
0
100
AcDbLine
 62
7
  6
CONTINUOUS
 10
135.0283258244
 20
38.2520302462
 11
135.0283258244
 21
32.1446520358
  0
LINE
  5
545
100
AcDbEntity
  8
0
100
AcDbLine
 62
7
  6
CONTINUOUS
 10
135.0283258244
 20
181.5809842887
 11
135.0283258244
 21
186.2018384207
  0
LINE
  5
546
100
AcDbEntity
  8
0
100
AcDbLine
 62
7
  6
CONTINUOUS
 10
136.4425393867
 20
38.2377815428
 11
136.4425393867
 21
32.1446554352
  0
LINE
  5
547
100
AcDbEntity
  8
0
100
AcDbLine
 62
7
  6
CONTINUOUS
 10
136.4425393867
 20
181.5952397907
 11
136.4425393867
 21
187.0598396286
  0
LINE
  5
548
100
AcDbEntity
  8
0
100
AcDbLine
 62
7
  6
CONTINUOUS
 10
136.5572497926
 20
40.9041085932
 11
136.5572497926
 21
39.0382900104
  0
LINE
  5
549
100
AcDbEntity
  8
0
100
AcDbLine
 62
7
  6
CONTINUOUS
 10
136.5572497926
 20
180.3218963181
 11
136.5572497926
 21
181.5313252432
  0
LINE
  5
54A
100
AcDbEntity
  8
0
100
AcDbLine
 62
7
  6
CONTINUOUS
 10
136.7401609666
 20
139.0006617958
 11
136.7401609666
 21
41.3932342086
  0
LINE
  5
54B
100
AcDbEntity
  8
0
100
AcDbLine
 62
7
  6
CONTINUOUS
 10
139.0563754154
 20
181.9549029503
 11
139.034760631
 21
181.8186225791
  0
LINE
  5
54C
100
AcDbEntity
  8
0
100
AcDbLine
 62
7
  6
CONTINUOUS
 10
146.9564726779
 20
180.6948953294
 11
147.4285622525
 21
182.1122824923
  0
LINE
  5
54D
100
AcDbEntity
  8
0
100
AcDbLine
 62
7
  6
CONTINUOUS
 10
149.9246936332
 20
186.4194268832
 11
149.8115627014
 21
186.0797660666
  0
LINE
  5
54E
100
AcDbEntity
  8
0
100
AcDbLine
 62
7
  6
CONTINUOUS
 10
45.6844542454
 20
85.7383387485
 11
46.5064171065
 21
86.2539967948
  0
LINE
  5
54F
100
AcDbEntity
  8
0
100
AcDbLine
 62
7
  6
CONTINUOUS
 10
110.1685948282
 20
124.7129363918
 11
109.9614862576
 21
124.5933629165
  0
LINE
  5
550
100
AcDbEntity
  8
0
100
AcDbLine
 62
7
  6
CONTINUOUS
 10
136.6546575844
 20
139.8004584981
 11
110.4918156075
 21
124.6954248049
  0
LINE
  5
551
100
AcDbEntity
  8
0
100
AcDbLine
 62
7
  6
CONTINUOUS
 10
136.8314338381
 20
139.8616952911
 11
110.1736191752
 21
124.4708906902
  0
LINE
  5
552
100
AcDbEntity
  8
0
100
AcDbLine
 62
7
  6
CONTINUOUS
 10
136.7401609666
 20
139.0006617958
 11
110.7598647328
 21
124.0010203074
  0
LINE
  5
553
100
AcDbEntity
  8
0
100
AcDbLine
 62
7
  6
CONTINUOUS
 10
101.624670488
 20
115.7068050147
 11
103.9982213661
 21
117.0771670731
  0
LINE
  5
554
100
AcDbEntity
  8
0
100
AcDbLine
 62
7
  6
CONTINUOUS
 10
110.7723072047
 20
119.6106780046
 11
116.8202715984
 21
123.1024510323
  0
LINE
  5
555
100
AcDbEntity
  8
0
100
AcDbLine
 62
7
  6
CONTINUOUS
 10
116.2865481829
 20
122.342668769
 11
110.7723072047
 21
119.1590392595
  0
LINE
  5
556
100
AcDbEntity
  8
0
100
AcDbLine
 62
7
  6
CONTINUOUS
 10
108.2843976166
 20
117.7226525632
 11
107.1626459506
 21
117.0750128027
  0
LINE
  5
557
100
AcDbEntity
  8
0
100
AcDbLine
 62
7
  6
CONTINUOUS
 10
110.7598647328
 20
118.6855895719
 11
109.2261000333
 21
117.8000753955
  0
LINE
  5
558
100
AcDbEntity
  8
0
100
AcDbLine
 62
7
  6
CONTINUOUS
 10
107.9708656365
 20
116.9713089323
 11
109.4077006338
 21
117.8008610529
  0
LINE
  5
559
100
AcDbEntity
  8
0
100
AcDbLine
 62
7
  6
CONTINUOUS
 10
109.6226176022
 20
117.3905838778
 11
108.3833474171
 21
116.6750951737
  0
LINE
  5
55A
100
AcDbEntity
  8
0
100
AcDbLine
 62
7
  6
CONTINUOUS
 10
109.7467587204
 20
117.0115049958
 11
114.975436248
 21
120.0302653542
  0
LINE
  5
55B
100
AcDbEntity
  8
0
100
AcDbLine
 62
7
  6
CONTINUOUS
 10
111.3192346501
 20
117.8146716753
 11
112.935674022
 21
118.747917811
  0
LINE
  5
55C
100
AcDbEntity
  8
0
100
AcDbLine
 62
7
  6
CONTINUOUS
 10
116.2865481829
 20
120.2687526295
 11
116.5918756198
 21
120.4450324551
  0
LINE
  5
55D
100
AcDbEntity
  8
0
100
AcDbLine
 62
7
  6
CONTINUOUS
 10
106.7741698599
 20
115.9682151366
 11
106.6616170894
 21
115.9032415788
  0
LINE
  5
55E
100
AcDbEntity
  8
0
100
AcDbLine
 62
7
  6
CONTINUOUS
 10
102.2460099992
 20
117.080156569
 11
102.6853350757
 21
117.2157793894
  0
LINE
  5
55F
100
AcDbEntity
  8
0
100
AcDbLine
 62
7
  6
CONTINUOUS
 10
150.3745882646
 20
186.5046379301
 11
149.9246936332
 21
186.4194268832
  0
LINE
  5
560
100
AcDbEntity
  8
0
100
AcDbLine
 62
7
  6
CONTINUOUS
 10
170.1738755
 20
160.4886839694
 11
170.0476160433
 21
160.5082157708
  0
LINE
  5
561
100
AcDbEntity
  8
0
100
AcDbLine
 62
7
  6
CONTINUOUS
 10
171.2435349039
 20
162.6046459605
 11
171.821506558
 21
162.5152362017
  0
LINE
  5
562
100
AcDbEntity
  8
0
100
AcDbLine
 62
7
  6
CONTINUOUS
 10
170.0476160433
 20
168.6732399421
 11
170.1738755
 21
168.6537081407
  0
LINE
  5
563
100
AcDbEntity
  8
0
100
AcDbLine
 62
7
  6
CONTINUOUS
 10
51.311379587
 20
212.5161223646
 11
50.3422360389
 21
213.0554409397
  0
LINE
  5
564
100
AcDbEntity
  8
0
100
AcDbLine
 62
7
  6
CONTINUOUS
 10
112.5141602552
 20
172.5425285633
 11
109.6857213547
 21
174.1754915814
  0
LINE
  5
565
100
AcDbEntity
  8
0
100
AcDbLine
 62
7
  6
CONTINUOUS
 10
109.2755937692
 20
175.8248045927
 11
109.6857213547
 21
175.5880226775
  0
LINE
  5
566
100
AcDbEntity
  8
0
100
AcDbLine
 62
7
  6
CONTINUOUS
 10
136.4778801532
 20
160.315079115
 11
136.6546575844
 21
160.2130189263
  0
LINE
  5
567
100
AcDbEntity
  8
0
100
AcDbLine
 62
7
  6
CONTINUOUS
 10
136.7278759114
 20
160.3398430572
 11
136.798589878
 21
160.2990172532
  0
LINE
  5
568
100
AcDbEntity
  8
0
100
AcDbLine
 62
7
  6
CONTINUOUS
 10
136.8667827368
 20
160.5804421793
 11
136.9374967034
 21
160.5396163753
  0
LINE
  5
569
100
AcDbEntity
  8
0
100
AcDbLine
 62
7
  6
CONTINUOUS
 10
51.311379587
 20
211.292961684
 11
49.2765716492
 21
212.4677320178
  0
LINE
  5
56A
100
AcDbEntity
  8
0
100
AcDbLine
 62
7
  6
CONTINUOUS
 10
109.2755937692
 20
178.9275137778
 11
109.4134790174
 21
178.8479074935
  0
LINE
  5
56B
100
AcDbEntity
  8
0
100
AcDbLine
 62
7
  6
CONTINUOUS
 10
108.8018341982
 20
173.779861079
 11
109.2261000333
 21
173.5263653646
  0
LINE
  5
56C
100
AcDbEntity
  8
0
100
AcDbLine
 62
7
  6
CONTINUOUS
 10
136.8314320718
 20
160.6008514336
 11
136.8314320718
 21
160.2800562327
  0
LINE
  5
56D
100
AcDbEntity
  8
0
100
AcDbLine
 62
7
  6
CONTINUOUS
 10
136.8526434205
 20
238.0869253549
 11
136.8526434205
 21
237.8868863398
  0
LINE
  5
56E
100
AcDbEntity
  8
0
100
AcDbLine
 62
7
  6
CONTINUOUS
 10
136.9233599422
 20
42.1962285178
 11
136.9233599422
 21
179.8915567586
  0
LINE
  5
56F
100
AcDbEntity
  8
0
100
AcDbLine
 62
7
  6
CONTINUOUS
 10
137.3264029914
 20
239.025898408
 11
137.3264029914
 21
238.0052880233
  0
LINE
  5
570
100
AcDbEntity
  8
0
100
AcDbLine
 62
7
  6
CONTINUOUS
 10
137.6446259195
 20
37.5195436856
 11
137.6446259195
 21
31.4506461525
  0
LINE
  5
571
100
AcDbEntity
  8
0
100
AcDbLine
 62
7
  6
CONTINUOUS
 10
137.6446259195
 20
180.9254590826
 11
137.6446259195
 21
186.735360416
  0
LINE
  5
572
100
AcDbEntity
  8
0
100
AcDbLine
 62
7
  6
CONTINUOUS
 10
138.2103113444
 20
37.5138442043
 11
138.2103113444
 21
31.4506475122
  0
LINE
  5
573
100
AcDbEntity
  8
0
100
AcDbLine
 62
7
  6
CONTINUOUS
 10
138.2103113444
 20
180.9311612835
 11
138.2103113444
 21
186.7296609347
  0
LINE
  5
574
100
AcDbEntity
  8
0
100
AcDbLine
 62
7
  6
CONTINUOUS
 10
138.559157037
 20
181.8068469747
 11
138.559157037
 21
181.1325662358
  0
LINE
  5
575
100
AcDbEntity
  8
0
100
AcDbLine
 62
7
  6
CONTINUOUS
 10
138.8865229201
 20
38.9070258616
 11
138.8865229201
 21
40.5400306958
  0
LINE
  5
576
100
AcDbEntity
  8
0
100
AcDbLine
 62
7
  6
CONTINUOUS
 10
138.8865229201
 20
179.9578184207
 11
138.8865229201
 21
181.590823255
  0
LINE
  5
577
100
AcDbEntity
  8
0
100
AcDbLine
 62
7
  6
CONTINUOUS
 10
139.0572497926
 20
181.9549011523
 11
139.0572497926
 21
182.0944192446
  0
LINE
  5
578
100
AcDbEntity
  8
0
100
AcDbLine
 62
7
  6
CONTINUOUS
 10
139.4336180578
 20
233.9147079465
 11
139.4336180578
 21
189.9378877599
  0
LINE
  5
579
100
AcDbEntity
  8
0
100
AcDbLine
 62
7
  6
CONTINUOUS
 10
140.0252033937
 20
182.6532641809
 11
140.0252033937
 21
181.978983442
  0
LINE
  5
57A
100
AcDbEntity
  8
0
100
AcDbLine
 62
7
  6
CONTINUOUS
 10
140.3316193233
 20
237.2908752013
 11
140.3316193233
 21
189.419338485
  0
LINE
  5
57B
100
AcDbEntity
  8
0
100
AcDbLine
 62
7
  6
CONTINUOUS
 10
140.4730436235
 20
38.7308899196
 11
140.4730436235
 21
32.7570288046
  0
LINE
  5
57C
100
AcDbEntity
  8
0
100
AcDbLine
 62
7
  6
CONTINUOUS
 10
140.4730436235
 20
182.2375425758
 11
140.4730412683
 21
188.3683370315
  0
LINE
  5
57D
100
AcDbEntity
  8
0
100
AcDbLine
 62
7
  6
CONTINUOUS
 10
142.9980568218
 20
40.7857780731
 11
142.9980568218
 21
179.3870633808
  0
LINE
  5
57E
100
AcDbEntity
  8
0
100
AcDbLine
 62
7
  6
CONTINUOUS
 10
149.9024986901
 20
182.817334005
 11
149.8025197568
 21
182.1964684153
  0
LINE
  5
57F
100
AcDbEntity
  8
0
100
AcDbLine
 62
7
  6
CONTINUOUS
 10
150.2817570179
 20
182.5048741055
 11
150.2345480604
 21
182.3631353892
  0
LINE
  5
580
100
AcDbEntity
  8
0
100
AcDbLine
 62
7
  6
CONTINUOUS
 10
111.2450522349
 20
107.8740396958
 11
110.9747476884
 21
107.7127955239
  0
LINE
  5
581
100
AcDbEntity
  8
0
100
AcDbLine
 62
7
  6
CONTINUOUS
 10
114.409680718
 20
118.4945308942
 11
114.813790561
 21
118.7278424281
  0
LINE
  5
582
100
AcDbEntity
  8
0
100
AcDbLine
 62
7
  6
CONTINUOUS
 10
106.7105419116
 20
113.5619206831
 11
106.6379763425
 21
113.5200251897
  0
LINE
  5
583
100
AcDbEntity
  8
0
100
AcDbLine
 62
7
  6
CONTINUOUS
 10
108.3833474171
 20
113.4190468347
 11
109.6226176022
 21
114.1345355388
  0
LINE
  5
584
100
AcDbEntity
  8
0
100
AcDbLine
 62
7
  6
CONTINUOUS
 10
107.946620039
 20
112.9173194143
 11
108.2582314844
 21
113.0972272923
  0
LINE
  5
585
100
AcDbEntity
  8
0
100
AcDbLine
 62
7
  6
CONTINUOUS
 10
107.1626459506
 20
112.4087014889
 11
107.9708656365
 21
112.8753245567
  0
LINE
  5
586
100
AcDbEntity
  8
0
100
AcDbLine
 62
7
  6
CONTINUOUS
 10
112.1466467537
 20
112.5423581166
 11
112.5507565967
 21
112.7756696506
  0
LINE
  5
587
100
AcDbEntity
  8
0
100
AcDbLine
 62
7
  6
CONTINUOUS
 10
110.341621248
 20
111.0986660408
 11
108.7251818762
 21
110.165419905
  0
LINE
  5
588
100
AcDbEntity
  8
0
100
AcDbLine
 62
7
  6
CONTINUOUS
 10
108.2582299889
 20
109.7789570218
 11
107.4500103029
 21
109.312333954
  0
LINE
  5
589
100
AcDbEntity
  8
0
100
AcDbLine
 62
7
  6
CONTINUOUS
 10
108.2582310829
 20
109.4755331967
 11
108.4671054842
 21
109.5961261687
  0
LINE
  5
58A
100
AcDbEntity
  8
0
100
AcDbLine
 62
7
  6
CONTINUOUS
 10
108.4671054842
 20
109.5339086845
 11
108.2369542983
 21
109.4010316285
  0
LINE
  5
58B
100
AcDbEntity
  8
0
100
AcDbLine
 62
7
  6
CONTINUOUS
 10
108.2582314844
 20
109.3641782412
 11
107.4500117985
 21
108.8975551733
  0
LINE
  5
58C
100
AcDbEntity
  8
0
100
AcDbLine
 62
7
  6
CONTINUOUS
 10
110.9015883036
 20
110.8343120463
 11
109.2851489317
 21
109.9010659106
  0
LINE
  5
58D
100
AcDbEntity
  8
0
100
AcDbLine
 62
7
  6
CONTINUOUS
 10
107.8325691165
 20
109.0147276184
 11
107.0243494306
 21
108.5481045506
  0
LINE
  5
58E
100
AcDbEntity
  8
0
100
AcDbLine
 62
7
  6
CONTINUOUS
 10
107.9708656365
 20
108.9348838917
 11
107.1626459506
 21
108.4682608238
  0
LINE
  5
58F
100
AcDbEntity
  8
0
100
AcDbLine
 62
7
  6
CONTINUOUS
 10
109.4436188616
 20
109.55081442
 11
108.994607925
 21
109.2915793823
  0
LINE
  5
590
100
AcDbEntity
  8
0
100
AcDbLine
 62
7
  6
CONTINUOUS
 10
108.2582314844
 20
108.6590467537
 11
107.9708656365
 21
108.4931369944
  0
LINE
  5
591
100
AcDbEntity
  8
0
100
AcDbLine
 62
7
  6
CONTINUOUS
 10
109.8891259777
 20
109.4618386047
 11
111.5055653496
 21
110.3950847405
  0
LINE
  5
592
100
AcDbEntity
  8
0
100
AcDbLine
 62
7
  6
CONTINUOUS
 10
109.4436203571
 20
109.1360356393
 11
109.2999400769
 21
109.053082286
  0
LINE
  5
593
100
AcDbEntity
  8
0
100
AcDbLine
 62
7
  6
CONTINUOUS
 10
109.6226176022
 20
108.8667885444
 11
108.3833474171
 21
108.1512998403
  0
LINE
  5
594
100
AcDbEntity
  8
0
100
AcDbLine
 62
7
  6
CONTINUOUS
 10
114.813790561
 20
111.4691359398
 11
114.409680718
 21
111.2358244059
  0
LINE
  5
595
100
AcDbEntity
  8
0
100
AcDbLine
 62
7
  6
CONTINUOUS
 10
114.3019171959
 20
110.0640601939
 11
112.7662997927
 21
109.1774763649
  0
LINE
  5
596
100
AcDbEntity
  8
0
100
AcDbLine
 62
7
  6
CONTINUOUS
 10
110.7906516715
 20
108.036842199
 11
109.9613886632
 21
107.5580698358
  0
LINE
  5
597
100
AcDbEntity
  8
0
100
AcDbLine
 62
7
  6
CONTINUOUS
 10
116.2865481829
 20
111.1435216156
 11
116.5918756198
 21
111.3198014413
  0
LINE
  5
598
100
AcDbEntity
  8
0
100
AcDbLine
 62
7
  6
CONTINUOUS
 10
114.409680718
 20
110.0018443029
 11
114.813790561
 21
110.2351558368
  0
LINE
  5
599
100
AcDbEntity
  8
0
100
AcDbLine
 62
7
  6
CONTINUOUS
 10
112.8557598365
 20
109.0481103488
 11
111.2393204647
 21
108.1148642131
  0
LINE
  5
59A
100
AcDbEntity
  8
0
100
AcDbLine
 62
7
  6
CONTINUOUS
 10
106.7105419116
 20
105.266256125
 11
106.6379763425
 21
105.2243606316
  0
LINE
  5
59B
100
AcDbEntity
  8
0
100
AcDbLine
 62
7
  6
CONTINUOUS
 10
114.8371397279
 20
109.9479199974
 11
112.9459056628
 21
108.8560220186
  0
LINE
  5
59C
100
AcDbEntity
  8
0
100
AcDbLine
 62
7
  6
CONTINUOUS
 10
110.9747476884
 20
107.7127955239
 11
109.9913710299
 21
107.1450461344
  0
LINE
  5
59D
100
AcDbEntity
  8
0
100
AcDbLine
 62
7
  6
CONTINUOUS
 10
110.0111830937
 20
107.001980484
 11
114.975436248
 21
109.8680762706
  0
LINE
  5
59E
100
AcDbEntity
  8
0
100
AcDbLine
 62
7
  6
CONTINUOUS
 10
108.1075219045
 20
105.0774863615
 11
108.0026571187
 21
105.0169430106
  0
LINE
  5
59F
100
AcDbEntity
  8
0
100
AcDbLine
 62
7
  6
CONTINUOUS
 10
108.2259077579
 20
104.9861472746
 11
107.9708656365
 21
104.8388995161
  0
LINE
  5
5A0
100
AcDbEntity
  8
0
100
AcDbLine
 62
7
  6
CONTINUOUS
 10
108.3833474171
 20
104.8952515013
 11
109.6226176022
 21
105.6107402054
  0
LINE
  5
5A1
100
AcDbEntity
  8
0
100
AcDbLine
 62
7
  6
CONTINUOUS
 10
106.7741695228
 20
107.672550384
 11
106.6616170894
 21
107.6075770208
  0
LINE
  5
5A2
100
AcDbEntity
  8
0
100
AcDbLine
 62
7
  6
CONTINUOUS
 10
106.7489967709
 20
115.91165636
 11
106.7136312751
 21
115.8998488818
  0
LINE
  5
5A3
100
AcDbEntity
  8
0
100
AcDbLine
 62
7
  6
CONTINUOUS
 10
138.2103113444
 20
180.9311612835
 11
137.6446259195
 21
180.9254590826
  0
LINE
  5
5A4
100
AcDbEntity
  8
0
100
AcDbLine
 62
7
  6
CONTINUOUS
 10
136.4425393867
 20
181.5952397907
 11
135.0283258244
 21
181.5809842887
  0
LINE
  5
5A5
100
AcDbEntity
  8
0
100
AcDbLine
 62
7
  6
CONTINUOUS
 10
137.6446259195
 20
186.735360416
 11
138.2103113444
 21
186.7296609347
  0
LINE
  5
5A6
100
AcDbEntity
  8
0
100
AcDbLine
 62
7
  6
CONTINUOUS
 10
150.2345480604
 20
178.6979577118
 11
138.8865229201
 21
179.9578184207
  0
LINE
  5
5A7
100
AcDbEntity
  8
0
100
AcDbLine
 62
7
  6
CONTINUOUS
 10
138.8865229201
 20
181.590823255
 11
146.9564726779
 21
180.6948953294
  0
LINE
  5
5A8
100
AcDbEntity
  8
0
100
AcDbLine
 62
7
  6
CONTINUOUS
 10
147.4285622525
 20
182.1122824923
 11
140.4730436235
 21
182.8844859835
  0
LINE
  5
5A9
100
AcDbEntity
  8
0
100
AcDbLine
 62
7
  6
CONTINUOUS
 10
150.2345480604
 20
182.3631353892
 11
168.4140713208
 21
180.3448399784
  0
LINE
  5
5AA
100
AcDbEntity
  8
0
100
AcDbLine
 62
7
  6
CONTINUOUS
 10
165.7782319288
 20
180.7844514217
 11
150.2817570179
 21
182.5048741055
  0
LINE
  5
5AB
100
AcDbEntity
  8
0
100
AcDbLine
 62
7
  6
CONTINUOUS
 10
171.2091355943
 20
170.8843888825
 11
170.8442497363
 21
170.9408351741
  0
LINE
  5
5AC
100
AcDbEntity
  8
0
100
AcDbLine
 62
7
  6
CONTINUOUS
 10
171.821506558
 20
171.4967627901
 11
171.2435349039
 21
171.5861725489
  0
LINE
  5
5AD
100
AcDbEntity
  8
0
100
AcDbLine
 62
7
  6
CONTINUOUS
 10
142.0547795225
 20
179.6060777469
 11
142.9980568218
 21
179.3870633808
  0
LINE
  5
5AE
100
AcDbEntity
  8
0
100
AcDbLine
 62
7
  6
CONTINUOUS
 10
49.3692617996
 20
213.1598823698
 11
49.5131760413
 21
213.0913340449
  0
LINE
  5
5AF
100
AcDbEntity
  8
0
100
AcDbLine
 62
7
  6
CONTINUOUS
 10
128.5341728043
 20
179.4414892075
 11
129.3615429132
 21
178.9965970754
  0
LINE
  5
5B0
100
AcDbEntity
  8
0
100
AcDbLine
 62
7
  6
CONTINUOUS
 10
127.8865702974
 20
180.8294202407
 11
128.7139404062
 21
180.3845281085
  0
LINE
  5
5B1
100
AcDbEntity
  8
0
100
AcDbLine
 62
7
  6
CONTINUOUS
 10
49.2765716492
 20
227.2734648654
 11
51.311379587
 21
226.0986945316
  0
LINE
  5
5B2
100
AcDbEntity
  8
0
100
AcDbLine
 62
7
  6
CONTINUOUS
 10
50.7127702774
 20
225.7207888789
 11
49.3692617996
 21
226.6321722524
  0
LINE
  5
5B3
100
AcDbEntity
  8
0
100
AcDbLine
 62
7
  6
CONTINUOUS
 10
171.2435349039
 20
36.5774978766
 11
171.2144308241
 21
36.7132252228
  0
LINE
  5
5B4
100
AcDbEntity
  8
0
100
AcDbLine
 62
7
  6
CONTINUOUS
 10
149.8115627014
 20
184.4408325483
 11
149.8115627014
 21
186.0797660666
  0
LINE
  5
5B5
100
AcDbEntity
  8
0
100
AcDbLine
 62
7
  6
CONTINUOUS
 10
149.9024986901
 20
184.362929756
 11
149.9024986901
 21
182.817334005
  0
LINE
  5
5B6
100
AcDbEntity
  8
0
100
AcDbLine
 62
7
  6
CONTINUOUS
 10
149.9024986901
 20
35.2345221089
 11
149.9024986901
 21
31.1111849024
  0
LINE
  5
5B7
100
AcDbEntity
  8
0
100
AcDbLine
 62
7
  6
CONTINUOUS
 10
150.2345480604
 20
35.3927003058
 11
150.2345480604
 21
182.3631353892
  0
LINE
  5
5B8
100
AcDbEntity
  8
0
100
AcDbLine
 62
7
  6
CONTINUOUS
 10
151.3657448495
 20
183.0140019273
 11
151.3657448495
 21
184.6470067616
  0
LINE
  5
5B9
100
AcDbEntity
  8
0
100
AcDbLine
 62
7
  6
CONTINUOUS
 10
107.1626459506
 20
103.8019495099
 11
116.2865481829
 21
109.0696054761
  0
LINE
  5
5BA
100
AcDbEntity
  8
0
100
AcDbLine
 62
7
  6
CONTINUOUS
 10
116.6434941671
 20
108.5891179543
 11
107.1683027484
 21
103.1186462924
  0
LINE
  5
5BB
100
AcDbEntity
  8
0
100
AcDbLine
 62
7
  6
CONTINUOUS
 10
116.8202715984
 20
108.4870577657
 11
107.3450801797
 21
103.0165861038
  0
LINE
  5
5BC
100
AcDbEntity
  8
0
100
AcDbLine
 62
7
  6
CONTINUOUS
 10
46.7115112046
 20
58.3429887633
 11
46.1326414199
 21
58.0087801322
  0
LINE
  5
5BD
100
AcDbEntity
  8
0
100
AcDbLine
 62
7
  6
CONTINUOUS
 10
106.748996739
 20
107.6159918579
 11
106.7136312751
 21
107.6041843238
  0
LINE
  5
5BE
100
AcDbEntity
  8
0
100
AcDbLine
 62
7
  6
CONTINUOUS
 10
167.8584598738
 20
180.4626489985
 11
151.3657448495
 21
183.0140019273
  0
LINE
  5
5BF
100
AcDbEntity
  8
0
100
AcDbLine
 62
7
  6
CONTINUOUS
 10
151.3657448495
 20
184.6470067616
 11
173.5118786397
 21
181.2210939738
  0
LINE
  5
5C0
100
AcDbEntity
  8
0
100
AcDbLine
 62
7
  6
CONTINUOUS
 10
171.3304686775
 20
182.1776396601
 11
150.3745882646
 21
186.5046379301
  0
LINE
  5
5C1
100
AcDbEntity
  8
0
100
AcDbLine
 62
7
  6
CONTINUOUS
 10
171.2435349039
 20
179.7448949374
 11
167.8584598738
 21
180.4626489985
  0
LINE
  5
5C2
100
AcDbEntity
  8
0
100
AcDbLine
 62
7
  6
CONTINUOUS
 10
173.5118786397
 20
181.2210939738
 11
149.9246936332
 21
186.4194268832
  0
LINE
  5
5C3
100
AcDbEntity
  8
0
100
AcDbLine
 62
7
  6
CONTINUOUS
 10
139.4205026781
 20
182.304142144
 11
140.0252033937
 21
181.978983442
  0
LINE
  5
5C4
100
AcDbEntity
  8
0
100
AcDbLine
 62
7
  6
CONTINUOUS
 10
136.4425393867
 20
181.5952397907
 11
137.6446259195
 21
180.9254590826
  0
LINE
  5
5C5
100
AcDbEntity
  8
0
100
AcDbLine
 62
7
  6
CONTINUOUS
 10
49.5012478153
 20
238.4170254919
 11
46.3747816998
 21
240.2220507102
  0
LINE
  5
5C6
100
AcDbEntity
  8
0
100
AcDbLine
 62
7
  6
CONTINUOUS
 10
137.6446259195
 20
186.735360416
 11
136.7695295466
 21
187.258224059
  0
LINE
  5
5C7
100
AcDbEntity
  8
0
100
AcDbLine
 62
7
  6
CONTINUOUS
 10
170.0071565147
 20
172.5611965582
 11
169.3138844079
 21
169.3012680341
  0
LINE
  5
5C8
100
AcDbEntity
  8
0
100
AcDbLine
 62
7
  6
CONTINUOUS
 10
136.5985150141
 20
41.0880201987
 11
136.5583866612
 21
40.9041043822
  0
LINE
  5
5C9
100
AcDbEntity
  8
0
100
AcDbLine
 62
7
  6
CONTINUOUS
 10
171.0924319455
 20
168.9598921893
 11
171.1174657435
 21
169.0719625603
  0
LINE
  5
5CA
100
AcDbEntity
  8
0
100
AcDbLine
 62
7
  6
CONTINUOUS
 10
170.5620980353
 20
169.4902134189
 11
171.2091355943
 21
170.8843888825
  0
LINE
  5
5CB
100
AcDbEntity
  8
0
100
AcDbLine
 62
7
  6
CONTINUOUS
 10
171.2091355943
 20
162.7193647112
 11
171.1179867677
 21
162.5229658224
  0
LINE
  5
5CC
100
AcDbEntity
  8
0
100
AcDbLine
 62
7
  6
CONTINUOUS
 10
44.6669821274
 20
55.4591613934
 11
46.7430129323
 21
56.6577511829
  0
LINE
  5
5CD
100
AcDbEntity
  8
0
100
AcDbLine
 62
7
  6
CONTINUOUS
 10
49.7265294155
 20
57.7313909002
 11
50.2150641966
 21
58.013444904
  0
LINE
  5
5CE
100
AcDbEntity
  8
0
100
AcDbLine
 62
7
  6
CONTINUOUS
 10
50.2464152177
 20
56.336269624
 11
49.6935510986
 21
56.0170752813
  0
LINE
  5
5CF
100
AcDbEntity
  8
0
100
AcDbLine
 62
7
  6
CONTINUOUS
 10
48.9096345903
 20
53.8262017747
 11
50.278561558
 21
54.6165474103
  0
LINE
  5
5D0
100
AcDbEntity
  8
0
100
AcDbLine
 62
7
  6
CONTINUOUS
 10
53.6410372152
 20
55.9453759974
 11
53.749939708
 21
56.0082505056
  0
LINE
  5
5D1
100
AcDbEntity
  8
0
100
AcDbLine
 62
7
  6
CONTINUOUS
 10
52.4451832161
 20
51.7849980021
 11
53.8141101838
 21
52.5753436377
  0
LINE
  5
5D2
100
AcDbEntity
  8
0
100
AcDbLine
 62
7
  6
CONTINUOUS
 10
107.3450801797
 20
83.338877851
 11
116.8202715984
 21
88.8093495129
  0
LINE
  5
5D3
100
AcDbEntity
  8
0
100
AcDbLine
 62
7
  6
CONTINUOUS
 10
57.2019827513
 20
53.9552330449
 11
57.2848152195
 21
54.0030561072
  0
LINE
  5
5D4
100
AcDbEntity
  8
0
100
AcDbLine
 62
7
  6
CONTINUOUS
 10
116.2865481829
 20
88.0495672495
 11
107.1626459506
 21
82.7819112833
  0
LINE
  5
5D5
100
AcDbEntity
  8
0
100
AcDbLine
 62
7
  6
CONTINUOUS
 10
107.9708656365
 20
82.6782074128
 11
109.4077006338
 21
83.5077595335
  0
LINE
  5
5D6
100
AcDbEntity
  8
0
100
AcDbLine
 62
7
  6
CONTINUOUS
 10
173.5118786397
 20
181.2210939738
 11
171.3304686775
 21
182.1776396601
  0
LINE
  5
5D7
100
AcDbEntity
  8
0
100
AcDbLine
 62
7
  6
CONTINUOUS
 10
49.5012478153
 20
240.1615660766
 11
47.8489635259
 21
241.1154912752
  0
LINE
  5
5D8
100
AcDbEntity
  8
0
100
AcDbLine
 62
7
  6
CONTINUOUS
 10
100.4759349249
 20
219.1991565107
 11
98.6014586727
 21
220.2813613968
  0
LINE
  5
5D9
100
AcDbEntity
  8
0
100
AcDbLine
 62
7
  6
CONTINUOUS
 10
96.9403862991
 20
221.2403602833
 11
95.065910047
 21
222.3225651694
  0
LINE
  5
5DA
100
AcDbEntity
  8
0
100
AcDbLine
 62
7
  6
CONTINUOUS
 10
93.4048376734
 20
223.2815640559
 11
91.5303614212
 21
224.363768942
  0
LINE
  5
5DB
100
AcDbEntity
  8
0
100
AcDbLine
 62
7
  6
CONTINUOUS
 10
89.8692890477
 20
225.3227678285
 11
87.9948127955
 21
226.4049727146
  0
LINE
  5
5DC
100
AcDbEntity
  8
0
100
AcDbLine
 62
7
  6
CONTINUOUS
 10
86.3337404219
 20
227.3639716011
 11
84.4592641698
 21
228.4461764872
  0
LINE
  5
5DD
100
AcDbEntity
  8
0
100
AcDbLine
 62
7
  6
CONTINUOUS
 10
82.7981917962
 20
229.4051753737
 11
80.923715544
 21
230.4873802598
  0
LINE
  5
5DE
100
AcDbEntity
  8
0
100
AcDbLine
 62
7
  6
CONTINUOUS
 10
79.2626431705
 20
231.4463791463
 11
77.3881669183
 21
232.5285840324
  0
LINE
  5
5DF
100
AcDbEntity
  8
0
100
AcDbLine
 62
7
  6
CONTINUOUS
 10
75.7270945447
 20
233.4875829189
 11
73.8526182926
 21
234.569787805
  0
LINE
  5
5E0
100
AcDbEntity
  8
0
100
AcDbLine
 62
7
  6
CONTINUOUS
 10
72.191545919
 20
235.5287866915
 11
70.3170696668
 21
236.6109915776
  0
LINE
  5
5E1
100
AcDbEntity
  8
0
100
AcDbLine
 62
7
  6
CONTINUOUS
 10
68.6559972933
 20
237.5699904641
 11
66.7815210411
 21
238.6521953502
  0
LINE
  5
5E2
100
AcDbEntity
  8
0
100
AcDbLine
 62
7
  6
CONTINUOUS
 10
65.1204486675
 20
239.6111942367
 11
63.2459724154
 21
240.6933991228
  0
LINE
  5
5E3
100
AcDbEntity
  8
0
100
AcDbLine
 62
7
  6
CONTINUOUS
 10
61.5849000418
 20
241.6523980094
 11
59.7104237896
 21
242.7346028954
  0
LINE
  5
5E4
100
AcDbEntity
  8
0
100
AcDbLine
 62
7
  6
CONTINUOUS
 10
140.3316193233
 20
189.419338485
 11
139.4336180578
 21
189.9378877599
  0
LINE
  5
5E5
100
AcDbEntity
  8
0
100
AcDbLine
 62
7
  6
CONTINUOUS
 10
139.5290034667
 20
188.9323926709
 11
140.4730412683
 21
188.3683370315
  0
LINE
  5
5E6
100
AcDbEntity
  8
0
100
AcDbLine
 62
7
  6
CONTINUOUS
 10
151.3657448495
 20
183.0140019273
 11
149.8212455378
 21
184.4378348823
  0
LINE
  5
5E7
100
AcDbEntity
  8
0
100
AcDbLine
 62
7
  6
CONTINUOUS
 10
149.8115627014
 20
186.0797660666
 11
151.3657448495
 21
184.6470067616
  0
LINE
  5
5E8
100
AcDbEntity
  8
0
100
AcDbLine
 62
7
  6
CONTINUOUS
 10
169.3064310669
 20
35.0387378723
 11
169.3064310669
 21
43.2037620436
  0
LINE
  5
5E9
100
AcDbEntity
  8
0
100
AcDbLine
 62
7
  6
CONTINUOUS
 10
169.3064310669
 20
161.0658859562
 11
169.3064310669
 21
169.2309101275
  0
LINE
  5
5EA
100
AcDbEntity
  8
0
100
AcDbLine
 62
7
  6
CONTINUOUS
 10
169.8747214749
 20
180.0351311623
 11
169.8747214749
 21
171.9384558484
  0
LINE
  5
5EB
100
AcDbEntity
  8
0
100
AcDbLine
 62
7
  6
CONTINUOUS
 10
169.8747214749
 20
160.5082157708
 11
169.8747214749
 21
45.9113077644
  0
LINE
  5
5EC
100
AcDbEntity
  8
0
100
AcDbLine
 62
7
  6
CONTINUOUS
 10
169.8747214749
 20
34.4810676868
 11
169.8747214749
 21
33.2122431342
  0
LINE
  5
5ED
100
AcDbEntity
  8
0
100
AcDbLine
 62
7
  6
CONTINUOUS
 10
169.9219304324
 20
180.0251212155
 11
169.9219304324
 21
172.1604434713
  0
LINE
  5
5EE
100
AcDbEntity
  8
0
100
AcDbLine
 62
7
  6
CONTINUOUS
 10
169.9219304324
 20
160.5082157708
 11
169.9219304324
 21
46.1332953873
  0
LINE
  5
5EF
100
AcDbEntity
  8
0
100
AcDbLine
 62
7
  6
CONTINUOUS
 10
169.9219304324
 20
28.8886223724
 11
169.9219304324
 21
34.4810676868
  0
LINE
  5
5F0
100
AcDbEntity
  8
0
100
AcDbLine
 62
7
  6
CONTINUOUS
 10
170.0476160433
 20
34.4810676868
 11
170.0476160433
 21
42.6460918581
  0
LINE
  5
5F1
100
AcDbEntity
  8
0
100
AcDbLine
 62
7
  6
CONTINUOUS
 10
170.0476160433
 20
160.5082157708
 11
170.0476160433
 21
168.6732399421
  0
LINE
  5
5F2
100
AcDbEntity
  8
0
100
AcDbLine
 62
7
  6
CONTINUOUS
 10
170.1294446295
 20
173.7427171396
 11
170.1294446295
 21
173.4615389034
  0
LINE
  5
5F3
100
AcDbEntity
  8
0
100
AcDbLine
 62
7
  6
CONTINUOUS
 10
170.1294446295
 20
47.7155690556
 11
170.1294446295
 21
47.4343908195
  0
LINE
  5
5F4
100
AcDbEntity
  8
0
100
AcDbLine
 62
7
  6
CONTINUOUS
 10
170.1738755
 20
168.6537081407
 11
170.1738755
 21
160.4886839694
  0
LINE
  5
5F5
100
AcDbEntity
  8
0
100
AcDbLine
 62
7
  6
CONTINUOUS
 10
170.1738755
 20
42.6265600567
 11
170.1738755
 21
34.4615358854
  0
LINE
  5
5F6
100
AcDbEntity
  8
0
100
AcDbLine
 62
7
  6
CONTINUOUS
 10
171.1179867677
 20
169.0719607798
 11
171.1179867677
 21
160.9069366085
  0
LINE
  5
5F7
100
AcDbEntity
  8
0
100
AcDbLine
 62
7
  6
CONTINUOUS
 10
171.1179867677
 20
43.0448126958
 11
171.1179867677
 21
34.8797885245
  0
LINE
  5
5F8
100
AcDbEntity
  8
0
100
AcDbLine
 62
7
  6
CONTINUOUS
 10
171.2091355943
 20
170.8843888825
 11
171.2091355943
 21
162.7193647112
  0
LINE
  5
5F9
100
AcDbEntity
  8
0
100
AcDbLine
 62
7
  6
CONTINUOUS
 10
171.2091355943
 20
44.8572407986
 11
171.2091355943
 21
36.6922166273
  0
LINE
  5
5FA
100
AcDbEntity
  8
0
100
AcDbLine
 62
7
  6
CONTINUOUS
 10
171.2435349039
 20
26.3303925416
 11
171.2435349039
 21
36.5774978766
  0
LINE
  5
5FB
100
AcDbEntity
  8
0
100
AcDbLine
 62
7
  6
CONTINUOUS
 10
171.2435349039
 20
45.559024465
 11
171.2435349039
 21
162.6046459605
  0
LINE
  5
5FC
100
AcDbEntity
  8
0
100
AcDbLine
 62
7
  6
CONTINUOUS
 10
171.2435349039
 20
171.5861725489
 11
171.2435349039
 21
179.7448949374
  0
LINE
  5
5FD
100
AcDbEntity
  8
0
100
AcDbLine
 62
7
  6
CONTINUOUS
 10
171.821506558
 20
36.4880881178
 11
171.821506558
 21
45.4696147062
  0
LINE
  5
5FE
100
AcDbEntity
  8
0
100
AcDbLine
 62
7
  6
CONTINUOUS
 10
171.821506558
 20
162.5152362017
 11
171.821506558
 21
171.4967627901
  0
LINE
  5
5FF
100
AcDbEntity
  8
0
100
AcDbLine
 62
7
  6
CONTINUOUS
 10
173.5118786397
 20
25.9794894049
 11
173.5118786397
 21
181.2210939738
  0
LINE
  5
600
100
AcDbEntity
  8
0
100
AcDbLine
 62
7
  6
CONTINUOUS
 10
170.1465759748
 20
173.4615389034
 11
170.1503026452
 21
173.543526915
  0
LINE
  5
601
100
AcDbEntity
  8
0
100
AcDbLine
 62
7
  6
CONTINUOUS
 10
170.1465759748
 20
47.4343908195
 11
170.1503026452
 21
47.5163788311
  0
LINE
  5
602
100
AcDbEntity
  8
0
100
AcDbLine
 62
7
  6
CONTINUOUS
 10
169.3138844079
 20
169.3012680341
 11
169.307246642
 21
169.2309101658
  0
LINE
  5
603
100
AcDbEntity
  8
0
100
AcDbLine
 62
7
  6
CONTINUOUS
 10
171.1174657435
 20
160.906938389
 11
171.0924319455
 21
160.794868018
  0
LINE
  5
604
100
AcDbEntity
  8
0
100
AcDbLine
 62
7
  6
CONTINUOUS
 10
111.2450522349
 20
73.5809381763
 11
110.9747476884
 21
73.4196940044
  0
LINE
  5
605
100
AcDbEntity
  8
0
100
AcDbLine
 62
7
  6
CONTINUOUS
 10
109.6226176022
 20
83.0974823583
 11
108.3833474171
 21
82.3819936543
  0
LINE
  5
606
100
AcDbEntity
  8
0
100
AcDbLine
 62
7
  6
CONTINUOUS
 10
109.7467587204
 20
82.7184034763
 11
114.975436248
 21
85.7371638348
  0
LINE
  5
607
100
AcDbEntity
  8
0
100
AcDbLine
 62
7
  6
CONTINUOUS
 10
111.3192346501
 20
83.5215701558
 11
112.935674022
 21
84.4548162916
  0
LINE
  5
608
100
AcDbEntity
  8
0
100
AcDbLine
 62
7
  6
CONTINUOUS
 10
116.2865481829
 20
85.97565111
 11
116.5918756198
 21
86.1519309357
  0
LINE
  5
609
100
AcDbEntity
  8
0
100
AcDbLine
 62
7
  6
CONTINUOUS
 10
114.409680718
 20
84.2014293747
 11
114.813790561
 21
84.4347409086
  0
LINE
  5
60A
100
AcDbEntity
  8
0
100
AcDbLine
 62
7
  6
CONTINUOUS
 10
106.7105419116
 20
79.2688191636
 11
106.6379763425
 21
79.2269236702
  0
LINE
  5
60B
100
AcDbEntity
  8
0
100
AcDbLine
 62
7
  6
CONTINUOUS
 10
55.9807318418
 20
49.7437942295
 11
57.3496588095
 21
50.5341398651
  0
LINE
  5
60C
100
AcDbEntity
  8
0
100
AcDbLine
 62
7
  6
CONTINUOUS
 10
60.7629282875
 20
51.9650900925
 11
60.8196907309
 21
51.9978617089
  0
LINE
  5
60D
100
AcDbEntity
  8
0
100
AcDbLine
 62
7
  6
CONTINUOUS
 10
108.3833474171
 20
79.1259453152
 11
109.6226176022
 21
79.8414340193
  0
LINE
  5
60E
100
AcDbEntity
  8
0
100
AcDbLine
 62
7
  6
CONTINUOUS
 10
107.946620039
 20
78.6242178948
 11
108.2582314844
 21
78.8041257728
  0
LINE
  5
60F
100
AcDbEntity
  8
0
100
AcDbLine
 62
7
  6
CONTINUOUS
 10
107.1626459506
 20
78.1155999694
 11
107.9708656365
 21
78.5822230373
  0
LINE
  5
610
100
AcDbEntity
  8
0
100
AcDbLine
 62
7
  6
CONTINUOUS
 10
112.1466467537
 20
78.2492565972
 11
112.5507565967
 21
78.4825681311
  0
LINE
  5
611
100
AcDbEntity
  8
0
100
AcDbLine
 62
7
  6
CONTINUOUS
 10
59.5162804675
 20
47.7025904569
 11
60.8852074352
 21
48.4929360925
  0
LINE
  5
612
100
AcDbEntity
  8
0
100
AcDbLine
 62
7
  6
CONTINUOUS
 10
110.341621248
 20
76.8055645213
 11
108.7251818762
 21
75.8723183856
  0
LINE
  5
613
100
AcDbEntity
  8
0
100
AcDbLine
 62
7
  6
CONTINUOUS
 10
108.2582299889
 20
75.4858555024
 11
107.4500103029
 21
75.0192324345
  0
LINE
  5
614
100
AcDbEntity
  8
0
100
AcDbLine
 62
7
  6
CONTINUOUS
 10
108.2582310829
 20
75.1824316773
 11
108.4671054842
 21
75.3030246492
  0
LINE
  5
615
100
AcDbEntity
  8
0
100
AcDbLine
 62
7
  6
CONTINUOUS
 10
108.4671054842
 20
75.2408071651
 11
108.2369542983
 21
75.1079301091
  0
LINE
  5
616
100
AcDbEntity
  8
0
100
AcDbLine
 62
7
  6
CONTINUOUS
 10
108.2582314844
 20
75.0710767217
 11
107.4500117985
 21
74.6044536538
  0
LINE
  5
617
100
AcDbEntity
  8
0
100
AcDbLine
 62
7
  6
CONTINUOUS
 10
110.9015883036
 20
76.5412105269
 11
109.2851489317
 21
75.6079643912
  0
LINE
  5
618
100
AcDbEntity
  8
0
100
AcDbLine
 62
7
  6
CONTINUOUS
 10
107.8325691165
 20
74.721626099
 11
107.0243494306
 21
74.2550030311
  0
LINE
  5
619
100
AcDbEntity
  8
0
100
AcDbLine
 62
7
  6
CONTINUOUS
 10
107.9708656365
 20
74.6417823722
 11
107.1626459506
 21
74.1751593043
  0
LINE
  5
61A
100
AcDbEntity
  8
0
100
AcDbLine
 62
7
  6
CONTINUOUS
 10
109.4436188616
 20
75.2577129006
 11
108.994607925
 21
74.9984778629
  0
LINE
  5
61B
100
AcDbEntity
  8
0
100
AcDbLine
 62
7
  6
CONTINUOUS
 10
108.2582314844
 20
74.3659452343
 11
107.9708656365
 21
74.200035475
  0
LINE
  5
61C
100
AcDbEntity
  8
0
100
AcDbLine
 62
7
  6
CONTINUOUS
 10
109.8891259777
 20
75.1687370853
 11
111.5055653496
 21
76.101983221
  0
LINE
  5
61D
100
AcDbEntity
  8
0
100
AcDbLine
 62
7
  6
CONTINUOUS
 10
109.4436203571
 20
74.8429341199
 11
109.2999400769
 21
74.7599807666
  0
LINE
  5
61E
100
AcDbEntity
  8
0
100
AcDbLine
 62
7
  6
CONTINUOUS
 10
109.6226176022
 20
74.573687025
 11
108.3833474171
 21
73.8581983209
  0
LINE
  5
61F
100
AcDbEntity
  8
0
100
AcDbLine
 62
7
  6
CONTINUOUS
 10
114.813790561
 20
77.1760344204
 11
114.409680718
 21
76.9427228864
  0
LINE
  5
620
100
AcDbEntity
  8
0
100
AcDbLine
 62
7
  6
CONTINUOUS
 10
114.3019171959
 20
75.7709586744
 11
112.7662997927
 21
74.8843748454
  0
LINE
  5
621
100
AcDbEntity
  8
0
100
AcDbLine
 62
7
  6
CONTINUOUS
 10
110.7906516715
 20
73.7437406795
 11
109.9613886632
 21
73.2649683163
  0
LINE
  5
622
100
AcDbEntity
  8
0
100
AcDbLine
 62
7
  6
CONTINUOUS
 10
116.2865481829
 20
76.8504200962
 11
116.5918756198
 21
77.0266999218
  0
LINE
  5
623
100
AcDbEntity
  8
0
100
AcDbLine
 62
7
  6
CONTINUOUS
 10
114.409680718
 20
75.7087427834
 11
114.813790561
 21
75.9420543174
  0
LINE
  5
624
100
AcDbEntity
  8
0
100
AcDbLine
 62
7
  6
CONTINUOUS
 10
112.8557598365
 20
74.7550088294
 11
111.2393204647
 21
73.8217626936
  0
LINE
  5
625
100
AcDbEntity
  8
0
100
AcDbLine
 62
7
  6
CONTINUOUS
 10
106.7105419116
 20
70.9731546056
 11
106.6379763425
 21
70.9312591122
  0
LINE
  5
626
100
AcDbEntity
  8
0
100
AcDbLine
 62
7
  6
CONTINUOUS
 10
114.8371397279
 20
75.654818478
 11
112.9459056628
 21
74.5629204991
  0
LINE
  5
627
100
AcDbEntity
  8
0
100
AcDbLine
 62
7
  6
CONTINUOUS
 10
110.9747476884
 20
73.4196940044
 11
109.9913710299
 21
72.8519446149
  0
LINE
  5
628
100
AcDbEntity
  8
0
100
AcDbLine
 62
7
  6
CONTINUOUS
 10
63.0518290933
 20
45.6613866843
 11
64.420756061
 21
46.4517323199
  0
LINE
  5
629
100
AcDbEntity
  8
0
100
AcDbLine
 62
7
  6
CONTINUOUS
 10
110.0111830937
 20
72.7088789645
 11
114.975436248
 21
75.5749747512
  0
LINE
  5
62A
100
AcDbEntity
  8
0
100
AcDbLine
 62
7
  6
CONTINUOUS
 10
106.7741698599
 20
81.6751136172
 11
106.6616170894
 21
81.6101400594
  0
LINE
  5
62B
100
AcDbEntity
  8
0
100
AcDbLine
 62
7
  6
CONTINUOUS
 10
106.7741695228
 20
73.3794488645
 11
106.6616170894
 21
73.3144755014
  0
LINE
  5
62C
100
AcDbEntity
  8
0
100
AcDbLine
 62
7
  6
CONTINUOUS
 10
106.7489967709
 20
81.6185548405
 11
106.7136312751
 21
81.6067473624
  0
LINE
  5
62D
100
AcDbEntity
  8
0
100
AcDbLine
 62
7
  6
CONTINUOUS
 10
51.311379587
 20
213.0134830941
 11
49.5131760413
 21
213.0913340449
  0
LINE
  5
62E
100
AcDbEntity
  8
0
100
AcDbLine
 62
7
  6
CONTINUOUS
 10
63.9710413837
 20
251.3598068113
 11
64.2390541815
 21
251.2072710764
  0
LINE
  5
62F
100
AcDbEntity
  8
0
100
AcDbLine
 62
7
  6
CONTINUOUS
 10
67.5065900059
 20
249.347598769
 11
67.7998938342
 21
249.1806689979
  0
LINE
  5
630
100
AcDbEntity
  8
0
100
AcDbLine
 62
7
  6
CONTINUOUS
 10
71.042138628
 20
247.3353907267
 11
71.3607334869
 21
247.1540669193
  0
LINE
  5
631
100
AcDbEntity
  8
0
100
AcDbLine
 62
7
  6
CONTINUOUS
 10
74.5776872502
 20
245.3231826844
 11
74.9215731395
 21
245.1274648408
  0
LINE
  5
632
100
AcDbEntity
  8
0
100
AcDbLine
 62
7
  6
CONTINUOUS
 10
78.1132358723
 20
243.3109746421
 11
78.4824127922
 21
243.1008627622
  0
LINE
  5
633
100
AcDbEntity
  8
0
100
AcDbLine
 62
7
  6
CONTINUOUS
 10
81.6487844945
 20
241.2987665998
 11
82.0432524449
 21
241.0742606837
  0
LINE
  5
634
100
AcDbEntity
  8
0
100
AcDbLine
 62
7
  6
CONTINUOUS
 10
85.1843331166
 20
239.2865585575
 11
85.6040920976
 21
239.0476586051
  0
LINE
  5
635
100
AcDbEntity
  8
0
100
AcDbLine
 62
7
  6
CONTINUOUS
 10
88.7198817388
 20
237.2743505152
 11
89.1649317502
 21
237.0210565266
  0
LINE
  5
636
100
AcDbEntity
  8
0
100
AcDbLine
 62
7
  6
CONTINUOUS
 10
92.2554303609
 20
235.2621424729
 11
92.7257714029
 21
234.994454448
  0
LINE
  5
637
100
AcDbEntity
  8
0
100
AcDbLine
 62
7
  6
CONTINUOUS
 10
95.7909789831
 20
233.2499344305
 11
96.2866110556
 21
232.9678523695
  0
LINE
  5
638
100
AcDbEntity
  8
0
100
AcDbLine
 62
7
  6
CONTINUOUS
 10
99.3265276052
 20
231.2377263882
 11
99.8474507083
 21
230.9412502909
  0
LINE
  5
639
100
AcDbEntity
  8
0
100
AcDbLine
 62
7
  6
CONTINUOUS
 10
102.8620762274
 20
229.2255183459
 11
103.4082903609
 21
228.9146482124
  0
LINE
  5
63A
100
AcDbEntity
  8
0
100
AcDbLine
 62
7
  6
CONTINUOUS
 10
109.2755937692
 20
220.1608858428
 11
109.4134790174
 21
220.0812795586
  0
LINE
  5
63B
100
AcDbEntity
  8
0
100
AcDbLine
 62
7
  6
CONTINUOUS
 10
50.8158622653
 20
255.1584088924
 11
48.1347942515
 21
256.7062892142
  0
LINE
  5
63C
100
AcDbEntity
  8
0
100
AcDbLine
 62
7
  6
CONTINUOUS
 10
61.6959838573
 20
248.9367869436
 11
63.1348885999
 21
248.1060536968
  0
LINE
  5
63D
100
AcDbEntity
  8
0
100
AcDbLine
 62
7
  6
CONTINUOUS
 10
65.231532483
 20
246.895583171
 11
66.6704372256
 21
246.0648499242
  0
LINE
  5
63E
100
AcDbEntity
  8
0
100
AcDbLine
 62
7
  6
CONTINUOUS
 10
68.7670811087
 20
244.8543793984
 11
70.2059858514
 21
244.0236461516
  0
LINE
  5
63F
100
AcDbEntity
  8
0
100
AcDbLine
 62
7
  6
CONTINUOUS
 10
72.3026297345
 20
242.8131756258
 11
73.7415344771
 21
241.982442379
  0
LINE
  5
640
100
AcDbEntity
  8
0
100
AcDbLine
 62
7
  6
CONTINUOUS
 10
75.8381783602
 20
240.7719718532
 11
77.2770831028
 21
239.9412386064
  0
LINE
  5
641
100
AcDbEntity
  8
0
100
AcDbLine
 62
7
  6
CONTINUOUS
 10
79.3737269859
 20
238.7307680806
 11
80.8126317286
 21
237.9000348338
  0
LINE
  5
642
100
AcDbEntity
  8
0
100
AcDbLine
 62
7
  6
CONTINUOUS
 10
82.9092756117
 20
236.689564308
 11
84.3481803543
 21
235.8588310612
  0
LINE
  5
643
100
AcDbEntity
  8
0
100
AcDbLine
 62
7
  6
CONTINUOUS
 10
86.4448242374
 20
234.6483605354
 11
87.88372898
 21
233.8176272886
  0
LINE
  5
644
100
AcDbEntity
  8
0
100
AcDbLine
 62
7
  6
CONTINUOUS
 10
89.9803728632
 20
232.6071567628
 11
91.4192776058
 21
231.776423516
  0
LINE
  5
645
100
AcDbEntity
  8
0
100
AcDbLine
 62
7
  6
CONTINUOUS
 10
93.5159214889
 20
230.5659529902
 11
94.9548262315
 21
229.7352197434
  0
LINE
  5
646
100
AcDbEntity
  8
0
100
AcDbLine
 62
7
  6
CONTINUOUS
 10
97.0514701146
 20
228.5247492176
 11
98.4903748572
 21
227.6940159708
  0
LINE
  5
647
100
AcDbEntity
  8
0
100
AcDbLine
 62
7
  6
CONTINUOUS
 10
112.5141602552
 20
220.4140652796
 11
109.3781229202
 21
222.2245982336
  0
LINE
  5
648
100
AcDbEntity
  8
0
100
AcDbLine
 62
7
  6
CONTINUOUS
 10
58.2694084072
 20
251.7315788644
 11
59.586997328
 21
250.9708857554
  0
LINE
  5
649
100
AcDbEntity
  8
0
100
AcDbLine
 62
7
  6
CONTINUOUS
 10
100.5993613865
 20
227.2929219933
 11
108.8018341982
 21
222.5573292408
  0
LINE
  5
64A
100
AcDbEntity
  8
0
100
AcDbLine
 62
7
  6
CONTINUOUS
 10
62.4154303406
 20
250.1544076458
 11
63.8296497909
 21
249.3379261367
  0
LINE
  5
64B
100
AcDbEntity
  8
0
100
AcDbLine
 62
7
  6
CONTINUOUS
 10
65.9509789664
 20
248.1132038732
 11
67.3651984167
 21
247.2967223641
  0
LINE
  5
64C
100
AcDbEntity
  8
0
100
AcDbLine
 62
7
  6
CONTINUOUS
 10
69.4865275921
 20
246.0720001005
 11
70.9007470424
 21
245.2555185915
  0
LINE
  5
64D
100
AcDbEntity
  8
0
100
AcDbLine
 62
7
  6
CONTINUOUS
 10
73.0220762179
 20
244.0307963279
 11
74.4362956681
 21
243.2143148189
  0
LINE
  5
64E
100
AcDbEntity
  8
0
100
AcDbLine
 62
7
  6
CONTINUOUS
 10
76.5576248436
 20
241.9895925553
 11
77.9718442939
 21
241.1731110463
  0
LINE
  5
64F
100
AcDbEntity
  8
0
100
AcDbLine
 62
7
  6
CONTINUOUS
 10
80.0931734693
 20
239.9483887827
 11
81.5073929196
 21
239.1319072737
  0
LINE
  5
650
100
AcDbEntity
  8
0
100
AcDbLine
 62
7
  6
CONTINUOUS
 10
83.6287220951
 20
237.9071850101
 11
85.0429415454
 21
237.0907035011
  0
LINE
  5
651
100
AcDbEntity
  8
0
100
AcDbLine
 62
7
  6
CONTINUOUS
 10
87.1642707208
 20
235.8659812375
 11
88.5784901711
 21
235.0494997285
  0
LINE
  5
652
100
AcDbEntity
  8
0
100
AcDbLine
 62
7
  6
CONTINUOUS
 10
90.6998193465
 20
233.8247774649
 11
92.1140387968
 21
233.0082959559
  0
LINE
  5
653
100
AcDbEntity
  8
0
100
AcDbLine
 62
7
  6
CONTINUOUS
 10
94.2353679723
 20
231.7835736923
 11
95.6495874226
 21
230.9670921833
  0
LINE
  5
654
100
AcDbEntity
  8
0
100
AcDbLine
 62
7
  6
CONTINUOUS
 10
97.770916598
 20
229.7423699197
 11
99.1851360483
 21
228.9258884107
  0
LINE
  5
655
100
AcDbEntity
  8
0
100
AcDbLine
 62
7
  6
CONTINUOUS
 10
52.3206012001
 20
256.0641553606
 11
49.599891433
 21
257.6349223415
  0
LINE
  5
656
100
AcDbEntity
  8
0
100
AcDbLine
 62
7
  6
CONTINUOUS
 10
59.7284069084
 20
252.6038559122
 11
45.5720702109
 21
260.7768358177
  0
LINE
  5
657
100
AcDbEntity
  8
0
100
AcDbLine
 62
7
  6
CONTINUOUS
 10
100.5022833429
 20
220.9269700874
 11
100.1150824004
 21
221.155247247
  0
LINE
  5
658
100
AcDbEntity
  8
0
100
AcDbLine
 62
7
  6
CONTINUOUS
 10
96.9673877025
 20
223.0109937756
 11
96.6165589985
 21
223.2178274149
  0
LINE
  5
659
100
AcDbEntity
  8
0
100
AcDbLine
 62
7
  6
CONTINUOUS
 10
93.4324920622
 20
225.0950174638
 11
93.1180355965
 21
225.2804075828
  0
LINE
  5
65A
100
AcDbEntity
  8
0
100
AcDbLine
 62
7
  6
CONTINUOUS
 10
89.8975964219
 20
227.179041152
 11
89.6195121945
 21
227.3429877508
  0
LINE
  5
65B
100
AcDbEntity
  8
0
100
AcDbLine
 62
7
  6
CONTINUOUS
 10
86.3627007815
 20
229.2630648402
 11
86.1209887926
 21
229.4055679187
  0
LINE
  5
65C
100
AcDbEntity
  8
0
100
AcDbLine
 62
7
  6
CONTINUOUS
 10
82.8278051412
 20
231.3470885284
 11
82.6224653906
 21
231.4681480866
  0
LINE
  5
65D
100
AcDbEntity
  8
0
100
AcDbLine
 62
7
  6
CONTINUOUS
 10
79.2929095009
 20
233.4311122166
 11
79.1239419887
 21
233.5307282545
  0
LINE
  5
65E
100
AcDbEntity
  8
0
100
AcDbLine
 62
7
  6
CONTINUOUS
 10
75.7580138605
 20
235.5151359048
 11
75.6254185867
 21
235.5933084224
  0
LINE
  5
65F
100
AcDbEntity
  8
0
100
AcDbLine
 62
7
  6
CONTINUOUS
 10
72.2231182202
 20
237.599159593
 11
72.1268951847
 21
237.6558885903
  0
LINE
  5
660
100
AcDbEntity
  8
0
100
AcDbLine
 62
7
  6
CONTINUOUS
 10
68.6882225798
 20
239.6831832812
 11
68.6283717828
 21
239.7184687582
  0
LINE
  5
661
100
AcDbEntity
  8
0
100
AcDbLine
 62
7
  6
CONTINUOUS
 10
171.1960260636
 20
162.6966088248
 11
171.2435349039
 21
162.6046459605
  0
LINE
  5
662
100
AcDbEntity
  8
0
100
AcDbLine
 62
7
  6
CONTINUOUS
 10
170.8442497363
 20
170.9408351741
 11
170.0071565147
 21
172.5611965582
  0
LINE
  5
663
100
AcDbEntity
  8
0
100
AcDbLine
 62
7
  6
CONTINUOUS
 10
171.2435349039
 20
171.5861725489
 11
170.1294446295
 21
173.7427171396
  0
LINE
  5
664
100
AcDbEntity
  8
0
100
AcDbLine
 62
7
  6
CONTINUOUS
 10
171.2435349039
 20
162.6046459605
 11
171.2144308241
 21
162.7403733067
  0
LINE
  5
665
100
AcDbEntity
  8
0
100
AcDbLine
 62
7
  6
CONTINUOUS
 10
169.3138844079
 20
43.2741199501
 11
169.307246642
 21
43.2037620818
  0
LINE
  5
666
100
AcDbEntity
  8
0
100
AcDbLine
 62
7
  6
CONTINUOUS
 10
136.7930060487
 20
41.5071030425
 11
136.5985150141
 21
41.0880201987
  0
LINE
  5
667
100
AcDbEntity
  8
0
100
AcDbLine
 62
7
  6
CONTINUOUS
 10
108.1075219045
 20
70.7843848421
 11
108.0026571187
 21
70.7238414912
  0
LINE
  5
668
100
AcDbEntity
  8
0
100
AcDbLine
 62
7
  6
CONTINUOUS
 10
108.2259077579
 20
70.6930457552
 11
107.9708656365
 21
70.5457979967
  0
LINE
  5
669
100
AcDbEntity
  8
0
100
AcDbLine
 62
7
  6
CONTINUOUS
 10
108.3833474171
 20
70.6021499819
 11
109.6226176022
 21
71.3176386859
  0
LINE
  5
66A
100
AcDbEntity
  8
0
100
AcDbLine
 62
7
  6
CONTINUOUS
 10
107.1626459506
 20
69.5088479904
 11
116.2865481829
 21
74.7765039567
  0
LINE
  5
66B
100
AcDbEntity
  8
0
100
AcDbLine
 62
7
  6
CONTINUOUS
 10
116.6434941671
 20
74.2960164349
 11
107.1683027484
 21
68.825544773
  0
LINE
  5
66C
100
AcDbEntity
  8
0
100
AcDbLine
 62
7
  6
CONTINUOUS
 10
116.8202715984
 20
74.1939562462
 11
107.3450801797
 21
68.7234845844
  0
LINE
  5
66D
100
AcDbEntity
  8
0
100
AcDbLine
 62
7
  6
CONTINUOUS
 10
66.587377719
 20
43.6201829117
 11
67.9563046867
 21
44.4105285473
  0
LINE
  5
66E
100
AcDbEntity
  8
0
100
AcDbLine
 62
7
  6
CONTINUOUS
 10
107.3450801797
 20
66.1923270913
 11
116.8202715984
 21
71.6627987531
  0
LINE
  5
66F
100
AcDbEntity
  8
0
100
AcDbLine
 62
7
  6
CONTINUOUS
 10
116.2865481829
 20
70.9030164898
 11
107.1626459506
 21
65.6353605236
  0
LINE
  5
670
100
AcDbEntity
  8
0
100
AcDbLine
 62
7
  6
CONTINUOUS
 10
107.9708656365
 20
65.5316566531
 11
109.4077006338
 21
66.3612087738
  0
LINE
  5
671
100
AcDbEntity
  8
0
100
AcDbLine
 62
7
  6
CONTINUOUS
 10
109.6226176022
 20
65.9509315986
 11
108.3833474171
 21
65.2354428945
  0
LINE
  5
672
100
AcDbEntity
  8
0
100
AcDbLine
 62
7
  6
CONTINUOUS
 10
109.7467587204
 20
65.5718527166
 11
114.975436248
 21
68.5906130751
  0
LINE
  5
673
100
AcDbEntity
  8
0
100
AcDbLine
 62
7
  6
CONTINUOUS
 10
111.3192346501
 20
66.3750193961
 11
112.935674022
 21
67.3082655319
  0
LINE
  5
674
100
AcDbEntity
  8
0
100
AcDbLine
 62
7
  6
CONTINUOUS
 10
116.2865481829
 20
68.8291003503
 11
116.5918756198
 21
69.005380176
  0
LINE
  5
675
100
AcDbEntity
  8
0
100
AcDbLine
 62
7
  6
CONTINUOUS
 10
70.1229263448
 20
41.5789791391
 11
71.4918533125
 21
42.3693247747
  0
LINE
  5
676
100
AcDbEntity
  8
0
100
AcDbLine
 62
7
  6
CONTINUOUS
 10
114.409680718
 20
67.054878615
 11
114.813790561
 21
67.2881901489
  0
LINE
  5
677
100
AcDbEntity
  8
0
100
AcDbLine
 62
7
  6
CONTINUOUS
 10
106.7105419116
 20
62.1222684039
 11
106.6379763425
 21
62.0803729105
  0
LINE
  5
678
100
AcDbEntity
  8
0
100
AcDbLine
 62
7
  6
CONTINUOUS
 10
108.3833474171
 20
61.9793945555
 11
109.6226176022
 21
62.6948832596
  0
LINE
  5
679
100
AcDbEntity
  8
0
100
AcDbLine
 62
7
  6
CONTINUOUS
 10
107.946620039
 20
61.4776671351
 11
108.2582314844
 21
61.6575750131
  0
LINE
  5
67A
100
AcDbEntity
  8
0
100
AcDbLine
 62
7
  6
CONTINUOUS
 10
107.1626459506
 20
60.9690492097
 11
107.9708656365
 21
61.4356722776
  0
LINE
  5
67B
100
AcDbEntity
  8
0
100
AcDbLine
 62
7
  6
CONTINUOUS
 10
106.7741698599
 20
64.5285628575
 11
106.6616170894
 21
64.4635892997
  0
LINE
  5
67C
100
AcDbEntity
  8
0
100
AcDbLine
 62
7
  6
CONTINUOUS
 10
106.748996739
 20
73.3228903384
 11
106.7136312751
 21
73.3110828043
  0
LINE
  5
67D
100
AcDbEntity
  8
0
100
AcDbLine
 62
7
  6
CONTINUOUS
 10
63.9710411496
 20
253.2527732452
 11
65.8765309478
 21
252.152663085
  0
LINE
  5
67E
100
AcDbEntity
  8
0
100
AcDbLine
 62
7
  6
CONTINUOUS
 10
67.5065897753
 20
251.2115694726
 11
69.4120795736
 21
250.1114593124
  0
LINE
  5
67F
100
AcDbEntity
  8
0
100
AcDbLine
 62
7
  6
CONTINUOUS
 10
71.042138401
 20
249.1703657
 11
72.9476281993
 21
248.0702555398
  0
LINE
  5
680
100
AcDbEntity
  8
0
100
AcDbLine
 62
7
  6
CONTINUOUS
 10
74.5776870268
 20
247.1291619274
 11
76.483176825
 21
246.0290517672
  0
LINE
  5
681
100
AcDbEntity
  8
0
100
AcDbLine
 62
7
  6
CONTINUOUS
 10
78.1132356525
 20
245.0879581548
 11
80.0187254508
 21
243.9878479946
  0
LINE
  5
682
100
AcDbEntity
  8
0
100
AcDbLine
 62
7
  6
CONTINUOUS
 10
81.6487842782
 20
243.0467543822
 11
83.5542740765
 21
241.946644222
  0
LINE
  5
683
100
AcDbEntity
  8
0
100
AcDbLine
 62
7
  6
CONTINUOUS
 10
85.184332904
 20
241.0055506096
 11
87.0898227022
 21
239.9054404494
  0
LINE
  5
684
100
AcDbEntity
  8
0
100
AcDbLine
 62
7
  6
CONTINUOUS
 10
88.7198815297
 20
238.964346837
 11
90.625371328
 21
237.8642366768
  0
LINE
  5
685
100
AcDbEntity
  8
0
100
AcDbLine
 62
7
  6
CONTINUOUS
 10
92.2554301554
 20
236.9231430644
 11
94.1609199537
 21
235.8230329042
  0
LINE
  5
686
100
AcDbEntity
  8
0
100
AcDbLine
 62
7
  6
CONTINUOUS
 10
95.7909787812
 20
234.8819392918
 11
97.6964685794
 21
233.7818291316
  0
LINE
  5
687
100
AcDbEntity
  8
0
100
AcDbLine
 62
7
  6
CONTINUOUS
 10
99.3265274069
 20
232.8407355192
 11
101.2320172052
 21
231.740625359
  0
LINE
  5
688
100
AcDbEntity
  8
0
100
AcDbLine
 62
7
  6
CONTINUOUS
 10
102.8620760326
 20
230.7995317466
 11
104.7675658309
 21
229.6994215864
  0
LINE
  5
689
100
AcDbEntity
  8
0
100
AcDbLine
 62
7
  6
CONTINUOUS
 10
106.3305997988
 20
230.6018342819
 11
104.4251100005
 21
231.701944442
  0
LINE
  5
68A
100
AcDbEntity
  8
0
100
AcDbLine
 62
7
  6
CONTINUOUS
 10
102.7950511731
 20
232.6430380545
 11
100.8895613748
 21
233.7431482146
  0
LINE
  5
68B
100
AcDbEntity
  8
0
100
AcDbLine
 62
7
  6
CONTINUOUS
 10
99.2595025473
 20
234.6842418271
 11
97.3540127491
 21
235.7843519872
  0
LINE
  5
68C
100
AcDbEntity
  8
0
100
AcDbLine
 62
7
  6
CONTINUOUS
 10
95.7239539216
 20
236.7254455997
 11
93.8184641233
 21
237.8255557598
  0
LINE
  5
68D
100
AcDbEntity
  8
0
100
AcDbLine
 62
7
  6
CONTINUOUS
 10
92.1884052959
 20
238.7666493723
 11
90.2829154976
 21
239.8667595324
  0
LINE
  5
68E
100
AcDbEntity
  8
0
100
AcDbLine
 62
7
  6
CONTINUOUS
 10
88.6528566701
 20
240.8078531449
 11
86.7473668719
 21
241.907963305
  0
LINE
  5
68F
100
AcDbEntity
  8
0
100
AcDbLine
 62
7
  6
CONTINUOUS
 10
85.1173080444
 20
242.8490569175
 11
83.2118182461
 21
243.9491670776
  0
LINE
  5
690
100
AcDbEntity
  8
0
100
AcDbLine
 62
7
  6
CONTINUOUS
 10
81.5817594187
 20
244.8902606901
 11
79.6762696204
 21
245.9903708502
  0
LINE
  5
691
100
AcDbEntity
  8
0
100
AcDbLine
 62
7
  6
CONTINUOUS
 10
78.0462107929
 20
246.9314644627
 11
76.1407209947
 21
248.0315746228
  0
LINE
  5
692
100
AcDbEntity
  8
0
100
AcDbLine
 62
7
  6
CONTINUOUS
 10
74.5106621672
 20
248.9726682353
 11
72.6051723689
 21
250.0727783954
  0
LINE
  5
693
100
AcDbEntity
  8
0
100
AcDbLine
 62
7
  6
CONTINUOUS
 10
70.9751135415
 20
251.0138720079
 11
69.0696237432
 21
252.113982168
  0
LINE
  5
694
100
AcDbEntity
  8
0
100
AcDbLine
 62
7
  6
CONTINUOUS
 10
67.4395649157
 20
253.0550757805
 11
65.5340751175
 21
254.1551859406
  0
LINE
  5
695
100
AcDbEntity
  8
0
100
AcDbLine
 62
7
  6
CONTINUOUS
 10
64.1124501103
 20
255.216618157
 11
61.9911209349
 21
256.4413404206
  0
LINE
  5
696
100
AcDbEntity
  8
0
100
AcDbLine
 62
7
  6
CONTINUOUS
 10
60.5769014846
 20
257.2578219296
 11
58.4555723091
 21
258.4825441932
  0
LINE
  5
697
100
AcDbEntity
  8
0
100
AcDbLine
 62
7
  6
CONTINUOUS
 10
57.0413528588
 20
259.2990257022
 11
54.9200236834
 21
260.5237479658
  0
LINE
  5
698
100
AcDbEntity
  8
0
100
AcDbLine
 62
7
  6
CONTINUOUS
 10
67.9296254083
 20
253.3380106489
 11
67.7606382927
 21
253.4355731984
  0
LINE
  5
699
100
AcDbEntity
  8
0
100
AcDbLine
 62
7
  6
CONTINUOUS
 10
69.5205839758
 20
254.451672247
 11
69.6895710914
 21
254.3541096975
  0
LINE
  5
69A
100
AcDbEntity
  8
0
100
AcDbLine
 62
7
  6
CONTINUOUS
 10
69.7617288094
 20
254.5908964506
 11
69.9307159251
 21
254.4933339011
  0
LINE
  5
69B
100
AcDbEntity
  8
0
100
AcDbLine
 62
7
  6
CONTINUOUS
 10
79.756917401
 20
252.0015770266
 11
79.4405853767
 21
252.1842072743
  0
LINE
  5
69C
100
AcDbEntity
  8
0
100
AcDbLine
 62
7
  6
CONTINUOUS
 10
76.2213687752
 20
254.0427807992
 11
75.9301481508
 21
254.2109133014
  0
LINE
  5
69D
100
AcDbEntity
  8
0
100
AcDbLine
 62
7
  6
CONTINUOUS
 10
170.0071565147
 20
46.5340484742
 11
169.3138844079
 21
43.2741199501
  0
LINE
  5
69E
100
AcDbEntity
  8
0
100
AcDbLine
 62
7
  6
CONTINUOUS
 10
171.0924319455
 20
42.9327441053
 11
171.1174657435
 21
43.0448144764
  0
LINE
  5
69F
100
AcDbEntity
  8
0
100
AcDbLine
 62
7
  6
CONTINUOUS
 10
111.2450522349
 20
56.4343874166
 11
110.9747476884
 21
56.2731432447
  0
LINE
  5
6A0
100
AcDbEntity
  8
0
100
AcDbLine
 62
7
  6
CONTINUOUS
 10
73.6584749705
 20
39.5377753665
 11
75.0274019382
 21
40.3281210021
  0
LINE
  5
6A1
100
AcDbEntity
  8
0
100
AcDbLine
 62
7
  6
CONTINUOUS
 10
112.1466467537
 20
61.1027058375
 11
112.5507565967
 21
61.3360173714
  0
LINE
  5
6A2
100
AcDbEntity
  8
0
100
AcDbLine
 62
7
  6
CONTINUOUS
 10
110.341621248
 20
59.6590137616
 11
108.7251818762
 21
58.7257676258
  0
LINE
  5
6A3
100
AcDbEntity
  8
0
100
AcDbLine
 62
7
  6
CONTINUOUS
 10
108.2582299889
 20
58.3393047427
 11
107.4500103029
 21
57.8726816748
  0
LINE
  5
6A4
100
AcDbEntity
  8
0
100
AcDbLine
 62
7
  6
CONTINUOUS
 10
108.2582310829
 20
58.0358809175
 11
108.4671054842
 21
58.1564738895
  0
LINE
  5
6A5
100
AcDbEntity
  8
0
100
AcDbLine
 62
7
  6
CONTINUOUS
 10
108.4671054842
 20
58.0942564053
 11
108.2369542983
 21
57.9613793494
  0
LINE
  5
6A6
100
AcDbEntity
  8
0
100
AcDbLine
 62
7
  6
CONTINUOUS
 10
108.2582314844
 20
57.924525962
 11
107.4500117985
 21
57.4579028941
  0
LINE
  5
6A7
100
AcDbEntity
  8
0
100
AcDbLine
 62
7
  6
CONTINUOUS
 10
110.9015883036
 20
59.3946597672
 11
109.2851489317
 21
58.4614136314
  0
LINE
  5
6A8
100
AcDbEntity
  8
0
100
AcDbLine
 62
7
  6
CONTINUOUS
 10
107.8325691165
 20
57.5750753393
 11
107.0243494306
 21
57.1084522714
  0
LINE
  5
6A9
100
AcDbEntity
  8
0
100
AcDbLine
 62
7
  6
CONTINUOUS
 10
107.9708656365
 20
57.4952316125
 11
107.1626459506
 21
57.0286085446
  0
LINE
  5
6AA
100
AcDbEntity
  8
0
100
AcDbLine
 62
7
  6
CONTINUOUS
 10
109.4436188616
 20
58.1111621408
 11
108.994607925
 21
57.8519271031
  0
LINE
  5
6AB
100
AcDbEntity
  8
0
100
AcDbLine
 62
7
  6
CONTINUOUS
 10
108.2582314844
 20
57.2193944746
 11
107.9708656365
 21
57.0534847153
  0
LINE
  5
6AC
100
AcDbEntity
  8
0
100
AcDbLine
 62
7
  6
CONTINUOUS
 10
109.8891259777
 20
58.0221863255
 11
111.5055653496
 21
58.9554324613
  0
LINE
  5
6AD
100
AcDbEntity
  8
0
100
AcDbLine
 62
7
  6
CONTINUOUS
 10
109.4436203571
 20
57.6963833602
 11
109.2999400769
 21
57.6134300068
  0
LINE
  5
6AE
100
AcDbEntity
  8
0
100
AcDbLine
 62
7
  6
CONTINUOUS
 10
109.6226176022
 20
57.4271362652
 11
108.3833474171
 21
56.7116475612
  0
LINE
  5
6AF
100
AcDbEntity
  8
0
100
AcDbLine
 62
7
  6
CONTINUOUS
 10
103.9982213661
 20
54.106159264
 11
101.624670488
 21
52.7357972056
  0
LINE
  5
6B0
100
AcDbEntity
  8
0
100
AcDbLine
 62
7
  6
CONTINUOUS
 10
114.813790561
 20
60.0294836606
 11
114.409680718
 21
59.7961721267
  0
LINE
  5
6B1
100
AcDbEntity
  8
0
100
AcDbLine
 62
7
  6
CONTINUOUS
 10
77.1940235962
 20
37.4965715939
 11
78.5629505639
 21
38.2869172295
  0
LINE
  5
6B2
100
AcDbEntity
  8
0
100
AcDbLine
 62
7
  6
CONTINUOUS
 10
114.3019171959
 20
58.6244079147
 11
112.7662997927
 21
57.7378240857
  0
LINE
  5
6B3
100
AcDbEntity
  8
0
100
AcDbLine
 62
7
  6
CONTINUOUS
 10
110.7906516715
 20
56.5971899198
 11
109.9613886632
 21
56.1184175566
  0
LINE
  5
6B4
100
AcDbEntity
  8
0
100
AcDbLine
 62
7
  6
CONTINUOUS
 10
116.2865481829
 20
59.7038693365
 11
116.5918756198
 21
59.8801491621
  0
LINE
  5
6B5
100
AcDbEntity
  8
0
100
AcDbLine
 62
7
  6
CONTINUOUS
 10
114.409680718
 20
58.5621920237
 11
114.813790561
 21
58.7955035576
  0
LINE
  5
6B6
100
AcDbEntity
  8
0
100
AcDbLine
 62
7
  6
CONTINUOUS
 10
112.8557598365
 20
57.6084580696
 11
111.2393204647
 21
56.6752119339
  0
LINE
  5
6B7
100
AcDbEntity
  8
0
100
AcDbLine
 62
7
  6
CONTINUOUS
 10
106.7105419116
 20
53.8266038459
 11
106.6379763425
 21
53.7847083525
  0
LINE
  5
6B8
100
AcDbEntity
  8
0
100
AcDbLine
 62
7
  6
CONTINUOUS
 10
114.8371397279
 20
58.5082677183
 11
112.9459056628
 21
57.4163697394
  0
LINE
  5
6B9
100
AcDbEntity
  8
0
100
AcDbLine
 62
7
  6
CONTINUOUS
 10
110.9747476884
 20
56.2731432447
 11
109.9913710299
 21
55.7053938552
  0
LINE
  5
6BA
100
AcDbEntity
  8
0
100
AcDbLine
 62
7
  6
CONTINUOUS
 10
110.0111830937
 20
55.5623282048
 11
114.975436248
 21
58.4284239915
  0
LINE
  5
6BB
100
AcDbEntity
  8
0
100
AcDbLine
 62
7
  6
CONTINUOUS
 10
108.0876112378
 20
53.6263387222
 11
108.0026571187
 21
53.5772907315
  0
LINE
  5
6BC
100
AcDbEntity
  8
0
100
AcDbLine
 62
7
  6
CONTINUOUS
 10
108.2259077579
 20
53.5464949954
 11
107.9708656365
 21
53.399247237
  0
LINE
  5
6BD
100
AcDbEntity
  8
0
100
AcDbLine
 62
7
  6
CONTINUOUS
 10
108.3833474171
 20
53.4555992221
 11
109.6226176022
 21
54.1710879262
  0
LINE
  5
6BE
100
AcDbEntity
  8
0
100
AcDbLine
 62
7
  6
CONTINUOUS
 10
102.6853350757
 20
50.0021005673
 11
105.0403721388
 21
51.3617737334
  0
LINE
  5
6BF
100
AcDbEntity
  8
0
100
AcDbLine
 62
7
  6
CONTINUOUS
 10
107.1626459506
 20
52.3622972307
 11
116.2865481829
 21
57.629953197
  0
LINE
  5
6C0
100
AcDbEntity
  8
0
100
AcDbLine
 62
7
  6
CONTINUOUS
 10
116.6434941671
 20
57.1494656752
 11
107.1683027484
 21
51.6789940133
  0
LINE
  5
6C1
100
AcDbEntity
  8
0
100
AcDbLine
 62
7
  6
CONTINUOUS
 10
116.8202715984
 20
57.0474054865
 11
107.3450801797
 21
51.5769338246
  0
LINE
  5
6C2
100
AcDbEntity
  8
0
100
AcDbLine
 62
7
  6
CONTINUOUS
 10
80.729572222
 20
35.4553678213
 11
82.0984991897
 21
36.2457134569
  0
LINE
  5
6C3
100
AcDbEntity
  8
0
100
AcDbLine
 62
7
  6
CONTINUOUS
 10
106.7741695228
 20
56.2328981048
 11
106.6616170894
 21
56.1679247416
  0
LINE
  5
6C4
100
AcDbEntity
  8
0
100
AcDbLine
 62
7
  6
CONTINUOUS
 10
106.7489967709
 20
64.4720040808
 11
106.7136312751
 21
64.4601966027
  0
LINE
  5
6C5
100
AcDbEntity
  8
0
100
AcDbLine
 62
7
  6
CONTINUOUS
 10
81.8678395036
 20
261.6924663458
 11
82.1358523014
 21
261.5399306109
  0
LINE
  5
6C6
100
AcDbEntity
  8
0
100
AcDbLine
 62
7
  6
CONTINUOUS
 10
85.4033881258
 20
259.6802583035
 11
85.6966919541
 21
259.5133285324
  0
LINE
  5
6C7
100
AcDbEntity
  8
0
100
AcDbLine
 62
7
  6
CONTINUOUS
 10
88.9389367479
 20
257.6680502612
 11
89.2575316068
 21
257.4867264538
  0
LINE
  5
6C8
100
AcDbEntity
  8
0
100
AcDbLine
 62
7
  6
CONTINUOUS
 10
92.4744853701
 20
255.6558422189
 11
92.8183712594
 21
255.4601243753
  0
LINE
  5
6C9
100
AcDbEntity
  8
0
100
AcDbLine
 62
7
  6
CONTINUOUS
 10
96.0100339922
 20
253.6436341765
 11
96.3792109121
 21
253.4335222967
  0
LINE
  5
6CA
100
AcDbEntity
  8
0
100
AcDbLine
 62
7
  6
CONTINUOUS
 10
99.5455826144
 20
251.6314261342
 11
99.9400505648
 21
251.4069202182
  0
LINE
  5
6CB
100
AcDbEntity
  8
0
100
AcDbLine
 62
7
  6
CONTINUOUS
 10
103.0811312365
 20
249.6192180919
 11
103.5008902174
 21
249.3803181396
  0
LINE
  5
6CC
100
AcDbEntity
  8
0
100
AcDbLine
 62
7
  6
CONTINUOUS
 10
106.6166798587
 20
247.6070100496
 11
107.0617298701
 21
247.3537160611
  0
LINE
  5
6CD
100
AcDbEntity
  8
0
100
AcDbLine
 62
7
  6
CONTINUOUS
 10
110.1522284808
 20
245.5948020073
 11
110.6225695228
 21
245.3271139825
  0
LINE
  5
6CE
100
AcDbEntity
  8
0
100
AcDbLine
 62
7
  6
CONTINUOUS
 10
113.6877771029
 20
243.582593965
 11
114.1834091755
 21
243.300511904
  0
LINE
  5
6CF
100
AcDbEntity
  8
0
100
AcDbLine
 62
7
  6
CONTINUOUS
 10
117.2233257251
 20
241.5703859227
 11
117.7442488281
 21
241.2739098254
  0
LINE
  5
6D0
100
AcDbEntity
  8
0
100
AcDbLine
 62
7
  6
CONTINUOUS
 10
120.7588743472
 20
239.5581778804
 11
121.3050884808
 21
239.2473077469
  0
LINE
  5
6D1
100
AcDbEntity
  8
0
100
AcDbLine
 62
7
  6
CONTINUOUS
 10
113.6948074484
 20
243.0184192492
 11
113.2026956254
 21
243.3025337151
  0
LINE
  5
6D2
100
AcDbEntity
  8
0
100
AcDbLine
 62
7
  6
CONTINUOUS
 10
110.1592588226
 20
245.0596230218
 11
109.6922583995
 21
245.3292397423
  0
LINE
  5
6D3
100
AcDbEntity
  8
0
100
AcDbLine
 62
7
  6
CONTINUOUS
 10
106.6237101969
 20
247.1008267944
 11
106.1818211735
 21
247.3559457694
  0
LINE
  5
6D4
100
AcDbEntity
  8
0
100
AcDbLine
 62
7
  6
CONTINUOUS
 10
103.0881615712
 20
249.142030567
 11
102.6713839476
 21
249.3826517965
  0
LINE
  5
6D5
100
AcDbEntity
  8
0
100
AcDbLine
 62
7
  6
CONTINUOUS
 10
99.5526129454
 20
251.1832343396
 11
99.1609467217
 21
251.4093578237
  0
LINE
  5
6D6
100
AcDbEntity
  8
0
100
AcDbLine
 62
7
  6
CONTINUOUS
 10
96.0170643197
 20
253.2244381122
 11
95.6505094958
 21
253.4360638508
  0
LINE
  5
6D7
100
AcDbEntity
  8
0
100
AcDbLine
 62
7
  6
CONTINUOUS
 10
92.481515694
 20
255.2656418848
 11
92.1400722699
 21
255.4627698779
  0
LINE
  5
6D8
100
AcDbEntity
  8
0
100
AcDbLine
 62
7
  6
CONTINUOUS
 10
88.9459670682
 20
257.3068456574
 11
88.629635044
 21
257.4894759051
  0
LINE
  5
6D9
100
AcDbEntity
  8
0
100
AcDbLine
 62
7
  6
CONTINUOUS
 10
85.4104184425
 20
259.34804943
 11
85.1191978181
 21
259.5161819322
  0
LINE
  5
6DA
100
AcDbEntity
  8
0
100
AcDbLine
 62
7
  6
CONTINUOUS
 10
82.0233654251
 20
261.4749866703
 11
81.8543783094
 21
261.5725492198
  0
LINE
  5
6DB
100
AcDbEntity
  8
0
100
AcDbLine
 62
7
  6
CONTINUOUS
 10
78.4878167993
 20
263.5161904429
 11
78.2182983398
 21
263.6717934778
  0
LINE
  5
6DC
100
AcDbEntity
  8
0
100
AcDbLine
 62
7
  6
CONTINUOUS
 10
74.9522681736
 20
265.5573942155
 11
74.5822183702
 21
265.7710377358
  0
LINE
  5
6DD
100
AcDbEntity
  8
0
100
AcDbLine
 62
7
  6
CONTINUOUS
 10
71.4167195479
 20
267.5985979881
 11
70.9461384006
 21
267.8702819938
  0
LINE
  5
6DE
100
AcDbEntity
  8
0
100
AcDbLine
 62
7
  6
CONTINUOUS
 10
121.2255339637
 20
239.2013771992
 11
120.683199341
 21
239.514487156
  0
LINE
  5
6DF
100
AcDbEntity
  8
0
100
AcDbLine
 62
7
  6
CONTINUOUS
 10
117.689985338
 20
241.2425809718
 11
117.1980445675
 21
241.5265966827
  0
LINE
  5
6E0
100
AcDbEntity
  8
0
100
AcDbLine
 62
7
  6
CONTINUOUS
 10
81.8678392694
 20
263.5854327797
 11
83.7733290677
 21
262.4853226195
  0
LINE
  5
6E1
100
AcDbEntity
  8
0
100
AcDbLine
 62
7
  6
CONTINUOUS
 10
85.4033878952
 20
261.5442290071
 11
87.3088776934
 21
260.4441188469
  0
LINE
  5
6E2
100
AcDbEntity
  8
0
100
AcDbLine
 62
7
  6
CONTINUOUS
 10
88.9389365209
 20
259.5030252345
 11
90.8444263192
 21
258.4029150743
  0
LINE
  5
6E3
100
AcDbEntity
  8
0
100
AcDbLine
 62
7
  6
CONTINUOUS
 10
92.4744851466
 20
257.4618214619
 11
94.3799749449
 21
256.3617113017
  0
LINE
  5
6E4
100
AcDbEntity
  8
0
100
AcDbLine
 62
7
  6
CONTINUOUS
 10
96.0100337724
 20
255.4206176893
 11
97.9155235707
 21
254.3205075291
  0
LINE
  5
6E5
100
AcDbEntity
  8
0
100
AcDbLine
 62
7
  6
CONTINUOUS
 10
99.5455823981
 20
253.3794139167
 11
101.4510721964
 21
252.2793037565
  0
LINE
  5
6E6
100
AcDbEntity
  8
0
100
AcDbLine
 62
7
  6
CONTINUOUS
 10
103.0811310238
 20
251.3382101441
 11
104.9866208221
 21
250.2380999839
  0
LINE
  5
6E7
100
AcDbEntity
  8
0
100
AcDbLine
 62
7
  6
CONTINUOUS
 10
106.6166796496
 20
249.2970063715
 11
108.5221694479
 21
248.1968962113
  0
LINE
  5
6E8
100
AcDbEntity
  8
0
100
AcDbLine
 62
7
  6
CONTINUOUS
 10
110.1522282753
 20
247.2558025989
 11
112.0577180736
 21
246.1556924387
  0
LINE
  5
6E9
100
AcDbEntity
  8
0
100
AcDbLine
 62
7
  6
CONTINUOUS
 10
113.687776901
 20
245.2145988263
 11
115.5932666993
 21
244.1144886661
  0
LINE
  5
6EA
100
AcDbEntity
  8
0
100
AcDbLine
 62
7
  6
CONTINUOUS
 10
117.2233255268
 20
243.1733950537
 11
119.1288153251
 21
242.0732848935
  0
LINE
  5
6EB
100
AcDbEntity
  8
0
100
AcDbLine
 62
7
  6
CONTINUOUS
 10
120.7588741525
 20
241.132191281
 11
122.6643639508
 21
240.0320811209
  0
LINE
  5
6EC
100
AcDbEntity
  8
0
100
AcDbLine
 62
7
  6
CONTINUOUS
 10
71.2611933614
 20
269.9582703617
 11
73.3825225368
 21
268.7335480982
  0
LINE
  5
6ED
100
AcDbEntity
  8
0
100
AcDbLine
 62
7
  6
CONTINUOUS
 10
74.7967419871
 20
267.9170665891
 11
76.9180711626
 21
266.6923443256
  0
LINE
  5
6EE
100
AcDbEntity
  8
0
100
AcDbLine
 62
7
  6
CONTINUOUS
 10
78.3322906129
 20
265.8758628165
 11
80.4536197883
 21
264.651140553
  0
LINE
  5
6EF
100
AcDbEntity
  8
0
100
AcDbLine
 62
7
  6
CONTINUOUS
 10
71.2611935972
 20
268.0521781106
 11
71.7187639887
 21
267.7729823864
  0
LINE
  5
6F0
100
AcDbEntity
  8
0
100
AcDbLine
 62
7
  6
CONTINUOUS
 10
74.7967422373
 20
265.8948924089
 11
75.1565608029
 21
265.6753419159
  0
LINE
  5
6F1
100
AcDbEntity
  8
0
100
AcDbLine
 62
7
  6
CONTINUOUS
 10
78.3322908774
 20
263.7376067072
 11
78.5943576171
 21
263.5777014455
  0
LINE
  5
6F2
100
AcDbEntity
  8
0
100
AcDbLine
 62
7
  6
CONTINUOUS
 10
171.1174657435
 20
34.8797903051
 11
171.0924319455
 21
34.767719934
  0
LINE
  5
6F3
100
AcDbEntity
  8
0
100
AcDbLine
 62
7
  6
CONTINUOUS
 10
169.9219304324
 20
33.3539818505
 11
169.8747214749
 21
33.2122431342
  0
LINE
  5
6F4
100
AcDbEntity
  8
0
100
AcDbLine
 62
7
  6
CONTINUOUS
 10
84.2651208477
 20
33.4141640487
 11
85.6340478154
 21
34.2045096843
  0
LINE
  5
6F5
100
AcDbEntity
  8
0
100
AcDbLine
 62
7
  6
CONTINUOUS
 10
121.4164465403
 20
53.4139238748
 11
109.0337304646
 21
46.2648020897
  0
LINE
  5
6F6
100
AcDbEntity
  8
0
100
AcDbLine
 62
7
  6
CONTINUOUS
 10
109.1526591511
 20
46.113006009
 11
121.4518002602
 21
53.2138760527
  0
LINE
  5
6F7
100
AcDbEntity
  8
0
100
AcDbLine
 62
7
  6
CONTINUOUS
 10
109.3728901298
 20
45.831911511
 11
121.8115263944
 21
53.0133186395
  0
LINE
  5
6F8
100
AcDbEntity
  8
0
100
AcDbLine
 62
7
  6
CONTINUOUS
 10
121.8115263944
 20
49.6169427666
 11
115.0911888199
 21
45.7369772192
  0
LINE
  5
6F9
100
AcDbEntity
  8
0
100
AcDbLine
 62
7
  6
CONTINUOUS
 10
110.7598647328
 20
42.7508647788
 11
109.2261000333
 21
41.8653506025
  0
LINE
  5
6FA
100
AcDbEntity
  8
0
100
AcDbLine
 62
7
  6
CONTINUOUS
 10
115.7858202461
 20
44.5194037843
 11
122.5184224896
 21
48.4064502994
  0
LINE
  5
6FB
100
AcDbEntity
  8
0
100
AcDbLine
 62
7
  6
CONTINUOUS
 10
106.748996739
 20
56.1763395787
 11
106.7136312751
 21
56.1645320446
  0
LINE
  5
6FC
100
AcDbEntity
  8
0
100
AcDbLine
 62
7
  6
CONTINUOUS
 10
74.5420677454
 20
249.3560636829
 11
75.0410326282
 21
249.2788759359
  0
LINE
  5
6FD
100
AcDbEntity
  8
0
100
AcDbLine
 62
7
  6
CONTINUOUS
 10
89.0865285063
 20
261.8067077004
 11
89.3778377196
 21
261.6386263447
  0
LINE
  5
6FE
100
AcDbEntity
  8
0
100
AcDbLine
 62
7
  6
CONTINUOUS
 10
92.6586670503
 20
259.8156247332
 11
92.9750953023
 21
259.6330500423
  0
LINE
  5
6FF
100
AcDbEntity
  8
0
100
AcDbLine
 62
7
  6
CONTINUOUS
 10
96.2308055942
 20
257.8245417661
 11
96.5723528849
 21
257.6274737399
  0
LINE
  5
700
100
AcDbEntity
  8
0
100
AcDbLine
 62
7
  6
CONTINUOUS
 10
99.8029441382
 20
255.8334587989
 11
100.1696104676
 21
255.6218974376
  0
LINE
  5
701
100
AcDbEntity
  8
0
100
AcDbLine
 62
7
  6
CONTINUOUS
 10
103.3750826822
 20
253.8423758317
 11
103.7668680502
 21
253.6163211352
  0
LINE
  5
702
100
AcDbEntity
  8
0
100
AcDbLine
 62
7
  6
CONTINUOUS
 10
106.9472212262
 20
251.8512928645
 11
107.3641256329
 21
251.6107448328
  0
LINE
  5
703
100
AcDbEntity
  8
0
100
AcDbLine
 62
7
  6
CONTINUOUS
 10
110.5193597702
 20
249.8602098973
 11
110.9613832155
 21
249.6051685304
  0
LINE
  5
704
100
AcDbEntity
  8
0
100
AcDbLine
 62
7
  6
CONTINUOUS
 10
114.0914983142
 20
247.8691269302
 11
114.5586407982
 21
247.5995922281
  0
LINE
  5
705
100
AcDbEntity
  8
0
100
AcDbLine
 62
7
  6
CONTINUOUS
 10
117.6636368581
 20
245.878043963
 11
118.1558983809
 21
245.5940159257
  0
LINE
  5
706
100
AcDbEntity
  8
0
100
AcDbLine
 62
7
  6
CONTINUOUS
 10
121.2357754021
 20
243.8869609958
 11
121.7531559635
 21
243.5884396233
  0
LINE
  5
707
100
AcDbEntity
  8
0
100
AcDbLine
 62
7
  6
CONTINUOUS
 10
124.8079139461
 20
241.8958780286
 11
125.3504135462
 21
241.5828633209
  0
LINE
  5
708
100
AcDbEntity
  8
0
100
AcDbLine
 62
7
  6
CONTINUOUS
 10
124.2273979187
 20
240.9344938163
 11
122.3219081204
 21
242.0346039765
  0
LINE
  5
709
100
AcDbEntity
  8
0
100
AcDbLine
 62
7
  6
CONTINUOUS
 10
120.691849293
 20
242.9756975889
 11
118.7863594947
 21
244.0758077491
  0
LINE
  5
70A
100
AcDbEntity
  8
0
100
AcDbLine
 62
7
  6
CONTINUOUS
 10
117.1563006672
 20
245.0169013615
 11
115.250810869
 21
246.1170115217
  0
LINE
  5
70B
100
AcDbEntity
  8
0
100
AcDbLine
 62
7
  6
CONTINUOUS
 10
113.6207520415
 20
247.0581051341
 11
111.7152622432
 21
248.1582152943
  0
LINE
  5
70C
100
AcDbEntity
  8
0
100
AcDbLine
 62
7
  6
CONTINUOUS
 10
110.0852034158
 20
249.0993089067
 11
108.1797136175
 21
250.1994190669
  0
LINE
  5
70D
100
AcDbEntity
  8
0
100
AcDbLine
 62
7
  6
CONTINUOUS
 10
106.54965479
 20
251.1405126793
 11
104.6441649917
 21
252.2406228395
  0
LINE
  5
70E
100
AcDbEntity
  8
0
100
AcDbLine
 62
7
  6
CONTINUOUS
 10
103.0141061643
 20
253.1817164519
 11
101.108616366
 21
254.2818266121
  0
LINE
  5
70F
100
AcDbEntity
  8
0
100
AcDbLine
 62
7
  6
CONTINUOUS
 10
99.4785575386
 20
255.2229202245
 11
97.5730677403
 21
256.3230303847
  0
LINE
  5
710
100
AcDbEntity
  8
0
100
AcDbLine
 62
7
  6
CONTINUOUS
 10
95.9430089128
 20
257.2641239972
 11
94.0375191145
 21
258.3642341573
  0
LINE
  5
711
100
AcDbEntity
  8
0
100
AcDbLine
 62
7
  6
CONTINUOUS
 10
92.4074602871
 20
259.3053277698
 11
90.5019704888
 21
260.4054379299
  0
LINE
  5
712
100
AcDbEntity
  8
0
100
AcDbLine
 62
7
  6
CONTINUOUS
 10
88.8719116613
 20
261.3465315424
 11
86.9664218631
 21
262.4466417025
  0
LINE
  5
713
100
AcDbEntity
  8
0
100
AcDbLine
 62
7
  6
CONTINUOUS
 10
85.3363630356
 20
263.387735315
 11
83.4308732373
 21
264.4878454751
  0
LINE
  5
714
100
AcDbEntity
  8
0
100
AcDbLine
 62
7
  6
CONTINUOUS
 10
85.2831395853
 20
267.3577996331
 11
71.1268028878
 21
275.5307795386
  0
LINE
  5
715
100
AcDbEntity
  8
0
100
AcDbLine
 62
7
  6
CONTINUOUS
 10
136.679402075
 20
237.9869050145
 11
136.9869848468
 21
237.8093260358
  0
LINE
  5
716
100
AcDbEntity
  8
0
100
AcDbLine
 62
7
  6
CONTINUOUS
 10
76.6593630447
 20
273.1748583814
 11
79.3404310585
 21
271.6269780596
  0
LINE
  5
717
100
AcDbEntity
  8
0
100
AcDbLine
 62
7
  6
CONTINUOUS
 10
89.5257914594
 20
265.8064885052
 11
91.6594573931
 21
264.574622864
  0
LINE
  5
718
100
AcDbEntity
  8
0
100
AcDbLine
 62
7
  6
CONTINUOUS
 10
93.0613400852
 20
263.7652847326
 11
95.1950060188
 21
262.5334190914
  0
LINE
  5
719
100
AcDbEntity
  8
0
100
AcDbLine
 62
7
  6
CONTINUOUS
 10
96.5968887109
 20
261.72408096
 11
98.7305546446
 21
260.4922153188
  0
LINE
  5
71A
100
AcDbEntity
  8
0
100
AcDbLine
 62
7
  6
CONTINUOUS
 10
100.1324373366
 20
259.6828771874
 11
102.2661032703
 21
258.4510115462
  0
LINE
  5
71B
100
AcDbEntity
  8
0
100
AcDbLine
 62
7
  6
CONTINUOUS
 10
103.6679859624
 20
257.6416734148
 11
105.801651896
 21
256.4098077736
  0
LINE
  5
71C
100
AcDbEntity
  8
0
100
AcDbLine
 62
7
  6
CONTINUOUS
 10
107.2035345881
 20
255.6004696422
 11
109.3372005218
 21
254.368604001
  0
LINE
  5
71D
100
AcDbEntity
  8
0
100
AcDbLine
 62
7
  6
CONTINUOUS
 10
110.7390832138
 20
253.5592658696
 11
112.8727491475
 21
252.3274002284
  0
LINE
  5
71E
100
AcDbEntity
  8
0
100
AcDbLine
 62
7
  6
CONTINUOUS
 10
114.2746318396
 20
251.518062097
 11
116.4082977732
 21
250.2861964558
  0
LINE
  5
71F
100
AcDbEntity
  8
0
100
AcDbLine
 62
7
  6
CONTINUOUS
 10
117.8101804653
 20
249.4768583244
 11
119.943846399
 21
248.2449926832
  0
LINE
  5
720
100
AcDbEntity
  8
0
100
AcDbLine
 62
7
  6
CONTINUOUS
 10
121.345729091
 20
247.4356545518
 11
123.4793950247
 21
246.2037889106
  0
LINE
  5
721
100
AcDbEntity
  8
0
100
AcDbLine
 62
7
  6
CONTINUOUS
 10
124.8812777168
 20
245.3944507792
 11
127.0149436504
 21
244.162585138
  0
LINE
  5
722
100
AcDbEntity
  8
0
100
AcDbLine
 62
7
  6
CONTINUOUS
 10
86.7939772004
 20
268.2001480316
 11
88.1115661212
 21
267.4394549226
  0
LINE
  5
723
100
AcDbEntity
  8
0
100
AcDbLine
 62
7
  6
CONTINUOUS
 10
129.1239301797
 20
243.7614911604
 11
137.3264029914
 21
239.025898408
  0
LINE
  5
724
100
AcDbEntity
  8
0
100
AcDbLine
 62
7
  6
CONTINUOUS
 10
138.2102901479
 20
238.5155974649
 11
140.3316193233
 21
237.2908752013
  0
LINE
  5
725
100
AcDbEntity
  8
0
100
AcDbLine
 62
7
  6
CONTINUOUS
 10
170.5620980353
 20
43.4630653349
 11
171.2091355943
 21
44.8572407986
  0
LINE
  5
726
100
AcDbEntity
  8
0
100
AcDbLine
 62
7
  6
CONTINUOUS
 10
171.2091355943
 20
36.6922166273
 11
171.1179867677
 21
36.4958177385
  0
LINE
  5
727
100
AcDbEntity
  8
0
100
AcDbLine
 62
7
  6
CONTINUOUS
 10
112.2630667197
 20
36.8822959596
 11
110.7702706739
 21
36.0204349053
  0
LINE
  5
728
100
AcDbEntity
  8
0
100
AcDbLine
 62
7
  6
CONTINUOUS
 10
107.2849534175
 20
31.6405520566
 11
105.0153920404
 21
30.330225751
  0
LINE
  5
729
100
AcDbEntity
  8
0
100
AcDbLine
 62
7
  6
CONTINUOUS
 10
101.624670488
 20
25.8413782853
 11
103.746017992
 21
27.066131527
  0
LINE
  5
72A
100
AcDbEntity
  8
0
100
AcDbLine
 62
7
  6
CONTINUOUS
 10
103.9982213661
 20
24.7622330924
 11
100.9175607628
 21
22.9836093713
  0
LINE
  5
72B
100
AcDbEntity
  8
0
100
AcDbLine
 62
7
  6
CONTINUOUS
 10
110.7598647328
 20
25.6043140191
 11
108.5189903082
 21
24.3105381801
  0
LINE
  5
72C
100
AcDbEntity
  8
0
100
AcDbLine
 62
7
  6
CONTINUOUS
 10
135.0283258244
 20
38.2520302462
 11
130.8349680974
 21
35.8310084853
  0
LINE
  5
72D
100
AcDbEntity
  8
0
100
AcDbLine
 62
7
  6
CONTINUOUS
 10
140.3432646448
 20
38.7452980156
 11
138.2103113444
 21
37.5138442043
  0
LINE
  5
72E
100
AcDbEntity
  8
0
100
AcDbLine
 62
7
  6
CONTINUOUS
 10
135.0283258244
 20
32.1446520358
 11
128.7139404062
 21
28.4990616761
  0
LINE
  5
72F
100
AcDbEntity
  8
0
100
AcDbLine
 62
7
  6
CONTINUOUS
 10
140.4730436235
 20
32.7570288046
 11
138.2103113444
 21
31.4506475122
  0
LINE
  5
730
100
AcDbEntity
  8
0
100
AcDbLine
 62
7
  6
CONTINUOUS
 10
71.6062389361
 20
263.9474336356
 11
71.9332721017
 21
263.9969188798
  0
LINE
  5
731
100
AcDbEntity
  8
0
100
AcDbLine
 62
7
  6
CONTINUOUS
 10
171.2091355942
 20
36.6922166273
 11
171.3789742506
 21
36.7639734147
  0
ARC
  5
732
100
AcDbEntity
  8
0
100
AcDbCircle
 62
7
  6
CONTINUOUS
 10
104.2377411307
 20
42.8662783805
 40
7.9473414315
100
AcDbArc
 50
325.6768484311
 51
332.1103231349
  0
ARC
  5
733
100
AcDbEntity
  8
0
100
AcDbCircle
 62
7
  6
CONTINUOUS
 10
103.7555959615
 20
63.6733561248
 40
6.2935914207
100
AcDbArc
 50
18.2793484591
 51
21.2161924783
  0
ARC
  5
734
100
AcDbEntity
  8
0
100
AcDbCircle
 62
7
  6
CONTINUOUS
 10
103.7555959615
 20
80.8199068845
 40
6.2935914207
100
AcDbArc
 50
18.2793484591
 51
21.2161924783
  0
ARC
  5
735
100
AcDbEntity
  8
0
100
AcDbCircle
 62
7
  6
CONTINUOUS
 10
103.7598334946
 20
115.1145664964
 40
6.2890772465
100
AcDbArc
 50
18.1877719115
 51
21.216930647
  0
ARC
  5
736
100
AcDbEntity
  8
0
100
AcDbCircle
 62
7
  6
CONTINUOUS
 10
103.9809044624
 20
63.7485248501
 40
6.0560756579
100
AcDbArc
 50
16.757358249
 51
18.2726544833
  0
ARC
  5
737
100
AcDbEntity
  8
0
100
AcDbCircle
 62
7
  6
CONTINUOUS
 10
103.9809044624
 20
80.8950756098
 40
6.056075658
100
AcDbArc
 50
16.757358249
 51
18.2726544833
  0
ARC
  5
738
100
AcDbEntity
  8
0
100
AcDbCircle
 62
7
  6
CONTINUOUS
 10
103.9862986823
 20
115.1898510367
 40
6.0504278876
100
AcDbArc
 50
16.7569078085
 51
18.1798537605
  0
ARC
  5
739
100
AcDbEntity
  8
0
100
AcDbCircle
 62
7
  6
CONTINUOUS
 10
104.1963950126
 20
63.8131145965
 40
5.831113596
100
AcDbArc
 50
14.9421639308
 51
16.7601406604
  0
ARC
  5
73A
100
AcDbEntity
  8
0
100
AcDbCircle
 62
7
  6
CONTINUOUS
 10
104.1963950127
 20
80.9596653562
 40
5.831113596
100
AcDbArc
 50
14.9421639308
 51
16.7601406604
  0
ARC
  5
73B
100
AcDbEntity
  8
0
100
AcDbCircle
 62
7
  6
CONTINUOUS
 10
104.1963950127
 20
115.2527668756
 40
5.831113596
100
AcDbArc
 50
14.9421639308
 51
16.7601406604
  0
ARC
  5
73C
100
AcDbEntity
  8
0
100
AcDbCircle
 62
7
  6
CONTINUOUS
 10
56.2631092192
 20
245.9619579352
 40
5.6565113761
100
AcDbArc
 50
284.508369021
 51
291.1570421307
  0
ARC
  5
73D
100
AcDbEntity
  8
0
100
AcDbCircle
 62
7
  6
CONTINUOUS
 10
42.330932868
 20
189.941545471
 40
5.3037363237
100
AcDbArc
 50
35.1999475019
 51
36.4881960057
  0
ARC
  5
73E
100
AcDbEntity
  8
0
100
AcDbCircle
 62
7
  6
CONTINUOUS
 10
42.4263084648
 20
189.9973947326
 40
5.2968750331
100
AcDbArc
 50
35.1973377615
 51
36.8173225661
  0
ARC
  5
73F
100
AcDbEntity
  8
0
100
AcDbCircle
 62
7
  6
CONTINUOUS
 10
44.7362630744
 20
162.35155677
 40
1.6945001198
100
AcDbArc
 50
29.6926293538
 51
35.9858120155
  0
ARC
  5
740
100
AcDbEntity
  8
0
100
AcDbCircle
 62
7
  6
CONTINUOUS
 10
108.1193899141
 20
56.1744667098
 40
2.4376824711
100
AcDbArc
 50
45.0420642884
 51
48.6977289123
  0
ARC
  5
741
100
AcDbEntity
  8
0
100
AcDbCircle
 62
7
  6
CONTINUOUS
 10
108.1193899141
 20
73.3210174695
 40
2.4376824711
100
AcDbArc
 50
45.0420642883
 51
48.6977289123
  0
ARC
  5
742
100
AcDbEntity
  8
0
100
AcDbCircle
 62
7
  6
CONTINUOUS
 10
108.1193899142
 20
107.614118989
 40
2.437682471
100
AcDbArc
 50
45.0420642883
 51
48.6977289124
  0
ARC
  5
743
100
AcDbEntity
  8
0
100
AcDbCircle
 62
7
  6
CONTINUOUS
 10
108.2126886603
 20
73.4256623319
 40
2.2974893973
100
AcDbArc
 50
48.7231825977
 51
49.5990722027
  0
ARC
  5
744
100
AcDbEntity
  8
0
100
AcDbCircle
 62
7
  6
CONTINUOUS
 10
108.2126886613
 20
56.2791115733
 40
2.2974893957
100
AcDbArc
 50
48.7231825974
 51
49.599072203
  0
ARC
  5
745
100
AcDbEntity
  8
0
100
AcDbCircle
 62
7
  6
CONTINUOUS
 10
108.2126886614
 20
107.7187638526
 40
2.2974893956
100
AcDbArc
 50
48.7231825974
 51
49.5990722031
  0
ARC
  5
746
100
AcDbEntity
  8
0
100
AcDbCircle
 62
7
  6
CONTINUOUS
 10
108.4029098483
 20
56.65218159
 40
2.0137244321
100
AcDbArc
 50
54.8040090589
 51
59.9325620727
  0
ARC
  5
747
100
AcDbEntity
  8
0
100
AcDbCircle
 62
7
  6
CONTINUOUS
 10
108.4029098483
 20
73.7987323498
 40
2.0137244321
100
AcDbArc
 50
54.8040090589
 51
59.9325620727
  0
ARC
  5
748
100
AcDbEntity
  8
0
100
AcDbCircle
 62
7
  6
CONTINUOUS
 10
108.4029098483
 20
108.0918338692
 40
2.013724432
100
AcDbArc
 50
54.8040090589
 51
59.9325620727
  0
ARC
  5
749
100
AcDbEntity
  8
0
100
AcDbCircle
 62
7
  6
CONTINUOUS
 10
108.5229346032
 20
56.8567779431
 40
1.7765251679
100
AcDbArc
 50
59.9766540102
 51
63.0778271072
  0
ARC
  5
74A
100
AcDbEntity
  8
0
100
AcDbCircle
 62
7
  6
CONTINUOUS
 10
108.5229346032
 20
74.0033287029
 40
1.7765251679
100
AcDbArc
 50
59.9766540102
 51
63.0778271073
  0
ARC
  5
74B
100
AcDbEntity
  8
0
100
AcDbCircle
 62
7
  6
CONTINUOUS
 10
108.5229346032
 20
108.2964302223
 40
1.7765251679
100
AcDbArc
 50
59.9766540102
 51
63.0778271073
  0
ARC
  5
74C
100
AcDbEntity
  8
0
100
AcDbCircle
 62
7
  6
CONTINUOUS
 10
110.1593835174
 20
57.8265312213
 40
1.7349049198
100
AcDbArc
 50
59.945552148
 51
64.6715212172
  0
ARC
  5
74D
100
AcDbEntity
  8
0
100
AcDbCircle
 62
7
  6
CONTINUOUS
 10
110.1593835174
 20
74.9730819811
 40
1.7349049198
100
AcDbArc
 50
59.945552148
 51
64.6715212172
  0
ARC
  5
74E
100
AcDbEntity
  8
0
100
AcDbCircle
 62
7
  6
CONTINUOUS
 10
110.1593835174
 20
109.2661835005
 40
1.7349049198
100
AcDbArc
 50
59.945552148
 51
64.6715212172
  0
ARC
  5
74F
100
AcDbEntity
  8
0
100
AcDbCircle
 62
7
  6
CONTINUOUS
 10
110.3099951767
 20
42.7621070732
 40
1.6669538881
100
AcDbArc
 50
73.3344826374
 51
78.8487252732
  0
ARC
  5
750
100
AcDbEntity
  8
0
100
AcDbCircle
 62
7
  6
CONTINUOUS
 10
108.5788373908
 20
56.9657202356
 40
1.6540782107
100
AcDbArc
 50
63.0957461802
 51
64.721905516
  0
ARC
  5
751
100
AcDbEntity
  8
0
100
AcDbCircle
 62
7
  6
CONTINUOUS
 10
108.5788373907
 20
74.1122709951
 40
1.654078211
100
AcDbArc
 50
63.0957461804
 51
64.7219055159
  0
ARC
  5
752
100
AcDbEntity
  8
0
100
AcDbCircle
 62
7
  6
CONTINUOUS
 10
108.5788373908
 20
108.4053725147
 40
1.6540782108
100
AcDbArc
 50
63.0957461803
 51
64.7219055159
  0
ARC
  5
753
100
AcDbEntity
  8
0
100
AcDbCircle
 62
7
  6
CONTINUOUS
 10
110.3376965047
 20
42.8540810637
 40
1.5708989508
100
AcDbArc
 50
63.7042879235
 51
73.3403574104
  0
ARC
  5
754
100
AcDbEntity
  8
0
100
AcDbCircle
 62
7
  6
CONTINUOUS
 10
108.6290493487
 20
56.8824053651
 40
1.5629774222
100
AcDbArc
 50
59.9455521652
 51
64.6715212338
  0
ARC
  5
755
100
AcDbEntity
  8
0
100
AcDbCircle
 62
7
  6
CONTINUOUS
 10
108.6290493487
 20
74.0289561249
 40
1.5629774222
100
AcDbArc
 50
59.9455521652
 51
64.6715212338
  0
ARC
  5
756
100
AcDbEntity
  8
0
100
AcDbCircle
 62
7
  6
CONTINUOUS
 10
108.6290493487
 20
108.3220576443
 40
1.5629774222
100
AcDbArc
 50
59.9455521652
 51
64.6715212339
  0
ARC
  5
757
100
AcDbEntity
  8
0
100
AcDbCircle
 62
7
  6
CONTINUOUS
 10
169.152415431
 20
47.5115314591
 40
0.9981069059
100
AcDbArc
 50
6.2636074039
 51
11.7958172673
  0
ARC
  5
758
100
AcDbEntity
  8
0
100
AcDbCircle
 62
7
  6
CONTINUOUS
 10
169.1939638824
 20
47.5158181105
 40
0.9563388322
100
AcDbArc
 50
0.0334385352
 51
6.2799031586
  0
ARC
  5
759
100
AcDbEntity
  8
0
100
AcDbCircle
 62
7
  6
CONTINUOUS
 10
138.5484455102
 20
39.0437890072
 40
0.5140991951
100
AcDbArc
 50
330.8546668255
 51
335.0741550584
  0
ARC
  5
75A
100
AcDbEntity
  8
0
100
AcDbCircle
 62
7
  6
CONTINUOUS
 10
138.5703059051
 20
39.0334854416
 40
0.4899326406
100
AcDbArc
 50
335.0894606643
 51
338.7765129944
  0
ARC
  5
75B
100
AcDbEntity
  8
0
100
AcDbCircle
 62
7
  6
CONTINUOUS
 10
116.9135640747
 20
88.6159822564
 40
0.4184282764
100
AcDbArc
 50
30.2198679503
 51
35.0761521654
  0
ARC
  5
75C
100
AcDbEntity
  8
0
100
AcDbCircle
 62
7
  6
CONTINUOUS
 10
116.9135640747
 20
71.4694314967
 40
0.4184282764
100
AcDbArc
 50
30.2198679504
 51
35.0761521653
  0
ARC
  5
75D
100
AcDbEntity
  8
0
100
AcDbCircle
 62
7
  6
CONTINUOUS
 10
116.9135640747
 20
122.9090837759
 40
0.4184282764
100
AcDbArc
 50
30.2198679501
 51
35.0761521657
  0
ARC
  5
75E
100
AcDbEntity
  8
0
100
AcDbCircle
 62
7
  6
CONTINUOUS
 10
107.0138783367
 20
51.8191951043
 40
0.3370700902
100
AcDbArc
 50
229.5974767256
 51
239.9521393677
  0
ARC
  5
75F
100
AcDbEntity
  8
0
100
AcDbCircle
 62
7
  6
CONTINUOUS
 10
107.0138783367
 20
68.965745864
 40
0.3370700902
100
AcDbArc
 50
229.5974767256
 51
239.9521393677
  0
ARC
  5
760
100
AcDbEntity
  8
0
100
AcDbCircle
 62
7
  6
CONTINUOUS
 10
107.0138783367
 20
103.2588473835
 40
0.3370700902
100
AcDbArc
 50
229.5974767256
 51
239.9521393677
  0
ARC
  5
761
100
AcDbEntity
  8
0
100
AcDbCircle
 62
7
  6
CONTINUOUS
 10
169.152415431
 20
173.538679543
 40
0.9981069059
100
AcDbArc
 50
6.2636074133
 51
11.795817267
  0
ARC
  5
762
100
AcDbEntity
  8
0
100
AcDbCircle
 62
7
  6
CONTINUOUS
 10
169.1939638822
 20
173.5429661944
 40
0.9563388324
100
AcDbArc
 50
0.0334385363
 51
6.2799031683
  0
ARC
  5
763
100
AcDbEntity
  8
0
100
AcDbCircle
 62
7
  6
CONTINUOUS
 10
110.9854318173
 20
144.4146557294
 40
0.8586930626
100
AcDbArc
 50
149.9946277106
 51
155.5657420405
  0
SPLINE
  5
764
100
AcDbEntity
  8
0
100
AcDbSpline
 62
7
  6
CONTINUOUS
 70
0
 71
3
 72
9
 73
5
 74
0
 42
0.0000001
 43
0.0000001
 44
0.0000000001
 40
0.0
 40
0.0
 40
0.0
 40
0.0
 40
0.7301885573
 40
1.0
 40
1.0
 40
1.0
 40
1.0
 10
112.8107898142
 20
69.3456150354
 30
0.0
 10
112.805693718
 20
69.3317592579
 30
0.0
 10
112.7943198373
 20
69.314268246
 30
0.0
 10
112.7800493445
 20
69.2999719351
 30
0.0
 10
112.7760226803
 20
69.2962916342
 30
0.0
  0
SPLINE
  5
765
100
AcDbEntity
  8
0
100
AcDbSpline
 62
7
  6
CONTINUOUS
 70
0
 71
3
 72
8
 73
4
 74
0
 42
0.0000001
 43
0.0000001
 44
0.0000000001
 40
0.0
 40
0.0
 40
0.0
 40
0.0
 40
1.0
 40
1.0
 40
1.0
 40
1.0
 10
112.7760226803
 20
69.2962916342
 30
0.0
 10
112.7650015837
 20
69.286218544
 30
0.0
 10
112.7526555444
 20
69.2775108505
 30
0.0
 10
112.7397249882
 20
69.270045435
 30
0.0
  0
SPLINE
  5
766
100
AcDbEntity
  8
0
100
AcDbSpline
 62
7
  6
CONTINUOUS
 70
0
 71
3
 72
8
 73
4
 74
0
 42
0.0000001
 43
0.0000001
 44
0.0000000001
 40
0.0
 40
0.0
 40
0.0
 40
0.0
 40
1.0
 40
1.0
 40
1.0
 40
1.0
 10
114.9177985098
 20
70.5323659576
 30
0.0
 10
114.907306534
 20
70.5229690046
 30
0.0
 10
114.8956671425
 20
70.5147718104
 30
0.0
 10
114.8834692469
 20
70.5077293941
 30
0.0
  0
SPLINE
  5
767
100
AcDbEntity
  8
0
100
AcDbSpline
 62
7
  6
CONTINUOUS
 70
0
 71
3
 72
9
 73
5
 74
0
 42
0.0000001
 43
0.0000001
 44
0.0000000001
 40
0.0
 40
0.0
 40
0.0
 40
0.0
 40
0.2297054536
 40
1.0
 40
1.0
 40
1.0
 40
1.0
 10
114.8834692469
 20
70.5077293941
 30
0.0
 10
114.872420701
 20
70.5013505513
 30
0.0
 10
114.8221690802
 20
70.4773557972
 30
0.0
 10
114.7662572892
 20
70.4665037887
 30
0.0
 10
114.7235421829
 20
70.4641153374
 30
0.0
  0
SPLINE
  5
768
100
AcDbEntity
  8
0
100
AcDbSpline
 62
7
  6
CONTINUOUS
 70
0
 71
3
 72
9
 73
5
 74
0
 42
0.0000001
 43
0.0000001
 44
0.0000000001
 40
0.0
 40
0.0
 40
0.0
 40
0.0
 40
0.2291458351
 40
1.0
 40
1.0
 40
1.0
 40
1.0
 10
112.7397249882
 20
69.270045435
 30
0.0
 10
112.7300929567
 20
69.2644844122
 30
0.0
 10
112.686335123
 20
69.2432459911
 30
0.0
 10
112.6381005917
 20
69.2320637499
 30
0.0
 10
112.6008938413
 20
69.2281207616
 30
0.0
  0
SPLINE
  5
769
100
AcDbEntity
  8
0
100
AcDbSpline
 62
7
  6
CONTINUOUS
 70
0
 71
3
 72
9
 73
5
 74
0
 42
0.0000001
 43
0.0000001
 44
0.0000000001
 40
0.0
 40
0.0
 40
0.0
 40
0.0
 40
0.2291458351
 40
1.0
 40
1.0
 40
1.0
 40
1.0
 10
108.0700112479
 20
66.574001043
 30
0.0
 10
108.0603792164
 20
66.5684400202
 30
0.0
 10
108.0166213825
 20
66.5472015991
 30
0.0
 10
107.9683868511
 20
66.5360193578
 30
0.0
 10
107.9311801005
 20
66.5320763694
 30
0.0
  0
SPLINE
  5
76A
100
AcDbEntity
  8
0
100
AcDbSpline
 62
7
  6
CONTINUOUS
 70
0
 71
3
 72
9
 73
5
 74
0
 42
0.0000001
 43
0.0000001
 44
0.0000000001
 40
0.0
 40
0.0
 40
0.0
 40
0.0
 40
0.2297054536
 40
1.0
 40
1.0
 40
1.0
 40
1.0
 10
110.2137555059
 20
67.811685002
 30
0.0
 10
110.2027069601
 20
67.8053061591
 30
0.0
 10
110.1524553393
 20
67.7813114051
 30
0.0
 10
110.0965435483
 20
67.7704593965
 30
0.0
 10
110.0538284419
 20
67.7680709453
 30
0.0
  0
SPLINE
  5
76B
100
AcDbEntity
  8
0
100
AcDbSpline
 62
7
  6
CONTINUOUS
 70
0
 71
3
 72
9
 73
5
 74
0
 42
0.0000001
 43
0.0000001
 44
0.0000000001
 40
0.0
 40
0.0
 40
0.0
 40
0.0
 40
0.5161090896
 40
1.0
 40
1.0
 40
1.0
 40
1.0
 10
106.6180734695
 20
56.6171396739
 30
0.0
 10
106.6809936853
 20
56.5808134922
 30
0.0
 10
106.7735978047
 20
56.4660750329
 30
0.0
 10
106.8133171443
 20
56.3194808825
 30
0.0
 10
106.7991484687
 20
56.2528525413
 30
0.0
  0
SPLINE
  5
76C
100
AcDbEntity
  8
0
100
AcDbSpline
 62
7
  6
CONTINUOUS
 70
0
 71
3
 72
9
 73
5
 74
0
 42
0.0000001
 43
0.0000001
 44
0.0000000001
 40
0.0
 40
0.0
 40
0.0
 40
0.0
 40
0.2793138457
 40
1.0
 40
1.0
 40
1.0
 40
1.0
 10
106.7991484687
 20
56.2528525413
 30
0.0
 10
106.7973464954
 20
56.2443787437
 30
0.0
 10
106.7889539716
 20
56.2146160245
 30
0.0
 10
106.7684360631
 20
56.1873757967
 30
0.0
 10
106.7490901308
 20
56.1761779558
 30
0.0
  0
SPLINE
  5
76D
100
AcDbEntity
  8
0
100
AcDbSpline
 62
7
  6
CONTINUOUS
 70
0
 71
3
 72
9
 73
5
 74
0
 42
0.0000001
 43
0.0000001
 44
0.0000000001
 40
0.0
 40
0.0
 40
0.0
 40
0.0
 40
0.5208899936
 40
1.0
 40
1.0
 40
1.0
 40
1.0
 10
106.7136312751
 20
54.0664118135
 30
0.0
 10
106.7421282345
 20
54.031260422
 30
0.0
 10
106.7789737048
 20
53.9509094439
 30
0.0
 10
106.8023695981
 20
53.8658803652
 30
0.0
 10
106.8034082993
 20
53.8242714113
 30
0.0
  0
SPLINE
  5
76E
100
AcDbEntity
  8
0
100
AcDbSpline
 62
7
  6
CONTINUOUS
 70
0
 71
3
 72
9
 73
5
 74
0
 42
0.0000001
 43
0.0000001
 44
0.0000000001
 40
0.0
 40
0.0
 40
0.0
 40
0.0
 40
0.2953681287
 40
1.0
 40
1.0
 40
1.0
 40
1.0
 10
106.8034082993
 20
53.8242714113
 30
0.0
 10
106.8037481369
 20
53.8106579827
 30
0.0
 10
106.8014370215
 20
53.7651098743
 30
0.0
 10
106.7772531201
 20
53.7169576145
 30
0.0
 10
106.7491380677
 20
53.7006815793
 30
0.0
  0
SPLINE
  5
76F
100
AcDbEntity
  8
0
100
AcDbSpline
 62
7
  6
CONTINUOUS
 70
0
 71
3
 72
9
 73
5
 74
0
 42
0.0000001
 43
0.0000001
 44
0.0000000001
 40
0.0
 40
0.0
 40
0.0
 40
0.0
 40
0.5208899936
 40
1.0
 40
1.0
 40
1.0
 40
1.0
 10
106.7136312751
 20
62.3620763715
 30
0.0
 10
106.7421282345
 20
62.32692498
 30
0.0
 10
106.7789737047
 20
62.246574002
 30
0.0
 10
106.8023695981
 20
62.1615449233
 30
0.0
 10
106.8034082993
 20
62.1199359693
 30
0.0
  0
SPLINE
  5
770
100
AcDbEntity
  8
0
100
AcDbSpline
 62
7
  6
CONTINUOUS
 70
0
 71
3
 72
9
 73
5
 74
0
 42
0.0000001
 43
0.0000001
 44
0.0000000001
 40
0.0
 40
0.0
 40
0.0
 40
0.0
 40
0.2953681287
 40
1.0
 40
1.0
 40
1.0
 40
1.0
 10
106.8034082993
 20
62.1199359693
 30
0.0
 10
106.8037481369
 20
62.1063225408
 30
0.0
 10
106.8014370215
 20
62.0607744324
 30
0.0
 10
106.7772531202
 20
62.0126221726
 30
0.0
 10
106.7491380677
 20
61.9963461373
 30
0.0
  0
SPLINE
  5
771
100
AcDbEntity
  8
0
100
AcDbSpline
 62
7
  6
CONTINUOUS
 70
0
 71
3
 72
9
 73
5
 74
0
 42
0.0000001
 43
0.0000001
 44
0.0000000001
 40
0.0
 40
0.0
 40
0.0
 40
0.0
 40
0.2287076107
 40
1.0
 40
1.0
 40
1.0
 40
1.0
 10
106.6180734695
 20
64.9128042319
 30
0.0
 10
106.635084541
 20
64.9029831074
 30
0.0
 10
106.7041220577
 20
64.8511577512
 30
0.0
 10
106.7540559147
 20
64.7759344791
 30
0.0
 10
106.778161991
 20
64.7142338156
 30
0.0
  0
SPLINE
  5
772
100
AcDbEntity
  8
0
100
AcDbSpline
 62
7
  6
CONTINUOUS
 70
0
 71
3
 72
9
 73
5
 74
0
 42
0.0000001
 43
0.0000001
 44
0.0000000001
 40
0.0
 40
0.0
 40
0.0
 40
0.0
 40
0.2656289369
 40
1.0
 40
1.0
 40
1.0
 40
1.0
 10
106.778161991
 20
64.7142338156
 30
0.0
 10
106.7821228554
 20
64.7040957926
 30
0.0
 10
106.795506142
 20
64.6653916983
 30
0.0
 10
106.8030969676
 20
64.6243744117
 30
0.0
 10
106.8034213127
 20
64.5942848825
 30
0.0
  0
SPLINE
  5
773
100
AcDbEntity
  8
0
100
AcDbSpline
 62
7
  6
CONTINUOUS
 70
0
 71
3
 72
8
 73
4
 74
0
 42
0.0000001
 43
0.0000001
 44
0.0000000001
 40
0.0
 40
0.0
 40
0.0
 40
0.0
 40
1.0
 40
1.0
 40
1.0
 40
1.0
 10
106.8034213127
 20
64.5942848825
 30
0.0
 10
106.8036194763
 20
64.575901227
 30
0.0
 10
106.8017855114
 20
64.557252941
 30
0.0
 10
106.7969750389
 20
64.539508719
 30
0.0
  0
SPLINE
  5
774
100
AcDbEntity
  8
0
100
AcDbSpline
 62
7
  6
CONTINUOUS
 70
0
 71
3
 72
9
 73
5
 74
0
 42
0.0000001
 43
0.0000001
 44
0.0000000001
 40
0.0
 40
0.0
 40
0.0
 40
0.0
 40
0.2755170582
 40
1.0
 40
1.0
 40
1.0
 40
1.0
 10
106.7969750389
 20
64.539508719
 30
0.0
 10
106.7949546533
 20
64.5320561932
 30
0.0
 10
106.7859034638
 20
64.5055859058
 30
0.0
 10
106.7666627762
 20
64.4820139327
 30
0.0
 10
106.749090132
 20
64.4718425112
 30
0.0
  0
SPLINE
  5
775
100
AcDbEntity
  8
0
100
AcDbSpline
 62
7
  6
CONTINUOUS
 70
0
 71
3
 72
9
 73
5
 74
0
 42
0.0000001
 43
0.0000001
 44
0.0000000001
 40
0.0
 40
0.0
 40
0.0
 40
0.0
 40
0.2798190847
 40
1.0
 40
1.0
 40
1.0
 40
1.0
 10
110.000400798
 20
55.5810038002
 30
0.0
 10
110.000400798
 20
55.4437637944
 30
0.0
 10
109.974458058
 20
54.9556007147
 30
0.0
 10
109.8257387246
 20
54.4600620017
 30
0.0
 10
109.6226176022
 20
54.1710879262
 30
0.0
  0
SPLINE
  5
776
100
AcDbEntity
  8
0
100
AcDbSpline
 62
7
  6
CONTINUOUS
 70
0
 71
3
 72
9
 73
5
 74
0
 42
0.0000001
 43
0.0000001
 44
0.0000000001
 40
0.0
 40
0.0
 40
0.0
 40
0.0
 40
0.2662820354
 40
1.0
 40
1.0
 40
1.0
 40
1.0
 10
109.6226176022
 20
57.4271362652
 30
0.0
 10
109.6832999265
 20
57.2707370908
 30
0.0
 10
109.8878806724
 20
56.6752763762
 30
0.0
 10
110.000400798
 20
56.0432494543
 30
0.0
 10
110.000400798
 20
55.5810038002
 30
0.0
  0
SPLINE
  5
777
100
AcDbEntity
  8
0
100
AcDbSpline
 62
7
  6
CONTINUOUS
 70
0
 71
3
 72
9
 73
5
 74
0
 42
0.0000001
 43
0.0000001
 44
0.0000000001
 40
0.0
 40
0.0
 40
0.0
 40
0.0
 40
0.2552593486
 40
1.0
 40
1.0
 40
1.0
 40
1.0
 10
71.9276057502
 20
264.2161559122
 30
0.0
 10
71.9414840311
 20
264.1838908423
 30
0.0
 10
71.9933323789
 20
264.0564305445
 30
0.0
 10
72.0348895495
 20
263.9247032276
 30
0.0
 10
72.0588287584
 20
263.8250636904
 30
0.0
  0
SPLINE
  5
778
100
AcDbEntity
  8
0
100
AcDbSpline
 62
7
  6
CONTINUOUS
 70
0
 71
3
 72
9
 73
5
 74
0
 42
0.0000001
 43
0.0000001
 44
0.0000000001
 40
0.0
 40
0.0
 40
0.0
 40
0.0
 40
0.2714016068
 40
1.0
 40
1.0
 40
1.0
 40
1.0
 10
112.9997881268
 20
67.4499789092
 30
0.0
 10
112.9997881268
 20
67.4416461887
 30
0.0
 10
112.9984392166
 20
67.411010549
 30
0.0
 10
112.9914204056
 20
67.3802410621
 30
0.0
 10
112.9818050661
 20
67.3600431819
 30
0.0
  0
SPLINE
  5
779
100
AcDbEntity
  8
0
100
AcDbSpline
 62
7
  6
CONTINUOUS
 70
0
 71
3
 72
9
 73
5
 74
0
 42
0.0000001
 43
0.0000001
 44
0.0000000001
 40
0.0
 40
0.0
 40
0.0
 40
0.0
 40
0.2652684352
 40
1.0
 40
1.0
 40
1.0
 40
1.0
 10
112.9818050661
 20
67.3600431819
 30
0.0
 10
112.9791469293
 20
67.3544595278
 30
0.0
 10
112.9678642307
 20
67.3340627896
 30
0.0
 10
112.9505188844
 20
67.3168103666
 30
0.0
 10
112.9356750165
 20
67.308263794
 30
0.0
  0
SPLINE
  5
77A
100
AcDbEntity
  8
0
100
AcDbSpline
 62
7
  6
CONTINUOUS
 70
0
 71
3
 72
9
 73
5
 74
0
 42
0.0000001
 43
0.0000001
 44
0.0000000001
 40
0.0
 40
0.0
 40
0.0
 40
0.0
 40
0.2454817491
 40
1.0
 40
1.0
 40
1.0
 40
1.0
 10
112.8557598365
 20
57.6084580697
 30
0.0
 10
112.8700202867
 20
57.5942316294
 30
0.0
 10
112.9240199995
 20
57.5323408446
 30
0.0
 10
112.9636123505
 20
57.4576993902
 30
0.0
 10
112.9817967247
 20
57.3985172026
 30
0.0
  0
SPLINE
  5
77B
100
AcDbEntity
  8
0
100
AcDbSpline
 62
7
  6
CONTINUOUS
 70
0
 71
3
 72
9
 73
5
 74
0
 42
0.0000001
 43
0.0000001
 44
0.0000000001
 40
0.0
 40
0.0
 40
0.0
 40
0.0
 40
0.2647038691
 40
1.0
 40
1.0
 40
1.0
 40
1.0
 10
112.9817967247
 20
57.3985172026
 30
0.0
 10
112.9847095504
 20
57.3890372288
 30
0.0
 10
112.9945333797
 20
57.3528944519
 30
0.0
 10
112.9997881268
 20
57.3153383925
 30
0.0
 10
112.9997881268
 20
57.2877898256
 30
0.0
  0
SPLINE
  5
77C
100
AcDbEntity
  8
0
100
AcDbSpline
 62
7
  6
CONTINUOUS
 70
0
 71
3
 72
9
 73
5
 74
0
 42
0.0000001
 43
0.0000001
 44
0.0000000001
 40
0.0
 40
0.0
 40
0.0
 40
0.0
 40
0.2367350848
 40
1.0
 40
1.0
 40
1.0
 40
1.0
 10
111.0282633758
 20
59.3281779417
 30
0.0
 10
111.0697176643
 20
59.3042448385
 30
0.0
 10
111.2409061782
 20
59.1963905864
 30
0.0
 10
111.3963076809
 20
59.0644295601
 30
0.0
 10
111.5055653497
 20
58.9554324612
 30
0.0
  0
SPLINE
  5
77D
100
AcDbEntity
  8
0
100
AcDbSpline
 62
7
  6
CONTINUOUS
 70
0
 71
3
 72
9
 73
5
 74
0
 42
0.0000001
 43
0.0000001
 44
0.0000000001
 40
0.0
 40
0.0
 40
0.0
 40
0.0
 40
0.7684880036
 40
1.0
 40
1.0
 40
1.0
 40
1.0
 10
111.1920202691
 20
56.5524591324
 30
0.0
 10
111.2158088406
 20
56.5287272945
 30
0.0
 10
111.2389357564
 20
56.4880710177
 30
0.0
 10
111.2450522349
 20
56.4445102454
 30
0.0
 10
111.2450522349
 20
56.4343874166
 30
0.0
  0
SPLINE
  5
77E
100
AcDbEntity
  8
0
100
AcDbSpline
 62
7
  6
CONTINUOUS
 70
0
 71
3
 72
9
 73
5
 74
0
 42
0.0000001
 43
0.0000001
 44
0.0000000001
 40
0.0
 40
0.0
 40
0.0
 40
0.0
 40
0.2404213633
 40
1.0
 40
1.0
 40
1.0
 40
1.0
 10
109.4118240039
 20
58.2352402632
 30
0.0
 10
109.4365496643
 20
58.2209652194
 30
0.0
 10
109.537867038
 20
58.1589609244
 30
0.0
 10
109.6330726577
 20
58.0871740519
 30
0.0
 10
109.7017655929
 20
58.0287136468
 30
0.0
  0
SPLINE
  5
77F
100
AcDbEntity
  8
0
100
AcDbSpline
 62
7
  6
CONTINUOUS
 70
0
 71
3
 72
9
 73
5
 74
0
 42
0.0000001
 43
0.0000001
 44
0.0000000001
 40
0.0
 40
0.0
 40
0.0
 40
0.0
 40
0.2697108388
 40
1.0
 40
1.0
 40
1.0
 40
1.0
 10
110.000400798
 20
64.1047991336
 30
0.0
 10
110.000400798
 20
64.0087989356
 30
0.0
 10
109.986810472
 20
63.6533957482
 30
0.0
 10
109.9149161302
 20
63.2972278636
 30
0.0
 10
109.8172894176
 20
63.0563203734
 30
0.0
  0
SPLINE
  5
780
100
AcDbEntity
  8
0
100
AcDbSpline
 62
7
  6
CONTINUOUS
 70
0
 71
3
 72
9
 73
5
 74
0
 42
0.0000001
 43
0.0000001
 44
0.0000000001
 40
0.0
 40
0.0
 40
0.0
 40
0.0
 40
0.2582774918
 40
1.0
 40
1.0
 40
1.0
 40
1.0
 10
109.8172894176
 20
63.0563203734
 30
0.0
 10
109.8039994155
 20
63.023525445
 30
0.0
 10
109.7492869917
 20
62.8979165513
 30
0.0
 10
109.6810548762
 20
62.7780201437
 30
0.0
 10
109.6226176022
 20
62.6948832596
 30
0.0
  0
SPLINE
  5
781
100
AcDbEntity
  8
0
100
AcDbSpline
 62
7
  6
CONTINUOUS
 70
0
 71
3
 72
9
 73
5
 74
0
 42
0.0000001
 43
0.0000001
 44
0.0000000001
 40
0.0
 40
0.0
 40
0.0
 40
0.0
 40
0.262922142
 40
1.0
 40
1.0
 40
1.0
 40
1.0
 10
109.830338796
 20
65.3166315453
 30
0.0
 10
109.8580211952
 20
65.2128507703
 30
0.0
 10
109.9520796561
 20
64.8153736846
 30
0.0
 10
110.000400798
 20
64.4059112399
 30
0.0
 10
110.000400798
 20
64.1047991336
 30
0.0
  0
SPLINE
  5
782
100
AcDbEntity
  8
0
100
AcDbSpline
 62
7
  6
CONTINUOUS
 70
0
 71
3
 72
9
 73
5
 74
0
 42
0.0000001
 43
0.0000001
 44
0.0000000001
 40
0.0
 40
0.0
 40
0.0
 40
0.0
 40
0.2361308105
 40
1.0
 40
1.0
 40
1.0
 40
1.0
 10
106.8003935666
 20
64.5437010679
 30
0.0
 10
106.7881242339
 20
64.5466041839
 30
0.0
 10
106.7358810615
 20
64.557700282
 30
0.0
 10
106.6828038541
 20
64.5645885568
 30
0.0
 10
106.6421810799
 20
64.5682395404
 30
0.0
  0
SPLINE
  5
783
100
AcDbEntity
  8
0
100
AcDbSpline
 62
7
  6
CONTINUOUS
 70
0
 71
3
 72
11
 73
7
 74
0
 42
0.0000001
 43
0.0000001
 44
0.0000000001
 40
0.0
 40
0.0
 40
0.0
 40
0.0
 40
0.2178726093
 40
0.4516768978
 40
0.7112529413
 40
1.0
 40
1.0
 40
1.0
 40
1.0
 10
48.0275656882
 20
256.6474325101
 30
0.0
 10
47.9391566317
 20
256.5911292394
 30
0.0
 10
47.7747347645
 20
256.4423381704
 30
0.0
 10
47.6005574922
 20
256.1428571434
 30
0.0
 10
47.4971315528
 20
255.7778964337
 30
0.0
 10
47.4765649685
 20
255.5132880787
 30
0.0
 10
47.4765649685
 20
255.3743763002
 30
0.0
  0
SPLINE
  5
784
100
AcDbEntity
  8
0
100
AcDbSpline
 62
7
  6
CONTINUOUS
 70
0
 71
3
 72
9
 73
5
 74
0
 42
0.0000001
 43
0.0000001
 44
0.0000000001
 40
0.0
 40
0.0
 40
0.0
 40
0.0
 40
0.2402584519
 40
1.0
 40
1.0
 40
1.0
 40
1.0
 10
106.8125096239
 20
51.5851138462
 30
0.0
 10
106.8239993637
 20
51.5841788886
 30
0.0
 10
106.8719895847
 20
51.5823121885
 30
0.0
 10
106.9200528572
 20
51.587616559
 30
0.0
 10
106.9559276815
 20
51.5940819538
 30
0.0
  0
SPLINE
  5
785
100
AcDbEntity
  8
0
100
AcDbSpline
 62
7
  6
CONTINUOUS
 70
0
 71
3
 72
9
 73
5
 74
0
 42
0.0000001
 43
0.0000001
 44
0.0000000001
 40
0.0
 40
0.0
 40
0.0
 40
0.0
 40
0.2350370875
 40
1.0
 40
1.0
 40
1.0
 40
1.0
 10
106.9559276815
 20
51.5940819538
 30
0.0
 10
106.9749375251
 20
51.5975079259
 30
0.0
 10
107.0552456062
 20
51.6150419286
 30
0.0
 10
107.1325679212
 20
51.6466776711
 30
0.0
 10
107.1870124878
 20
51.6781110686
 30
0.0
  0
SPLINE
  5
786
100
AcDbEntity
  8
0
100
AcDbSpline
 62
7
  6
CONTINUOUS
 70
0
 71
3
 72
8
 73
4
 74
0
 42
0.0000001
 43
0.0000001
 44
0.0000000001
 40
0.0
 40
0.0
 40
0.0
 40
0.0
 40
1.0
 40
1.0
 40
1.0
 40
1.0
 10
106.7954051989
 20
51.5625129395
 30
0.0
 10
106.7730614019
 20
51.5815124097
 30
0.0
 10
106.7530466307
 20
51.6035235483
 30
0.0
 10
106.7358471423
 20
51.6272807099
 30
0.0
  0
SPLINE
  5
787
100
AcDbEntity
  8
0
100
AcDbSpline
 62
7
  6
CONTINUOUS
 70
0
 71
3
 72
8
 73
4
 74
0
 42
0.0000001
 43
0.0000001
 44
0.0000000001
 40
0.0
 40
0.0
 40
0.0
 40
0.0
 40
1.0
 40
1.0
 40
1.0
 40
1.0
 10
106.7358471423
 20
51.6272807099
 30
0.0
 10
106.7227045429
 20
51.6454342069
 30
0.0
 10
106.7110682828
 20
51.6647511409
 30
0.0
 10
106.7009388675
 20
51.6847429472
 30
0.0
  0
SPLINE
  5
788
100
AcDbEntity
  8
0
100
AcDbSpline
 62
7
  6
CONTINUOUS
 70
0
 71
3
 72
8
 73
4
 74
0
 42
0.0000001
 43
0.0000001
 44
0.0000000001
 40
0.0
 40
0.0
 40
0.0
 40
0.0
 40
1.0
 40
1.0
 40
1.0
 40
1.0
 10
106.7009388675
 20
51.6847429472
 30
0.0
 10
106.6906164656
 20
51.7051156394
 30
0.0
 10
106.681804482
 20
51.7263014166
 30
0.0
 10
106.6743521781
 20
51.7478898796
 30
0.0
  0
SPLINE
  5
789
100
AcDbEntity
  8
0
100
AcDbSpline
 62
7
  6
CONTINUOUS
 70
0
 71
3
 72
9
 73
5
 74
0
 42
0.0000001
 43
0.0000001
 44
0.0000000001
 40
0.0
 40
0.0
 40
0.0
 40
0.0
 40
0.2343583726
 40
1.0
 40
1.0
 40
1.0
 40
1.0
 10
106.6743521781
 20
51.7478898796
 30
0.0
 10
106.6682162351
 20
51.7656649976
 30
0.0
 10
106.6459006027
 20
51.8428396274
 30
0.0
 10
106.6379763425
 20
51.9237587623
 30
0.0
 10
106.6379763425
 20
51.9851920879
 30
0.0
  0
SPLINE
  5
78A
100
AcDbEntity
  8
0
100
AcDbSpline
 62
7
  6
CONTINUOUS
 70
0
 71
3
 72
9
 73
5
 74
0
 42
0.0000001
 43
0.0000001
 44
0.0000000001
 40
0.0
 40
0.0
 40
0.0
 40
0.0
 40
0.2402584519
 40
1.0
 40
1.0
 40
1.0
 40
1.0
 10
106.8125096239
 20
68.7316646059
 30
0.0
 10
106.8239993637
 20
68.7307296483
 30
0.0
 10
106.8719895847
 20
68.7288629482
 30
0.0
 10
106.9200528572
 20
68.7341673187
 30
0.0
 10
106.9559276815
 20
68.7406327136
 30
0.0
  0
SPLINE
  5
78B
100
AcDbEntity
  8
0
100
AcDbSpline
 62
7
  6
CONTINUOUS
 70
0
 71
3
 72
9
 73
5
 74
0
 42
0.0000001
 43
0.0000001
 44
0.0000000001
 40
0.0
 40
0.0
 40
0.0
 40
0.0
 40
0.2350370875
 40
1.0
 40
1.0
 40
1.0
 40
1.0
 10
106.9559276815
 20
68.7406327136
 30
0.0
 10
106.9749375251
 20
68.7440586856
 30
0.0
 10
107.0552456062
 20
68.7615926883
 30
0.0
 10
107.1325679212
 20
68.7932284308
 30
0.0
 10
107.1870124878
 20
68.8246618283
 30
0.0
  0
SPLINE
  5
78C
100
AcDbEntity
  8
0
100
AcDbSpline
 62
7
  6
CONTINUOUS
 70
0
 71
3
 72
8
 73
4
 74
0
 42
0.0000001
 43
0.0000001
 44
0.0000000001
 40
0.0
 40
0.0
 40
0.0
 40
0.0
 40
1.0
 40
1.0
 40
1.0
 40
1.0
 10
106.7954051989
 20
68.7090636992
 30
0.0
 10
106.7730614019
 20
68.7280631694
 30
0.0
 10
106.7530466307
 20
68.750074308
 30
0.0
 10
106.7358471423
 20
68.7738314696
 30
0.0
  0
SPLINE
  5
78D
100
AcDbEntity
  8
0
100
AcDbSpline
 62
7
  6
CONTINUOUS
 70
0
 71
3
 72
8
 73
4
 74
0
 42
0.0000001
 43
0.0000001
 44
0.0000000001
 40
0.0
 40
0.0
 40
0.0
 40
0.0
 40
1.0
 40
1.0
 40
1.0
 40
1.0
 10
106.7358471423
 20
68.7738314696
 30
0.0
 10
106.7227045429
 20
68.7919849666
 30
0.0
 10
106.7110682828
 20
68.8113019006
 30
0.0
 10
106.7009388675
 20
68.8312937069
 30
0.0
  0
SPLINE
  5
78E
100
AcDbEntity
  8
0
100
AcDbSpline
 62
7
  6
CONTINUOUS
 70
0
 71
3
 72
8
 73
4
 74
0
 42
0.0000001
 43
0.0000001
 44
0.0000000001
 40
0.0
 40
0.0
 40
0.0
 40
0.0
 40
1.0
 40
1.0
 40
1.0
 40
1.0
 10
106.7009388675
 20
68.8312937069
 30
0.0
 10
106.6906164656
 20
68.8516663991
 30
0.0
 10
106.681804482
 20
68.8728521763
 30
0.0
 10
106.6743521781
 20
68.8944406394
 30
0.0
  0
SPLINE
  5
78F
100
AcDbEntity
  8
0
100
AcDbSpline
 62
7
  6
CONTINUOUS
 70
0
 71
3
 72
9
 73
5
 74
0
 42
0.0000001
 43
0.0000001
 44
0.0000000001
 40
0.0
 40
0.0
 40
0.0
 40
0.0
 40
0.2343583726
 40
1.0
 40
1.0
 40
1.0
 40
1.0
 10
106.6743521781
 20
68.8944406394
 30
0.0
 10
106.6682162351
 20
68.9122157573
 30
0.0
 10
106.6459006027
 20
68.9893903872
 30
0.0
 10
106.6379763425
 20
69.070309522
 30
0.0
 10
106.6379763425
 20
69.1317428476
 30
0.0
  0
SPLINE
  5
790
100
AcDbEntity
  8
0
100
AcDbSpline
 62
7
  6
CONTINUOUS
 70
0
 71
3
 72
9
 73
5
 74
0
 42
0.0000001
 43
0.0000001
 44
0.0000000001
 40
0.0
 40
0.0
 40
0.0
 40
0.0
 40
0.2402584519
 40
1.0
 40
1.0
 40
1.0
 40
1.0
 10
106.8125096239
 20
103.0247661254
 30
0.0
 10
106.8239993637
 20
103.0238311677
 30
0.0
 10
106.8719895847
 20
103.0219644676
 30
0.0
 10
106.9200528572
 20
103.0272688382
 30
0.0
 10
106.9559276815
 20
103.033734233
 30
0.0
  0
SPLINE
  5
791
100
AcDbEntity
  8
0
100
AcDbSpline
 62
7
  6
CONTINUOUS
 70
0
 71
3
 72
9
 73
5
 74
0
 42
0.0000001
 43
0.0000001
 44
0.0000000001
 40
0.0
 40
0.0
 40
0.0
 40
0.0
 40
0.2350370875
 40
1.0
 40
1.0
 40
1.0
 40
1.0
 10
106.9559276815
 20
103.033734233
 30
0.0
 10
106.9749375251
 20
103.037160205
 30
0.0
 10
107.0552456062
 20
103.0546942078
 30
0.0
 10
107.1325679212
 20
103.0863299502
 30
0.0
 10
107.1870124878
 20
103.1177633477
 30
0.0
  0
SPLINE
  5
792
100
AcDbEntity
  8
0
100
AcDbSpline
 62
7
  6
CONTINUOUS
 70
0
 71
3
 72
8
 73
4
 74
0
 42
0.0000001
 43
0.0000001
 44
0.0000000001
 40
0.0
 40
0.0
 40
0.0
 40
0.0
 40
1.0
 40
1.0
 40
1.0
 40
1.0
 10
106.7954051989
 20
103.0021652187
 30
0.0
 10
106.7730614019
 20
103.0211646889
 30
0.0
 10
106.7530466307
 20
103.0431758274
 30
0.0
 10
106.7358471423
 20
103.0669329891
 30
0.0
  0
SPLINE
  5
793
100
AcDbEntity
  8
0
100
AcDbSpline
 62
7
  6
CONTINUOUS
 70
0
 71
3
 72
8
 73
4
 74
0
 42
0.0000001
 43
0.0000001
 44
0.0000000001
 40
0.0
 40
0.0
 40
0.0
 40
0.0
 40
1.0
 40
1.0
 40
1.0
 40
1.0
 10
106.7358471423
 20
103.0669329891
 30
0.0
 10
106.7227045429
 20
103.0850864861
 30
0.0
 10
106.7110682828
 20
103.10440342
 30
0.0
 10
106.7009388675
 20
103.1243952264
 30
0.0
  0
SPLINE
  5
794
100
AcDbEntity
  8
0
100
AcDbSpline
 62
7
  6
CONTINUOUS
 70
0
 71
3
 72
8
 73
4
 74
0
 42
0.0000001
 43
0.0000001
 44
0.0000000001
 40
0.0
 40
0.0
 40
0.0
 40
0.0
 40
1.0
 40
1.0
 40
1.0
 40
1.0
 10
106.7009388675
 20
103.1243952264
 30
0.0
 10
106.6906164656
 20
103.1447679186
 30
0.0
 10
106.681804482
 20
103.1659536958
 30
0.0
 10
106.6743521781
 20
103.1875421588
 30
0.0
  0
SPLINE
  5
795
100
AcDbEntity
  8
0
100
AcDbSpline
 62
7
  6
CONTINUOUS
 70
0
 71
3
 72
9
 73
5
 74
0
 42
0.0000001
 43
0.0000001
 44
0.0000000001
 40
0.0
 40
0.0
 40
0.0
 40
0.0
 40
0.2343583726
 40
1.0
 40
1.0
 40
1.0
 40
1.0
 10
106.6743521781
 20
103.1875421588
 30
0.0
 10
106.6682162351
 20
103.2053172767
 30
0.0
 10
106.6459006027
 20
103.2824919066
 30
0.0
 10
106.6379763425
 20
103.3634110414
 30
0.0
 10
106.6379763425
 20
103.4248443671
 30
0.0
  0
SPLINE
  5
796
100
AcDbEntity
  8
0
100
AcDbSpline
 62
7
  6
CONTINUOUS
 70
0
 71
3
 72
8
 73
4
 74
0
 42
0.0000001
 43
0.0000001
 44
0.0000000001
 40
0.0
 40
0.0
 40
0.0
 40
0.0
 40
1.0
 40
1.0
 40
1.0
 40
1.0
 10
114.9177985098
 20
121.9720182368
 30
0.0
 10
114.907306534
 20
121.9626212837
 30
0.0
 10
114.8956671425
 20
121.9544240896
 30
0.0
 10
114.8834692469
 20
121.9473816733
 30
0.0
  0
SPLINE
  5
797
100
AcDbEntity
  8
0
100
AcDbSpline
 62
7
  6
CONTINUOUS
 70
0
 71
3
 72
9
 73
5
 74
0
 42
0.0000001
 43
0.0000001
 44
0.0000000001
 40
0.0
 40
0.0
 40
0.0
 40
0.0
 40
0.7301885573
 40
1.0
 40
1.0
 40
1.0
 40
1.0
 10
112.8107898142
 20
120.7852673146
 30
0.0
 10
112.805693718
 20
120.771411537
 30
0.0
 10
112.7943198373
 20
120.7539205252
 30
0.0
 10
112.7800493445
 20
120.7396242142
 30
0.0
 10
112.7760226803
 20
120.7359439133
 30
0.0
  0
SPLINE
  5
798
100
AcDbEntity
  8
0
100
AcDbSpline
 62
7
  6
CONTINUOUS
 70
0
 71
3
 72
8
 73
4
 74
0
 42
0.0000001
 43
0.0000001
 44
0.0000000001
 40
0.0
 40
0.0
 40
0.0
 40
0.0
 40
1.0
 40
1.0
 40
1.0
 40
1.0
 10
112.7760226803
 20
120.7359439133
 30
0.0
 10
112.7650015837
 20
120.7258708232
 30
0.0
 10
112.7526555444
 20
120.7171631297
 30
0.0
 10
112.7397249882
 20
120.7096977142
 30
0.0
  0
SPLINE
  5
799
100
AcDbEntity
  8
0
100
AcDbSpline
 62
7
  6
CONTINUOUS
 70
0
 71
3
 72
9
 73
5
 74
0
 42
0.0000001
 43
0.0000001
 44
0.0000000001
 40
0.0
 40
0.0
 40
0.0
 40
0.0
 40
0.4499603239
 40
1.0
 40
1.0
 40
1.0
 40
1.0
 10
110.023607871
 20
124.4560083498
 30
0.0
 10
110.0033435834
 20
124.4677076632
 30
0.0
 10
109.9686282913
 20
124.5116320896
 30
0.0
 10
109.961488024
 20
124.5647647519
 30
0.0
 10
109.961488024
 20
124.5933681692
 30
0.0
  0
SPLINE
  5
79A
100
AcDbEntity
  8
0
100
AcDbSpline
 62
7
  6
CONTINUOUS
 70
0
 71
3
 72
9
 73
5
 74
0
 42
0.0000001
 43
0.0000001
 44
0.0000000001
 40
0.0
 40
0.0
 40
0.0
 40
0.0
 40
0.2554653828
 40
1.0
 40
1.0
 40
1.0
 40
1.0
 10
71.5056579213
 20
263.9734537347
 30
0.0
 10
71.5266337956
 20
263.9453202339
 30
0.0
 10
71.6109065044
 20
263.836836624
 30
0.0
 10
71.703941361
 20
263.735060489
 30
0.0
 10
71.7780443989
 20
263.6645708993
 30
0.0
  0
SPLINE
  5
79B
100
AcDbEntity
  8
0
100
AcDbSpline
 62
7
  6
CONTINUOUS
 70
0
 71
3
 72
11
 73
7
 74
0
 42
0.0000001
 43
0.0000001
 44
0.0000000001
 40
0.0
 40
0.0
 40
0.0
 40
0.0
 40
0.1939438282
 40
0.4207098393
 40
0.6922179985
 40
1.0
 40
1.0
 40
1.0
 40
1.0
 10
171.1178874851
 20
43.0448143277
 30
0.0
 10
171.1179385681
 20
43.0931091371
 30
0.0
 10
171.0845622258
 20
43.1987542218
 30
0.0
 10
170.9592736921
 20
43.3231030895
 30
0.0
 10
170.7789488905
 20
43.4158907117
 30
0.0
 10
170.6378393183
 20
43.4513484803
 30
0.0
 10
170.5620980353
 20
43.4630653349
 30
0.0
  0
SPLINE
  5
79C
100
AcDbEntity
  8
0
100
AcDbSpline
 62
7
  6
CONTINUOUS
 70
0
 71
3
 72
11
 73
7
 74
0
 42
0.0000001
 43
0.0000001
 44
0.0000000001
 40
0.0
 40
0.0
 40
0.0
 40
0.0
 40
0.1939438282
 40
0.4207098393
 40
0.6922179985
 40
1.0
 40
1.0
 40
1.0
 40
1.0
 10
171.1178874851
 20
169.0719624116
 30
0.0
 10
171.1179385681
 20
169.1202572211
 30
0.0
 10
171.0845622258
 20
169.2259023057
 30
0.0
 10
170.9592736921
 20
169.3502511734
 30
0.0
 10
170.7789488905
 20
169.4430387957
 30
0.0
 10
170.6378393183
 20
169.4784965642
 30
0.0
 10
170.5620980353
 20
169.4902134189
 30
0.0
  0
SPLINE
  5
79D
100
AcDbEntity
  8
0
100
AcDbSpline
 62
7
  6
CONTINUOUS
 70
0
 71
3
 72
11
 73
7
 74
0
 42
0.0000001
 43
0.0000001
 44
0.0000000001
 40
0.0
 40
0.0
 40
0.0
 40
0.0
 40
0.2177460211
 40
0.4508843679
 40
0.7104607696
 40
1.0
 40
1.0
 40
1.0
 40
1.0
 10
102.2460903069
 20
27.2145907394
 30
0.0
 10
102.3450285571
 20
27.2717124007
 30
0.0
 10
102.5722800704
 20
27.3544747406
 30
0.0
 10
102.9500743014
 20
27.3639649171
 30
0.0
 10
103.3525068315
 20
27.2665579444
 30
0.0
 10
103.6144398716
 20
27.142117636
 30
0.0
 10
103.7459996634
 20
27.0661632732
 30
0.0
  0
SPLINE
  5
79E
100
AcDbEntity
  8
0
100
AcDbSpline
 62
7
  6
CONTINUOUS
 70
0
 71
3
 72
8
 73
4
 74
0
 42
0.0000001
 43
0.0000001
 44
0.0000000001
 40
0.0
 40
0.0
 40
0.0
 40
0.0
 40
1.0
 40
1.0
 40
1.0
 40
1.0
 10
110.2480847689
 20
84.9828723251
 30
0.0
 10
110.237592793
 20
84.9734753721
 30
0.0
 10
110.2259534015
 20
84.965278178
 30
0.0
 10
110.2137555059
 20
84.9582357617
 30
0.0
  0
SPLINE
  5
79F
100
AcDbEntity
  8
0
100
AcDbSpline
 62
7
  6
CONTINUOUS
 70
0
 71
3
 72
8
 73
4
 74
0
 42
0.0000001
 43
0.0000001
 44
0.0000000001
 40
0.0
 40
0.0
 40
0.0
 40
0.0
 40
1.0
 40
1.0
 40
1.0
 40
1.0
 10
108.1063817347
 20
83.7465614462
 30
0.0
 10
108.095337579
 20
83.7365528194
 30
0.0
 10
108.0829189969
 20
83.7280040507
 30
0.0
 10
108.0700112479
 20
83.7205518027
 30
0.0
  0
SPLINE
  5
7A0
100
AcDbEntity
  8
0
100
AcDbSpline
 62
7
  6
CONTINUOUS
 70
0
 71
3
 72
9
 73
5
 74
0
 42
0.0000001
 43
0.0000001
 44
0.0000000001
 40
0.0
 40
0.0
 40
0.0
 40
0.0
 40
0.7301885573
 40
1.0
 40
1.0
 40
1.0
 40
1.0
 10
112.8107898142
 20
86.4921657951
 30
0.0
 10
112.805693718
 20
86.4783100176
 30
0.0
 10
112.7943198373
 20
86.4608190058
 30
0.0
 10
112.7800493445
 20
86.4465226948
 30
0.0
 10
112.7760226803
 20
86.4428423939
 30
0.0
  0
SPLINE
  5
7A1
100
AcDbEntity
  8
0
100
AcDbSpline
 62
7
  6
CONTINUOUS
 70
0
 71
3
 72
8
 73
4
 74
0
 42
0.0000001
 43
0.0000001
 44
0.0000000001
 40
0.0
 40
0.0
 40
0.0
 40
0.0
 40
1.0
 40
1.0
 40
1.0
 40
1.0
 10
112.7760226803
 20
86.4428423939
 30
0.0
 10
112.7650015837
 20
86.4327693038
 30
0.0
 10
112.7526555444
 20
86.4240616103
 30
0.0
 10
112.7397249882
 20
86.4165961947
 30
0.0
  0
SPLINE
  5
7A2
100
AcDbEntity
  8
0
100
AcDbSpline
 62
7
  6
CONTINUOUS
 70
0
 71
3
 72
8
 73
4
 74
0
 42
0.0000001
 43
0.0000001
 44
0.0000000001
 40
0.0
 40
0.0
 40
0.0
 40
0.0
 40
1.0
 40
1.0
 40
1.0
 40
1.0
 10
114.9177985098
 20
87.6789167173
 30
0.0
 10
114.907306534
 20
87.6695197643
 30
0.0
 10
114.8956671425
 20
87.6613225701
 30
0.0
 10
114.8834692469
 20
87.6542801539
 30
0.0
  0
SPLINE
  5
7A3
100
AcDbEntity
  8
0
100
AcDbSpline
 62
7
  6
CONTINUOUS
 70
0
 71
3
 72
8
 73
4
 74
0
 42
0.0000001
 43
0.0000001
 44
0.0000000001
 40
0.0
 40
0.0
 40
0.0
 40
0.0
 40
1.0
 40
1.0
 40
1.0
 40
1.0
 10
108.1063817347
 20
66.6000106865
 30
0.0
 10
108.095337579
 20
66.5900020597
 30
0.0
 10
108.0829189969
 20
66.5814532909
 30
0.0
 10
108.0700112479
 20
66.574001043
 30
0.0
  0
SPLINE
  5
7A4
100
AcDbEntity
  8
0
100
AcDbSpline
 62
7
  6
CONTINUOUS
 70
0
 71
3
 72
8
 73
4
 74
0
 42
0.0000001
 43
0.0000001
 44
0.0000000001
 40
0.0
 40
0.0
 40
0.0
 40
0.0
 40
1.0
 40
1.0
 40
1.0
 40
1.0
 10
110.2480847689
 20
67.8363215654
 30
0.0
 10
110.237592793
 20
67.8269246124
 30
0.0
 10
110.2259534015
 20
67.8187274182
 30
0.0
 10
110.2137555059
 20
67.811685002
 30
0.0
  0
SPLINE
  5
7A5
100
AcDbEntity
  8
0
100
AcDbSpline
 62
7
  6
CONTINUOUS
 70
0
 71
3
 72
10
 73
6
 74
0
 42
0.0000001
 43
0.0000001
 44
0.0000000001
 40
0.0
 40
0.0
 40
0.0
 40
0.0
 40
0.5476869046
 40
0.7816209011
 40
1.0
 40
1.0
 40
1.0
 40
1.0
 10
44.0871521528
 20
199.8668483784
 30
0.0
 10
44.0871521528
 20
199.7236021613
 30
0.0
 10
44.0567287934
 20
199.5125730737
 30
0.0
 10
43.9185389904
 20
199.286615058
 30
0.0
 10
43.8259547068
 20
199.2087320886
 30
0.0
 10
43.7764906876
 20
199.1801732073
 30
0.0
  0
SPLINE
  5
7A6
100
AcDbEntity
  8
0
100
AcDbSpline
 62
7
  6
CONTINUOUS
 70
0
 71
3
 72
11
 73
7
 74
0
 42
0.0000001
 43
0.0000001
 44
0.0000000001
 40
0.0
 40
0.0
 40
0.0
 40
0.0
 40
0.2895391946
 40
0.5491157945
 40
0.7822541179
 40
1.0
 40
1.0
 40
1.0
 40
1.0
 10
45.3443939919
 20
178.7026065837
 30
0.0
 10
45.4836280854
 20
178.6222215609
 30
0.0
 10
45.7608406951
 20
178.4905223737
 30
0.0
 10
46.1867484842
 20
178.387433085
 30
0.0
 10
46.5865807148
 20
178.3974770541
 30
0.0
 10
46.8270885113
 20
178.4850670728
 30
0.0
 10
46.9317980587
 20
178.5455208473
 30
0.0
  0
SPLINE
  5
7A7
100
AcDbEntity
  8
0
100
AcDbSpline
 62
7
  6
CONTINUOUS
 70
0
 71
3
 72
9
 73
5
 74
0
 42
0.0000001
 43
0.0000001
 44
0.0000000001
 40
0.0
 40
0.0
 40
0.0
 40
0.0
 40
0.2297054536
 40
1.0
 40
1.0
 40
1.0
 40
1.0
 10
114.8834692469
 20
87.6542801539
 30
0.0
 10
114.872420701
 20
87.647901311
 30
0.0
 10
114.8221690802
 20
87.623906557
 30
0.0
 10
114.7662572892
 20
87.6130545484
 30
0.0
 10
114.7235421829
 20
87.6106660972
 30
0.0
  0
SPLINE
  5
7A8
100
AcDbEntity
  8
0
100
AcDbSpline
 62
7
  6
CONTINUOUS
 70
0
 71
3
 72
9
 73
5
 74
0
 42
0.0000001
 43
0.0000001
 44
0.0000000001
 40
0.0
 40
0.0
 40
0.0
 40
0.0
 40
0.2291458351
 40
1.0
 40
1.0
 40
1.0
 40
1.0
 10
112.7397249882
 20
86.4165961947
 30
0.0
 10
112.7300929567
 20
86.411035172
 30
0.0
 10
112.686335123
 20
86.3897967508
 30
0.0
 10
112.6381005917
 20
86.3786145096
 30
0.0
 10
112.6008938413
 20
86.3746715213
 30
0.0
  0
SPLINE
  5
7A9
100
AcDbEntity
  8
0
100
AcDbSpline
 62
7
  6
CONTINUOUS
 70
0
 71
3
 72
9
 73
5
 74
0
 42
0.0000001
 43
0.0000001
 44
0.0000000001
 40
0.0
 40
0.0
 40
0.0
 40
0.0
 40
0.2291458351
 40
1.0
 40
1.0
 40
1.0
 40
1.0
 10
108.0700112479
 20
83.7205518027
 30
0.0
 10
108.0603792164
 20
83.71499078
 30
0.0
 10
108.0166213825
 20
83.6937523588
 30
0.0
 10
107.9683868511
 20
83.6825701175
 30
0.0
 10
107.9311801005
 20
83.6786271291
 30
0.0
  0
SPLINE
  5
7AA
100
AcDbEntity
  8
0
100
AcDbSpline
 62
7
  6
CONTINUOUS
 70
0
 71
3
 72
9
 73
5
 74
0
 42
0.0000001
 43
0.0000001
 44
0.0000000001
 40
0.0
 40
0.0
 40
0.0
 40
0.0
 40
0.2297054536
 40
1.0
 40
1.0
 40
1.0
 40
1.0
 10
110.2137555059
 20
84.9582357617
 30
0.0
 10
110.2027069601
 20
84.9518569188
 30
0.0
 10
110.1524553393
 20
84.9278621648
 30
0.0
 10
110.0965435483
 20
84.9170101562
 30
0.0
 10
110.0538284419
 20
84.914621705
 30
0.0
  0
SPLINE
  5
7AB
100
AcDbEntity
  8
0
100
AcDbSpline
 62
7
  6
CONTINUOUS
 70
0
 71
3
 72
9
 73
5
 74
0
 42
0.0000001
 43
0.0000001
 44
0.0000000001
 40
0.0
 40
0.0
 40
0.0
 40
0.0
 40
0.5202645089
 40
1.0
 40
1.0
 40
1.0
 40
1.0
 10
106.6180734695
 20
73.7636904336
 30
0.0
 10
106.6827856839
 20
73.7263296644
 30
0.0
 10
106.7764265394
 20
73.6086582883
 30
0.0
 10
106.8150036384
 20
73.4568961252
 30
0.0
 10
106.7969749953
 20
73.3903947595
 30
0.0
  0
SPLINE
  5
7AC
100
AcDbEntity
  8
0
100
AcDbSpline
 62
7
  6
CONTINUOUS
 70
0
 71
3
 72
9
 73
5
 74
0
 42
0.0000001
 43
0.0000001
 44
0.0000000001
 40
0.0
 40
0.0
 40
0.0
 40
0.0
 40
0.2755169793
 40
1.0
 40
1.0
 40
1.0
 40
1.0
 10
106.7969749953
 20
73.3903947595
 30
0.0
 10
106.7949546068
 20
73.3829422522
 30
0.0
 10
106.7859034089
 20
73.3564720239
 30
0.0
 10
106.766662742
 20
73.3329001201
 30
0.0
 10
106.7490901308
 20
73.3227287155
 30
0.0
  0
SPLINE
  5
7AD
100
AcDbEntity
  8
0
100
AcDbSpline
 62
7
  6
CONTINUOUS
 70
0
 71
3
 72
9
 73
5
 74
0
 42
0.0000001
 43
0.0000001
 44
0.0000000001
 40
0.0
 40
0.0
 40
0.0
 40
0.0
 40
0.5208899936
 40
1.0
 40
1.0
 40
1.0
 40
1.0
 10
106.7136312751
 20
71.2129625732
 30
0.0
 10
106.7421282345
 20
71.1778111817
 30
0.0
 10
106.7789737047
 20
71.0974602037
 30
0.0
 10
106.8023695981
 20
71.012431125
 30
0.0
 10
106.8034082993
 20
70.970822171
 30
0.0
  0
SPLINE
  5
7AE
100
AcDbEntity
  8
0
100
AcDbSpline
 62
7
  6
CONTINUOUS
 70
0
 71
3
 72
9
 73
5
 74
0
 42
0.0000001
 43
0.0000001
 44
0.0000000001
 40
0.0
 40
0.0
 40
0.0
 40
0.0
 40
0.2953681287
 40
1.0
 40
1.0
 40
1.0
 40
1.0
 10
106.8034082993
 20
70.970822171
 30
0.0
 10
106.8037481369
 20
70.9572087425
 30
0.0
 10
106.8014370215
 20
70.911660634
 30
0.0
 10
106.7772531202
 20
70.8635083742
 30
0.0
 10
106.7491380677
 20
70.847232339
 30
0.0
  0
SPLINE
  5
7AF
100
AcDbEntity
  8
0
100
AcDbSpline
 62
7
  6
CONTINUOUS
 70
0
 71
3
 72
9
 73
5
 74
0
 42
0.0000001
 43
0.0000001
 44
0.0000000001
 40
0.0
 40
0.0
 40
0.0
 40
0.0
 40
0.5208899936
 40
1.0
 40
1.0
 40
1.0
 40
1.0
 10
106.7136312751
 20
79.5086271313
 30
0.0
 10
106.7421282345
 20
79.4734757398
 30
0.0
 10
106.7789737047
 20
79.3931247617
 30
0.0
 10
106.8023695981
 20
79.308095683
 30
0.0
 10
106.8034082993
 20
79.2664867291
 30
0.0
  0
SPLINE
  5
7B0
100
AcDbEntity
  8
0
100
AcDbSpline
 62
7
  6
CONTINUOUS
 70
0
 71
3
 72
9
 73
5
 74
0
 42
0.0000001
 43
0.0000001
 44
0.0000000001
 40
0.0
 40
0.0
 40
0.0
 40
0.0
 40
0.2953681287
 40
1.0
 40
1.0
 40
1.0
 40
1.0
 10
106.8034082993
 20
79.2664867291
 30
0.0
 10
106.8037481369
 20
79.2528733005
 30
0.0
 10
106.8014370215
 20
79.2073251921
 30
0.0
 10
106.7772531202
 20
79.1591729323
 30
0.0
 10
106.7491380677
 20
79.142896897
 30
0.0
  0
SPLINE
  5
7B1
100
AcDbEntity
  8
0
100
AcDbSpline
 62
7
  6
CONTINUOUS
 70
0
 71
3
 72
9
 73
5
 74
0
 42
0.0000001
 43
0.0000001
 44
0.0000000001
 40
0.0
 40
0.0
 40
0.0
 40
0.0
 40
0.2287076107
 40
1.0
 40
1.0
 40
1.0
 40
1.0
 10
106.6180734695
 20
82.0593549917
 30
0.0
 10
106.635084541
 20
82.0495338672
 30
0.0
 10
106.7041220577
 20
81.997708511
 30
0.0
 10
106.7540559146
 20
81.9224852388
 30
0.0
 10
106.778161991
 20
81.8607845754
 30
0.0
  0
SPLINE
  5
7B2
100
AcDbEntity
  8
0
100
AcDbSpline
 62
7
  6
CONTINUOUS
 70
0
 71
3
 72
9
 73
5
 74
0
 42
0.0000001
 43
0.0000001
 44
0.0000000001
 40
0.0
 40
0.0
 40
0.0
 40
0.0
 40
0.2656289369
 40
1.0
 40
1.0
 40
1.0
 40
1.0
 10
106.778161991
 20
81.8607845754
 30
0.0
 10
106.7821228553
 20
81.8506465523
 30
0.0
 10
106.795506142
 20
81.811942458
 30
0.0
 10
106.8030969676
 20
81.7709251715
 30
0.0
 10
106.8034213127
 20
81.7408356422
 30
0.0
  0
SPLINE
  5
7B3
100
AcDbEntity
  8
0
100
AcDbSpline
 62
7
  6
CONTINUOUS
 70
0
 71
3
 72
8
 73
4
 74
0
 42
0.0000001
 43
0.0000001
 44
0.0000000001
 40
0.0
 40
0.0
 40
0.0
 40
0.0
 40
1.0
 40
1.0
 40
1.0
 40
1.0
 10
106.8034213127
 20
81.7408356422
 30
0.0
 10
106.8036194763
 20
81.7224519867
 30
0.0
 10
106.8017855114
 20
81.7038037007
 30
0.0
 10
106.7969750389
 20
81.6860594787
 30
0.0
  0
SPLINE
  5
7B4
100
AcDbEntity
  8
0
100
AcDbSpline
 62
7
  6
CONTINUOUS
 70
0
 71
3
 72
9
 73
5
 74
0
 42
0.0000001
 43
0.0000001
 44
0.0000000001
 40
0.0
 40
0.0
 40
0.0
 40
0.0
 40
0.2755170582
 40
1.0
 40
1.0
 40
1.0
 40
1.0
 10
106.7969750389
 20
81.6860594787
 30
0.0
 10
106.7949546533
 20
81.6786069529
 30
0.0
 10
106.7859034638
 20
81.6521366655
 30
0.0
 10
106.7666627762
 20
81.6285646924
 30
0.0
 10
106.749090132
 20
81.6183932709
 30
0.0
  0
SPLINE
  5
7B5
100
AcDbEntity
  8
0
100
AcDbSpline
 62
7
  6
CONTINUOUS
 70
0
 71
3
 72
9
 73
5
 74
0
 42
0.0000001
 43
0.0000001
 44
0.0000000001
 40
0.0
 40
0.0
 40
0.0
 40
0.0
 40
0.2798190847
 40
1.0
 40
1.0
 40
1.0
 40
1.0
 10
110.000400798
 20
72.7275545599
 30
0.0
 10
110.000400798
 20
72.5903145541
 30
0.0
 10
109.974458058
 20
72.1021514744
 30
0.0
 10
109.8257387246
 20
71.6066127614
 30
0.0
 10
109.6226176022
 20
71.3176386859
 30
0.0
  0
SPLINE
  5
7B6
100
AcDbEntity
  8
0
100
AcDbSpline
 62
7
  6
CONTINUOUS
 70
0
 71
3
 72
9
 73
5
 74
0
 42
0.0000001
 43
0.0000001
 44
0.0000000001
 40
0.0
 40
0.0
 40
0.0
 40
0.0
 40
0.2662820354
 40
1.0
 40
1.0
 40
1.0
 40
1.0
 10
109.6226176022
 20
74.573687025
 30
0.0
 10
109.6832999265
 20
74.4172878506
 30
0.0
 10
109.8878806724
 20
73.8218271359
 30
0.0
 10
110.000400798
 20
73.1898002141
 30
0.0
 10
110.000400798
 20
72.7275545599
 30
0.0
  0
SPLINE
  5
7B7
100
AcDbEntity
  8
0
100
AcDbSpline
 62
7
  6
CONTINUOUS
 70
0
 71
3
 72
9
 73
5
 74
0
 42
0.0000001
 43
0.0000001
 44
0.0000000001
 40
0.0
 40
0.0
 40
0.0
 40
0.0
 40
0.2714016068
 40
1.0
 40
1.0
 40
1.0
 40
1.0
 10
112.9997881268
 20
84.5965296689
 30
0.0
 10
112.9997881268
 20
84.5881969484
 30
0.0
 10
112.9984392166
 20
84.5575613087
 30
0.0
 10
112.9914204056
 20
84.5267918218
 30
0.0
 10
112.9818050661
 20
84.5065939416
 30
0.0
  0
SPLINE
  5
7B8
100
AcDbEntity
  8
0
100
AcDbSpline
 62
7
  6
CONTINUOUS
 70
0
 71
3
 72
9
 73
5
 74
0
 42
0.0000001
 43
0.0000001
 44
0.0000000001
 40
0.0
 40
0.0
 40
0.0
 40
0.0
 40
0.2652684352
 40
1.0
 40
1.0
 40
1.0
 40
1.0
 10
112.9818050661
 20
84.5065939416
 30
0.0
 10
112.9791469293
 20
84.5010102875
 30
0.0
 10
112.9678642307
 20
84.4806135493
 30
0.0
 10
112.9505188844
 20
84.4633611263
 30
0.0
 10
112.9356750165
 20
84.4548145537
 30
0.0
  0
SPLINE
  5
7B9
100
AcDbEntity
  8
0
100
AcDbSpline
 62
7
  6
CONTINUOUS
 70
0
 71
3
 72
9
 73
5
 74
0
 42
0.0000001
 43
0.0000001
 44
0.0000000001
 40
0.0
 40
0.0
 40
0.0
 40
0.0
 40
0.2454817491
 40
1.0
 40
1.0
 40
1.0
 40
1.0
 10
112.8557598365
 20
74.7550088294
 30
0.0
 10
112.8700202867
 20
74.7407823891
 30
0.0
 10
112.9240199995
 20
74.6788916044
 30
0.0
 10
112.9636123505
 20
74.6042501499
 30
0.0
 10
112.9817967247
 20
74.5450679623
 30
0.0
  0
SPLINE
  5
7BA
100
AcDbEntity
  8
0
100
AcDbSpline
 62
7
  6
CONTINUOUS
 70
0
 71
3
 72
9
 73
5
 74
0
 42
0.0000001
 43
0.0000001
 44
0.0000000001
 40
0.0
 40
0.0
 40
0.0
 40
0.0
 40
0.2647038691
 40
1.0
 40
1.0
 40
1.0
 40
1.0
 10
112.9817967247
 20
74.5450679623
 30
0.0
 10
112.9847095504
 20
74.5355879885
 30
0.0
 10
112.9945333797
 20
74.4994452116
 30
0.0
 10
112.9997881268
 20
74.4618891523
 30
0.0
 10
112.9997881268
 20
74.4343405853
 30
0.0
  0
SPLINE
  5
7BB
100
AcDbEntity
  8
0
100
AcDbSpline
 62
7
  6
CONTINUOUS
 70
0
 71
3
 72
9
 73
5
 74
0
 42
0.0000001
 43
0.0000001
 44
0.0000000001
 40
0.0
 40
0.0
 40
0.0
 40
0.0
 40
0.2367350848
 40
1.0
 40
1.0
 40
1.0
 40
1.0
 10
111.0282633758
 20
76.4747287014
 30
0.0
 10
111.0697176643
 20
76.4507955982
 30
0.0
 10
111.2409061782
 20
76.3429413461
 30
0.0
 10
111.3963076809
 20
76.2109803198
 30
0.0
 10
111.5055653497
 20
76.101983221
 30
0.0
  0
SPLINE
  5
7BC
100
AcDbEntity
  8
0
100
AcDbSpline
 62
7
  6
CONTINUOUS
 70
0
 71
3
 72
9
 73
5
 74
0
 42
0.0000001
 43
0.0000001
 44
0.0000000001
 40
0.0
 40
0.0
 40
0.0
 40
0.0
 40
0.7684880036
 40
1.0
 40
1.0
 40
1.0
 40
1.0
 10
111.1920202691
 20
73.6990098921
 30
0.0
 10
111.2158088406
 20
73.6752780542
 30
0.0
 10
111.2389357564
 20
73.6346217775
 30
0.0
 10
111.2450522349
 20
73.5910610051
 30
0.0
 10
111.2450522349
 20
73.5809381763
 30
0.0
  0
SPLINE
  5
7BD
100
AcDbEntity
  8
0
100
AcDbSpline
 62
7
  6
CONTINUOUS
 70
0
 71
3
 72
9
 73
5
 74
0
 42
0.0000001
 43
0.0000001
 44
0.0000000001
 40
0.0
 40
0.0
 40
0.0
 40
0.0
 40
0.2404213633
 40
1.0
 40
1.0
 40
1.0
 40
1.0
 10
109.4118240039
 20
75.3817910229
 30
0.0
 10
109.4365496643
 20
75.3675159791
 30
0.0
 10
109.537867038
 20
75.3055116842
 30
0.0
 10
109.6330726577
 20
75.2337248116
 30
0.0
 10
109.7017655929
 20
75.1752644065
 30
0.0
  0
SPLINE
  5
7BE
100
AcDbEntity
  8
0
100
AcDbSpline
 62
7
  6
CONTINUOUS
 70
0
 71
3
 72
9
 73
5
 74
0
 42
0.0000001
 43
0.0000001
 44
0.0000000001
 40
0.0
 40
0.0
 40
0.0
 40
0.0
 40
0.2536708623
 40
1.0
 40
1.0
 40
1.0
 40
1.0
 10
79.3404310585
 20
271.6269780596
 30
0.0
 10
79.3951772797
 20
271.5382117813
 30
0.0
 10
79.5995507753
 20
271.1814323733
 30
0.0
 10
79.7596930093
 20
270.798716389
 30
0.0
 10
79.846984947
 20
270.5045591349
 30
0.0
  0
SPLINE
  5
7BF
100
AcDbEntity
  8
0
100
AcDbSpline
 62
7
  6
CONTINUOUS
 70
0
 71
3
 72
15
 73
11
 74
0
 42
0.0000001
 43
0.0000001
 44
0.0000000001
 40
0.0
 40
0.0
 40
0.0
 40
0.0
 40
0.1277452518
 40
0.268241821
 40
0.4144172261
 40
0.5583985107
 40
0.6925837526
 40
0.8112417166
 40
0.9123808725
 40
1.0
 40
1.0
 40
1.0
 40
1.0
 10
47.4765649685
 20
255.3743763002
 30
0.0
 10
47.4765649685
 20
255.1382305335
 30
0.0
 10
47.5412815464
 20
254.6418172616
 30
0.0
 10
47.7833302481
 20
253.9112888393
 30
0.0
 10
48.1578345747
 20
253.2046168634
 30
0.0
 10
48.6350064801
 20
252.5774173135
 30
0.0
 10
49.1785278844
 20
252.0780419757
 30
0.0
 10
49.7489538897
 20
251.7446370425
 30
0.0
 10
50.3104829885
 20
251.6040806286
 30
0.0
 10
50.66909196
 20
251.66603907
 30
0.0
 10
50.8158622653
 20
251.7345425514
 30
0.0
  0
SPLINE
  5
7C0
100
AcDbEntity
  8
0
100
AcDbSpline
 62
7
  6
CONTINUOUS
 70
0
 71
3
 72
9
 73
5
 74
0
 42
0.0000001
 43
0.0000001
 44
0.0000000001
 40
0.0
 40
0.0
 40
0.0
 40
0.0
 40
0.2697108388
 40
1.0
 40
1.0
 40
1.0
 40
1.0
 10
110.000400798
 20
81.2513498933
 30
0.0
 10
110.000400798
 20
81.1553496953
 30
0.0
 10
109.986810472
 20
80.799946508
 30
0.0
 10
109.9149161302
 20
80.4437786234
 30
0.0
 10
109.8172894176
 20
80.2028711331
 30
0.0
  0
SPLINE
  5
7C1
100
AcDbEntity
  8
0
100
AcDbSpline
 62
7
  6
CONTINUOUS
 70
0
 71
3
 72
9
 73
5
 74
0
 42
0.0000001
 43
0.0000001
 44
0.0000000001
 40
0.0
 40
0.0
 40
0.0
 40
0.0
 40
0.2582774918
 40
1.0
 40
1.0
 40
1.0
 40
1.0
 10
109.8172894176
 20
80.2028711331
 30
0.0
 10
109.8039994155
 20
80.1700762048
 30
0.0
 10
109.7492869917
 20
80.044467311
 30
0.0
 10
109.6810548762
 20
79.9245709035
 30
0.0
 10
109.6226176022
 20
79.8414340193
 30
0.0
  0
SPLINE
  5
7C2
100
AcDbEntity
  8
0
100
AcDbSpline
 62
7
  6
CONTINUOUS
 70
0
 71
3
 72
9
 73
5
 74
0
 42
0.0000001
 43
0.0000001
 44
0.0000000001
 40
0.0
 40
0.0
 40
0.0
 40
0.0
 40
0.262922142
 40
1.0
 40
1.0
 40
1.0
 40
1.0
 10
109.830338796
 20
82.463182305
 30
0.0
 10
109.8580211952
 20
82.35940153
 30
0.0
 10
109.9520796561
 20
81.9619244443
 30
0.0
 10
110.000400798
 20
81.5524619996
 30
0.0
 10
110.000400798
 20
81.2513498933
 30
0.0
  0
SPLINE
  5
7C3
100
AcDbEntity
  8
0
100
AcDbSpline
 62
7
  6
CONTINUOUS
 70
0
 71
3
 72
9
 73
5
 74
0
 42
0.0000001
 43
0.0000001
 44
0.0000000001
 40
0.0
 40
0.0
 40
0.0
 40
0.0
 40
0.2361308105
 40
1.0
 40
1.0
 40
1.0
 40
1.0
 10
106.8003935666
 20
81.6902518276
 30
0.0
 10
106.7881242339
 20
81.6931549436
 30
0.0
 10
106.7358810615
 20
81.7042510417
 30
0.0
 10
106.6828038541
 20
81.7111393165
 30
0.0
 10
106.6421810799
 20
81.7147903001
 30
0.0
  0
SPLINE
  5
7C4
100
AcDbEntity
  8
0
100
AcDbSpline
 62
7
  6
CONTINUOUS
 70
0
 71
3
 72
11
 73
7
 74
0
 42
0.0000001
 43
0.0000001
 44
0.0000000001
 40
0.0
 40
0.0
 40
0.0
 40
0.0
 40
0.2291588468
 40
0.4775176547
 40
0.7361260813
 40
1.0
 40
1.0
 40
1.0
 40
1.0
 10
116.6247844278
 20
74.2735294731
 30
0.0
 10
116.6838185677
 20
74.3076126462
 30
0.0
 10
116.7968570323
 20
74.3953823906
 30
0.0
 10
116.9521648207
 20
74.55009673
 30
0.0
 10
117.093462888
 20
74.7317052375
 30
0.0
 10
117.1700016411
 20
74.8676718211
 30
0.0
 10
117.2040263597
 20
74.9384072033
 30
0.0
  0
SPLINE
  5
7C5
100
AcDbEntity
  8
0
100
AcDbSpline
 62
7
  6
CONTINUOUS
 70
0
 71
3
 72
9
 73
5
 74
0
 42
0.0000001
 43
0.0000001
 44
0.0000000001
 40
0.0
 40
0.0
 40
0.0
 40
0.0
 40
0.2361311069
 40
1.0
 40
1.0
 40
1.0
 40
1.0
 10
106.8003935666
 20
73.3945872696
 30
0.0
 10
106.7881242106
 20
73.3974903632
 30
0.0
 10
106.7358810171
 20
73.4085863917
 30
0.0
 10
106.6828038108
 20
73.4154747011
 30
0.0
 10
106.6421810488
 20
73.4191257071
 30
0.0
  0
SPLINE
  5
7C6
100
AcDbEntity
  8
0
100
AcDbSpline
 62
7
  6
CONTINUOUS
 70
0
 71
3
 72
11
 73
7
 74
0
 42
0.0000001
 43
0.0000001
 44
0.0000000001
 40
0.0
 40
0.0
 40
0.0
 40
0.0
 40
0.2291588468
 40
0.4775176547
 40
0.7361260813
 40
1.0
 40
1.0
 40
1.0
 40
1.0
 10
116.6247844278
 20
57.1269787133
 30
0.0
 10
116.6838185677
 20
57.1610618865
 30
0.0
 10
116.7968570323
 20
57.2488316309
 30
0.0
 10
116.9521648207
 20
57.4035459703
 30
0.0
 10
117.093462888
 20
57.5851544778
 30
0.0
 10
117.1700016411
 20
57.7211210614
 30
0.0
 10
117.2040263597
 20
57.7918564436
 30
0.0
  0
SPLINE
  5
7C7
100
AcDbEntity
  8
0
100
AcDbSpline
 62
7
  6
CONTINUOUS
 70
0
 71
3
 72
9
 73
5
 74
0
 42
0.0000001
 43
0.0000001
 44
0.0000000001
 40
0.0
 40
0.0
 40
0.0
 40
0.0
 40
0.4999964594
 40
1.0
 40
1.0
 40
1.0
 40
1.0
 10
121.4164465403
 20
53.4139238748
 30
0.0
 10
121.4794112783
 20
53.4502763663
 30
0.0
 10
121.5789252526
 20
53.5650653434
 30
0.0
 10
121.6285776914
 20
53.708641508
 30
0.0
 10
121.6285776914
 20
53.7813478461
 30
0.0
  0
SPLINE
  5
7C8
100
AcDbEntity
  8
0
100
AcDbSpline
 62
7
  6
CONTINUOUS
 70
0
 71
3
 72
9
 73
5
 74
0
 42
0.0000001
 43
0.0000001
 44
0.0000000001
 40
0.0
 40
0.0
 40
0.0
 40
0.0
 40
0.2793979465
 40
1.0
 40
1.0
 40
1.0
 40
1.0
 10
116.8202715984
 20
123.1024510323
 30
0.0
 10
116.8504455418
 20
123.1198718627
 30
0.0
 10
116.9613209679
 20
123.1759655913
 30
0.0
 10
117.0897598581
 20
123.2058850964
 30
0.0
 10
117.1791449089
 20
123.1966449646
 30
0.0
  0
SPLINE
  5
7C9
100
AcDbEntity
  8
0
100
AcDbSpline
 62
7
  6
CONTINUOUS
 70
0
 71
3
 72
8
 73
4
 74
0
 42
0.0000001
 43
0.0000001
 44
0.0000000001
 40
0.0
 40
0.0
 40
0.0
 40
0.0
 40
1.0
 40
1.0
 40
1.0
 40
1.0
 10
117.1791449089
 20
123.1966449646
 30
0.0
 10
117.1982070177
 20
123.1946744293
 30
0.0
 10
117.2171864293
 20
123.1913114078
 30
0.0
 10
117.2357282621
 20
123.1864691523
 30
0.0
  0
SPLINE
  5
7CA
100
AcDbEntity
  8
0
100
AcDbSpline
 62
7
  6
CONTINUOUS
 70
0
 71
3
 72
8
 73
4
 74
0
 42
0.0000001
 43
0.0000001
 44
0.0000000001
 40
0.0
 40
0.0
 40
0.0
 40
0.0
 40
1.0
 40
1.0
 40
1.0
 40
1.0
 10
117.2357282621
 20
123.1864691523
 30
0.0
 10
117.2651731412
 20
123.1787795336
 30
0.0
 10
117.2938968829
 20
123.1671760687
 30
0.0
 10
117.3202522686
 20
123.1519601301
 30
0.0
  0
SPLINE
  5
7CB
100
AcDbEntity
  8
0
100
AcDbSpline
 62
7
  6
CONTINUOUS
 70
0
 71
3
 72
9
 73
5
 74
0
 42
0.0000001
 43
0.0000001
 44
0.0000000001
 40
0.0
 40
0.0
 40
0.0
 40
0.0
 40
0.2287872083
 40
1.0
 40
1.0
 40
1.0
 40
1.0
 10
106.6379763425
 20
116.4072327994
 30
0.0
 10
106.6379763425
 20
116.4630327108
 30
0.0
 10
106.659849184
 20
116.7067689124
 30
0.0
 10
106.7510462716
 20
116.9412580744
 30
0.0
 10
106.8450931079
 20
117.1041528774
 30
0.0
  0
SPLINE
  5
7CC
100
AcDbEntity
  8
0
100
AcDbSpline
 62
7
  6
CONTINUOUS
 70
0
 71
3
 72
9
 73
5
 74
0
 42
0.0000001
 43
0.0000001
 44
0.0000000001
 40
0.0
 40
0.0
 40
0.0
 40
0.0
 40
0.2670409942
 40
1.0
 40
1.0
 40
1.0
 40
1.0
 10
106.8450931079
 20
117.1041528774
 30
0.0
 10
106.877638019
 20
117.1605226298
 30
0.0
 10
107.0110797332
 20
117.364044902
 30
0.0
 10
107.1903596576
 20
117.5426519686
 30
0.0
 10
107.3450801797
 20
117.6319793704
 30
0.0
  0
SPLINE
  5
7CD
100
AcDbEntity
  8
0
100
AcDbSpline
 62
7
  6
CONTINUOUS
 70
0
 71
3
 72
9
 73
5
 74
0
 42
0.0000001
 43
0.0000001
 44
0.0000000001
 40
0.0
 40
0.0
 40
0.0
 40
0.0
 40
0.2287872083
 40
1.0
 40
1.0
 40
1.0
 40
1.0
 10
106.6379763425
 20
82.11413128
 30
0.0
 10
106.6379763425
 20
82.1699311913
 30
0.0
 10
106.659849184
 20
82.413667393
 30
0.0
 10
106.7510462716
 20
82.648156555
 30
0.0
 10
106.8450931079
 20
82.8110513579
 30
0.0
  0
SPLINE
  5
7CE
100
AcDbEntity
  8
0
100
AcDbSpline
 62
7
  6
CONTINUOUS
 70
0
 71
3
 72
9
 73
5
 74
0
 42
0.0000001
 43
0.0000001
 44
0.0000000001
 40
0.0
 40
0.0
 40
0.0
 40
0.0
 40
0.2670409942
 40
1.0
 40
1.0
 40
1.0
 40
1.0
 10
106.8450931079
 20
82.8110513579
 30
0.0
 10
106.877638019
 20
82.8674211104
 30
0.0
 10
107.0110797332
 20
83.0709433826
 30
0.0
 10
107.1903596576
 20
83.2495504491
 30
0.0
 10
107.3450801797
 20
83.338877851
 30
0.0
  0
SPLINE
  5
7CF
100
AcDbEntity
  8
0
100
AcDbSpline
 62
7
  6
CONTINUOUS
 70
0
 71
3
 72
9
 73
5
 74
0
 42
0.0000001
 43
0.0000001
 44
0.0000000001
 40
0.0
 40
0.0
 40
0.0
 40
0.0
 40
0.2793979465
 40
1.0
 40
1.0
 40
1.0
 40
1.0
 10
116.8202715984
 20
88.8093495129
 30
0.0
 10
116.8504455418
 20
88.8267703432
 30
0.0
 10
116.9613209679
 20
88.8828640719
 30
0.0
 10
117.0897598581
 20
88.912783577
 30
0.0
 10
117.1791449089
 20
88.9035434451
 30
0.0
  0
SPLINE
  5
7D0
100
AcDbEntity
  8
0
100
AcDbSpline
 62
7
  6
CONTINUOUS
 70
0
 71
3
 72
8
 73
4
 74
0
 42
0.0000001
 43
0.0000001
 44
0.0000000001
 40
0.0
 40
0.0
 40
0.0
 40
0.0
 40
1.0
 40
1.0
 40
1.0
 40
1.0
 10
117.1791449089
 20
88.9035434451
 30
0.0
 10
117.1982070177
 20
88.9015729098
 30
0.0
 10
117.2171864293
 20
88.8982098883
 30
0.0
 10
117.2357282621
 20
88.8933676329
 30
0.0
  0
SPLINE
  5
7D1
100
AcDbEntity
  8
0
100
AcDbSpline
 62
7
  6
CONTINUOUS
 70
0
 71
3
 72
8
 73
4
 74
0
 42
0.0000001
 43
0.0000001
 44
0.0000000001
 40
0.0
 40
0.0
 40
0.0
 40
0.0
 40
1.0
 40
1.0
 40
1.0
 40
1.0
 10
117.2357282621
 20
88.8933676329
 30
0.0
 10
117.2651731412
 20
88.8856780141
 30
0.0
 10
117.2938968829
 20
88.8740745492
 30
0.0
 10
117.3202522686
 20
88.8588586107
 30
0.0
  0
SPLINE
  5
7D2
100
AcDbEntity
  8
0
100
AcDbSpline
 62
7
  6
CONTINUOUS
 70
0
 71
3
 72
9
 73
5
 74
0
 42
0.0000001
 43
0.0000001
 44
0.0000000001
 40
0.0
 40
0.0
 40
0.0
 40
0.0
 40
0.2287872083
 40
1.0
 40
1.0
 40
1.0
 40
1.0
 10
106.6379763425
 20
64.9675805203
 30
0.0
 10
106.6379763425
 20
65.0233804316
 30
0.0
 10
106.659849184
 20
65.2671166333
 30
0.0
 10
106.7510462716
 20
65.5016057952
 30
0.0
 10
106.8450931079
 20
65.6645005982
 30
0.0
  0
SPLINE
  5
7D3
100
AcDbEntity
  8
0
100
AcDbSpline
 62
7
  6
CONTINUOUS
 70
0
 71
3
 72
9
 73
5
 74
0
 42
0.0000001
 43
0.0000001
 44
0.0000000001
 40
0.0
 40
0.0
 40
0.0
 40
0.0
 40
0.2670409942
 40
1.0
 40
1.0
 40
1.0
 40
1.0
 10
106.8450931079
 20
65.6645005982
 30
0.0
 10
106.877638019
 20
65.7208703507
 30
0.0
 10
107.0110797332
 20
65.9243926228
 30
0.0
 10
107.1903596576
 20
66.1029996894
 30
0.0
 10
107.3450801797
 20
66.1923270913
 30
0.0
  0
SPLINE
  5
7D4
100
AcDbEntity
  8
0
100
AcDbSpline
 62
7
  6
CONTINUOUS
 70
0
 71
3
 72
9
 73
5
 74
0
 42
0.0000001
 43
0.0000001
 44
0.0000000001
 40
0.0
 40
0.0
 40
0.0
 40
0.0
 40
0.2793979465
 40
1.0
 40
1.0
 40
1.0
 40
1.0
 10
116.8202715984
 20
71.6627987531
 30
0.0
 10
116.8504455418
 20
71.6802195835
 30
0.0
 10
116.9613209679
 20
71.7363133122
 30
0.0
 10
117.0897598581
 20
71.7662328173
 30
0.0
 10
117.1791449089
 20
71.7569926854
 30
0.0
  0
SPLINE
  5
7D5
100
AcDbEntity
  8
0
100
AcDbSpline
 62
7
  6
CONTINUOUS
 70
0
 71
3
 72
8
 73
4
 74
0
 42
0.0000001
 43
0.0000001
 44
0.0000000001
 40
0.0
 40
0.0
 40
0.0
 40
0.0
 40
1.0
 40
1.0
 40
1.0
 40
1.0
 10
117.1791449089
 20
71.7569926854
 30
0.0
 10
117.1982070177
 20
71.7550221501
 30
0.0
 10
117.2171864293
 20
71.7516591286
 30
0.0
 10
117.2357282621
 20
71.7468168732
 30
0.0
  0
SPLINE
  5
7D6
100
AcDbEntity
  8
0
100
AcDbSpline
 62
7
  6
CONTINUOUS
 70
0
 71
3
 72
8
 73
4
 74
0
 42
0.0000001
 43
0.0000001
 44
0.0000000001
 40
0.0
 40
0.0
 40
0.0
 40
0.0
 40
1.0
 40
1.0
 40
1.0
 40
1.0
 10
117.2357282621
 20
71.7468168732
 30
0.0
 10
117.2651731412
 20
71.7391272544
 30
0.0
 10
117.2938968829
 20
71.7275237895
 30
0.0
 10
117.3202522686
 20
71.712307851
 30
0.0
  0
SPLINE
  5
7D7
100
AcDbEntity
  8
0
100
AcDbSpline
 62
7
  6
CONTINUOUS
 70
0
 71
3
 72
11
 73
7
 74
0
 42
0.0000001
 43
0.0000001
 44
0.0000000001
 40
0.0
 40
0.0
 40
0.0
 40
0.0
 40
0.2383178911
 40
0.5010921331
 40
0.7632732573
 40
1.0
 40
1.0
 40
1.0
 40
1.0
 10
113.6648318204
 20
36.8893619649
 30
0.0
 10
113.5641077095
 20
36.9455184829
 30
0.0
 10
113.3317541447
 20
37.027095951
 30
0.0
 10
112.9616667276
 20
37.0650349617
 30
0.0
 10
112.5927375344
 20
37.023555416
 30
0.0
 10
112.3622708678
 20
36.9395711593
 30
0.0
 10
112.2630667197
 20
36.8822959596
 30
0.0
  0
SPLINE
  5
7D8
100
AcDbEntity
  8
0
100
AcDbSpline
 62
7
  6
CONTINUOUS
 70
0
 71
3
 72
9
 73
5
 74
0
 42
0.0000001
 43
0.0000001
 44
0.0000000001
 40
0.0
 40
0.0
 40
0.0
 40
0.0
 40
0.2778444334
 40
1.0
 40
1.0
 40
1.0
 40
1.0
 10
136.8314338381
 20
160.6008566862
 30
0.0
 10
136.8403364343
 20
160.6059965719
 30
0.0
 10
136.8732626506
 20
160.622609331
 30
0.0
 10
136.9112248623
 20
160.6315988851
 30
0.0
 10
136.9378384476
 20
160.6292317851
 30
0.0
  0
SPLINE
  5
7D9
100
AcDbEntity
  8
0
100
AcDbSpline
 62
7
  6
CONTINUOUS
 70
0
 71
3
 72
9
 73
5
 74
0
 42
0.0000001
 43
0.0000001
 44
0.0000000001
 40
0.0
 40
0.0
 40
0.0
 40
0.0
 40
0.4999998047
 40
1.0
 40
1.0
 40
1.0
 40
1.0
 10
109.961488024
 20
144.842628114
 30
0.0
 10
109.961488024
 20
144.9153339089
 30
0.0
 10
110.0111401369
 20
145.0589100522
 30
0.0
 10
110.1106539667
 20
145.1736993222
 30
0.0
 10
110.1736191752
 20
145.2100520853
 30
0.0
  0
SPLINE
  5
7DA
100
AcDbEntity
  8
0
100
AcDbSpline
 62
7
  6
CONTINUOUS
 70
0
 71
3
 72
9
 73
5
 74
0
 42
0.0000001
 43
0.0000001
 44
0.0000000001
 40
0.0
 40
0.0
 40
0.0
 40
0.0
 40
0.2361311069
 40
1.0
 40
1.0
 40
1.0
 40
1.0
 10
106.8003935666
 20
56.2480365098
 30
0.0
 10
106.7881242106
 20
56.2509396035
 30
0.0
 10
106.7358810171
 20
56.262035632
 30
0.0
 10
106.6828038108
 20
56.2689239414
 30
0.0
 10
106.6421810488
 20
56.2725749474
 30
0.0
  0
SPLINE
  5
7DB
100
AcDbEntity
  8
0
100
AcDbSpline
 62
7
  6
CONTINUOUS
 70
0
 71
3
 72
9
 73
5
 74
0
 42
0.0000001
 43
0.0000001
 44
0.0000000001
 40
0.0
 40
0.0
 40
0.0
 40
0.0
 40
0.2339304414
 40
1.0
 40
1.0
 40
1.0
 40
1.0
 10
138.9974531433
 20
38.7934090405
 30
0.0
 10
138.9872506269
 20
38.7750914973
 30
0.0
 10
138.939040628
 20
38.699350724
 30
0.0
 10
138.8746646259
 20
38.6346662321
 30
0.0
 10
138.8210672657
 20
38.5917487027
 30
0.0
  0
SPLINE
  5
7DC
100
AcDbEntity
  8
0
100
AcDbSpline
 62
7
  6
CONTINUOUS
 70
0
 71
3
 72
9
 73
5
 74
0
 42
0.0000001
 43
0.0000001
 44
0.0000000001
 40
0.0
 40
0.0
 40
0.0
 40
0.0
 40
0.2352391568
 40
1.0
 40
1.0
 40
1.0
 40
1.0
 10
138.8210672657
 20
38.5917487027
 30
0.0
 10
138.8009525125
 20
38.5756420231
 30
0.0
 10
138.7125115443
 20
38.5108470845
 30
0.0
 10
138.6142696328
 20
38.4600601064
 30
0.0
 10
138.5368956908
 20
38.427945316
 30
0.0
  0
SPLINE
  5
7DD
100
AcDbEntity
  8
0
100
AcDbSpline
 62
7
  6
CONTINUOUS
 70
0
 71
3
 72
9
 73
5
 74
0
 42
0.0000001
 43
0.0000001
 44
0.0000000001
 40
0.0
 40
0.0
 40
0.0
 40
0.0
 40
0.2363351261
 40
1.0
 40
1.0
 40
1.0
 40
1.0
 10
138.5368956908
 20
38.427945316
 30
0.0
 10
138.4770731336
 20
38.4031153947
 30
0.0
 10
138.2171295777
 20
38.3148256942
 30
0.0
 10
137.938475111
 20
38.2860887321
 30
0.0
 10
137.7293183523
 20
38.2936318945
 30
0.0
  0
SPLINE
  5
7DE
100
AcDbEntity
  8
0
100
AcDbSpline
 62
7
  6
CONTINUOUS
 70
0
 71
3
 72
9
 73
5
 74
0
 42
0.0000001
 43
0.0000001
 44
0.0000000001
 40
0.0
 40
0.0
 40
0.0
 40
0.0
 40
0.2361311069
 40
1.0
 40
1.0
 40
1.0
 40
1.0
 10
106.8003935666
 20
107.687688789
 30
0.0
 10
106.7881242106
 20
107.6905918826
 30
0.0
 10
106.7358810171
 20
107.7016879111
 30
0.0
 10
106.6828038108
 20
107.7085762206
 30
0.0
 10
106.6421810488
 20
107.7122272265
 30
0.0
  0
SPLINE
  5
7DF
100
AcDbEntity
  8
0
100
AcDbSpline
 62
7
  6
CONTINUOUS
 70
0
 71
3
 72
11
 73
7
 74
0
 42
0.0000001
 43
0.0000001
 44
0.0000000001
 40
0.0
 40
0.0
 40
0.0
 40
0.0
 40
0.2669620644
 40
0.5290419419
 40
0.7744858383
 40
1.0
 40
1.0
 40
1.0
 40
1.0
 10
146.9564726779
 20
38.011097936
 30
0.0
 10
147.3440336686
 20
37.9680708138
 30
0.0
 10
148.1032063333
 20
37.7577074372
 30
0.0
 10
149.0639685251
 20
37.1257825641
 30
0.0
 10
149.7290634402
 20
36.257331016
 30
0.0
 10
149.9024986901
 20
35.5639227295
 30
0.0
 10
149.9024986901
 20
35.2345221089
 30
0.0
  0
SPLINE
  5
7E0
100
AcDbEntity
  8
0
100
AcDbSpline
 62
7
  6
CONTINUOUS
 70
0
 71
3
 72
14
 73
10
 74
0
 42
0.0000001
 43
0.0000001
 44
0.0000000001
 40
0.0
 40
0.0
 40
0.0
 40
0.0
 40
0.1158972454
 40
0.2506791246
 40
0.5443700612
 40
0.6846038476
 40
0.8081911906
 40
0.9115563561
 40
1.0
 40
1.0
 40
1.0
 40
1.0
 10
138.8865229201
 20
179.9578184207
 30
0.0
 10
138.8116033601
 20
179.883789981
 30
0.0
 10
138.6174263214
 20
179.7561054284
 30
0.0
 10
138.1465576087
 20
179.596169181
 30
0.0
 10
137.6145361213
 20
179.5796277276
 30
0.0
 10
137.1206620601
 20
179.704022468
 30
0.0
 10
136.8209026742
 20
179.8588290326
 30
0.0
 10
136.6126060567
 20
180.0656833122
 30
0.0
 10
136.5575084677
 20
180.2415179101
 30
0.0
 10
136.5574537279
 20
180.3218928872
 30
0.0
  0
SPLINE
  5
7E1
100
AcDbEntity
  8
0
100
AcDbSpline
 62
7
  6
CONTINUOUS
 70
0
 71
3
 72
11
 73
7
 74
0
 42
0.0000001
 43
0.0000001
 44
0.0000000001
 40
0.0
 40
0.0
 40
0.0
 40
0.0
 40
0.3078341294
 40
0.5792152806
 40
0.8060415708
 40
1.0
 40
1.0
 40
1.0
 40
1.0
 10
170.0476160433
 20
160.5082157708
 30
0.0
 10
169.9466060676
 20
160.5238415848
 30
0.0
 10
169.7584521942
 20
160.5710715384
 30
0.0
 10
169.5180690649
 20
160.694830721
 30
0.0
 10
169.3509047627
 20
160.8605994256
 30
0.0
 10
169.3065809333
 20
161.001484925
 30
0.0
 10
169.3065068977
 20
161.065885711
 30
0.0
  0
SPLINE
  5
7E2
100
AcDbEntity
  8
0
100
AcDbSpline
 62
7
  6
CONTINUOUS
 70
0
 71
3
 72
10
 73
6
 74
0
 42
0.0000001
 43
0.0000001
 44
0.0000000001
 40
0.0
 40
0.0
 40
0.0
 40
0.0
 40
0.4321693268
 40
0.711194414
 40
1.0
 40
1.0
 40
1.0
 40
1.0
 10
171.0924319455
 20
160.794868018
 30
0.0
 10
171.0310665277
 20
160.6626436074
 30
0.0
 10
170.792172805
 20
160.5265145671
 30
0.0
 10
170.4648372065
 20
160.4674270973
 30
0.0
 10
170.2701443301
 20
160.4737915904
 30
0.0
 10
170.1738755
 20
160.4886839694
 30
0.0
  0
SPLINE
  5
7E3
100
AcDbEntity
  8
0
100
AcDbSpline
 62
7
  6
CONTINUOUS
 70
0
 71
3
 72
9
 73
5
 74
0
 42
0.0000001
 43
0.0000001
 44
0.0000000001
 40
0.0
 40
0.0
 40
0.0
 40
0.0
 40
0.524136014
 40
1.0
 40
1.0
 40
1.0
 40
1.0
 10
147.4285622525
 20
182.1122824923
 30
0.0
 10
147.873236316
 20
182.0629146619
 30
0.0
 10
148.7505057253
 20
182.1226903348
 30
0.0
 10
149.5283958457
 20
182.564906818
 30
0.0
 10
149.8111116305
 20
182.8565758707
 30
0.0
  0
SPLINE
  5
7E4
100
AcDbEntity
  8
0
100
AcDbSpline
 62
7
  6
CONTINUOUS
 70
0
 71
3
 72
11
 73
7
 74
0
 42
0.0000001
 43
0.0000001
 44
0.0000000001
 40
0.0
 40
0.0
 40
0.0
 40
0.0
 40
0.3078341294
 40
0.5792152806
 40
0.8060415708
 40
1.0
 40
1.0
 40
1.0
 40
1.0
 10
170.0476160433
 20
34.4810676868
 30
0.0
 10
169.9466060676
 20
34.4966935008
 30
0.0
 10
169.7584521942
 20
34.5439234544
 30
0.0
 10
169.5180690649
 20
34.667682637
 30
0.0
 10
169.3509047627
 20
34.8334513417
 30
0.0
 10
169.3065809333
 20
34.9743368411
 30
0.0
 10
169.3065068977
 20
35.0387376271
 30
0.0
  0
SPLINE
  5
7E5
100
AcDbEntity
  8
0
100
AcDbSpline
 62
7
  6
CONTINUOUS
 70
0
 71
3
 72
10
 73
6
 74
0
 42
0.0000001
 43
0.0000001
 44
0.0000000001
 40
0.0
 40
0.0
 40
0.0
 40
0.0
 40
0.4321693268
 40
0.711194414
 40
1.0
 40
1.0
 40
1.0
 40
1.0
 10
171.0924319455
 20
34.767719934
 30
0.0
 10
171.0310665277
 20
34.6354955235
 30
0.0
 10
170.792172805
 20
34.4993664831
 30
0.0
 10
170.4648372065
 20
34.4402790134
 30
0.0
 10
170.2701443301
 20
34.4466435065
 30
0.0
 10
170.1738755
 20
34.4615358854
 30
0.0
  0
SPLINE
  5
7E6
100
AcDbEntity
  8
0
100
AcDbSpline
 62
7
  6
CONTINUOUS
 70
0
 71
3
 72
9
 73
5
 74
0
 42
0.0000001
 43
0.0000001
 44
0.0000000001
 40
0.0
 40
0.0
 40
0.0
 40
0.0
 40
0.2714016068
 40
1.0
 40
1.0
 40
1.0
 40
1.0
 10
112.9997881268
 20
118.8896311883
 30
0.0
 10
112.9997881268
 20
118.8812984679
 30
0.0
 10
112.9984392166
 20
118.8506628282
 30
0.0
 10
112.9914204056
 20
118.8198933413
 30
0.0
 10
112.9818050661
 20
118.7996954611
 30
0.0
  0
SPLINE
  5
7E7
100
AcDbEntity
  8
0
100
AcDbSpline
 62
7
  6
CONTINUOUS
 70
0
 71
3
 72
9
 73
5
 74
0
 42
0.0000001
 43
0.0000001
 44
0.0000000001
 40
0.0
 40
0.0
 40
0.0
 40
0.0
 40
0.2652684352
 40
1.0
 40
1.0
 40
1.0
 40
1.0
 10
112.9818050661
 20
118.7996954611
 30
0.0
 10
112.9791469293
 20
118.7941118069
 30
0.0
 10
112.9678642307
 20
118.7737150687
 30
0.0
 10
112.9505188844
 20
118.7564626458
 30
0.0
 10
112.9356750165
 20
118.7479160732
 30
0.0
  0
SPLINE
  5
7E8
100
AcDbEntity
  8
0
100
AcDbSpline
 62
7
  6
CONTINUOUS
 70
0
 71
3
 72
9
 73
5
 74
0
 42
0.0000001
 43
0.0000001
 44
0.0000000001
 40
0.0
 40
0.0
 40
0.0
 40
0.0
 40
0.262922142
 40
1.0
 40
1.0
 40
1.0
 40
1.0
 10
109.830338796
 20
116.7562838245
 30
0.0
 10
109.8580211952
 20
116.6525030494
 30
0.0
 10
109.9520796561
 20
116.2550259638
 30
0.0
 10
110.000400798
 20
115.8455635191
 30
0.0
 10
110.000400798
 20
115.5444514127
 30
0.0
  0
SPLINE
  5
7E9
100
AcDbEntity
  8
0
100
AcDbSpline
 62
7
  6
CONTINUOUS
 70
0
 71
3
 72
9
 73
5
 74
0
 42
0.0000001
 43
0.0000001
 44
0.0000000001
 40
0.0
 40
0.0
 40
0.0
 40
0.0
 40
0.2697108388
 40
1.0
 40
1.0
 40
1.0
 40
1.0
 10
110.000400798
 20
115.5444514127
 30
0.0
 10
110.000400798
 20
115.4484512148
 30
0.0
 10
109.986810472
 20
115.0930480274
 30
0.0
 10
109.9149161302
 20
114.7368801428
 30
0.0
 10
109.8172894176
 20
114.4959726526
 30
0.0
  0
SPLINE
  5
7EA
100
AcDbEntity
  8
0
100
AcDbSpline
 62
7
  6
CONTINUOUS
 70
0
 71
3
 72
9
 73
5
 74
0
 42
0.0000001
 43
0.0000001
 44
0.0000000001
 40
0.0
 40
0.0
 40
0.0
 40
0.0
 40
0.2582774918
 40
1.0
 40
1.0
 40
1.0
 40
1.0
 10
109.8172894176
 20
114.4959726526
 30
0.0
 10
109.8039994155
 20
114.4631777242
 30
0.0
 10
109.7492869917
 20
114.3375688305
 30
0.0
 10
109.6810548762
 20
114.2176724229
 30
0.0
 10
109.6226176022
 20
114.1345355388
 30
0.0
  0
SPLINE
  5
7EB
100
AcDbEntity
  8
0
100
AcDbSpline
 62
7
  6
CONTINUOUS
 70
0
 71
3
 72
9
 73
5
 74
0
 42
0.0000001
 43
0.0000001
 44
0.0000000001
 40
0.0
 40
0.0
 40
0.0
 40
0.0
 40
0.2404213633
 40
1.0
 40
1.0
 40
1.0
 40
1.0
 10
109.4118240039
 20
109.6748925423
 30
0.0
 10
109.4365496643
 20
109.6606174986
 30
0.0
 10
109.537867038
 20
109.5986132036
 30
0.0
 10
109.6330726577
 20
109.526826331
 30
0.0
 10
109.7017655929
 20
109.4683659259
 30
0.0
  0
SPLINE
  5
7EC
100
AcDbEntity
  8
0
100
AcDbSpline
 62
7
  6
CONTINUOUS
 70
0
 71
3
 72
9
 73
5
 74
0
 42
0.0000001
 43
0.0000001
 44
0.0000000001
 40
0.0
 40
0.0
 40
0.0
 40
0.0
 40
0.7684880036
 40
1.0
 40
1.0
 40
1.0
 40
1.0
 10
111.1920202691
 20
107.9921114115
 30
0.0
 10
111.2158088406
 20
107.9683795737
 30
0.0
 10
111.2389357564
 20
107.9277232969
 30
0.0
 10
111.2450522349
 20
107.8841625246
 30
0.0
 10
111.2450522349
 20
107.8740396958
 30
0.0
  0
SPLINE
  5
7ED
100
AcDbEntity
  8
0
100
AcDbSpline
 62
7
  6
CONTINUOUS
 70
0
 71
3
 72
9
 73
5
 74
0
 42
0.0000001
 43
0.0000001
 44
0.0000000001
 40
0.0
 40
0.0
 40
0.0
 40
0.0
 40
0.2367350848
 40
1.0
 40
1.0
 40
1.0
 40
1.0
 10
111.0282633758
 20
110.7678302208
 30
0.0
 10
111.0697176643
 20
110.7438971177
 30
0.0
 10
111.2409061782
 20
110.6360428655
 30
0.0
 10
111.3963076809
 20
110.5040818393
 30
0.0
 10
111.5055653497
 20
110.3950847404
 30
0.0
  0
SPLINE
  5
7EE
100
AcDbEntity
  8
0
100
AcDbSpline
 62
7
  6
CONTINUOUS
 70
0
 71
3
 72
9
 73
5
 74
0
 42
0.0000001
 43
0.0000001
 44
0.0000000001
 40
0.0
 40
0.0
 40
0.0
 40
0.0
 40
0.2454817491
 40
1.0
 40
1.0
 40
1.0
 40
1.0
 10
112.8557598365
 20
109.0481103488
 30
0.0
 10
112.8700202867
 20
109.0338839085
 30
0.0
 10
112.9240199995
 20
108.9719931238
 30
0.0
 10
112.9636123505
 20
108.8973516694
 30
0.0
 10
112.9817967247
 20
108.8381694818
 30
0.0
  0
SPLINE
  5
7EF
100
AcDbEntity
  8
0
100
AcDbSpline
 62
7
  6
CONTINUOUS
 70
0
 71
3
 72
9
 73
5
 74
0
 42
0.0000001
 43
0.0000001
 44
0.0000000001
 40
0.0
 40
0.0
 40
0.0
 40
0.0
 40
0.2647038691
 40
1.0
 40
1.0
 40
1.0
 40
1.0
 10
112.9817967247
 20
108.8381694818
 30
0.0
 10
112.9847095504
 20
108.828689508
 30
0.0
 10
112.9945333797
 20
108.7925467311
 30
0.0
 10
112.9997881268
 20
108.7549906717
 30
0.0
 10
112.9997881268
 20
108.7274421047
 30
0.0
  0
SPLINE
  5
7F0
100
AcDbEntity
  8
0
100
AcDbSpline
 62
7
  6
CONTINUOUS
 70
0
 71
3
 72
9
 73
5
 74
0
 42
0.0000001
 43
0.0000001
 44
0.0000000001
 40
0.0
 40
0.0
 40
0.0
 40
0.0
 40
0.2291458351
 40
1.0
 40
1.0
 40
1.0
 40
1.0
 10
112.7397249882
 20
120.7096977142
 30
0.0
 10
112.7300929567
 20
120.7041366914
 30
0.0
 10
112.686335123
 20
120.6828982703
 30
0.0
 10
112.6381005917
 20
120.6717160291
 30
0.0
 10
112.6008938413
 20
120.6677730407
 30
0.0
  0
SPLINE
  5
7F1
100
AcDbEntity
  8
0
100
AcDbSpline
 62
7
  6
CONTINUOUS
 70
0
 71
3
 72
9
 73
5
 74
0
 42
0.0000001
 43
0.0000001
 44
0.0000000001
 40
0.0
 40
0.0
 40
0.0
 40
0.0
 40
0.2297054536
 40
1.0
 40
1.0
 40
1.0
 40
1.0
 10
114.8834692469
 20
121.9473816733
 30
0.0
 10
114.872420701
 20
121.9410028304
 30
0.0
 10
114.8221690802
 20
121.9170080764
 30
0.0
 10
114.7662572892
 20
121.9061560678
 30
0.0
 10
114.7235421829
 20
121.9037676166
 30
0.0
  0
SPLINE
  5
7F2
100
AcDbEntity
  8
0
100
AcDbSpline
 62
7
  6
CONTINUOUS
 70
0
 71
3
 72
9
 73
5
 74
0
 42
0.0000001
 43
0.0000001
 44
0.0000000001
 40
0.0
 40
0.0
 40
0.0
 40
0.0
 40
0.2662820354
 40
1.0
 40
1.0
 40
1.0
 40
1.0
 10
109.6226176022
 20
108.8667885444
 30
0.0
 10
109.6832999265
 20
108.71038937
 30
0.0
 10
109.8878806724
 20
108.1149286553
 30
0.0
 10
110.000400798
 20
107.4829017335
 30
0.0
 10
110.000400798
 20
107.0206560794
 30
0.0
  0
SPLINE
  5
7F3
100
AcDbEntity
  8
0
100
AcDbSpline
 62
7
  6
CONTINUOUS
 70
0
 71
3
 72
9
 73
5
 74
0
 42
0.0000001
 43
0.0000001
 44
0.0000000001
 40
0.0
 40
0.0
 40
0.0
 40
0.0
 40
0.2798190847
 40
1.0
 40
1.0
 40
1.0
 40
1.0
 10
110.000400798
 20
107.0206560794
 30
0.0
 10
110.000400798
 20
106.8834160735
 30
0.0
 10
109.974458058
 20
106.3952529939
 30
0.0
 10
109.8257387246
 20
105.8997142808
 30
0.0
 10
109.6226176022
 20
105.6107402054
 30
0.0
  0
SPLINE
  5
7F4
100
AcDbEntity
  8
0
100
AcDbSpline
 62
7
  6
CONTINUOUS
 70
0
 71
3
 72
9
 73
5
 74
0
 42
0.0000001
 43
0.0000001
 44
0.0000000001
 40
0.0
 40
0.0
 40
0.0
 40
0.0
 40
0.2287076107
 40
1.0
 40
1.0
 40
1.0
 40
1.0
 10
106.6180734695
 20
116.3524565111
 30
0.0
 10
106.635084541
 20
116.3426353866
 30
0.0
 10
106.7041220577
 20
116.2908100304
 30
0.0
 10
106.7540559147
 20
116.2155867582
 30
0.0
 10
106.778161991
 20
116.1538860948
 30
0.0
  0
SPLINE
  5
7F5
100
AcDbEntity
  8
0
100
AcDbSpline
 62
7
  6
CONTINUOUS
 70
0
 71
3
 72
9
 73
5
 74
0
 42
0.0000001
 43
0.0000001
 44
0.0000000001
 40
0.0
 40
0.0
 40
0.0
 40
0.0
 40
0.2656289369
 40
1.0
 40
1.0
 40
1.0
 40
1.0
 10
106.778161991
 20
116.1538860948
 30
0.0
 10
106.7821228554
 20
116.1437480717
 30
0.0
 10
106.795506142
 20
116.1050439774
 30
0.0
 10
106.8030969676
 20
116.0640266908
 30
0.0
 10
106.8034213127
 20
116.0339371616
 30
0.0
  0
SPLINE
  5
7F6
100
AcDbEntity
  8
0
100
AcDbSpline
 62
7
  6
CONTINUOUS
 70
0
 71
3
 72
8
 73
4
 74
0
 42
0.0000001
 43
0.0000001
 44
0.0000000001
 40
0.0
 40
0.0
 40
0.0
 40
0.0
 40
1.0
 40
1.0
 40
1.0
 40
1.0
 10
106.8034213127
 20
116.0339371616
 30
0.0
 10
106.80361002
 20
116.0164307738
 30
0.0
 10
106.8019542153
 20
115.9987030183
 30
0.0
 10
106.797649737
 20
115.9817330245
 30
0.0
  0
SPLINE
  5
7F7
100
AcDbEntity
  8
0
100
AcDbSpline
 62
7
  6
CONTINUOUS
 70
0
 71
3
 72
9
 73
5
 74
0
 42
0.0000001
 43
0.0000001
 44
0.0000000001
 40
0.0
 40
0.0
 40
0.0
 40
0.0
 40
0.2766171043
 40
1.0
 40
1.0
 40
1.0
 40
1.0
 10
106.797649737
 20
115.9817330245
 30
0.0
 10
106.7956852567
 20
115.973988249
 30
0.0
 10
106.786800502
 20
115.9465683456
 30
0.0
 10
106.7671740255
 20
115.9219621339
 30
0.0
 10
106.749090132
 20
115.9114947903
 30
0.0
  0
SPLINE
  5
7F8
100
AcDbEntity
  8
0
100
AcDbSpline
 62
7
  6
CONTINUOUS
 70
0
 71
3
 72
9
 73
5
 74
0
 42
0.0000001
 43
0.0000001
 44
0.0000000001
 40
0.0
 40
0.0
 40
0.0
 40
0.0
 40
0.5208899936
 40
1.0
 40
1.0
 40
1.0
 40
1.0
 10
106.7136312751
 20
113.8017286507
 30
0.0
 10
106.7421282345
 20
113.7665772592
 30
0.0
 10
106.7789737048
 20
113.6862262811
 30
0.0
 10
106.8023695981
 20
113.6011972024
 30
0.0
 10
106.8034082993
 20
113.5595882485
 30
0.0
  0
SPLINE
  5
7F9
100
AcDbEntity
  8
0
100
AcDbSpline
 62
7
  6
CONTINUOUS
 70
0
 71
3
 72
9
 73
5
 74
0
 42
0.0000001
 43
0.0000001
 44
0.0000000001
 40
0.0
 40
0.0
 40
0.0
 40
0.0
 40
0.2953681287
 40
1.0
 40
1.0
 40
1.0
 40
1.0
 10
106.8034082993
 20
113.5595882485
 30
0.0
 10
106.8037481369
 20
113.5459748199
 30
0.0
 10
106.8014370215
 20
113.5004267115
 30
0.0
 10
106.7772531201
 20
113.4522744517
 30
0.0
 10
106.7491380677
 20
113.4359984165
 30
0.0
  0
SPLINE
  5
7FA
100
AcDbEntity
  8
0
100
AcDbSpline
 62
7
  6
CONTINUOUS
 70
0
 71
3
 72
9
 73
5
 74
0
 42
0.0000001
 43
0.0000001
 44
0.0000000001
 40
0.0
 40
0.0
 40
0.0
 40
0.0
 40
0.5208899936
 40
1.0
 40
1.0
 40
1.0
 40
1.0
 10
106.7136312751
 20
105.5060640927
 30
0.0
 10
106.7421282345
 20
105.4709127012
 30
0.0
 10
106.7789737047
 20
105.3905617231
 30
0.0
 10
106.8023695981
 20
105.3055326444
 30
0.0
 10
106.8034082993
 20
105.2639236905
 30
0.0
  0
SPLINE
  5
7FB
100
AcDbEntity
  8
0
100
AcDbSpline
 62
7
  6
CONTINUOUS
 70
0
 71
3
 72
9
 73
5
 74
0
 42
0.0000001
 43
0.0000001
 44
0.0000000001
 40
0.0
 40
0.0
 40
0.0
 40
0.0
 40
0.2953681287
 40
1.0
 40
1.0
 40
1.0
 40
1.0
 10
106.8034082993
 20
105.2639236905
 30
0.0
 10
106.8037481369
 20
105.2503102619
 30
0.0
 10
106.8014370215
 20
105.2047621535
 30
0.0
 10
106.7772531202
 20
105.1566098937
 30
0.0
 10
106.7491380677
 20
105.1403338584
 30
0.0
  0
SPLINE
  5
7FC
100
AcDbEntity
  8
0
100
AcDbSpline
 62
7
  6
CONTINUOUS
 70
0
 71
3
 72
9
 73
5
 74
0
 42
0.0000001
 43
0.0000001
 44
0.0000000001
 40
0.0
 40
0.0
 40
0.0
 40
0.0
 40
0.5161090896
 40
1.0
 40
1.0
 40
1.0
 40
1.0
 10
106.6180734695
 20
108.0567919531
 30
0.0
 10
106.6809936853
 20
108.0204657713
 30
0.0
 10
106.7735978047
 20
107.9057273121
 30
0.0
 10
106.8133171443
 20
107.7591331616
 30
0.0
 10
106.7991484687
 20
107.6925048205
 30
0.0
  0
SPLINE
  5
7FD
100
AcDbEntity
  8
0
100
AcDbSpline
 62
7
  6
CONTINUOUS
 70
0
 71
3
 72
9
 73
5
 74
0
 42
0.0000001
 43
0.0000001
 44
0.0000000001
 40
0.0
 40
0.0
 40
0.0
 40
0.0
 40
0.2793138457
 40
1.0
 40
1.0
 40
1.0
 40
1.0
 10
106.7991484687
 20
107.6925048205
 30
0.0
 10
106.7973464954
 20
107.6840310228
 30
0.0
 10
106.7889539716
 20
107.6542683037
 30
0.0
 10
106.7684360631
 20
107.6270280758
 30
0.0
 10
106.7490901308
 20
107.615830235
 30
0.0
  0
SPLINE
  5
7FE
100
AcDbEntity
  8
0
100
AcDbSpline
 62
7
  6
CONTINUOUS
 70
0
 71
3
 72
9
 73
5
 74
0
 42
0.0000001
 43
0.0000001
 44
0.0000000001
 40
0.0
 40
0.0
 40
0.0
 40
0.0
 40
0.2361308105
 40
1.0
 40
1.0
 40
1.0
 40
1.0
 10
106.8003935666
 20
115.983353347
 30
0.0
 10
106.7881242339
 20
115.9862564631
 30
0.0
 10
106.7358810615
 20
115.9973525612
 30
0.0
 10
106.6828038541
 20
116.0042408359
 30
0.0
 10
106.6421810799
 20
116.0078918195
 30
0.0
  0
SPLINE
  5
7FF
100
AcDbEntity
  8
0
100
AcDbSpline
 62
7
  6
CONTINUOUS
 70
0
 71
3
 72
11
 73
7
 74
0
 42
0.0000001
 43
0.0000001
 44
0.0000000001
 40
0.0
 40
0.0
 40
0.0
 40
0.0
 40
0.2291588468
 40
0.4775176547
 40
0.7361260813
 40
1.0
 40
1.0
 40
1.0
 40
1.0
 10
116.6247844278
 20
108.5666309925
 30
0.0
 10
116.6838185677
 20
108.6007141657
 30
0.0
 10
116.7968570323
 20
108.68848391
 30
0.0
 10
116.9521648207
 20
108.8431982494
 30
0.0
 10
117.093462888
 20
109.0248067569
 30
0.0
 10
117.1700016411
 20
109.1607733406
 30
0.0
 10
117.2040263597
 20
109.2315087228
 30
0.0
  0
SPLINE
  5
800
100
AcDbEntity
  8
0
100
AcDbSpline
 62
7
  6
CONTINUOUS
 70
0
 71
3
 72
11
 73
7
 74
0
 42
0.0000001
 43
0.0000001
 44
0.0000000001
 40
0.0
 40
0.0
 40
0.0
 40
0.0
 40
0.2180403971
 40
0.4501630253
 40
0.7092068932
 40
1.0
 40
1.0
 40
1.0
 40
1.0
 10
111.0336111775
 20
44.2624227417
 30
0.0
 10
111.1974872261
 20
44.1812639914
 30
0.0
 10
111.5075206323
 20
43.9496074043
 30
0.0
 10
111.8399453489
 20
43.4449579442
 30
0.0
 10
112.036804263
 20
42.8124628035
 30
0.0
 10
112.0753454842
 20
42.3495664471
 30
0.0
 10
112.0753454842
 20
42.1056764845
 30
0.0
  0
SPLINE
  5
801
100
AcDbEntity
  8
0
100
AcDbSpline
 62
7
  6
CONTINUOUS
 70
0
 71
3
 72
8
 73
4
 74
0
 42
0.0000001
 43
0.0000001
 44
0.0000000001
 40
0.0
 40
0.0
 40
0.0
 40
0.0
 40
1.0
 40
1.0
 40
1.0
 40
1.0
 10
136.9046479195
 20
160.2377734752
 30
0.0
 10
136.8826205955
 20
160.2504906638
 30
0.0
 10
136.8570868
 20
160.2580252156
 30
0.0
 10
136.8317578595
 20
160.2603435472
 30
0.0
  0
SPLINE
  5
802
100
AcDbEntity
  8
0
100
AcDbSpline
 62
7
  6
CONTINUOUS
 70
0
 71
3
 72
9
 73
5
 74
0
 42
0.0000001
 43
0.0000001
 44
0.0000000001
 40
0.0
 40
0.0
 40
0.0
 40
0.0
 40
0.2246172862
 40
1.0
 40
1.0
 40
1.0
 40
1.0
 10
136.8317578595
 20
160.2603435472
 30
0.0
 10
136.8179613688
 20
160.2616063257
 30
0.0
 10
136.7559061941
 20
160.2607810345
 30
0.0
 10
136.6960751376
 20
160.236931219
 30
0.0
 10
136.6546575844
 20
160.2130189263
 30
0.0
  0
SPLINE
  5
803
100
AcDbEntity
  8
0
100
AcDbSpline
 62
7
  6
CONTINUOUS
 70
0
 71
3
 72
9
 73
5
 74
0
 42
0.0000001
 43
0.0000001
 44
0.0000000001
 40
0.0
 40
0.0
 40
0.0
 40
0.0
 40
0.2440160193
 40
1.0
 40
1.0
 40
1.0
 40
1.0
 10
70.6471601683
 20
263.0109182088
 30
0.0
 10
70.6228071109
 20
263.0340703921
 30
0.0
 10
70.5251951495
 20
263.1312397492
 30
0.0
 10
70.4363115863
 20
263.2370699005
 30
0.0
 10
70.3740932686
 20
263.3205332363
 30
0.0
  0
SPLINE
  5
804
100
AcDbEntity
  8
0
100
AcDbSpline
 62
7
  6
CONTINUOUS
 70
0
 71
3
 72
11
 73
7
 74
0
 42
0.0000001
 43
0.0000001
 44
0.0000000001
 40
0.0
 40
0.0
 40
0.0
 40
0.0
 40
0.1939584292
 40
0.4207847194
 40
0.6921658706
 40
1.0
 40
1.0
 40
1.0
 40
1.0
 10
169.3065068977
 20
43.2037617984
 30
0.0
 10
169.3065809333
 20
43.1393610124
 30
0.0
 10
169.3509047627
 20
42.998475513
 30
0.0
 10
169.5180690649
 20
42.8327068083
 30
0.0
 10
169.7584521942
 20
42.7089476257
 30
0.0
 10
169.9466060676
 20
42.6617176721
 30
0.0
 10
170.0476160433
 20
42.6460918581
 30
0.0
  0
SPLINE
  5
805
100
AcDbEntity
  8
0
100
AcDbSpline
 62
7
  6
CONTINUOUS
 70
0
 71
3
 72
8
 73
4
 74
0
 42
0.0000001
 43
0.0000001
 44
0.0000000001
 40
0.0
 40
0.0
 40
0.0
 40
0.0
 40
1.0
 40
1.0
 40
1.0
 40
1.0
 10
171.378786147
 20
36.7638080535
 30
0.0
 10
171.3978992348
 20
36.7608007436
 30
0.0
 10
171.4167637207
 20
36.756020358
 30
0.0
 10
171.4352047895
 20
36.7501653584
 30
0.0
  0
SPLINE
  5
806
100
AcDbEntity
  8
0
100
AcDbSpline
 62
7
  6
CONTINUOUS
 70
0
 71
3
 72
9
 73
5
 74
0
 42
0.0000001
 43
0.0000001
 44
0.0000000001
 40
0.0
 40
0.0
 40
0.0
 40
0.0
 40
0.4677806289
 40
1.0
 40
1.0
 40
1.0
 40
1.0
 10
171.4352047895
 20
36.7501653584
 30
0.0
 10
171.505013592
 20
36.7280012143
 30
0.0
 10
171.6436127456
 20
36.6493695928
 30
0.0
 10
171.7625816735
 20
36.5470130206
 30
0.0
 10
171.821506558
 20
36.4880881178
 30
0.0
  0
SPLINE
  5
807
100
AcDbEntity
  8
0
100
AcDbSpline
 62
7
  6
CONTINUOUS
 70
0
 71
3
 72
9
 73
5
 74
0
 42
0.0000001
 43
0.0000001
 44
0.0000000001
 40
0.0
 40
0.0
 40
0.0
 40
0.0
 40
0.2286310031
 40
1.0
 40
1.0
 40
1.0
 40
1.0
 10
111.3833487549
 20
56.3545436898
 30
0.0
 10
111.3833487549
 20
56.3724603035
 30
0.0
 10
111.3760393182
 20
56.4507623721
 30
0.0
 10
111.3459240347
 20
56.5259472538
 30
0.0
 10
111.3148234791
 20
56.5777809671
 30
0.0
  0
SPLINE
  5
808
100
AcDbEntity
  8
0
100
AcDbSpline
 62
7
  6
CONTINUOUS
 70
0
 71
3
 72
8
 73
4
 74
0
 42
0.0000001
 43
0.0000001
 44
0.0000000001
 40
0.0
 40
0.0
 40
0.0
 40
0.0
 40
1.0
 40
1.0
 40
1.0
 40
1.0
 10
111.3148234791
 20
56.5777809671
 30
0.0
 10
111.2936840722
 20
56.6130129408
 30
0.0
 10
111.2684082407
 20
56.6461935296
 30
0.0
 10
111.2393204647
 20
56.6752119338
 30
0.0
  0
SPLINE
  5
809
100
AcDbEntity
  8
0
100
AcDbSpline
 62
7
  6
CONTINUOUS
 70
0
 71
3
 72
9
 73
5
 74
0
 42
0.0000001
 43
0.0000001
 44
0.0000000001
 40
0.0
 40
0.0
 40
0.0
 40
0.0
 40
0.258102787
 40
1.0
 40
1.0
 40
1.0
 40
1.0
 10
109.8891259774
 20
58.0221863258
 30
0.0
 10
109.8631293307
 20
58.0481209728
 30
0.0
 10
109.7604641105
 20
58.1466161314
 30
0.0
 10
109.6498953018
 20
58.2370285734
 30
0.0
 10
109.5635705459
 20
58.2977674533
 30
0.0
  0
SPLINE
  5
80A
100
AcDbEntity
  8
0
100
AcDbSpline
 62
7
  6
CONTINUOUS
 70
0
 71
3
 72
9
 73
5
 74
0
 42
0.0000001
 43
0.0000001
 44
0.0000000001
 40
0.0
 40
0.0
 40
0.0
 40
0.0
 40
0.2705930626
 40
1.0
 40
1.0
 40
1.0
 40
1.0
 10
138.5491742785
 20
181.6312984975
 30
0.0
 10
138.5825437576
 20
181.6455280665
 30
0.0
 10
138.7036515706
 20
181.7027633219
 30
0.0
 10
138.8169645493
 20
181.779290498
 30
0.0
 10
138.8865229201
 20
181.8480215164
 30
0.0
  0
SPLINE
  5
80B
100
AcDbEntity
  8
0
100
AcDbSpline
 62
7
  6
CONTINUOUS
 70
0
 71
3
 72
11
 73
7
 74
0
 42
0.0000001
 43
0.0000001
 44
0.0000000001
 40
0.0
 40
0.0
 40
0.0
 40
0.0
 40
0.2282261785
 40
0.4683182052
 40
0.7261816189
 40
1.0
 40
1.0
 40
1.0
 40
1.0
 10
149.8026581914
 20
182.196422375
 30
0.0
 10
149.7196102017
 20
181.9465073075
 30
0.0
 10
149.4373186872
 20
181.4651349173
 30
0.0
 10
148.7543580725
 20
180.9491664866
 30
0.0
 10
147.8931143098
 20
180.6720545272
 30
0.0
 10
147.2705050391
 20
180.6600313748
 30
0.0
 10
146.9564726779
 20
180.6948953294
 30
0.0
  0
SPLINE
  5
80C
100
AcDbEntity
  8
0
100
AcDbSpline
 62
7
  6
CONTINUOUS
 70
0
 71
3
 72
11
 73
7
 74
0
 42
0.0000001
 43
0.0000001
 44
0.0000000001
 40
0.0
 40
0.0
 40
0.0
 40
0.0
 40
0.1939584292
 40
0.4207847194
 40
0.6921658706
 40
1.0
 40
1.0
 40
1.0
 40
1.0
 10
169.3065068977
 20
169.2309098823
 30
0.0
 10
169.3065809333
 20
169.1665090963
 30
0.0
 10
169.3509047627
 20
169.0256235969
 30
0.0
 10
169.5180690649
 20
168.8598548923
 30
0.0
 10
169.7584521942
 20
168.7360957097
 30
0.0
 10
169.9466060676
 20
168.6888657561
 30
0.0
 10
170.0476160433
 20
168.6732399421
 30
0.0
  0
SPLINE
  5
80D
100
AcDbEntity
  8
0
100
AcDbSpline
 62
7
  6
CONTINUOUS
 70
0
 71
3
 72
8
 73
4
 74
0
 42
0.0000001
 43
0.0000001
 44
0.0000000001
 40
0.0
 40
0.0
 40
0.0
 40
0.0
 40
1.0
 40
1.0
 40
1.0
 40
1.0
 10
171.378786147
 20
162.7909561375
 30
0.0
 10
171.3978992355
 20
162.7879488275
 30
0.0
 10
171.416763722
 20
162.7831684416
 30
0.0
 10
171.4352047913
 20
162.7773134418
 30
0.0
  0
SPLINE
  5
80E
100
AcDbEntity
  8
0
100
AcDbSpline
 62
7
  6
CONTINUOUS
 70
0
 71
3
 72
9
 73
5
 74
0
 42
0.0000001
 43
0.0000001
 44
0.0000000001
 40
0.0
 40
0.0
 40
0.0
 40
0.0
 40
0.4677806291
 40
1.0
 40
1.0
 40
1.0
 40
1.0
 10
171.4352047913
 20
162.7773134418
 30
0.0
 10
171.5050135935
 20
162.7551492974
 30
0.0
 10
171.6436127464
 20
162.6765176762
 30
0.0
 10
171.7625816737
 20
162.5741611043
 30
0.0
 10
171.821506558
 20
162.5152362017
 30
0.0
  0
SPLINE
  5
80F
100
AcDbEntity
  8
0
100
AcDbSpline
 62
7
  6
CONTINUOUS
 70
0
 71
3
 72
14
 73
10
 74
0
 42
0.0000001
 43
0.0000001
 44
0.0000000001
 40
0.0
 40
0.0
 40
0.0
 40
0.0
 40
0.0884253254
 40
0.1917826278
 40
0.3153616298
 40
0.4556000622
 40
0.7492994001
 40
0.8841034164
 40
1.0
 40
1.0
 40
1.0
 40
1.0
 10
136.5574706394
 20
40.9041046405
 30
0.0
 10
136.5574026606
 20
40.8237470898
 30
0.0
 10
136.6126648009
 20
40.6479308658
 30
0.0
 10
136.8208674807
 20
40.4411244628
 30
0.0
 10
137.1205915185
 20
40.2862319668
 30
0.0
 10
137.6144662587
 20
40.1618524559
 30
0.0
 10
138.1465215159
 20
40.1783559043
 30
0.0
 10
138.6173967184
 20
40.3383345651
 30
0.0
 10
138.8116045048
 20
40.4660033873
 30
0.0
 10
138.8865229201
 20
40.5400306958
 30
0.0
  0
SPLINE
  5
810
100
AcDbEntity
  8
0
100
AcDbSpline
 62
7
  6
CONTINUOUS
 70
0
 71
3
 72
9
 73
5
 74
0
 42
0.0000001
 43
0.0000001
 44
0.0000000001
 40
0.0
 40
0.0
 40
0.0
 40
0.0
 40
0.4754779815
 40
1.0
 40
1.0
 40
1.0
 40
1.0
 10
47.5894673692
 20
190.36841806
 30
0.0
 10
47.5894673692
 20
190.8151417685
 30
0.0
 10
47.3895633155
 20
191.7540262596
 30
0.0
 10
46.9489302273
 20
192.5961006482
 30
0.0
 10
46.6648567483
 20
192.9987865134
 30
0.0
  0
SPLINE
  5
811
100
AcDbEntity
  8
0
100
AcDbSpline
 62
7
  6
CONTINUOUS
 70
0
 71
3
 72
9
 73
5
 74
0
 42
0.0000001
 43
0.0000001
 44
0.0000000001
 40
0.0
 40
0.0
 40
0.0
 40
0.0
 40
0.5239499829
 40
1.0
 40
1.0
 40
1.0
 40
1.0
 10
46.5950275521
 20
193.0954502755
 30
0.0
 10
46.416858659
 20
193.3363264404
 30
0.0
 10
46.0376135707
 20
193.7685629597
 30
0.0
 10
45.580143353
 20
194.1208707521
 30
0.0
 10
45.3443939919
 20
194.25697763
 30
0.0
  0
SPLINE
  5
812
100
AcDbEntity
  8
0
100
AcDbSpline
 62
7
  6
CONTINUOUS
 70
0
 71
3
 72
9
 73
5
 74
0
 42
0.0000001
 43
0.0000001
 44
0.0000000001
 40
0.0
 40
0.0
 40
0.0
 40
0.0
 40
0.2324926361
 40
1.0
 40
1.0
 40
1.0
 40
1.0
 10
108.7611306129
 20
72.0120658558
 30
0.0
 10
108.7611306129
 20
72.1585790283
 30
0.0
 10
108.7242319874
 20
72.7886728393
 30
0.0
 10
108.5583025452
 20
73.4072789152
 30
0.0
 10
108.3833474171
 20
73.8581983209
 30
0.0
  0
SPLINE
  5
813
100
AcDbEntity
  8
0
100
AcDbSpline
 62
7
  6
CONTINUOUS
 70
0
 71
3
 72
9
 73
5
 74
0
 42
0.0000001
 43
0.0000001
 44
0.0000000001
 40
0.0
 40
0.0
 40
0.0
 40
0.0
 40
0.2245246033
 40
1.0
 40
1.0
 40
1.0
 40
1.0
 10
108.3833474171
 20
70.6021499819
 30
0.0
 10
108.44675434
 20
70.6923570303
 30
0.0
 10
108.6875514991
 20
71.1238009528
 30
0.0
 10
108.7611306129
 20
71.6312362699
 30
0.0
 10
108.7611306129
 20
72.0120658558
 30
0.0
  0
SPLINE
  5
814
100
AcDbEntity
  8
0
100
AcDbSpline
 62
7
  6
CONTINUOUS
 70
0
 71
3
 72
9
 73
5
 74
0
 42
0.0000001
 43
0.0000001
 44
0.0000000001
 40
0.0
 40
0.0
 40
0.0
 40
0.0
 40
0.2286310031
 40
1.0
 40
1.0
 40
1.0
 40
1.0
 10
111.3833487549
 20
73.5010944495
 30
0.0
 10
111.3833487549
 20
73.5190110632
 30
0.0
 10
111.3760393182
 20
73.5973131318
 30
0.0
 10
111.3459240347
 20
73.6724980135
 30
0.0
 10
111.3148234791
 20
73.7243317268
 30
0.0
  0
SPLINE
  5
815
100
AcDbEntity
  8
0
100
AcDbSpline
 62
7
  6
CONTINUOUS
 70
0
 71
3
 72
8
 73
4
 74
0
 42
0.0000001
 43
0.0000001
 44
0.0000000001
 40
0.0
 40
0.0
 40
0.0
 40
0.0
 40
1.0
 40
1.0
 40
1.0
 40
1.0
 10
111.3148234791
 20
73.7243317268
 30
0.0
 10
111.2936840722
 20
73.7595637005
 30
0.0
 10
111.2684082407
 20
73.7927442893
 30
0.0
 10
111.2393204647
 20
73.8217626935
 30
0.0
  0
SPLINE
  5
816
100
AcDbEntity
  8
0
100
AcDbSpline
 62
7
  6
CONTINUOUS
 70
0
 71
3
 72
9
 73
5
 74
0
 42
0.0000001
 43
0.0000001
 44
0.0000000001
 40
0.0
 40
0.0
 40
0.0
 40
0.0
 40
0.258102787
 40
1.0
 40
1.0
 40
1.0
 40
1.0
 10
109.8891259774
 20
75.1687370856
 30
0.0
 10
109.8631293307
 20
75.1946717325
 30
0.0
 10
109.7604641105
 20
75.2931668911
 30
0.0
 10
109.6498953018
 20
75.3835793332
 30
0.0
 10
109.5635705459
 20
75.444318213
 30
0.0
  0
SPLINE
  5
817
100
AcDbEntity
  8
0
100
AcDbSpline
 62
7
  6
CONTINUOUS
 70
0
 71
3
 72
9
 73
5
 74
0
 42
0.0000001
 43
0.0000001
 44
0.0000000001
 40
0.0
 40
0.0
 40
0.0
 40
0.0
 40
0.4977141342
 40
1.0
 40
1.0
 40
1.0
 40
1.0
 10
79.3404310585
 20
271.6269780596
 30
0.0
 10
79.2172888015
 20
271.5589774065
 30
0.0
 10
78.9723447648
 20
271.4179145639
 30
0.0
 10
78.7234202864
 20
271.2839944716
 30
0.0
 10
78.5980832785
 20
271.2173316344
 30
0.0
  0
SPLINE
  5
818
100
AcDbEntity
  8
0
100
AcDbSpline
 62
7
  6
CONTINUOUS
 70
0
 71
3
 72
9
 73
5
 74
0
 42
0.0000001
 43
0.0000001
 44
0.0000000001
 40
0.0
 40
0.0
 40
0.0
 40
0.0
 40
0.4745254949
 40
1.0
 40
1.0
 40
1.0
 40
1.0
 10
51.4740915483
 20
253.0664554654
 30
0.0
 10
51.4740915483
 20
253.4164502746
 30
0.0
 10
51.3346647997
 20
254.1540696501
 30
0.0
 10
51.0193139327
 20
254.8285295519
 30
0.0
 10
50.8158622653
 20
255.1584088924
 30
0.0
  0
SPLINE
  5
819
100
AcDbEntity
  8
0
100
AcDbSpline
 62
7
  6
CONTINUOUS
 70
0
 71
3
 72
8
 73
4
 74
0
 42
0.0000001
 43
0.0000001
 44
0.0000000001
 40
0.0
 40
0.0
 40
0.0
 40
0.0
 40
1.0
 40
1.0
 40
1.0
 40
1.0
 10
48.1347942515
 20
256.7062892142
 30
0.0
 10
48.2971126022
 20
256.8091922915
 30
0.0
 10
48.4572690993
 20
256.9154898711
 30
0.0
 10
48.6199591777
 20
257.017804233
 30
0.0
  0
SPLINE
  5
81A
100
AcDbEntity
  8
0
100
AcDbSpline
 62
7
  6
CONTINUOUS
 70
0
 71
3
 72
8
 73
4
 74
0
 42
0.0000001
 43
0.0000001
 44
0.0000000001
 40
0.0
 40
0.0
 40
0.0
 40
0.0
 40
1.0
 40
1.0
 40
1.0
 40
1.0
 10
48.6199591777
 20
257.017804233
 30
0.0
 10
48.7841211153
 20
257.1210442342
 30
0.0
 10
48.9507769093
 20
257.220283069
 30
0.0
 10
49.1149318671
 20
257.3235341677
 30
0.0
  0
SPLINE
  5
81B
100
AcDbEntity
  8
0
100
AcDbSpline
 62
7
  6
CONTINUOUS
 70
0
 71
3
 72
8
 73
4
 74
0
 42
0.0000001
 43
0.0000001
 44
0.0000000001
 40
0.0
 40
0.0
 40
0.0
 40
0.0
 40
1.0
 40
1.0
 40
1.0
 40
1.0
 10
49.1149318671
 20
257.3235341677
 30
0.0
 10
49.2775469323
 20
257.4258166961
 30
0.0
 10
49.4376233796
 20
257.5320901778
 30
0.0
 10
49.599891433
 20
257.6349223415
 30
0.0
  0
SPLINE
  5
81C
100
AcDbEntity
  8
0
100
AcDbSpline
 62
7
  6
CONTINUOUS
 70
0
 71
3
 72
11
 73
7
 74
0
 42
0.0000001
 43
0.0000001
 44
0.0000000001
 40
0.0
 40
0.0
 40
0.0
 40
0.0
 40
0.2902873359
 40
0.5496657118
 40
0.7821368589
 40
1.0
 40
1.0
 40
1.0
 40
1.0
 10
53.0108645195
 20
253.8938304178
 30
0.0
 10
53.0108645195
 20
253.7426456554
 30
0.0
 10
52.9871114005
 20
253.4553551597
 30
0.0
 10
52.867121811
 20
253.0619842231
 30
0.0
 10
52.6642431424
 20
252.7462817283
 30
0.0
 10
52.4745192535
 20
252.5989545189
 30
0.0
 10
52.3739152225
 20
252.5464831892
 30
0.0
  0
SPLINE
  5
81D
100
AcDbEntity
  8
0
100
AcDbSpline
 62
7
  6
CONTINUOUS
 70
0
 71
3
 72
9
 73
5
 74
0
 42
0.0000001
 43
0.0000001
 44
0.0000000001
 40
0.0
 40
0.0
 40
0.0
 40
0.0
 40
0.5254323094
 40
1.0
 40
1.0
 40
1.0
 40
1.0
 10
52.3206012001
 20
256.0641553606
 30
0.0
 10
52.5338376072
 20
255.7227541106
 30
0.0
 10
52.8643674809
 20
255.0234741425
 30
0.0
 10
53.0108645195
 20
254.257386859
 30
0.0
 10
53.0108645195
 20
253.8938304178
 30
0.0
  0
SPLINE
  5
81E
100
AcDbEntity
  8
0
100
AcDbSpline
 62
7
  6
CONTINUOUS
 70
0
 71
3
 72
11
 73
7
 74
0
 42
0.0000001
 43
0.0000001
 44
0.0000000001
 40
0.0
 40
0.0
 40
0.0
 40
0.0
 40
0.2832394321
 40
0.5428556806
 40
0.7801660164
 40
1.0
 40
1.0
 40
1.0
 40
1.0
 10
50.9602463165
 20
241.8503894484
 30
0.0
 10
51.534105131
 20
241.5190794026
 30
0.0
 10
52.6772761255
 20
240.9540732353
 30
0.0
 10
54.4295592285
 20
240.411752742
 30
0.0
 10
56.1077906158
 20
240.2275291064
 30
0.0
 10
57.1823253329
 20
240.3568515328
 30
0.0
 10
57.6801864575
 20
240.4858267234
 30
0.0
  0
SPLINE
  5
81F
100
AcDbEntity
  8
0
100
AcDbSpline
 62
7
  6
CONTINUOUS
 70
0
 71
3
 72
9
 73
5
 74
0
 42
0.0000001
 43
0.0000001
 44
0.0000000001
 40
0.0
 40
0.0
 40
0.0
 40
0.0
 40
0.2324926361
 40
1.0
 40
1.0
 40
1.0
 40
1.0
 10
108.7611306129
 20
80.5358611892
 30
0.0
 10
108.7611306129
 20
80.6823743617
 30
0.0
 10
108.7242319874
 20
81.3124681727
 30
0.0
 10
108.5583025452
 20
81.9310742486
 30
0.0
 10
108.3833474171
 20
82.3819936543
 30
0.0
  0
SPLINE
  5
820
100
AcDbEntity
  8
0
100
AcDbSpline
 62
7
  6
CONTINUOUS
 70
0
 71
3
 72
9
 73
5
 74
0
 42
0.0000001
 43
0.0000001
 44
0.0000000001
 40
0.0
 40
0.0
 40
0.0
 40
0.0
 40
0.2245246033
 40
1.0
 40
1.0
 40
1.0
 40
1.0
 10
108.3833474171
 20
79.1259453152
 30
0.0
 10
108.44675434
 20
79.2161523637
 30
0.0
 10
108.6875514991
 20
79.6475962862
 30
0.0
 10
108.7611306129
 20
80.1550316033
 30
0.0
 10
108.7611306129
 20
80.5358611892
 30
0.0
  0
SPLINE
  5
821
100
AcDbEntity
  8
0
100
AcDbSpline
 62
7
  6
CONTINUOUS
 70
0
 71
3
 72
8
 73
4
 74
0
 42
0.0000001
 43
0.0000001
 44
0.0000000001
 40
0.0
 40
0.0
 40
0.0
 40
0.0
 40
1.0
 40
1.0
 40
1.0
 40
1.0
 10
106.7563692705
 20
79.2357167522
 30
0.0
 10
106.7693377274
 20
79.2282295795
 30
0.0
 10
106.7831203306
 20
79.2219209099
 30
0.0
 10
106.7974126665
 20
79.2174523793
 30
0.0
  0
SPLINE
  5
822
100
AcDbEntity
  8
0
100
AcDbSpline
 62
7
  6
CONTINUOUS
 70
0
 71
3
 72
8
 73
4
 74
0
 42
0.0000001
 43
0.0000001
 44
0.0000000001
 40
0.0
 40
0.0
 40
0.0
 40
0.0
 40
1.0
 40
1.0
 40
1.0
 40
1.0
 10
106.7105419116
 20
79.2688191636
 30
0.0
 10
106.7247449076
 20
79.2564346275
 30
0.0
 10
106.7400496693
 20
79.2451386652
 30
0.0
 10
106.7563692705
 20
79.2357167522
 30
0.0
  0
SPLINE
  5
823
100
AcDbEntity
  8
0
100
AcDbSpline
 62
7
  6
CONTINUOUS
 70
0
 71
3
 72
9
 73
5
 74
0
 42
0.0000001
 43
0.0000001
 44
0.0000000001
 40
0.0
 40
0.0
 40
0.0
 40
0.0
 40
0.2324926361
 40
1.0
 40
1.0
 40
1.0
 40
1.0
 10
108.7611306129
 20
63.3893104295
 30
0.0
 10
108.7611306129
 20
63.535823602
 30
0.0
 10
108.7242319874
 20
64.1659174129
 30
0.0
 10
108.5583025452
 20
64.7845234889
 30
0.0
 10
108.3833474171
 20
65.2354428945
 30
0.0
  0
SPLINE
  5
824
100
AcDbEntity
  8
0
100
AcDbSpline
 62
7
  6
CONTINUOUS
 70
0
 71
3
 72
9
 73
5
 74
0
 42
0.0000001
 43
0.0000001
 44
0.0000000001
 40
0.0
 40
0.0
 40
0.0
 40
0.0
 40
0.2245246033
 40
1.0
 40
1.0
 40
1.0
 40
1.0
 10
108.3833474171
 20
61.9793945555
 30
0.0
 10
108.44675434
 20
62.0696016039
 30
0.0
 10
108.6875514991
 20
62.5010455265
 30
0.0
 10
108.7611306129
 20
63.0084808436
 30
0.0
 10
108.7611306129
 20
63.3893104295
 30
0.0
  0
SPLINE
  5
825
100
AcDbEntity
  8
0
100
AcDbSpline
 62
7
  6
CONTINUOUS
 70
0
 71
3
 72
9
 73
5
 74
0
 42
0.0000001
 43
0.0000001
 44
0.0000000001
 40
0.0
 40
0.0
 40
0.0
 40
0.0
 40
0.2870262481
 40
1.0
 40
1.0
 40
1.0
 40
1.0
 10
49.7611845585
 20
59.4080011428
 30
0.0
 10
49.7928609402
 20
59.4096395463
 30
0.0
 10
49.900919683
 20
59.4246290913
 30
0.0
 10
50.0149866046
 20
59.4783798509
 30
0.0
 10
50.0567835967
 20
59.545168899
 30
0.0
  0
SPLINE
  5
826
100
AcDbEntity
  8
0
100
AcDbSpline
 62
7
  6
CONTINUOUS
 70
0
 71
3
 72
9
 73
5
 74
0
 42
0.0000001
 43
0.0000001
 44
0.0000000001
 40
0.0
 40
0.0
 40
0.0
 40
0.0
 40
0.2647632398
 40
1.0
 40
1.0
 40
1.0
 40
1.0
 10
50.0567835967
 20
59.545168899
 30
0.0
 10
50.0608588165
 20
59.5516808521
 30
0.0
 10
50.074604368
 20
59.5772385059
 30
0.0
 10
50.0803823916
 20
59.6073006764
 30
0.0
 10
50.0786504658
 20
59.6285628258
 30
0.0
  0
SPLINE
  5
827
100
AcDbEntity
  8
0
100
AcDbSpline
 62
7
  6
CONTINUOUS
 70
0
 71
3
 72
9
 73
5
 74
0
 42
0.0000001
 43
0.0000001
 44
0.0000000001
 40
0.0
 40
0.0
 40
0.0
 40
0.0
 40
0.2673515724
 40
1.0
 40
1.0
 40
1.0
 40
1.0
 10
117.2040263597
 20
74.9384072034
 30
0.0
 10
117.2273241398
 20
74.9868419134
 30
0.0
 10
117.3056610535
 20
75.1717526068
 30
0.0
 10
117.3505980043
 20
75.3734759171
 30
0.0
 10
117.3505980043
 20
75.5207630059
 30
0.0
  0
SPLINE
  5
828
100
AcDbEntity
  8
0
100
AcDbSpline
 62
7
  6
CONTINUOUS
 70
0
 71
3
 72
8
 73
4
 74
0
 42
0.0000001
 43
0.0000001
 44
0.0000000001
 40
0.0
 40
0.0
 40
0.0
 40
0.0
 40
1.0
 40
1.0
 40
1.0
 40
1.0
 10
117.2091772369
 20
75.0108145177
 30
0.0
 10
117.2091772369
 20
74.9866177532
 30
0.0
 10
117.2073245713
 20
74.9623781277
 30
0.0
 10
117.2040263597
 20
74.9384072034
 30
0.0
  0
SPLINE
  5
829
100
AcDbEntity
  8
0
100
AcDbSpline
 62
7
  6
CONTINUOUS
 70
0
 71
3
 72
9
 73
5
 74
0
 42
0.0000001
 43
0.0000001
 44
0.0000000001
 40
0.0
 40
0.0
 40
0.0
 40
0.0
 40
0.2760952381
 40
1.0
 40
1.0
 40
1.0
 40
1.0
 10
117.3505980043
 20
88.5031514382
 30
0.0
 10
117.3505980043
 20
88.5339004207
 30
0.0
 10
117.3452281269
 20
88.6449011687
 30
0.0
 10
117.3157440785
 20
88.7569417591
 30
0.0
 10
117.2751280832
 20
88.8265854147
 30
0.0
  0
SPLINE
  5
82A
100
AcDbEntity
  8
0
100
AcDbSpline
 62
7
  6
CONTINUOUS
 70
0
 71
3
 72
8
 73
4
 74
0
 42
0.0000001
 43
0.0000001
 44
0.0000000001
 40
0.0
 40
0.0
 40
0.0
 40
0.0
 40
1.0
 40
1.0
 40
1.0
 40
1.0
 10
106.7563692705
 20
62.0891659924
 30
0.0
 10
106.7693377274
 20
62.0816788197
 30
0.0
 10
106.7831203306
 20
62.0753701502
 30
0.0
 10
106.7974126665
 20
62.0709016196
 30
0.0
  0
SPLINE
  5
82B
100
AcDbEntity
  8
0
100
AcDbSpline
 62
7
  6
CONTINUOUS
 70
0
 71
3
 72
9
 73
5
 74
0
 42
0.0000001
 43
0.0000001
 44
0.0000000001
 40
0.0
 40
0.0
 40
0.0
 40
0.0
 40
0.4492600473
 40
1.0
 40
1.0
 40
1.0
 40
1.0
 10
111.3192356559
 20
83.5215683974
 30
0.0
 10
111.3401333315
 20
83.5336006116
 30
0.0
 10
111.3761490081
 20
83.5788119826
 30
0.0
 10
111.3833487549
 20
83.633722555
 30
0.0
 10
111.3833487549
 20
83.6632835331
 30
0.0
  0
SPLINE
  5
82C
100
AcDbEntity
  8
0
100
AcDbSpline
 62
7
  6
CONTINUOUS
 70
0
 71
3
 72
8
 73
4
 74
0
 42
0.0000001
 43
0.0000001
 44
0.0000000001
 40
0.0
 40
0.0
 40
0.0
 40
0.0
 40
1.0
 40
1.0
 40
1.0
 40
1.0
 10
106.7563692705
 20
70.9400521941
 30
0.0
 10
106.7693377274
 20
70.9325650214
 30
0.0
 10
106.7831203313
 20
70.9262563529
 30
0.0
 10
106.7974126678
 20
70.9217878241
 30
0.0
  0
SPLINE
  5
82D
100
AcDbEntity
  8
0
100
AcDbSpline
 62
7
  6
CONTINUOUS
 70
0
 71
3
 72
8
 73
4
 74
0
 42
0.0000001
 43
0.0000001
 44
0.0000000001
 40
0.0
 40
0.0
 40
0.0
 40
0.0
 40
1.0
 40
1.0
 40
1.0
 40
1.0
 10
106.7105419116
 20
70.9731546056
 30
0.0
 10
106.7247449076
 20
70.9607700695
 30
0.0
 10
106.7400496693
 20
70.9494741071
 30
0.0
 10
106.7563692705
 20
70.9400521941
 30
0.0
  0
SPLINE
  5
82E
100
AcDbEntity
  8
0
100
AcDbSpline
 62
7
  6
CONTINUOUS
 70
0
 71
3
 72
8
 73
4
 74
0
 42
0.0000001
 43
0.0000001
 44
0.0000000001
 40
0.0
 40
0.0
 40
0.0
 40
0.0
 40
1.0
 40
1.0
 40
1.0
 40
1.0
 10
106.7105419116
 20
62.1222684039
 30
0.0
 10
106.7247449076
 20
62.1098838678
 30
0.0
 10
106.7400496693
 20
62.0985879055
 30
0.0
 10
106.7563692705
 20
62.0891659924
 30
0.0
  0
SPLINE
  5
82F
100
AcDbEntity
  8
0
100
AcDbSpline
 62
7
  6
CONTINUOUS
 70
0
 71
3
 72
9
 73
5
 74
0
 42
0.0000001
 43
0.0000001
 44
0.0000000001
 40
0.0
 40
0.0
 40
0.0
 40
0.0
 40
0.2760952381
 40
1.0
 40
1.0
 40
1.0
 40
1.0
 10
117.3505980043
 20
71.3566006785
 30
0.0
 10
117.3505980043
 20
71.3873496609
 30
0.0
 10
117.3452281269
 20
71.498350409
 30
0.0
 10
117.3157440785
 20
71.6103909994
 30
0.0
 10
117.2751280832
 20
71.680034655
 30
0.0
  0
SPLINE
  5
830
100
AcDbEntity
  8
0
100
AcDbSpline
 62
7
  6
CONTINUOUS
 70
0
 71
3
 72
8
 73
4
 74
0
 42
0.0000001
 43
0.0000001
 44
0.0000000001
 40
0.0
 40
0.0
 40
0.0
 40
0.0
 40
1.0
 40
1.0
 40
1.0
 40
1.0
 10
117.2091772369
 20
57.864263758
 30
0.0
 10
117.2091772369
 20
57.8400669935
 30
0.0
 10
117.2073245713
 20
57.8158273679
 30
0.0
 10
117.2040263597
 20
57.7918564436
 30
0.0
  0
SPLINE
  5
831
100
AcDbEntity
  8
0
100
AcDbSpline
 62
7
  6
CONTINUOUS
 70
0
 71
3
 72
9
 73
5
 74
0
 42
0.0000001
 43
0.0000001
 44
0.0000000001
 40
0.0
 40
0.0
 40
0.0
 40
0.0
 40
0.2607385298
 40
1.0
 40
1.0
 40
1.0
 40
1.0
 10
107.3450801797
 20
103.0165861038
 30
0.0
 10
107.3321717514
 20
103.0091334637
 30
0.0
 10
107.2819855314
 20
102.9817656846
 30
0.0
 10
107.2289973285
 20
102.9593605372
 30
0.0
 10
107.1886964928
 20
102.9466406669
 30
0.0
  0
SPLINE
  5
832
100
AcDbEntity
  8
0
100
AcDbSpline
 62
7
  6
CONTINUOUS
 70
0
 71
3
 72
9
 73
5
 74
0
 42
0.0000001
 43
0.0000001
 44
0.0000000001
 40
0.0
 40
0.0
 40
0.0
 40
0.0
 40
0.531827555
 40
1.0
 40
1.0
 40
1.0
 40
1.0
 10
107.1886964928
 20
102.9466406669
 30
0.0
 10
107.1291994379
 20
102.9278620284
 30
0.0
 10
107.0107069402
 20
102.9073913856
 30
0.0
 10
106.892664182
 20
102.9396161621
 30
0.0
 10
106.8450995095
 20
102.967077006
 30
0.0
  0
SPLINE
  5
833
100
AcDbEntity
  8
0
100
AcDbSpline
 62
7
  6
CONTINUOUS
 70
0
 71
3
 72
9
 73
5
 74
0
 42
0.0000001
 43
0.0000001
 44
0.0000000001
 40
0.0
 40
0.0
 40
0.0
 40
0.0
 40
0.2287872083
 40
1.0
 40
1.0
 40
1.0
 40
1.0
 10
117.5273754356
 20
109.7118043367
 30
0.0
 10
117.5273754356
 20
109.6560044254
 30
0.0
 10
117.5055025941
 20
109.4122682237
 30
0.0
 10
117.4143055065
 20
109.1777790617
 30
0.0
 10
117.3202586703
 20
109.0148842588
 30
0.0
  0
SPLINE
  5
834
100
AcDbEntity
  8
0
100
AcDbSpline
 62
7
  6
CONTINUOUS
 70
0
 71
3
 72
9
 73
5
 74
0
 42
0.0000001
 43
0.0000001
 44
0.0000000001
 40
0.0
 40
0.0
 40
0.0
 40
0.0
 40
0.2670409942
 40
1.0
 40
1.0
 40
1.0
 40
1.0
 10
117.3202586703
 20
109.0148842588
 30
0.0
 10
117.2877137592
 20
108.9585145063
 30
0.0
 10
117.1542720449
 20
108.7549922341
 30
0.0
 10
116.9749921205
 20
108.5763851676
 30
0.0
 10
116.8202715984
 20
108.4870577657
 30
0.0
  0
SPLINE
  5
835
100
AcDbEntity
  8
0
100
AcDbSpline
 62
7
  6
CONTINUOUS
 70
0
 71
3
 72
9
 73
5
 74
0
 42
0.0000001
 43
0.0000001
 44
0.0000000001
 40
0.0
 40
0.0
 40
0.0
 40
0.0
 40
0.2607385298
 40
1.0
 40
1.0
 40
1.0
 40
1.0
 10
107.3450801797
 20
68.7234845844
 30
0.0
 10
107.3321717514
 20
68.7160319443
 30
0.0
 10
107.2819855314
 20
68.6886641652
 30
0.0
 10
107.2289973285
 20
68.6662590178
 30
0.0
 10
107.1886964928
 20
68.6535391475
 30
0.0
  0
SPLINE
  5
836
100
AcDbEntity
  8
0
100
AcDbSpline
 62
7
  6
CONTINUOUS
 70
0
 71
3
 72
9
 73
5
 74
0
 42
0.0000001
 43
0.0000001
 44
0.0000000001
 40
0.0
 40
0.0
 40
0.0
 40
0.0
 40
0.531827555
 40
1.0
 40
1.0
 40
1.0
 40
1.0
 10
107.1886964928
 20
68.6535391475
 30
0.0
 10
107.1291994379
 20
68.634760509
 30
0.0
 10
107.0107069402
 20
68.6142898661
 30
0.0
 10
106.892664182
 20
68.6465146427
 30
0.0
 10
106.8450995095
 20
68.6739754866
 30
0.0
  0
SPLINE
  5
837
100
AcDbEntity
  8
0
100
AcDbSpline
 62
7
  6
CONTINUOUS
 70
0
 71
3
 72
9
 73
5
 74
0
 42
0.0000001
 43
0.0000001
 44
0.0000000001
 40
0.0
 40
0.0
 40
0.0
 40
0.0
 40
0.2287872083
 40
1.0
 40
1.0
 40
1.0
 40
1.0
 10
117.5273754356
 20
75.4187028172
 30
0.0
 10
117.5273754356
 20
75.3629029059
 30
0.0
 10
117.5055025941
 20
75.1191667042
 30
0.0
 10
117.4143055065
 20
74.8846775423
 30
0.0
 10
117.3202586703
 20
74.7217827393
 30
0.0
  0
SPLINE
  5
838
100
AcDbEntity
  8
0
100
AcDbSpline
 62
7
  6
CONTINUOUS
 70
0
 71
3
 72
9
 73
5
 74
0
 42
0.0000001
 43
0.0000001
 44
0.0000000001
 40
0.0
 40
0.0
 40
0.0
 40
0.0
 40
0.2670409942
 40
1.0
 40
1.0
 40
1.0
 40
1.0
 10
117.3202586703
 20
74.7217827393
 30
0.0
 10
117.2877137592
 20
74.6654129868
 30
0.0
 10
117.1542720449
 20
74.4618907147
 30
0.0
 10
116.9749921205
 20
74.2832836481
 30
0.0
 10
116.8202715984
 20
74.1939562462
 30
0.0
  0
SPLINE
  5
839
100
AcDbEntity
  8
0
100
AcDbSpline
 62
7
  6
CONTINUOUS
 70
0
 71
3
 72
9
 73
5
 74
0
 42
0.0000001
 43
0.0000001
 44
0.0000000001
 40
0.0
 40
0.0
 40
0.0
 40
0.0
 40
0.2607385298
 40
1.0
 40
1.0
 40
1.0
 40
1.0
 10
107.3450801797
 20
51.5769338246
 30
0.0
 10
107.3321717514
 20
51.5694811846
 30
0.0
 10
107.2819855314
 20
51.5421134055
 30
0.0
 10
107.2289973285
 20
51.5197082581
 30
0.0
 10
107.1886964928
 20
51.5069883877
 30
0.0
  0
SPLINE
  5
83A
100
AcDbEntity
  8
0
100
AcDbSpline
 62
7
  6
CONTINUOUS
 70
0
 71
3
 72
9
 73
5
 74
0
 42
0.0000001
 43
0.0000001
 44
0.0000000001
 40
0.0
 40
0.0
 40
0.0
 40
0.0
 40
0.531827555
 40
1.0
 40
1.0
 40
1.0
 40
1.0
 10
107.1886964928
 20
51.5069883877
 30
0.0
 10
107.1291994379
 20
51.4882097492
 30
0.0
 10
107.0107069402
 20
51.4677391064
 30
0.0
 10
106.892664182
 20
51.499963883
 30
0.0
 10
106.8450995095
 20
51.5274247268
 30
0.0
  0
SPLINE
  5
83B
100
AcDbEntity
  8
0
100
AcDbSpline
 62
7
  6
CONTINUOUS
 70
0
 71
3
 72
9
 73
5
 74
0
 42
0.0000001
 43
0.0000001
 44
0.0000000001
 40
0.0
 40
0.0
 40
0.0
 40
0.0
 40
0.2287872083
 40
1.0
 40
1.0
 40
1.0
 40
1.0
 10
117.5273754356
 20
58.2721520575
 30
0.0
 10
117.5273754356
 20
58.2163521462
 30
0.0
 10
117.5055025941
 20
57.9726159445
 30
0.0
 10
117.4143055065
 20
57.7381267826
 30
0.0
 10
117.3202586703
 20
57.5752319796
 30
0.0
  0
SPLINE
  5
83C
100
AcDbEntity
  8
0
100
AcDbSpline
 62
7
  6
CONTINUOUS
 70
0
 71
3
 72
9
 73
5
 74
0
 42
0.0000001
 43
0.0000001
 44
0.0000000001
 40
0.0
 40
0.0
 40
0.0
 40
0.0
 40
0.2670409942
 40
1.0
 40
1.0
 40
1.0
 40
1.0
 10
117.3202586703
 20
57.5752319796
 30
0.0
 10
117.2877137592
 20
57.5188622271
 30
0.0
 10
117.1542720449
 20
57.315339955
 30
0.0
 10
116.9749921205
 20
57.1367328884
 30
0.0
 10
116.8202715984
 20
57.0474054865
 30
0.0
  0
SPLINE
  5
83D
100
AcDbEntity
  8
0
100
AcDbSpline
 62
7
  6
CONTINUOUS
 70
0
 71
3
 72
9
 73
5
 74
0
 42
0.0000001
 43
0.0000001
 44
0.0000000001
 40
0.0
 40
0.0
 40
0.0
 40
0.0
 40
0.2673515724
 40
1.0
 40
1.0
 40
1.0
 40
1.0
 10
117.2040263597
 20
57.7918564436
 30
0.0
 10
117.2273241398
 20
57.8402911537
 30
0.0
 10
117.3056610535
 20
58.0252018471
 30
0.0
 10
117.3505980043
 20
58.2269251574
 30
0.0
 10
117.3505980043
 20
58.3742122462
 30
0.0
  0
SPLINE
  5
83E
100
AcDbEntity
  8
0
100
AcDbSpline
 62
7
  6
CONTINUOUS
 70
0
 71
3
 72
11
 73
7
 74
0
 42
0.0000001
 43
0.0000001
 44
0.0000000001
 40
0.0
 40
0.0
 40
0.0
 40
0.0
 40
0.2372383701
 40
0.5000015757
 40
0.7627639708
 40
1.0
 40
1.0
 40
1.0
 40
1.0
 10
112.2630667197
 20
40.8385009632
 30
0.0
 10
112.2630848057
 20
41.302131938
 30
0.0
 10
112.436857424
 20
42.2799217538
 30
0.0
 10
113.0429823504
 20
43.6538701907
 30
0.0
 10
113.9297843016
 20
44.8657682639
 30
0.0
 10
114.6896877527
 20
45.5051446672
 30
0.0
 10
115.0911888199
 20
45.7369772192
 30
0.0
  0
SPLINE
  5
83F
100
AcDbEntity
  8
0
100
AcDbSpline
 62
7
  6
CONTINUOUS
 70
0
 71
3
 72
9
 73
5
 74
0
 42
0.0000001
 43
0.0000001
 44
0.0000000001
 40
0.0
 40
0.0
 40
0.0
 40
0.0
 40
0.4746917844
 40
1.0
 40
1.0
 40
1.0
 40
1.0
 10
112.0753454842
 20
42.1056764845
 30
0.0
 10
112.0753454842
 20
41.6170005453
 30
0.0
 10
111.9071468542
 20
40.5869038975
 30
0.0
 10
111.515039095
 20
39.6266759439
 30
0.0
 10
111.2619982503
 20
39.1487458996
 30
0.0
  0
SPLINE
  5
840
100
AcDbEntity
  8
0
100
AcDbSpline
 62
7
  6
CONTINUOUS
 70
0
 71
3
 72
11
 73
7
 74
0
 42
0.0000001
 43
0.0000001
 44
0.0000000001
 40
0.0
 40
0.0
 40
0.0
 40
0.0
 40
0.2268617205
 40
0.4989078005
 40
0.7715937807
 40
1.0
 40
1.0
 40
1.0
 40
1.0
 10
112.2630692884
 20
40.8386561906
 30
0.0
 10
112.3581413975
 20
40.8935468698
 30
0.0
 10
112.5877686693
 20
40.9789753349
 30
0.0
 10
112.9616886468
 20
41.0224350455
 30
0.0
 10
113.3367537957
 20
40.9825580951
 30
0.0
 10
113.568299115
 20
40.8995489552
 30
0.0
 10
113.6648366756
 20
40.8457265714
 30
0.0
  0
SPLINE
  5
841
100
AcDbEntity
  8
0
100
AcDbSpline
 62
7
  6
CONTINUOUS
 70
0
 71
3
 72
11
 73
7
 74
0
 42
0.0000001
 43
0.0000001
 44
0.0000000001
 40
0.0
 40
0.0
 40
0.0
 40
0.0
 40
0.2284053354
 40
0.5010903107
 40
0.7731365002
 40
1.0
 40
1.0
 40
1.0
 40
1.0
 10
115.7858202013
 20
44.5193998577
 30
0.0
 10
115.6909390208
 20
44.576090673
 30
0.0
 10
115.503276214
 20
44.7351070765
 30
0.0
 10
115.2812067657
 20
45.0399825286
 30
0.0
 10
115.1318825653
 20
45.3855371386
 30
0.0
 10
115.0910521511
 20
45.6271157232
 30
0.0
 10
115.0910528328
 20
45.7368969288
 30
0.0
  0
SPLINE
  5
842
100
AcDbEntity
  8
0
100
AcDbSpline
 62
7
  6
CONTINUOUS
 70
0
 71
3
 72
8
 73
4
 74
0
 42
0.0000001
 43
0.0000001
 44
0.0000000001
 40
0.0
 40
0.0
 40
0.0
 40
0.0
 40
1.0
 40
1.0
 40
1.0
 40
1.0
 10
106.7105419116
 20
53.8266038458
 30
0.0
 10
106.7247449076
 20
53.8142193098
 30
0.0
 10
106.7400496693
 20
53.8029233474
 30
0.0
 10
106.7563692705
 20
53.7935014344
 30
0.0
  0
SPLINE
  5
843
100
AcDbEntity
  8
0
100
AcDbSpline
 62
7
  6
CONTINUOUS
 70
0
 71
3
 72
8
 73
4
 74
0
 42
0.0000001
 43
0.0000001
 44
0.0000000001
 40
0.0
 40
0.0
 40
0.0
 40
0.0
 40
1.0
 40
1.0
 40
1.0
 40
1.0
 10
106.7563692705
 20
53.7935014344
 30
0.0
 10
106.7693377274
 20
53.7860142617
 30
0.0
 10
106.7831203313
 20
53.7797055932
 30
0.0
 10
106.7974126678
 20
53.7752370644
 30
0.0
  0
SPLINE
  5
844
100
AcDbEntity
  8
0
100
AcDbSpline
 62
7
  6
CONTINUOUS
 70
0
 71
3
 72
9
 73
5
 74
0
 42
0.0000001
 43
0.0000001
 44
0.0000000001
 40
0.0
 40
0.0
 40
0.0
 40
0.0
 40
0.2778444334
 40
1.0
 40
1.0
 40
1.0
 40
1.0
 10
110.1736191752
 20
124.4708906902
 30
0.0
 10
110.164716579
 20
124.4657508046
 30
0.0
 10
110.1317903627
 20
124.4491380454
 30
0.0
 10
110.093828151
 20
124.4401484913
 30
0.0
 10
110.0672145657
 20
124.4425155913
 30
0.0
  0
SPLINE
  5
845
100
AcDbEntity
  8
0
100
AcDbSpline
 62
7
  6
CONTINUOUS
 70
0
 71
3
 72
8
 73
4
 74
0
 42
0.0000001
 43
0.0000001
 44
0.0000000001
 40
0.0
 40
0.0
 40
0.0
 40
0.0
 40
1.0
 40
1.0
 40
1.0
 40
1.0
 10
110.0672145657
 20
124.4425155913
 30
0.0
 10
110.0520589119
 20
124.4438635851
 30
0.0
 10
110.0367849444
 20
124.448400744
 30
0.0
 10
110.023607871
 20
124.4560083498
 30
0.0
  0
SPLINE
  5
846
100
AcDbEntity
  8
0
100
AcDbSpline
 62
7
  6
CONTINUOUS
 70
0
 71
3
 72
9
 73
5
 74
0
 42
0.0000001
 43
0.0000001
 44
0.0000000001
 40
0.0
 40
0.0
 40
0.0
 40
0.0
 40
0.2660897311
 40
1.0
 40
1.0
 40
1.0
 40
1.0
 10
136.9248307991
 20
139.9407002572
 30
0.0
 10
136.9176577936
 20
139.9325258629
 30
0.0
 10
136.8896436525
 20
139.9027944841
 30
0.0
 10
136.857410805
 20
139.8766930104
 30
0.0
 10
136.8314338381
 20
139.8616952911
 30
0.0
  0
SPLINE
  5
847
100
AcDbEntity
  8
0
100
AcDbSpline
 62
7
  6
CONTINUOUS
 70
0
 71
3
 72
9
 73
5
 74
0
 42
0.0000001
 43
0.0000001
 44
0.0000000001
 40
0.0
 40
0.0
 40
0.0
 40
0.0
 40
0.2657079464
 40
1.0
 40
1.0
 40
1.0
 40
1.0
 10
137.7294027451
 20
38.2936806184
 30
0.0
 10
137.6563333115
 20
38.2970982188
 30
0.0
 10
137.3826976171
 20
38.3243187888
 30
0.0
 10
137.110713301
 20
38.406344679
 30
0.0
 10
136.9359524488
 20
38.5079488966
 30
0.0
  0
SPLINE
  5
848
100
AcDbEntity
  8
0
100
AcDbSpline
 62
7
  6
CONTINUOUS
 70
0
 71
3
 72
9
 73
5
 74
0
 42
0.0000001
 43
0.0000001
 44
0.0000000001
 40
0.0
 40
0.0
 40
0.0
 40
0.0
 40
0.2683061627
 40
1.0
 40
1.0
 40
1.0
 40
1.0
 10
136.9359524488
 20
38.5079488966
 30
0.0
 10
136.9101958084
 20
38.5229235506
 30
0.0
 10
136.8163928565
 20
38.5822233687
 30
0.0
 10
136.7311460764
 20
38.6565283898
 30
0.0
 10
136.6800059537
 20
38.7196639409
 30
0.0
  0
SPLINE
  5
849
100
AcDbEntity
  8
0
100
AcDbSpline
 62
7
  6
CONTINUOUS
 70
0
 71
3
 72
9
 73
5
 74
0
 42
0.0000001
 43
0.0000001
 44
0.0000000001
 40
0.0
 40
0.0
 40
0.0
 40
0.0
 40
0.5207644425
 40
1.0
 40
1.0
 40
1.0
 40
1.0
 10
136.6800059537
 20
38.7196639409
 30
0.0
 10
136.6421401517
 20
38.7664115464
 30
0.0
 10
136.5804601545
 20
38.8665734528
 30
0.0
 10
136.5572433124
 20
38.9829269912
 30
0.0
 10
136.5573169867
 20
39.038288902
 30
0.0
  0
SPLINE
  5
84A
100
AcDbEntity
  8
0
100
AcDbSpline
 62
7
  6
CONTINUOUS
 70
0
 71
3
 72
11
 73
7
 74
0
 42
0.0000001
 43
0.0000001
 44
0.0000000001
 40
0.0
 40
0.0
 40
0.0
 40
0.0
 40
0.2373899963
 40
0.4999977238
 40
0.7626062764
 40
1.0
 40
1.0
 40
1.0
 40
1.0
 10
115.7858202431
 20
44.5193998271
 30
0.0
 10
115.4833840883
 20
44.3468245504
 30
0.0
 10
114.9109210571
 20
43.8691242978
 30
0.0
 10
114.2441014243
 20
42.9604083472
 30
0.0
 10
113.7905421651
 20
41.9285617675
 30
0.0
 10
113.6630701812
 20
41.1939370031
 30
0.0
 10
113.6648367587
 20
40.8457265199
 30
0.0
  0
SPLINE
  5
84B
100
AcDbEntity
  8
0
100
AcDbSpline
 62
7
  6
CONTINUOUS
 70
0
 71
3
 72
11
 73
7
 74
0
 42
0.0000001
 43
0.0000001
 44
0.0000000001
 40
0.0
 40
0.0
 40
0.0
 40
0.0
 40
0.2393110123
 40
0.5021453223
 40
0.7638154368
 40
1.0
 40
1.0
 40
1.0
 40
1.0
 10
122.5184531022
 20
48.4064326255
 30
0.0
 10
122.4180470878
 20
48.4644008045
 30
0.0
 10
122.2281489362
 20
48.6225174398
 30
0.0
 10
122.0061331656
 20
48.9220464626
 30
0.0
 10
121.8547629199
 20
49.2611085403
 30
0.0
 10
121.8115263944
 20
49.5024844377
 30
0.0
 10
121.8115263944
 20
49.6169080254
 30
0.0
  0
SPLINE
  5
84C
100
AcDbEntity
  8
0
100
AcDbSpline
 62
7
  6
CONTINUOUS
 70
0
 71
3
 72
8
 73
4
 74
0
 42
0.0000001
 43
0.0000001
 44
0.0000000001
 40
0.0
 40
0.0
 40
0.0
 40
0.0
 40
1.0
 40
1.0
 40
1.0
 40
1.0
 10
106.7105419116
 20
105.266256125
 30
0.0
 10
106.7247449076
 20
105.2538715889
 30
0.0
 10
106.7400496693
 20
105.2425756266
 30
0.0
 10
106.7563692705
 20
105.2331537136
 30
0.0
  0
SPLINE
  5
84D
100
AcDbEntity
  8
0
100
AcDbSpline
 62
7
  6
CONTINUOUS
 70
0
 71
3
 72
8
 73
4
 74
0
 42
0.0000001
 43
0.0000001
 44
0.0000000001
 40
0.0
 40
0.0
 40
0.0
 40
0.0
 40
1.0
 40
1.0
 40
1.0
 40
1.0
 10
106.7563692705
 20
105.2331537136
 30
0.0
 10
106.7693377274
 20
105.2256665409
 30
0.0
 10
106.7831203313
 20
105.2193578723
 30
0.0
 10
106.7974126678
 20
105.2148893436
 30
0.0
  0
SPLINE
  5
84E
100
AcDbEntity
  8
0
100
AcDbSpline
 62
7
  6
CONTINUOUS
 70
0
 71
3
 72
10
 73
6
 74
0
 42
0.0000001
 43
0.0000001
 44
0.0000000001
 40
0.0
 40
0.0
 40
0.0
 40
0.0
 40
0.2420999656
 40
0.5085743898
 40
1.0
 40
1.0
 40
1.0
 40
1.0
 10
171.2435349039
 20
171.5861725489
 30
0.0
 10
171.2435349039
 20
171.5229733593
 30
0.0
 10
171.2147640205
 20
171.3901729548
 30
0.0
 10
171.0967816722
 20
171.1567897864
 30
0.0
 10
170.9545545838
 20
171.0063316051
 30
0.0
 10
170.8442497363
 20
170.9408351741
 30
0.0
  0
SPLINE
  5
84F
100
AcDbEntity
  8
0
100
AcDbSpline
 62
7
  6
CONTINUOUS
 70
0
 71
3
 72
10
 73
6
 74
0
 42
0.0000001
 43
0.0000001
 44
0.0000000001
 40
0.0
 40
0.0
 40
0.0
 40
0.0
 40
0.2224854484
 40
0.4925518533
 40
1.0
 40
1.0
 40
1.0
 40
1.0
 10
171.2091355943
 20
170.8843888825
 30
0.0
 10
171.2363487385
 20
170.9430251973
 30
0.0
 10
171.3247482881
 20
171.0582525454
 30
0.0
 10
171.5247368814
 20
171.2680612325
 30
0.0
 10
171.7001864114
 20
171.4129780281
 30
0.0
 10
171.821506558
 20
171.4967627901
 30
0.0
  0
SPLINE
  5
850
100
AcDbEntity
  8
0
100
AcDbSpline
 62
7
  6
CONTINUOUS
 70
0
 71
3
 72
10
 73
6
 74
0
 42
0.0000001
 43
0.0000001
 44
0.0000000001
 40
0.0
 40
0.0
 40
0.0
 40
0.0
 40
0.288805586
 40
0.5678306732
 40
1.0
 40
1.0
 40
1.0
 40
1.0
 10
170.1738755
 20
168.6537081407
 30
0.0
 10
170.2701443301
 20
168.6388157617
 30
0.0
 10
170.4648372065
 20
168.6324512686
 30
0.0
 10
170.792172805
 20
168.6915387383
 30
0.0
 10
171.0310665277
 20
168.8276677787
 30
0.0
 10
171.0924319455
 20
168.9598921893
 30
0.0
  0
SPLINE
  5
851
100
AcDbEntity
  8
0
100
AcDbSpline
 62
7
  6
CONTINUOUS
 70
0
 71
3
 72
8
 73
4
 74
0
 42
0.0000001
 43
0.0000001
 44
0.0000000001
 40
0.0
 40
0.0
 40
0.0
 40
0.0
 40
1.0
 40
1.0
 40
1.0
 40
1.0
 10
106.7105419116
 20
113.561920683
 30
0.0
 10
106.7247449076
 20
113.549536147
 30
0.0
 10
106.7400496693
 20
113.5382401846
 30
0.0
 10
106.7563692705
 20
113.5288182716
 30
0.0
  0
SPLINE
  5
852
100
AcDbEntity
  8
0
100
AcDbSpline
 62
7
  6
CONTINUOUS
 70
0
 71
3
 72
8
 73
4
 74
0
 42
0.0000001
 43
0.0000001
 44
0.0000000001
 40
0.0
 40
0.0
 40
0.0
 40
0.0
 40
1.0
 40
1.0
 40
1.0
 40
1.0
 10
106.7563692705
 20
113.5288182716
 30
0.0
 10
106.7693377274
 20
113.5213310989
 30
0.0
 10
106.7831203306
 20
113.5150224293
 30
0.0
 10
106.7974126665
 20
113.5105538987
 30
0.0
  0
SPLINE
  5
853
100
AcDbEntity
  8
0
100
AcDbSpline
 62
7
  6
CONTINUOUS
 70
0
 71
3
 72
9
 73
5
 74
0
 42
0.0000001
 43
0.0000001
 44
0.0000000001
 40
0.0
 40
0.0
 40
0.0
 40
0.0
 40
0.2406990077
 40
1.0
 40
1.0
 40
1.0
 40
1.0
 10
139.034760631
 20
181.8186225791
 30
0.0
 10
139.0302725989
 20
181.8051478503
 30
0.0
 10
139.0090506706
 20
181.7500302123
 30
0.0
 10
138.977935504
 20
181.6989500453
 30
0.0
 10
138.9507147169
 20
181.6633647859
 30
0.0
  0
SPLINE
  5
854
100
AcDbEntity
  8
0
100
AcDbSpline
 62
7
  6
CONTINUOUS
 70
0
 71
3
 72
8
 73
4
 74
0
 42
0.0000001
 43
0.0000001
 44
0.0000000001
 40
0.0
 40
0.0
 40
0.0
 40
0.0
 40
1.0
 40
1.0
 40
1.0
 40
1.0
 10
138.9507147169
 20
181.6633647859
 30
0.0
 10
138.9310972528
 20
181.6377192179
 30
0.0
 10
138.9094904422
 20
181.6135175931
 30
0.0
 10
138.8865229201
 20
181.590823255
 30
0.0
  0
SPLINE
  5
855
100
AcDbEntity
  8
0
100
AcDbSpline
 62
7
  6
CONTINUOUS
 70
0
 71
3
 72
9
 73
5
 74
0
 42
0.0000001
 43
0.0000001
 44
0.0000000001
 40
0.0
 40
0.0
 40
0.0
 40
0.0
 40
0.2623078914
 40
1.0
 40
1.0
 40
1.0
 40
1.0
 10
138.8865229201
 20
181.8480215164
 30
0.0
 10
138.8981975501
 20
181.859557284
 30
0.0
 10
138.941281386
 20
181.9049193248
 30
0.0
 10
138.9783674327
 20
181.9562297607
 30
0.0
 10
139.0003392672
 20
181.9968219087
 30
0.0
  0
SPLINE
  5
856
100
AcDbEntity
  8
0
100
AcDbSpline
 62
7
  6
CONTINUOUS
 70
0
 71
3
 72
8
 73
4
 74
0
 42
0.0000001
 43
0.0000001
 44
0.0000000001
 40
0.0
 40
0.0
 40
0.0
 40
0.0
 40
1.0
 40
1.0
 40
1.0
 40
1.0
 10
139.0003392672
 20
181.9968219087
 30
0.0
 10
139.0140125722
 20
182.0220828317
 30
0.0
 10
139.0256837268
 20
182.0485686239
 30
0.0
 10
139.034760631
 20
182.0758208405
 30
0.0
  0
SPLINE
  5
857
100
AcDbEntity
  8
0
100
AcDbSpline
 62
7
  6
CONTINUOUS
 70
0
 71
3
 72
10
 73
6
 74
0
 42
0.0000001
 43
0.0000001
 44
0.0000000001
 40
0.0
 40
0.0
 40
0.0
 40
0.0
 40
0.2420999656
 40
0.5085743898
 40
1.0
 40
1.0
 40
1.0
 40
1.0
 10
171.2435349039
 20
45.559024465
 30
0.0
 10
171.2435349039
 20
45.4958252754
 30
0.0
 10
171.2147640205
 20
45.3630248708
 30
0.0
 10
171.0967816722
 20
45.1296417025
 30
0.0
 10
170.9545545838
 20
44.9791835211
 30
0.0
 10
170.8442497363
 20
44.9136870902
 30
0.0
  0
SPLINE
  5
858
100
AcDbEntity
  8
0
100
AcDbSpline
 62
7
  6
CONTINUOUS
 70
0
 71
3
 72
10
 73
6
 74
0
 42
0.0000001
 43
0.0000001
 44
0.0000000001
 40
0.0
 40
0.0
 40
0.0
 40
0.0
 40
0.2224854484
 40
0.4925518533
 40
1.0
 40
1.0
 40
1.0
 40
1.0
 10
171.2091355943
 20
44.8572407986
 30
0.0
 10
171.2363487385
 20
44.9158771134
 30
0.0
 10
171.3247482881
 20
45.0311044615
 30
0.0
 10
171.5247368815
 20
45.2409131485
 30
0.0
 10
171.7001864114
 20
45.3858299441
 30
0.0
 10
171.821506558
 20
45.4696147062
 30
0.0
  0
SPLINE
  5
859
100
AcDbEntity
  8
0
100
AcDbSpline
 62
7
  6
CONTINUOUS
 70
0
 71
3
 72
10
 73
6
 74
0
 42
0.0000001
 43
0.0000001
 44
0.0000000001
 40
0.0
 40
0.0
 40
0.0
 40
0.0
 40
0.288805586
 40
0.5678306732
 40
1.0
 40
1.0
 40
1.0
 40
1.0
 10
170.1738755
 20
42.6265600567
 30
0.0
 10
170.2701443301
 20
42.6116676778
 30
0.0
 10
170.4648372065
 20
42.6053031847
 30
0.0
 10
170.792172805
 20
42.6643906544
 30
0.0
 10
171.0310665277
 20
42.8005196947
 30
0.0
 10
171.0924319455
 20
42.9327441053
 30
0.0
  0
SPLINE
  5
85A
100
AcDbEntity
  8
0
100
AcDbSpline
 62
7
  6
CONTINUOUS
 70
0
 71
3
 72
9
 73
5
 74
0
 42
0.0000001
 43
0.0000001
 44
0.0000000001
 40
0.0
 40
0.0
 40
0.0
 40
0.0
 40
0.2245246033
 40
1.0
 40
1.0
 40
1.0
 40
1.0
 10
108.3833474171
 20
113.4190468347
 30
0.0
 10
108.44675434
 20
113.5092538831
 30
0.0
 10
108.6875514991
 20
113.9406978056
 30
0.0
 10
108.7611306129
 20
114.4481331227
 30
0.0
 10
108.7611306129
 20
114.8289627087
 30
0.0
  0
SPLINE
  5
85B
100
AcDbEntity
  8
0
100
AcDbSpline
 62
7
  6
CONTINUOUS
 70
0
 71
3
 72
9
 73
5
 74
0
 42
0.0000001
 43
0.0000001
 44
0.0000000001
 40
0.0
 40
0.0
 40
0.0
 40
0.0
 40
0.2324926361
 40
1.0
 40
1.0
 40
1.0
 40
1.0
 10
108.7611306129
 20
114.8289627087
 30
0.0
 10
108.7611306129
 20
114.9754758812
 30
0.0
 10
108.7242319874
 20
115.6055696921
 30
0.0
 10
108.5583025452
 20
116.224175768
 30
0.0
 10
108.3833474171
 20
116.6750951737
 30
0.0
  0
SPLINE
  5
85C
100
AcDbEntity
  8
0
100
AcDbSpline
 62
7
  6
CONTINUOUS
 70
0
 71
3
 72
9
 73
5
 74
0
 42
0.0000001
 43
0.0000001
 44
0.0000000001
 40
0.0
 40
0.0
 40
0.0
 40
0.0
 40
0.258102787
 40
1.0
 40
1.0
 40
1.0
 40
1.0
 10
109.8891259774
 20
109.461838605
 30
0.0
 10
109.8631293307
 20
109.487773252
 30
0.0
 10
109.7604641105
 20
109.5862684105
 30
0.0
 10
109.6498953018
 20
109.6766808526
 30
0.0
 10
109.5635705459
 20
109.7374197325
 30
0.0
  0
SPLINE
  5
85D
100
AcDbEntity
  8
0
100
AcDbSpline
 62
7
  6
CONTINUOUS
 70
0
 71
3
 72
9
 73
5
 74
0
 42
0.0000001
 43
0.0000001
 44
0.0000000001
 40
0.0
 40
0.0
 40
0.0
 40
0.0
 40
0.2286310031
 40
1.0
 40
1.0
 40
1.0
 40
1.0
 10
111.3833487549
 20
107.794195969
 30
0.0
 10
111.3833487549
 20
107.8121125827
 30
0.0
 10
111.3760393182
 20
107.8904146512
 30
0.0
 10
111.3459240347
 20
107.965599533
 30
0.0
 10
111.3148234791
 20
108.0174332462
 30
0.0
  0
SPLINE
  5
85E
100
AcDbEntity
  8
0
100
AcDbSpline
 62
7
  6
CONTINUOUS
 70
0
 71
3
 72
8
 73
4
 74
0
 42
0.0000001
 43
0.0000001
 44
0.0000000001
 40
0.0
 40
0.0
 40
0.0
 40
0.0
 40
1.0
 40
1.0
 40
1.0
 40
1.0
 10
111.3148234791
 20
108.0174332462
 30
0.0
 10
111.2936840722
 20
108.0526652199
 30
0.0
 10
111.2684082407
 20
108.0858458087
 30
0.0
 10
111.2393204647
 20
108.1148642129
 30
0.0
  0
SPLINE
  5
85F
100
AcDbEntity
  8
0
100
AcDbSpline
 62
7
  6
CONTINUOUS
 70
0
 71
3
 72
9
 73
5
 74
0
 42
0.0000001
 43
0.0000001
 44
0.0000000001
 40
0.0
 40
0.0
 40
0.0
 40
0.0
 40
0.2333371876
 40
1.0
 40
1.0
 40
1.0
 40
1.0
 10
45.7240022997
 20
163.714275153
 30
0.0
 10
45.7592612316
 20
163.692520203
 30
0.0
 10
45.9045742401
 20
163.5899941585
 30
0.0
 10
46.0273904369
 20
163.4573570609
 30
0.0
 10
46.1073890634
 20
163.3472194531
 30
0.0
  0
SPLINE
  5
860
100
AcDbEntity
  8
0
100
AcDbSpline
 62
7
  6
CONTINUOUS
 70
0
 71
3
 72
9
 73
5
 74
0
 42
0.0000001
 43
0.0000001
 44
0.0000000001
 40
0.0
 40
0.0
 40
0.0
 40
0.0
 40
0.2673545365
 40
1.0
 40
1.0
 40
1.0
 40
1.0
 10
46.2082672696
 20
163.1909221883
 30
0.0
 10
46.2393714066
 20
163.1363795598
 30
0.0
 10
46.3440167767
 20
162.9265257886
 30
0.0
 10
46.4058308777
 20
162.6908468778
 30
0.0
 10
46.4058308777
 20
162.51878496
 30
0.0
  0
SPLINE
  5
861
100
AcDbEntity
  8
0
100
AcDbSpline
 62
7
  6
CONTINUOUS
 70
0
 71
3
 72
11
 73
7
 74
0
 42
0.0000001
 43
0.0000001
 44
0.0000000001
 40
0.0
 40
0.0
 40
0.0
 40
0.0
 40
0.2179290195
 40
0.4504555376
 40
0.7095721543
 40
1.0
 40
1.0
 40
1.0
 40
1.0
 10
50.8533182338
 20
251.7530538358
 30
0.0
 10
50.951380108
 20
251.804271169
 30
0.0
 10
51.1362096587
 20
251.9480811582
 30
0.0
 10
51.3340049893
 20
252.25565236
 30
0.0
 10
51.4510634966
 20
252.6390382913
 30
0.0
 10
51.4740915483
 20
252.9190198857
 30
0.0
 10
51.4740915483
 20
253.0664554654
 30
0.0
  0
SPLINE
  5
862
100
AcDbEntity
  8
0
100
AcDbSpline
 62
7
  6
CONTINUOUS
 70
0
 71
3
 72
11
 73
7
 74
0
 42
0.0000001
 43
0.0000001
 44
0.0000000001
 40
0.0
 40
0.0
 40
0.0
 40
0.0
 40
0.217745073
 40
0.4508830113
 40
0.7104597664
 40
1.0
 40
1.0
 40
1.0
 40
1.0
 10
46.9317980587
 20
178.5455208473
 30
0.0
 10
47.036510018
 20
178.6059760143
 30
0.0
 10
47.2326242578
 20
178.7704706744
 30
0.0
 10
47.4412421118
 20
179.1117235406
 30
0.0
 10
47.5649183027
 20
179.532127819
 30
0.0
 10
47.5894673692
 20
179.8380597115
 30
0.0
 10
47.5894673692
 20
179.9988373625
 30
0.0
  0
SPLINE
  5
863
100
AcDbEntity
  8
0
100
AcDbSpline
 62
7
  6
CONTINUOUS
 70
0
 71
3
 72
12
 73
8
 74
0
 42
0.0000001
 43
0.0000001
 44
0.0000000001
 40
0.0
 40
0.0
 40
0.0
 40
0.0
 40
0.1083995983
 40
0.2186462104
 40
0.4513165672
 40
0.7102048495
 40
1.0
 40
1.0
 40
1.0
 40
1.0
 10
57.6931234766
 20
240.2181017505
 30
0.0
 10
57.4270297894
 20
240.0568813406
 30
0.0
 10
56.8609378543
 20
239.7775392774
 30
0.0
 10
55.6136220377
 20
239.4085726069
 30
0.0
 10
53.8587399887
 20
239.3401630436
 30
0.0
 10
51.6564684679
 20
239.8568904074
 30
0.0
 10
50.2223870122
 20
240.5337561799
 30
0.0
 10
49.5012478153
 20
240.9482167691
 30
0.0
  0
SPLINE
  5
864
100
AcDbEntity
  8
0
100
AcDbSpline
 62
7
  6
CONTINUOUS
 70
0
 71
3
 72
9
 73
5
 74
0
 42
0.0000001
 43
0.0000001
 44
0.0000000001
 40
0.0
 40
0.0
 40
0.0
 40
0.0
 40
0.4762022245
 40
1.0
 40
1.0
 40
1.0
 40
1.0
 10
45.4341961792
 20
194.3088246376
 30
0.0
 10
45.665869665
 20
194.1750709141
 30
0.0
 10
46.115910253
 20
193.8300354334
 30
0.0
 10
46.490382393
 20
193.4071861207
 30
0.0
 10
46.6667229806
 20
193.1716300501
 30
0.0
  0
SPLINE
  5
865
100
AcDbEntity
  8
0
100
AcDbSpline
 62
7
  6
CONTINUOUS
 70
0
 71
3
 72
9
 73
5
 74
0
 42
0.0000001
 43
0.0000001
 44
0.0000000001
 40
0.0
 40
0.0
 40
0.0
 40
0.0
 40
0.5245229755
 40
1.0
 40
1.0
 40
1.0
 40
1.0
 10
46.7547647411
 20
193.0504835587
 30
0.0
 10
47.0388066657
 20
192.6478131965
 30
0.0
 10
47.4793905858
 20
191.8057835406
 30
0.0
 10
47.6792695565
 20
190.8669590901
 30
0.0
 10
47.6792695565
 20
190.4202650676
 30
0.0
  0
SPLINE
  5
866
100
AcDbEntity
  8
0
100
AcDbSpline
 62
7
  6
CONTINUOUS
 70
0
 71
3
 72
9
 73
5
 74
0
 42
0.0000001
 43
0.0000001
 44
0.0000000001
 40
0.0
 40
0.0
 40
0.0
 40
0.0
 40
0.2245246033
 40
1.0
 40
1.0
 40
1.0
 40
1.0
 10
108.3833474171
 20
104.8952515013
 30
0.0
 10
108.44675434
 20
104.9854585497
 30
0.0
 10
108.6875514991
 20
105.4169024722
 30
0.0
 10
108.7611306129
 20
105.9243377893
 30
0.0
 10
108.7611306129
 20
106.3051673753
 30
0.0
  0
SPLINE
  5
867
100
AcDbEntity
  8
0
100
AcDbSpline
 62
7
  6
CONTINUOUS
 70
0
 71
3
 72
9
 73
5
 74
0
 42
0.0000001
 43
0.0000001
 44
0.0000000001
 40
0.0
 40
0.0
 40
0.0
 40
0.0
 40
0.2324926361
 40
1.0
 40
1.0
 40
1.0
 40
1.0
 10
108.7611306129
 20
106.3051673753
 30
0.0
 10
108.7611306129
 20
106.4516805478
 30
0.0
 10
108.7242319874
 20
107.0817743587
 30
0.0
 10
108.5583025452
 20
107.7003804347
 30
0.0
 10
108.3833474171
 20
108.1512998403
 30
0.0
  0
SPLINE
  5
868
100
AcDbEntity
  8
0
100
AcDbSpline
 62
7
  6
CONTINUOUS
 70
0
 71
3
 72
9
 73
5
 74
0
 42
0.0000001
 43
0.0000001
 44
0.0000000001
 40
0.0
 40
0.0
 40
0.0
 40
0.0
 40
0.2324926361
 40
1.0
 40
1.0
 40
1.0
 40
1.0
 10
108.7611306129
 20
54.8655150961
 30
0.0
 10
108.7611306129
 20
55.0120282686
 30
0.0
 10
108.7242319874
 20
55.6421220796
 30
0.0
 10
108.5583025452
 20
56.2607281555
 30
0.0
 10
108.3833474171
 20
56.7116475612
 30
0.0
  0
SPLINE
  5
869
100
AcDbEntity
  8
0
100
AcDbSpline
 62
7
  6
CONTINUOUS
 70
0
 71
3
 72
9
 73
5
 74
0
 42
0.0000001
 43
0.0000001
 44
0.0000000001
 40
0.0
 40
0.0
 40
0.0
 40
0.0
 40
0.2245246033
 40
1.0
 40
1.0
 40
1.0
 40
1.0
 10
108.3833474171
 20
53.4555992221
 30
0.0
 10
108.44675434
 20
53.5458062706
 30
0.0
 10
108.6875514991
 20
53.9772501931
 30
0.0
 10
108.7611306129
 20
54.4846855102
 30
0.0
 10
108.7611306129
 20
54.8655150961
 30
0.0
  0
SPLINE
  5
86A
100
AcDbEntity
  8
0
100
AcDbSpline
 62
7
  6
CONTINUOUS
 70
0
 71
3
 72
11
 73
7
 74
0
 42
0.0000001
 43
0.0000001
 44
0.0000000001
 40
0.0
 40
0.0
 40
0.0
 40
0.0
 40
0.2896986602
 40
0.5490859192
 40
0.7821981867
 40
1.0
 40
1.0
 40
1.0
 40
1.0
 10
101.624670488
 20
115.7068050147
 30
0.0
 10
101.624670488
 20
115.8588073792
 30
0.0
 10
101.6477013095
 20
116.147890617
 30
0.0
 10
101.7648169746
 20
116.5450480566
 30
0.0
 10
101.9618763925
 20
116.8673649484
 30
0.0
 10
102.1470269594
 20
117.0230428007
 30
0.0
 10
102.2460099949
 20
117.0801565765
 30
0.0
  0
SPLINE
  5
86B
100
AcDbEntity
  8
0
100
AcDbSpline
 62
7
  6
CONTINUOUS
 70
0
 71
3
 72
10
 73
6
 74
0
 42
0.0000001
 43
0.0000001
 44
0.0000000001
 40
0.0
 40
0.0
 40
0.0
 40
0.0
 40
0.5217370092
 40
0.7716836618
 40
1.0
 40
1.0
 40
1.0
 40
1.0
 10
102.6853350759
 20
50.0021005671
 30
0.0
 10
102.3610224281
 20
50.4055474028
 30
0.0
 10
101.9697794363
 20
51.0821882548
 30
0.0
 10
101.6807850186
 20
52.0340322272
 30
0.0
 10
101.624670488
 20
52.5092750734
 30
0.0
 10
101.624670488
 20
52.7357972056
 30
0.0
  0
SPLINE
  5
86C
100
AcDbEntity
  8
0
100
AcDbSpline
 62
7
  6
CONTINUOUS
 70
0
 71
3
 72
11
 73
7
 74
0
 42
0.0000001
 43
0.0000001
 44
0.0000000001
 40
0.0
 40
0.0
 40
0.0
 40
0.0
 40
0.2895401978
 40
0.5491171512
 40
0.782255066
 40
1.0
 40
1.0
 40
1.0
 40
1.0
 10
101.624670488
 20
25.8413782853
 30
0.0
 10
101.624670488
 20
25.9932941548
 30
0.0
 10
101.6478666374
 20
26.2823637102
 30
0.0
 10
101.7647258451
 20
26.6795962368
 30
0.0
 10
101.9618452414
 20
27.0020397982
 30
0.0
 10
102.1471499072
 20
27.1574678371
 30
0.0
 10
102.2460903069
 20
27.2145907394
 30
0.0
  0
SPLINE
  5
86D
100
AcDbEntity
  8
0
100
AcDbSpline
 62
7
  6
CONTINUOUS
 70
0
 71
3
 72
9
 73
5
 74
0
 42
0.0000001
 43
0.0000001
 44
0.0000000001
 40
0.0
 40
0.0
 40
0.0
 40
0.0
 40
0.2760952381
 40
1.0
 40
1.0
 40
1.0
 40
1.0
 10
117.3505980043
 20
122.7962529577
 30
0.0
 10
117.3505980043
 20
122.8270019401
 30
0.0
 10
117.3452281269
 20
122.9380026881
 30
0.0
 10
117.3157440785
 20
123.0500432786
 30
0.0
 10
117.2751280832
 20
123.1196869341
 30
0.0
  0
SPLINE
  5
86E
100
AcDbEntity
  8
0
100
AcDbSpline
 62
7
  6
CONTINUOUS
 70
0
 71
3
 72
8
 73
4
 74
0
 42
0.0000001
 43
0.0000001
 44
0.0000000001
 40
0.0
 40
0.0
 40
0.0
 40
0.0
 40
1.0
 40
1.0
 40
1.0
 40
1.0
 10
117.2091772369
 20
109.3039160371
 30
0.0
 10
117.2091772369
 20
109.2797192726
 30
0.0
 10
117.2073245713
 20
109.2554796471
 30
0.0
 10
117.2040263597
 20
109.2315087228
 30
0.0
  0
SPLINE
  5
86F
100
AcDbEntity
  8
0
100
AcDbSpline
 62
7
  6
CONTINUOUS
 70
0
 71
3
 72
9
 73
5
 74
0
 42
0.0000001
 43
0.0000001
 44
0.0000000001
 40
0.0
 40
0.0
 40
0.0
 40
0.0
 40
0.2673515724
 40
1.0
 40
1.0
 40
1.0
 40
1.0
 10
117.2040263597
 20
109.2315087228
 30
0.0
 10
117.2273241398
 20
109.2799434328
 30
0.0
 10
117.3056610535
 20
109.4648541263
 30
0.0
 10
117.3505980043
 20
109.6665774366
 30
0.0
 10
117.3505980043
 20
109.8138645253
 30
0.0
  0
SPLINE
  5
870
100
AcDbEntity
  8
0
100
AcDbSpline
 62
7
  6
CONTINUOUS
 70
0
 71
3
 72
11
 73
7
 74
0
 42
0.0000001
 43
0.0000001
 44
0.0000000001
 40
0.0
 40
0.0
 40
0.0
 40
0.0
 40
0.2895401978
 40
0.5491171512
 40
0.782255066
 40
1.0
 40
1.0
 40
1.0
 40
1.0
 10
47.6792695565
 20
180.05068437
 30
0.0
 10
47.6792695565
 20
179.8899067415
 30
0.0
 10
47.6547202983
 20
179.5839747954
 30
0.0
 10
47.5310443036
 20
179.1635703714
 30
0.0
 10
47.3224262758
 20
178.8223176023
 30
0.0
 10
47.1263121712
 20
178.6578229277
 30
0.0
 10
47.0216002482
 20
178.5973678561
 30
0.0
  0
SPLINE
  5
871
100
AcDbEntity
  8
0
100
AcDbSpline
 62
7
  6
CONTINUOUS
 70
0
 71
3
 72
9
 73
5
 74
0
 42
0.0000001
 43
0.0000001
 44
0.0000000001
 40
0.0
 40
0.0
 40
0.0
 40
0.0
 40
0.237062864
 40
1.0
 40
1.0
 40
1.0
 40
1.0
 10
110.4918156075
 20
145.1079852331
 30
0.0
 10
110.4825922242
 20
145.102660142
 30
0.0
 10
110.4444709012
 20
145.0788439342
 30
0.0
 10
110.4094297343
 20
145.0502581807
 30
0.0
 10
110.3845050025
 20
145.0267301158
 30
0.0
  0
SPLINE
  5
872
100
AcDbEntity
  8
0
100
AcDbSpline
 62
7
  6
CONTINUOUS
 70
0
 71
3
 72
9
 73
5
 74
0
 42
0.0000001
 43
0.0000001
 44
0.0000000001
 40
0.0
 40
0.0
 40
0.0
 40
0.0
 40
0.2424253595
 40
1.0
 40
1.0
 40
1.0
 40
1.0
 10
110.3845050025
 20
145.0267301158
 30
0.0
 10
110.3708577806
 20
145.0138476213
 30
0.0
 10
110.3167521756
 20
144.9584138181
 30
0.0
 10
110.2711454184
 20
144.894861795
 30
0.0
 10
110.2418220716
 20
144.8440719866
 30
0.0
  0
SPLINE
  5
873
100
AcDbEntity
  8
0
100
AcDbSpline
 62
7
  6
CONTINUOUS
 70
0
 71
3
 72
9
 73
5
 74
0
 42
0.0000001
 43
0.0000001
 44
0.0000000001
 40
0.0
 40
0.0
 40
0.0
 40
0.0
 40
0.2671976684
 40
1.0
 40
1.0
 40
1.0
 40
1.0
 10
110.2036463133
 20
144.7698531416
 30
0.0
 10
110.1932223856
 20
144.7469008276
 30
0.0
 10
110.1581311281
 20
144.6594197654
 30
0.0
 10
110.1382636889
 20
144.5647473786
 30
0.0
 10
110.1382636889
 20
144.4956119476
 30
0.0
  0
SPLINE
  5
874
100
AcDbEntity
  8
0
100
AcDbSpline
 62
7
  6
CONTINUOUS
 70
0
 71
3
 72
9
 73
5
 74
0
 42
0.0000001
 43
0.0000001
 44
0.0000000001
 40
0.0
 40
0.0
 40
0.0
 40
0.0
 40
0.2789068998
 40
1.0
 40
1.0
 40
1.0
 40
1.0
 10
110.1382636889
 20
124.8995539365
 30
0.0
 10
110.1382636889
 20
124.8823741295
 30
0.0
 10
110.1416137979
 20
124.821077843
 30
0.0
 10
110.1602099166
 20
124.7587904858
 30
0.0
 10
110.1858328199
 20
124.7225089881
 30
0.0
  0
SPLINE
  5
875
100
AcDbEntity
  8
0
100
AcDbSpline
 62
7
  6
CONTINUOUS
 70
0
 71
3
 72
8
 73
4
 74
0
 42
0.0000001
 43
0.0000001
 44
0.0000000001
 40
0.0
 40
0.0
 40
0.0
 40
0.0
 40
1.0
 40
1.0
 40
1.0
 40
1.0
 10
110.1858328199
 20
124.7225089881
 30
0.0
 10
110.1931651874
 20
124.7121265084
 30
0.0
 10
110.2015386493
 20
124.702388792
 30
0.0
 10
110.2108216586
 20
124.6937063247
 30
0.0
  0
SPLINE
  5
876
100
AcDbEntity
  8
0
100
AcDbSpline
 62
7
  6
CONTINUOUS
 70
0
 71
3
 72
8
 73
4
 74
0
 42
0.0000001
 43
0.0000001
 44
0.0000000001
 40
0.0
 40
0.0
 40
0.0
 40
0.0
 40
1.0
 40
1.0
 40
1.0
 40
1.0
 10
110.2108216586
 20
124.6937063247
 30
0.0
 10
110.2202247116
 20
124.6849115796
 30
0.0
 10
110.2306751539
 20
124.6771076316
 30
0.0
 10
110.2418252724
 20
124.6706702559
 30
0.0
  0
SPLINE
  5
877
100
AcDbEntity
  8
0
100
AcDbSpline
 62
7
  6
CONTINUOUS
 70
0
 71
3
 72
9
 73
5
 74
0
 42
0.0000001
 43
0.0000001
 44
0.0000000001
 40
0.0
 40
0.0
 40
0.0
 40
0.0
 40
0.2287872083
 40
1.0
 40
1.0
 40
1.0
 40
1.0
 10
109.9614862576
 20
144.5976721362
 30
0.0
 10
109.9614862576
 20
144.6255720919
 30
0.0
 10
109.9724226784
 20
144.7474401927
 30
0.0
 10
110.0180212222
 20
144.8646847737
 30
0.0
 10
110.0650446403
 20
144.9461321752
 30
0.0
  0
SPLINE
  5
878
100
AcDbEntity
  8
0
100
AcDbSpline
 62
7
  6
CONTINUOUS
 70
0
 71
3
 72
9
 73
5
 74
0
 42
0.0000001
 43
0.0000001
 44
0.0000000001
 40
0.0
 40
0.0
 40
0.0
 40
0.0
 40
0.2590710886
 40
1.0
 40
1.0
 40
1.0
 40
1.0
 10
110.0650446403
 20
144.9461321752
 30
0.0
 10
110.0771401824
 20
144.967082385
 30
0.0
 10
110.1271827973
 20
145.045898777
 30
0.0
 10
110.1903199682
 20
145.1169219569
 30
0.0
 10
110.2439631752
 20
145.1606144281
 30
0.0
  0
SPLINE
  5
879
100
AcDbEntity
  8
0
100
AcDbSpline
 62
7
  6
CONTINUOUS
 70
0
 71
3
 72
8
 73
4
 74
0
 42
0.0000001
 43
0.0000001
 44
0.0000000001
 40
0.0
 40
0.0
 40
0.0
 40
0.0
 40
1.0
 40
1.0
 40
1.0
 40
1.0
 10
110.2439631752
 20
145.1606144281
 30
0.0
 10
110.2663383713
 20
145.1788390583
 30
0.0
 10
110.2900463421
 20
145.1956164657
 30
0.0
 10
110.3150381762
 20
145.2100454217
 30
0.0
  0
SPLINE
  5
87A
100
AcDbEntity
  8
0
100
AcDbSpline
 62
7
  6
CONTINUOUS
 70
0
 71
3
 72
9
 73
5
 74
0
 42
0.0000001
 43
0.0000001
 44
0.0000000001
 40
0.0
 40
0.0
 40
0.0
 40
0.0
 40
0.4492600473
 40
1.0
 40
1.0
 40
1.0
 40
1.0
 10
111.3192356559
 20
117.8146699168
 30
0.0
 10
111.3401333315
 20
117.8267021311
 30
0.0
 10
111.3761490081
 20
117.8719135021
 30
0.0
 10
111.3833487549
 20
117.9268240745
 30
0.0
 10
111.3833487549
 20
117.9563850526
 30
0.0
  0
SPLINE
  5
87B
100
AcDbEntity
  8
0
100
AcDbSpline
 62
7
  6
CONTINUOUS
 70
0
 71
3
 72
9
 73
5
 74
0
 42
0.0000001
 43
0.0000001
 44
0.0000000001
 40
0.0
 40
0.0
 40
0.0
 40
0.0
 40
0.4492600473
 40
1.0
 40
1.0
 40
1.0
 40
1.0
 10
111.3192356559
 20
66.3750176377
 30
0.0
 10
111.3401333315
 20
66.3870498519
 30
0.0
 10
111.3761490081
 20
66.4322612229
 30
0.0
 10
111.3833487549
 20
66.4871717953
 30
0.0
 10
111.3833487549
 20
66.5167327734
 30
0.0
  0
ELLIPSE
  5
87C
100
AcDbEntity
  8
0
100
AcDbEllipse
 62
7
  6
CONTINUOUS
 10
106.0825229114
 20
52.8600592158
 30
0.0
 11
-1.461338299
 21
2.6202744119
 31
0.0
 40
0.5671941543
 41
0.7938512981
 42
1.8410507671
  0
ELLIPSE
  5
87D
100
AcDbEntity
  8
0
100
AcDbEllipse
 62
7
  6
CONTINUOUS
 10
106.0825229114
 20
115.8310670249
 30
0.0
 11
-1.461338299
 21
2.6202744119
 31
0.0
 40
0.5671941543
 41
0.6664021968
 42
0.793817076
  0
ELLIPSE
  5
87E
100
AcDbEntity
  8
0
100
AcDbEllipse
 62
7
  6
CONTINUOUS
 10
170.0071565147
 20
172.9694477667
 30
0.0
 11
0.133226705
 21
0.8236566792
 31
0.0
 40
0.089227647
 41
-2.0748964469
 42
-0.9161287625
  0
ELLIPSE
  5
87F
100
AcDbEntity
  8
0
100
AcDbEllipse
 62
7
  6
CONTINUOUS
 10
136.7930060487
 20
41.9153542511
 30
0.0
 11
0.077397121
 21
0.4952683357
 31
0.0
 40
0.2117833277
 41
-2.5058861658
 42
-0.935089839
  0
ELLIPSE
  5
880
100
AcDbEntity
  8
0
100
AcDbEllipse
 62
7
  6
CONTINUOUS
 10
170.0071565147
 20
46.9422996828
 30
0.0
 11
0.133226705
 21
0.8236566792
 31
0.0
 40
0.089227647
 41
-2.0748964469
 42
-0.9161287625
  0
ELLIPSE
  5
881
100
AcDbEntity
  8
0
100
AcDbEllipse
 62
7
  6
CONTINUOUS
 10
130.8355750531
 20
181.6101933317
 30
0.0
 11
1.5004315086
 21
2.5988823589
 31
0.0
 40
0.5771761654
 41
-3.9268698268
 42
-2.356341072
  0
ELLIPSE
  5
882
100
AcDbEntity
  8
0
100
AcDbEllipse
 62
7
  6
CONTINUOUS
 10
130.0082049443
 20
182.0550854639
 30
0.0
 11
1.5004315086
 21
2.5988823589
 31
0.0
 40
0.5771761654
 41
-3.9268695958
 42
-3.1241444593
  0
ELLIPSE
  5
883
100
AcDbEntity
  8
0
100
AcDbEllipse
 62
7
  6
CONTINUOUS
 10
130.8355750531
 20
33.3814785292
 30
0.0
 11
1.4999745319
 21
2.5980909152
 31
0.0
 40
0.5775278727
 41
0.785519138
 42
2.3560478927
  0
ELLIPSE
  5
884
100
AcDbEntity
  8
0
100
AcDbEllipse
 62
7
  6
CONTINUOUS
 10
50.9249014286
 20
225.8432621251
 30
0.0
 11
0.2995953669
 21
-0.024912752
 31
0.0
 40
0.6252276118
 41
-2.3042465029
 42
-0.7334501761
  0
ELLIPSE
  5
885
100
AcDbEntity
  8
0
100
AcDbEllipse
 62
7
  6
CONTINUOUS
 10
50.9249014286
 20
217.7761111178
 30
0.0
 11
-0.0557617255
 21
1.9669724888
 31
0.0
 40
0.1498608485
 41
-0.9723620054
 42
0.5984343214
  0
ELLIPSE
  5
886
100
AcDbEntity
  8
0
100
AcDbEllipse
 62
7
  6
CONTINUOUS
 10
140.4301339169
 20
179.672154851
 30
0.0
 11
2.567512713
 21
-0.2923426503
 31
0.0
 40
0.1569965056
 41
0.0178740641
 42
0.3212225069
  0
ELLIPSE
  5
887
100
AcDbEntity
  8
0
100
AcDbEllipse
 62
7
  6
CONTINUOUS
 10
140.4301339169
 20
41.0708695433
 30
0.0
 11
2.567512713
 21
-0.2923426503
 31
0.0
 40
0.1569965056
 41
-1.5529222627
 42
0.0178740641
  0
ELLIPSE
  5
888
100
AcDbEntity
  8
0
100
AcDbEllipse
 62
7
  6
CONTINUOUS
 10
47.3327840248
 20
89.8956227612
 30
0.0
 11
-0.0578721186
 21
1.5331891572
 31
0.0
 40
0.1919952985
 41
-0.979526326
 42
0.5912700008
  0
ELLIPSE
  5
889
100
AcDbEntity
  8
0
100
AcDbEllipse
 62
7
  6
CONTINUOUS
 10
47.3327840248
 20
99.0322186141
 30
0.0
 11
0.2995953669
 21
-0.024912752
 31
0.0
 40
0.6252276118
 41
-2.3042465029
 42
-0.7334501761
  0
ENDSEC
  0
SECTION
  2
OBJECTS
  0
DICTIONARY
  5
C
100
AcDbDictionary
280
0
281
1
  3
ACAD_GROUP
350
D
  3
ACAD_MLINESTYLE
350
17
  3
ACAD_LAYOUT
350
1A
  3
ACAD_PLOTSETTINGS
350
19
  3
ACAD_PLOTSTYLENAME
350
E
  0
DICTIONARY
  5
D
102
{ACAD_REACTORS
330
C
102
}
100
AcDbDictionary
280
0
281
1
  0
ACDBDICTIONARYWDFLT
  5
E
102
{ACAD_REACTORS
330
C
102
}
100
AcDbDictionary
281
1
  3
Normal
350
F
100
AcDbDictionaryWithDefault
340
F
  0
DICTIONARY
  5
17
102
{ACAD_REACTORS
330
C
102
}
100
AcDbDictionary
280
0
281
1
  3
Standard
350
18
  0
DICTIONARY
  5
19
102
{ACAD_REACTORS
330
C
102
}
100
AcDbDictionary
281
1
  0
DICTIONARY
  5
1A
102
{ACAD_REACTORS
330
C
102
}
100
AcDbDictionary
281
1
  3
Model
350
88A
  3
Layout1
350
88B
  0
ACDBPLACEHOLDER
  5
F
102
{ACAD_REACTORS
330
E
102
}
  0
MLINESTYLE
  5
18
102
{ACAD_REACTORS
330
17
102
}
100
AcDbMlineStyle
  2
STANDARD
 70
0
  3

 62
256
 51
90.0
 52
90.0
 71
2
 49
0.5
 62
256
  6
BYLAYER
 49
-0.5
 62
256
  6
BYLAYER
  0
LAYOUT
  5
88A
102
{ACAD_REACTORS
330
1A
102
}
100
AcDbPlotSettings
  1

  2
none_device
  4

  6

 40
0.0
 41
0.0
 42
0.0
 43
0.0
 44
210.0
 45
297.0
 46
0.0
 47
0.0
 48
0.0
 49
0.0
140
0.0
141
0.0
142
1.0
143
1.0
 70
1024
 72
1
 73
0
 74
0
  7

 75
0
147
1.0
148
0.0
149
0.0
100
AcDbLayout
  1
Model
 70
0
 71
0
 10
0.0
 20
0.0
 11
210.0
 21
297.0
 12
0.0
 22
0.0
 32
0.0
 14
0.0
 24
0.0
 34
0.0
 15
0.0
 25
0.0
 35
0.0
146
0.0
 13
0.0
 23
0.0
 33
0.0
 16
1.0
 26
0.0
 36
0.0
 17
0.0
 27
1.0
 37
0.0
 76
0
330
210
345
0
346
0
  0
LAYOUT
  5
88B
102
{ACAD_REACTORS
330
1A
102
}
100
AcDbPlotSettings
  1

  2
none_device
  4

  6

 40
0.0
 41
0.0
 42
0.0
 43
0.0
 44
210.0
 45
297.0
 46
0.0
 47
0.0
 48
0.0
 49
0.0
140
0.0
141
0.0
142
1.0
143
1.0
 70
0
 72
1
 73
0
 74
0
  7

 75
0
147
1.0
148
0.0
149
0.0
100
AcDbLayout
  1
Layout1
 70
0
 71
1
 10
0.0
 20
0.0
 11
210.0
 21
297.0
 12
0.0
 22
0.0
 32
0.0
 14
0.0
 24
0.0
 34
0.0
 15
0.0
 25
0.0
 35
0.0
146
0.0
 13
0.0
 23
0.0
 33
0.0
 16
1.0
 26
0.0
 36
0.0
 17
0.0
 27
1.0
 37
0.0
 76
0
330
211
345
0
346
0
  0
ENDSEC
  0
EOF
