999
DXF file: C:\Users\sesa63760\Dev\_Creo\CAD\MCADID0001044_3D-CAD\drw0001_6.dxf
999
Pro/ENGINEER 2019471 by Parametric Technology Corporation
  0
SECTION
  2
HEADER
  9
$ACADVER
  1
AC1024
  9
$DWGCODEPAGE
  3
ANSI_1252
  9
$EXTMAX
 10
344.0226087858
 20
486.5462609971
 30
0.0
  9
$EXTMIN
 10
0.0
 20
0.0
 30
0.0
  9
$LIMMIN
 10
0.0
 20
0.0
  9
$LIMMAX
 10
344.0226087858
 20
486.5462609971
  9
$VIEWCTR
 10
172.0113043929
 20
243.2731304985
  9
$VIEWSIZE
 40
486.5462609971
  9
$CLAYER
  8
0
  9
$LTSCALE
 40
31.7156081243
  9
$CELTYPE
  6
BYLAYER
  9
$DIMSCALE
 40
1.0
  9
$DIMASZ
 40
4.0955072475
  9
$DIMEXO
 40
1.0
  9
$DIMDLI
 40
21.9126019768
  9
$DIMEXE
 40
1.0
  9
$DIMCEN
 40
5.189826784
  9
$DIMLFAC
 40
1.0
  9
$DIMBLK
  1
_FILLED
  9
$DIMALT
 70
0
  9
$DIMALTF
 40
0.0393700787
  9
$DIMTXT
 40
5.7337101464
  9
$DIMTOL
 70
1
  9
$DIMLIM
 70
0
  9
$DIMTFAC
 40
1.0
  9
$DIMTP
 40
0.01
  9
$DIMTM
 40
0.01
  9
$DIMGAP
 40
0.625
  9
$DIMDSEP
 70
46
  9
$AUNITS
 70
0
  9
$PDMODE
 70
3
  9
$PDSIZE
 40
0.3125
  9
$HANDSEED
  5
2E2
  9
$TILEMODE
 70
1
  9
$MEASUREMENT
 70
1
  9
$INSUNITS
 70
4
  0
ENDSEC
  0
SECTION
  2
CLASSES
  0
CLASS
  1
ACDBDICTIONARYWDFLT
  2
AcDbDictionaryWithDefault
  3
AutoCAD 2000
 90
0
 91
1
280
0
281
0
  0
CLASS
  1
ACDBPLACEHOLDER
  2
AcDbPlaceHolder
  3
AutoCAD 2000
 90
0
 91
1
280
0
281
0
  0
CLASS
  1
LAYOUT
  2
AcDbLayout
  3
AutoCAD 2000
 90
0
 91
0
280
0
281
0
  0
ENDSEC
  0
SECTION
  2
TABLES
  0
TABLE
  2
VPORT
  5
8
100
AcDbSymbolTable
 70
2
  0
VPORT
  5
1F4
100
AcDbSymbolTableRecord
100
AcDbViewportTableRecord
  2
*ACTIVE
 70
0
 10
0.0
 20
0.0
 11
1.0
 21
1.0
 12
172.0113043929
 22
243.2731304985
 13
0.0
 23
0.0
 14
1.0
 24
1.0
 15
0.0
 25
0.0
 16
0.0
 26
0.0
 36
1.0
 17
0.0
 27
0.0
 37
0.0
 40
486.5462609971
 41
0.7070707071
 42
50.0
 43
0.0
 44
0.0
 50
0.0
 51
0.0
 71
0
 72
100
 73
1
 74
1
 75
0
 76
0
 77
0
 78
0
  0
ENDTAB
  0
TABLE
  2
LTYPE
  5
5
100
AcDbSymbolTable
 70
6
  0
LTYPE
  5
14
100
AcDbSymbolTableRecord
100
AcDbLinetypeTableRecord
  2
BYBLOCK
 70
0
  3

 72
65
 73
0
 40
0.0
  0
LTYPE
  5
15
100
AcDbSymbolTableRecord
100
AcDbLinetypeTableRecord
  2
BYLAYER
 70
0
  3

 72
65
 73
0
 40
0.0
  0
LTYPE
  5
16
100
AcDbSymbolTableRecord
100
AcDbLinetypeTableRecord
  2
CONTINUOUS
 70
64
  3
Solid line
 72
65
 73
0
 40
0.0
  0
LTYPE
  5
1F5
100
AcDbSymbolTableRecord
100
AcDbLinetypeTableRecord
  2
CENTER
 70
64
  3
____ _ ____ _ ____ _ ____ _ ____ _ ____ _ ____
 72
65
 73
4
 40
0.6
 49
0.375
 74
0
 49
-0.075
 74
0
 49
0.075
 74
0
 49
-0.075
 74
0
  0
LTYPE
  5
1F6
100
AcDbSymbolTableRecord
100
AcDbLinetypeTableRecord
  2
HIDDEN
 70
64
  3
- - - - - - - - - - - - - - - - - - - -
 72
65
 73
2
 40
0.2
 49
0.1
 74
0
 49
-0.1
 74
0
  0
LTYPE
  5
1F7
100
AcDbSymbolTableRecord
100
AcDbLinetypeTableRecord
  2
PHANTOM
 70
64
  3
_____ _ _ _____ _ _ _____ _ _ _____
 72
65
 73
6
 40
0.8
 49
0.45
 74
0
 49
-0.05
 74
0
 49
0.1
 74
0
 49
-0.05
 74
0
 49
0.1
 74
0
 49
-0.05
 74
0
  0
LTYPE
  5
1F8
100
AcDbSymbolTableRecord
100
AcDbLinetypeTableRecord
  2
DOT
 70
64
  3
. . . . . . . . . . . . . . . . . . . .
 72
65
 73
2
 40
0.2
 49
0.1
 74
0
 49
-0.1
 74
0
  0
LTYPE
  5
1F9
100
AcDbSymbolTableRecord
100
AcDbLinetypeTableRecord
  2
DASHED
 70
64
  3
- - - - - - - - - - - - - - - - - - - -
 72
65
 73
2
 40
0.2
 49
0.1
 74
0
 49
-0.1
 74
0
  0
ENDTAB
  0
TABLE
  2
LAYER
  5
2
100
AcDbSymbolTable
 70
36
  0
LAYER
  5
10
100
AcDbSymbolTableRecord
100
AcDbLayerTableRecord
  2
0
 70
0
 62
7
  6
CONTINUOUS
370
-3
390
F
  0
LAYER
  5
1FA
100
AcDbSymbolTableRecord
100
AcDbLayerTableRecord
  2
DEFAULT_1
 70
0
 62
7
  6
CENTER
370
-3
390
F
  0
LAYER
  5
1FB
100
AcDbSymbolTableRecord
100
AcDbLayerTableRecord
  2
DEFAULT_2
 70
0
 62
8
  6
HIDDEN
370
-3
390
F
  0
LAYER
  5
1FC
100
AcDbSymbolTableRecord
100
AcDbLayerTableRecord
  2
DEFAULT_3
 70
0
 62
7
  6
PHANTOM
370
-3
390
F
  0
LAYER
  5
1FD
100
AcDbSymbolTableRecord
100
AcDbLayerTableRecord
  2
00_COMPONENTS
 70
0
 62
7
  6
CONTINUOUS
370
-3
390
F
  0
LAYER
  5
1FE
100
AcDbSymbolTableRecord
100
AcDbLayerTableRecord
  2
01_1_DEFAULT_DATUMS
 70
0
 62
7
  6
CONTINUOUS
370
-3
390
F
  0
LAYER
  5
1FF
100
AcDbSymbolTableRecord
100
AcDbLayerTableRecord
  2
01_PLANES
 70
0
 62
7
  6
CONTINUOUS
370
-3
390
F
  0
LAYER
  5
200
100
AcDbSymbolTableRecord
100
AcDbLayerTableRecord
  2
02_COORD_SYS
 70
0
 62
7
  6
CONTINUOUS
370
-3
390
F
  0
LAYER
  5
201
100
AcDbSymbolTableRecord
100
AcDbLayerTableRecord
  2
03_AXES
 70
0
 62
7
  6
CONTINUOUS
370
-3
390
F
  0
LAYER
  5
202
100
AcDbSymbolTableRecord
100
AcDbLayerTableRecord
  2
04_POINTS
 70
0
 62
7
  6
CONTINUOUS
370
-3
390
F
  0
LAYER
  5
203
100
AcDbSymbolTableRecord
100
AcDbLayerTableRecord
  2
05_CURVES
 70
0
 62
7
  6
CONTINUOUS
370
-3
390
F
  0
LAYER
  5
204
100
AcDbSymbolTableRecord
100
AcDbLayerTableRecord
  2
06_SURFS
 70
0
 62
7
  6
CONTINUOUS
370
-3
390
F
  0
LAYER
  5
205
100
AcDbSymbolTableRecord
100
AcDbLayerTableRecord
  2
07_COSMETICS
 70
0
 62
7
  6
CONTINUOUS
370
-3
390
F
  0
LAYER
  5
206
100
AcDbSymbolTableRecord
100
AcDbLayerTableRecord
  2
10_NOTES
 70
0
 62
7
  6
CONTINUOUS
370
-3
390
F
  0
LAYER
  5
207
100
AcDbSymbolTableRecord
100
AcDbLayerTableRecord
  2
11_NOTES_PUB
 70
0
 62
7
  6
CONTINUOUS
370
-3
390
F
  0
LAYER
  5
208
100
AcDbSymbolTableRecord
100
AcDbLayerTableRecord
  2
13_REF_GTOL
 70
0
 62
7
  6
CONTINUOUS
370
-3
390
F
  0
LAYER
  5
209
100
AcDbSymbolTableRecord
100
AcDbLayerTableRecord
  2
16_MISC
 70
0
 62
7
  6
CONTINUOUS
370
-3
390
F
  0
LAYER
  5
20A
100
AcDbSymbolTableRecord
100
AcDbLayerTableRecord
  2
17_NO_PRINT
 70
0
 62
7
  6
CONTINUOUS
370
-3
390
F
  0
LAYER
  5
20B
100
AcDbSymbolTableRecord
100
AcDbLayerTableRecord
  2
18_DATUM_CAMS_JOINTS
 70
0
 62
7
  6
CONTINUOUS
370
-3
390
F
  0
LAYER
  5
20C
100
AcDbSymbolTableRecord
100
AcDbLayerTableRecord
  2
19_DATUM_FUNCTIONAL
 70
0
 62
7
  6
CONTINUOUS
370
-3
390
F
  0
LAYER
  5
20D
100
AcDbSymbolTableRecord
100
AcDbLayerTableRecord
  2
20_DATUM_KINEMATIC_SCHEME
 70
0
 62
7
  6
CONTINUOUS
370
-3
390
F
  0
ENDTAB
  0
TABLE
  2
STYLE
  5
3
100
AcDbSymbolTable
 70
1
  0
STYLE
  5
11
100
AcDbSymbolTableRecord
100
AcDbTextStyleTableRecord
  2
STANDARD
 70
0
 40
0.0
 41
0.8
 50
0.0
 71
0
 42
0.2
  3
txt
  4

  0
STYLE
  5
20E
100
AcDbSymbolTableRecord
100
AcDbTextStyleTableRecord
  2
TEXTSTYLE_1
 70
0
 40
0.0
 41
0.8
 50
0.0
 71
0
 42
0.2
  3
gdt
  4

  0
ENDTAB
  0
TABLE
  2
VIEW
  5
6
100
AcDbSymbolTable
 70
0
  0
ENDTAB
  0
TABLE
  2
UCS
  5
7
100
AcDbSymbolTable
 70
0
  0
ENDTAB
  0
TABLE
  2
APPID
  5
9
100
AcDbSymbolTable
 70
1
  0
APPID
  5
20F
100
AcDbSymbolTableRecord
100
AcDbRegAppTableRecord
  2
ACAD
 70
0
  0
ENDTAB
  0
TABLE
  2
BLOCK_RECORD
  5
1
100
AcDbSymbolTable
 70
0
  0
BLOCK_RECORD
  5
210
100
AcDbSymbolTableRecord
100
AcDbBlockTableRecord
  2
*Model_Space
  0
BLOCK_RECORD
  5
211
100
AcDbSymbolTableRecord
100
AcDbBlockTableRecord
  2
*Paper_Space
  0
BLOCK_RECORD
  5
212
100
AcDbSymbolTableRecord
100
AcDbBlockTableRecord
  2
_FILLED
  0
ENDTAB
  0
TABLE
  2
DIMSTYLE
  5
A
100
AcDbSymbolTable
 70
1
100
AcDbDimStyleTable
 71
0
  0
DIMSTYLE
105
213
100
AcDbSymbolTableRecord
100
AcDbDimStyleTableRecord
  2
STANDARD
 70
0
  3

  4

 40
1.0
 41
4.0955072475
 42
1.0
 43
0.38
 44
1.0
 45
0.0
 46
0.0
 47
0.01
 48
0.01
140
5.7337101464
141
0.09
142
0.0
143
25.4
144
1.0
145
0.0
146
1.0
147
0.625
 71
1
 72
0
 73
0
 74
0
 75
0
 76
0
 77
1
 78
8
 79
2
170
0
171
1
172
0
173
0
174
0
175
0
176
0
177
0
178
0
270
2
179
2
271
2
272
2
273
2
274
2
275
0
280
0
281
0
282
0
283
1
284
8
285
0
286
0
287
3
288
0
340
11
278
46
341
212
342
212
343
212
344
212
  0
ENDTAB
  0
ENDSEC
  0
SECTION
  2
BLOCKS
  0
BLOCK
  5
20
100
AcDbEntity
  8
0
100
AcDbBlockBegin
  2
*Model_Space
 70
0
 10
0.0
 20
0.0
 30
0.0
  3
*Model_Space
  1

  0
ENDBLK
  5
21
100
AcDbEntity
  8
0
100
AcDbBlockEnd
  0
BLOCK
  5
1C
100
AcDbEntity
  8
0
100
AcDbBlockBegin
  2
*Paper_Space
 70
0
 10
0.0
 20
0.0
 30
0.0
  3
*Paper_Space
  1

  0
ENDBLK
  5
1D
100
AcDbEntity
  8
0
100
AcDbBlockEnd
  0
BLOCK
  5
214
100
AcDbEntity
  8
0
100
AcDbBlockBegin
  2
_FILLED
 70
64
 10
0.0
 20
0.0
  3
_FILLED
  1

  0
SOLID
  5
215
100
AcDbEntity
  8
0
  6
BYBLOCK
 62
0
100
AcDbTrace
 10
0.0
 20
0.0
 11
-1.0
 21
0.25
 12
-1.0
 22
-0.25
 13
-1.0
 23
-0.25
  0
ENDBLK
  5
216
100
AcDbEntity
  8
0
  6
BYBLOCK
 62
0
100
AcDbBlockEnd
  0
ENDSEC
  0
SECTION
  2
ENTITIES
  0
LINE
  5
217
100
AcDbEntity
  8
0
100
AcDbLine
 62
7
  6
CONTINUOUS
 10
66.7889436891
 20
40.1981304985
 11
183.1889436891
 21
40.1981304985
  0
LINE
  5
218
100
AcDbEntity
  8
0
100
AcDbLine
 62
7
  6
CONTINUOUS
 10
96.7389436891
 20
50.3978851737
 11
173.2389436891
 21
50.3978851737
  0
LINE
  5
219
100
AcDbEntity
  8
0
100
AcDbLine
 62
7
  6
CONTINUOUS
 10
173.2389436891
 20
55.5503315209
 11
96.7389436891
 21
55.5503315209
  0
LINE
  5
21A
100
AcDbEntity
  8
0
100
AcDbLine
 62
7
  6
CONTINUOUS
 10
96.7389436891
 20
60.3978851737
 11
173.2389436891
 21
60.3978851737
  0
LINE
  5
21B
100
AcDbEntity
  8
0
100
AcDbLine
 62
7
  6
CONTINUOUS
 10
173.2389436891
 20
65.5503315209
 11
96.7389436891
 21
65.5503315209
  0
LINE
  5
21C
100
AcDbEntity
  8
0
100
AcDbLine
 62
7
  6
CONTINUOUS
 10
96.7389436891
 20
70.3978851737
 11
173.2389436891
 21
70.3978851737
  0
LINE
  5
21D
100
AcDbEntity
  8
0
100
AcDbLine
 62
7
  6
CONTINUOUS
 10
173.2389436891
 20
75.5503315209
 11
96.7389436891
 21
75.5503315209
  0
LINE
  5
21E
100
AcDbEntity
  8
0
100
AcDbLine
 62
7
  6
CONTINUOUS
 10
96.7389436891
 20
80.3978851737
 11
173.2389436891
 21
80.3978851737
  0
LINE
  5
21F
100
AcDbEntity
  8
0
100
AcDbLine
 62
7
  6
CONTINUOUS
 10
173.2389436891
 20
85.5503315209
 11
96.7389436891
 21
85.5503315209
  0
LINE
  5
220
100
AcDbEntity
  8
0
100
AcDbLine
 62
7
  6
CONTINUOUS
 10
183.1889436891
 20
86.5481304985
 11
196.4889436891
 21
86.5481304985
  0
LINE
  5
221
100
AcDbEntity
  8
0
100
AcDbLine
 62
7
  6
CONTINUOUS
 10
196.4889436891
 20
88.5481304985
 11
183.1889436891
 21
88.5481304985
  0
LINE
  5
222
100
AcDbEntity
  8
0
100
AcDbLine
 62
7
  6
CONTINUOUS
 10
96.7389436891
 20
90.3978851737
 11
173.2389436891
 21
90.3978851737
  0
LINE
  5
223
100
AcDbEntity
  8
0
100
AcDbLine
 62
7
  6
CONTINUOUS
 10
196.4889436891
 20
91.5481304985
 11
291.4889436891
 21
91.5481304985
  0
LINE
  5
224
100
AcDbEntity
  8
0
100
AcDbLine
 62
7
  6
CONTINUOUS
 10
279.4889436891
 20
92.0106525608
 11
291.4889436891
 21
92.0106525608
  0
LINE
  5
225
100
AcDbEntity
  8
0
100
AcDbLine
 62
7
  6
CONTINUOUS
 10
279.4889436891
 20
92.3470539851
 11
291.4889436891
 21
92.3470539851
  0
LINE
  5
226
100
AcDbEntity
  8
0
100
AcDbLine
 62
7
  6
CONTINUOUS
 10
279.4889436891
 20
92.6008601573
 11
291.4889436891
 21
92.6008601573
  0
LINE
  5
227
100
AcDbEntity
  8
0
100
AcDbLine
 62
7
  6
CONTINUOUS
 10
291.4889436891
 20
94.6008604081
 11
279.4889436891
 21
94.6008604081
  0
LINE
  5
228
100
AcDbEntity
  8
0
100
AcDbLine
 62
7
  6
CONTINUOUS
 10
173.2389436891
 20
95.5503315209
 11
96.7389436891
 21
95.5503315209
  0
LINE
  5
229
100
AcDbEntity
  8
0
100
AcDbLine
 62
7
  6
CONTINUOUS
 10
279.4889436891
 20
95.5830379697
 11
196.4889436891
 21
95.5830379697
  0
LINE
  5
22A
100
AcDbEntity
  8
0
100
AcDbLine
 62
7
  6
CONTINUOUS
 10
96.7389436891
 20
100.3978851737
 11
173.2389436891
 21
100.3978851737
  0
LINE
  5
22B
100
AcDbEntity
  8
0
100
AcDbLine
 62
7
  6
CONTINUOUS
 10
183.1889436891
 20
100.5064972689
 11
196.4889436891
 21
100.5064972689
  0
LINE
  5
22C
100
AcDbEntity
  8
0
100
AcDbLine
 62
7
  6
CONTINUOUS
 10
196.4889436891
 20
100.9110030711
 11
279.4889436891
 21
100.9110030713
  0
LINE
  5
22D
100
AcDbEntity
  8
0
100
AcDbLine
 62
7
  6
CONTINUOUS
 10
196.4889436891
 20
101.5046320673
 11
183.1889436891
 21
101.5046320673
  0
LINE
  5
22E
100
AcDbEntity
  8
0
100
AcDbLine
 62
7
  6
CONTINUOUS
 10
183.1889436891
 20
102.4332730355
 11
196.4889436891
 21
102.4332730355
  0
LINE
  5
22F
100
AcDbEntity
  8
0
100
AcDbLine
 62
7
  6
CONTINUOUS
 10
196.4889436891
 20
104.4295426323
 11
181.4889436891
 21
104.4295426323
  0
LINE
  5
230
100
AcDbEntity
  8
0
100
AcDbLine
 62
7
  6
CONTINUOUS
 10
173.2389436891
 20
105.5503315209
 11
96.7389436891
 21
105.5503315209
  0
LINE
  5
231
100
AcDbEntity
  8
0
100
AcDbLine
 62
7
  6
CONTINUOUS
 10
279.4889436891
 20
106.9027802798
 11
196.4889436891
 21
106.9027802798
  0
LINE
  5
232
100
AcDbEntity
  8
0
100
AcDbLine
 62
7
  6
CONTINUOUS
 10
196.4889436891
 20
107.4488005626
 11
279.4889436891
 21
107.4488005626
  0
LINE
  5
233
100
AcDbEntity
  8
0
100
AcDbLine
 62
7
  6
CONTINUOUS
 10
279.4889436891
 20
109.4460596321
 11
196.4889436891
 21
109.4460596319
  0
LINE
  5
234
100
AcDbEntity
  8
0
100
AcDbLine
 62
7
  6
CONTINUOUS
 10
96.7389436891
 20
110.3978851737
 11
173.2389436891
 21
110.3978851737
  0
LINE
  5
235
100
AcDbEntity
  8
0
100
AcDbLine
 62
7
  6
CONTINUOUS
 10
173.2389436891
 20
115.5503315209
 11
96.7389436891
 21
115.5503315209
  0
LINE
  5
236
100
AcDbEntity
  8
0
100
AcDbLine
 62
7
  6
CONTINUOUS
 10
96.7389436891
 20
120.3978851737
 11
173.2389436891
 21
120.3978851737
  0
LINE
  5
237
100
AcDbEntity
  8
0
100
AcDbLine
 62
7
  6
CONTINUOUS
 10
58.4889436891
 20
387.0481304985
 11
58.4889436891
 21
446.3481052258
  0
LINE
  5
238
100
AcDbEntity
  8
0
100
AcDbLine
 62
7
  6
CONTINUOUS
 10
60.8619344445
 20
292.2681304985
 11
60.8619344445
 21
387.0481304985
  0
LINE
  5
239
100
AcDbEntity
  8
0
100
AcDbLine
 62
7
  6
CONTINUOUS
 10
63.9889436891
 20
420.3481304985
 11
63.9889436891
 21
387.0481304985
  0
LINE
  5
23A
100
AcDbEntity
  8
0
100
AcDbLine
 62
7
  6
CONTINUOUS
 10
66.7889436891
 20
265.6981304985
 11
66.7889436891
 21
40.1981304985
  0
LINE
  5
23B
100
AcDbEntity
  8
0
100
AcDbLine
 62
7
  6
CONTINUOUS
 10
66.7889436891
 20
267.8359680063
 11
66.7889436891
 21
387.0481304985
  0
LINE
  5
23C
100
AcDbEntity
  8
0
100
AcDbLine
 62
7
  6
CONTINUOUS
 10
66.9889436891
 20
387.0481304985
 11
66.9889436891
 21
446.3481052258
  0
LINE
  5
23D
100
AcDbEntity
  8
0
100
AcDbLine
 62
7
  6
CONTINUOUS
 10
173.2389436891
 20
125.5503315209
 11
96.7389436891
 21
125.5503315209
  0
LINE
  5
23E
100
AcDbEntity
  8
0
100
AcDbLine
 62
7
  6
CONTINUOUS
 10
96.7389436891
 20
130.3978851737
 11
173.2389436891
 21
130.3978851737
  0
LINE
  5
23F
100
AcDbEntity
  8
0
100
AcDbLine
 62
7
  6
CONTINUOUS
 10
173.2389436891
 20
135.5503315209
 11
96.7389436891
 21
135.5503315209
  0
LINE
  5
240
100
AcDbEntity
  8
0
100
AcDbLine
 62
7
  6
CONTINUOUS
 10
68.5889436891
 20
265.6981304985
 11
68.5889436891
 21
267.0481304985
  0
LINE
  5
241
100
AcDbEntity
  8
0
100
AcDbLine
 62
7
  6
CONTINUOUS
 10
70.4889436891
 20
265.6981304985
 11
70.4889436891
 21
267.3481304985
  0
LINE
  5
242
100
AcDbEntity
  8
0
100
AcDbLine
 62
7
  6
CONTINUOUS
 10
76.0889436891
 20
265.6981304985
 11
76.0889436891
 21
267.0481304985
  0
LINE
  5
243
100
AcDbEntity
  8
0
100
AcDbLine
 62
7
  6
CONTINUOUS
 10
81.7889436891
 20
267.0481304985
 11
81.7889436891
 21
142.2481304985
  0
LINE
  5
244
100
AcDbEntity
  8
0
100
AcDbLine
 62
7
  6
CONTINUOUS
 10
82.2889436891
 20
387.0481304985
 11
82.2889436891
 21
142.7481304985
  0
LINE
  5
245
100
AcDbEntity
  8
0
100
AcDbLine
 62
7
  6
CONTINUOUS
 10
183.1889436891
 20
142.2481304985
 11
81.7889436891
 21
142.2481304985
  0
LINE
  5
246
100
AcDbEntity
  8
0
100
AcDbLine
 62
7
  6
CONTINUOUS
 10
82.2889436891
 20
142.7481304985
 11
181.4889436891
 21
142.7481304985
  0
LINE
  5
247
100
AcDbEntity
  8
0
100
AcDbLine
 62
7
  6
CONTINUOUS
 10
140.6789824049
 20
142.6163791267
 11
136.0365864698
 21
142.6974124491
  0
LINE
  5
248
100
AcDbEntity
  8
0
100
AcDbLine
 62
7
  6
CONTINUOUS
 10
81.7889436891
 20
214.2848522362
 11
82.2889436891
 21
213.7848522362
  0
LINE
  5
249
100
AcDbEntity
  8
0
100
AcDbLine
 62
7
  6
CONTINUOUS
 10
82.2889436891
 20
226.5552007044
 11
81.7889436891
 21
227.0552007044
  0
LINE
  5
24A
100
AcDbEntity
  8
0
100
AcDbLine
 62
7
  6
CONTINUOUS
 10
140.6789824049
 20
120.3978851737
 11
140.6789824049
 21
125.5503315209
  0
LINE
  5
24B
100
AcDbEntity
  8
0
100
AcDbLine
 62
7
  6
CONTINUOUS
 10
140.6789824049
 20
130.3978851737
 11
140.6789824049
 21
135.5503315209
  0
LINE
  5
24C
100
AcDbEntity
  8
0
100
AcDbLine
 62
7
  6
CONTINUOUS
 10
140.6789824049
 20
142.2481304985
 11
140.6789824049
 21
142.6163791266
  0
LINE
  5
24D
100
AcDbEntity
  8
0
100
AcDbLine
 62
7
  6
CONTINUOUS
 10
144.6491816258
 20
113.5572486027
 11
144.6490351078
 21
115.5503315209
  0
LINE
  5
24E
100
AcDbEntity
  8
0
100
AcDbLine
 62
7
  6
CONTINUOUS
 10
174.6889436891
 20
103.6006480213
 11
174.6889436891
 21
105.0045163902
  0
LINE
  5
24F
100
AcDbEntity
  8
0
100
AcDbLine
 62
7
  6
CONTINUOUS
 10
82.2889436891
 20
234.6575912777
 11
81.7889436891
 21
234.6575912777
  0
LINE
  5
250
100
AcDbEntity
  8
0
100
AcDbLine
 62
7
  6
CONTINUOUS
 10
181.4889436891
 20
142.7481304985
 11
181.4889436891
 21
104.4295426323
  0
LINE
  5
251
100
AcDbEntity
  8
0
100
AcDbLine
 62
7
  6
CONTINUOUS
 10
183.1889436891
 20
40.1981304985
 11
183.1889436891
 21
142.2481304985
  0
LINE
  5
252
100
AcDbEntity
  8
0
100
AcDbLine
 62
7
  6
CONTINUOUS
 10
173.2389436891
 20
258.3978851738
 11
96.7389436891
 21
258.3978851738
  0
LINE
  5
253
100
AcDbEntity
  8
0
100
AcDbLine
 62
7
  6
CONTINUOUS
 10
66.7889436891
 20
267.8359680063
 11
70.4889436891
 21
267.3481304985
  0
LINE
  5
254
100
AcDbEntity
  8
0
100
AcDbLine
 62
7
  6
CONTINUOUS
 10
196.4889436891
 20
86.5481304985
 11
196.4889436891
 21
387.0481304985
  0
LINE
  5
255
100
AcDbEntity
  8
0
100
AcDbLine
 62
7
  6
CONTINUOUS
 10
200.4889436891
 20
387.0481304985
 11
200.4889436891
 21
446.3481304985
  0
LINE
  5
256
100
AcDbEntity
  8
0
100
AcDbLine
 62
7
  6
CONTINUOUS
 10
203.4889436891
 20
387.0481304985
 11
203.4889436891
 21
420.3481304985
  0
LINE
  5
257
100
AcDbEntity
  8
0
100
AcDbLine
 62
7
  6
CONTINUOUS
 10
205.4889436891
 20
387.0481304985
 11
205.4889436891
 21
446.3481304985
  0
LINE
  5
258
100
AcDbEntity
  8
0
100
AcDbLine
 62
7
  6
CONTINUOUS
 10
96.7389436891
 20
263.550331521
 11
173.2389436891
 21
263.550331521
  0
LINE
  5
259
100
AcDbEntity
  8
0
100
AcDbLine
 62
7
  6
CONTINUOUS
 10
76.0889436891
 20
265.6981304985
 11
66.7889436891
 21
265.6981304985
  0
LINE
  5
25A
100
AcDbEntity
  8
0
100
AcDbLine
 62
7
  6
CONTINUOUS
 10
81.7889436891
 20
267.0481304985
 11
76.0889436891
 21
267.0481304985
  0
LINE
  5
25B
100
AcDbEntity
  8
0
100
AcDbLine
 62
7
  6
CONTINUOUS
 10
70.4889436891
 20
267.0481304985
 11
68.5889436891
 21
267.0481304985
  0
LINE
  5
25C
100
AcDbEntity
  8
0
100
AcDbLine
 62
7
  6
CONTINUOUS
 10
173.2389436891
 20
268.3978851738
 11
96.7389436891
 21
268.3978851738
  0
LINE
  5
25D
100
AcDbEntity
  8
0
100
AcDbLine
 62
7
  6
CONTINUOUS
 10
96.7389436891
 20
273.550331521
 11
173.2389436891
 21
273.550331521
  0
LINE
  5
25E
100
AcDbEntity
  8
0
100
AcDbLine
 62
7
  6
CONTINUOUS
 10
173.2389436891
 20
278.3978851738
 11
96.7389436891
 21
278.3978851738
  0
LINE
  5
25F
100
AcDbEntity
  8
0
100
AcDbLine
 62
7
  6
CONTINUOUS
 10
96.7389436891
 20
283.550331521
 11
173.2389436891
 21
283.550331521
  0
LINE
  5
260
100
AcDbEntity
  8
0
100
AcDbLine
 62
7
  6
CONTINUOUS
 10
61.2755538188
 20
285.4974945349
 11
66.7889436891
 21
285.4974945349
  0
LINE
  5
261
100
AcDbEntity
  8
0
100
AcDbLine
 62
7
  6
CONTINUOUS
 10
173.2389436891
 20
288.3978851738
 11
96.7389436891
 21
288.3978851738
  0
LINE
  5
262
100
AcDbEntity
  8
0
100
AcDbLine
 62
7
  6
CONTINUOUS
 10
66.7889436891
 20
292.2681304985
 11
60.8619344445
 21
292.2681304985
  0
LINE
  5
263
100
AcDbEntity
  8
0
100
AcDbLine
 62
7
  6
CONTINUOUS
 10
96.7389436891
 20
293.550331521
 11
173.2389436891
 21
293.550331521
  0
LINE
  5
264
100
AcDbEntity
  8
0
100
AcDbLine
 62
7
  6
CONTINUOUS
 10
173.2389436891
 20
298.3978851738
 11
96.7389436891
 21
298.3978851738
  0
LINE
  5
265
100
AcDbEntity
  8
0
100
AcDbLine
 62
7
  6
CONTINUOUS
 10
96.7389436891
 20
303.550331521
 11
173.2389436891
 21
303.550331521
  0
LINE
  5
266
100
AcDbEntity
  8
0
100
AcDbLine
 62
7
  6
CONTINUOUS
 10
173.2389436891
 20
308.3978851738
 11
96.7389436891
 21
308.3978851738
  0
LINE
  5
267
100
AcDbEntity
  8
0
100
AcDbLine
 62
7
  6
CONTINUOUS
 10
96.7389436891
 20
313.550331521
 11
173.2389436891
 21
313.550331521
  0
LINE
  5
268
100
AcDbEntity
  8
0
100
AcDbLine
 62
7
  6
CONTINUOUS
 10
173.2389436891
 20
318.3978851738
 11
96.7389436891
 21
318.3978851738
  0
LINE
  5
269
100
AcDbEntity
  8
0
100
AcDbLine
 62
7
  6
CONTINUOUS
 10
96.7389436891
 20
323.550331521
 11
173.2389436891
 21
323.550331521
  0
LINE
  5
26A
100
AcDbEntity
  8
0
100
AcDbLine
 62
7
  6
CONTINUOUS
 10
173.2389436891
 20
328.3978851738
 11
96.7389436891
 21
328.3978851738
  0
LINE
  5
26B
100
AcDbEntity
  8
0
100
AcDbLine
 62
7
  6
CONTINUOUS
 10
96.7389436891
 20
333.550331521
 11
173.2389436891
 21
333.550331521
  0
LINE
  5
26C
100
AcDbEntity
  8
0
100
AcDbLine
 62
7
  6
CONTINUOUS
 10
173.2389436891
 20
338.3978851738
 11
96.7389436891
 21
338.3978851738
  0
LINE
  5
26D
100
AcDbEntity
  8
0
100
AcDbLine
 62
7
  6
CONTINUOUS
 10
273.4889436891
 20
426.5481304985
 11
273.4889436891
 21
391.7508596458
  0
LINE
  5
26E
100
AcDbEntity
  8
0
100
AcDbLine
 62
7
  6
CONTINUOUS
 10
279.4889436891
 20
91.5481304985
 11
279.4889436891
 21
109.4460596321
  0
LINE
  5
26F
100
AcDbEntity
  8
0
100
AcDbLine
 62
7
  6
CONTINUOUS
 10
279.4889436891
 20
391.7508261824
 11
279.4889436891
 21
431.5481304985
  0
LINE
  5
270
100
AcDbEntity
  8
0
100
AcDbLine
 62
7
  6
CONTINUOUS
 10
96.7389436891
 20
343.550331521
 11
173.2389436891
 21
343.550331521
  0
LINE
  5
271
100
AcDbEntity
  8
0
100
AcDbLine
 62
7
  6
CONTINUOUS
 10
173.2389436891
 20
348.3978851738
 11
96.7389436891
 21
348.3978851738
  0
LINE
  5
272
100
AcDbEntity
  8
0
100
AcDbLine
 62
7
  6
CONTINUOUS
 10
96.7389436891
 20
353.550331521
 11
173.2389436891
 21
353.550331521
  0
LINE
  5
273
100
AcDbEntity
  8
0
100
AcDbLine
 62
7
  6
CONTINUOUS
 10
291.4889436891
 20
91.5481304985
 11
291.4889436891
 21
431.5481304985
  0
LINE
  5
274
100
AcDbEntity
  8
0
100
AcDbLine
 62
7
  6
CONTINUOUS
 10
173.2389436891
 20
358.3978851738
 11
96.7389436891
 21
358.3978851738
  0
LINE
  5
275
100
AcDbEntity
  8
0
100
AcDbLine
 62
7
  6
CONTINUOUS
 10
96.7389436891
 20
363.5503315209
 11
173.2389436891
 21
363.5503315209
  0
LINE
  5
276
100
AcDbEntity
  8
0
100
AcDbLine
 62
7
  6
CONTINUOUS
 10
173.2389436891
 20
368.3978851737
 11
96.7389436891
 21
368.3978851737
  0
LINE
  5
277
100
AcDbEntity
  8
0
100
AcDbLine
 62
7
  6
CONTINUOUS
 10
96.7389436891
 20
373.5503315209
 11
173.2389436891
 21
373.5503315209
  0
LINE
  5
278
100
AcDbEntity
  8
0
100
AcDbLine
 62
7
  6
CONTINUOUS
 10
173.2389436891
 20
378.3978851737
 11
96.7389436891
 21
378.3978851737
  0
LINE
  5
279
100
AcDbEntity
  8
0
100
AcDbLine
 62
7
  6
CONTINUOUS
 10
96.7389436891
 20
383.5503315209
 11
173.2389436891
 21
383.5503315209
  0
LINE
  5
27A
100
AcDbEntity
  8
0
100
AcDbLine
 62
7
  6
CONTINUOUS
 10
58.4889436891
 20
387.0481304985
 11
205.4889436891
 21
387.0481304985
  0
LINE
  5
27B
100
AcDbEntity
  8
0
100
AcDbLine
 62
7
  6
CONTINUOUS
 10
273.4889436891
 20
391.7508041207
 11
279.4889436891
 21
391.7508020225
  0
LINE
  5
27C
100
AcDbEntity
  8
0
100
AcDbLine
 62
7
  6
CONTINUOUS
 10
279.4889436891
 20
393.7480656149
 11
273.4889436891
 21
393.7480656149
  0
LINE
  5
27D
100
AcDbEntity
  8
0
100
AcDbLine
 62
7
  6
CONTINUOUS
 10
273.4889436891
 20
394.3917278319
 11
279.4889436891
 21
394.3917278319
  0
LINE
  5
27E
100
AcDbEntity
  8
0
100
AcDbLine
 62
7
  6
CONTINUOUS
 10
279.4889436891
 20
395.9742446666
 11
273.4889436891
 21
395.9742446666
  0
LINE
  5
27F
100
AcDbEntity
  8
0
100
AcDbLine
 62
7
  6
CONTINUOUS
 10
205.4889436891
 20
405.5481304985
 11
273.4889436891
 21
405.5481304985
  0
LINE
  5
280
100
AcDbEntity
  8
0
100
AcDbLine
 62
7
  6
CONTINUOUS
 10
279.4889436891
 20
405.5481304985
 11
291.4889436891
 21
405.5481304985
  0
LINE
  5
281
100
AcDbEntity
  8
0
100
AcDbLine
 62
7
  6
CONTINUOUS
 10
273.4889436891
 20
410.5481304985
 11
258.3167440404
 21
410.5481304985
  0
LINE
  5
282
100
AcDbEntity
  8
0
100
AcDbLine
 62
7
  6
CONTINUOUS
 10
255.6542898807
 20
410.5481304985
 11
249.1835398195
 21
410.5481304985
  0
LINE
  5
283
100
AcDbEntity
  8
0
100
AcDbLine
 62
7
  6
CONTINUOUS
 10
246.788864793
 20
410.5481304985
 11
240.027432197
 21
410.5481304985
  0
LINE
  5
284
100
AcDbEntity
  8
0
100
AcDbLine
 62
7
  6
CONTINUOUS
 10
237.946343107
 20
410.5481304985
 11
230.8358141349
 21
410.5481304985
  0
LINE
  5
285
100
AcDbEntity
  8
0
100
AcDbLine
 62
7
  6
CONTINUOUS
 10
229.1393318605
 20
410.5481304985
 11
221.5747371158
 21
410.5481304985
  0
LINE
  5
286
100
AcDbEntity
  8
0
100
AcDbLine
 62
7
  6
CONTINUOUS
 10
205.4889436891
 20
410.5481304985
 11
220.401779571
 21
410.5481304985
  0
LINE
  5
287
100
AcDbEntity
  8
0
100
AcDbLine
 62
7
  6
CONTINUOUS
 10
279.4889436891
 20
412.0219518888
 11
273.4889436891
 21
412.0219518888
  0
LINE
  5
288
100
AcDbEntity
  8
0
100
AcDbLine
 62
7
  6
CONTINUOUS
 10
273.4889436891
 20
416.234114761
 11
205.4889436891
 21
416.234114761
  0
LINE
  5
289
100
AcDbEntity
  8
0
100
AcDbLine
 62
7
  6
CONTINUOUS
 10
66.9889436891
 20
418.8481304985
 11
200.4889436891
 21
418.8481304985
  0
LINE
  5
28A
100
AcDbEntity
  8
0
100
AcDbLine
 62
7
  6
CONTINUOUS
 10
66.9889436891
 20
420.3481304985
 11
58.4889436891
 21
420.3481304985
  0
LINE
  5
28B
100
AcDbEntity
  8
0
100
AcDbLine
 62
7
  6
CONTINUOUS
 10
200.4889436891
 20
420.3481304985
 11
205.4889436891
 21
420.3481304985
  0
LINE
  5
28C
100
AcDbEntity
  8
0
100
AcDbLine
 62
7
  6
CONTINUOUS
 10
205.4889436891
 20
424.652802411
 11
273.4889436891
 21
424.652802411
  0
LINE
  5
28D
100
AcDbEntity
  8
0
100
AcDbLine
 62
7
  6
CONTINUOUS
 10
273.4889436891
 20
426.5481304985
 11
205.4889436891
 21
426.5481304985
  0
LINE
  5
28E
100
AcDbEntity
  8
0
100
AcDbLine
 62
7
  6
CONTINUOUS
 10
279.4889436891
 20
429.652802411
 11
291.4889436891
 21
429.652802411
  0
LINE
  5
28F
100
AcDbEntity
  8
0
100
AcDbLine
 62
7
  6
CONTINUOUS
 10
291.4889436891
 20
431.5481304985
 11
279.4889436891
 21
431.5481304985
  0
LINE
  5
290
100
AcDbEntity
  8
0
100
AcDbLine
 62
7
  6
CONTINUOUS
 10
66.9889436891
 20
443.516125753
 11
200.4889436891
 21
443.516125753
  0
LINE
  5
291
100
AcDbEntity
  8
0
100
AcDbLine
 62
7
  6
CONTINUOUS
 10
66.9889436891
 20
444.8481304985
 11
200.4889436891
 21
444.8481304985
  0
LINE
  5
292
100
AcDbEntity
  8
0
100
AcDbLine
 62
7
  6
CONTINUOUS
 10
58.4889436891
 20
444.9535134633
 11
66.9889436891
 21
444.9535134633
  0
LINE
  5
293
100
AcDbEntity
  8
0
100
AcDbLine
 62
7
  6
CONTINUOUS
 10
200.4889436891
 20
444.9535134633
 11
205.4889436891
 21
444.9535134633
  0
LINE
  5
294
100
AcDbEntity
  8
0
100
AcDbLine
 62
7
  6
CONTINUOUS
 10
58.4889436891
 20
446.3481304985
 11
66.9889436891
 21
446.3481304985
  0
LINE
  5
295
100
AcDbEntity
  8
0
100
AcDbLine
 62
7
  6
CONTINUOUS
 10
200.4889436891
 20
446.3481304985
 11
205.4889436891
 21
446.3481304985
  0
ARC
  5
296
100
AcDbEntity
  8
0
100
AcDbCircle
 62
7
  6
CONTINUOUS
 10
149.6076705659
 20
113.5556815108
 40
4.9584222907
100
AcDbArc
 50
179.9748393331
 51
217.10007124
  0
ARC
  5
297
100
AcDbEntity
  8
0
100
AcDbCircle
 62
7
  6
CONTINUOUS
 10
175.6889436891
 20
103.6006480213
 40
1.0
100
AcDbArc
 50
179.9999999929
 51
264.9587144556
  0
SPLINE
  5
298
100
AcDbEntity
  8
0
100
AcDbSpline
 62
7
  6
CONTINUOUS
 70
0
 71
3
 72
18
 73
14
 74
0
 42
0.0000001
 43
0.0000001
 44
0.0000000001
 40
0.0
 40
0.0
 40
0.0
 40
0.0
 40
0.1940964809
 40
0.3807710374
 40
0.5527723278
 40
0.7035931624
 40
0.8274916508
 40
0.8778592056
 40
0.9198570091
 40
0.9531271966
 40
0.977434282
 40
0.9927490562
 40
1.0
 40
1.0
 40
1.0
 40
1.0
 10
60.8619344445
 20
292.2681304985
 30
0.0
 10
60.8619344445
 20
291.8274870137
 30
0.0
 10
60.8675330785
 20
290.963036441
 30
0.0
 10
60.8923200467
 20
289.7083316466
 30
0.0
 10
60.9319433293
 20
288.5522631031
 30
0.0
 10
60.9839358666
 20
287.5394578718
 30
0.0
 10
61.0378662889
 20
286.8031343672
 30
0.0
 10
61.0867738178
 20
286.3148350159
 30
0.0
 10
61.1224918263
 20
286.0312455282
 30
0.0
 10
61.1570200041
 20
285.8093372036
 30
0.0
 10
61.1949637729
 20
285.6442725103
 30
0.0
 10
61.2234695377
 20
285.5491708166
 30
0.0
 10
61.2590925149
 20
285.497494535
 30
0.0
 10
61.2755538188
 20
285.497494535
 30
0.0
  0
SPLINE
  5
299
100
AcDbEntity
  8
0
100
AcDbSpline
 62
7
  6
CONTINUOUS
 70
0
 71
3
 72
22
 73
18
 74
0
 42
0.0000001
 43
0.0000001
 44
0.0000000001
 40
0.0
 40
0.0
 40
0.0
 40
0.0
 40
0.0418896315
 40
0.0878972334
 40
0.138601891
 40
0.19470543
 40
0.2569261913
 40
0.3261922235
 40
0.403682603
 40
0.4903636689
 40
0.5827419111
 40
0.672506685
 40
0.7535232089
 40
0.8252923763
 40
0.889788095
 40
0.9477499616
 40
1.0
 40
1.0
 40
1.0
 40
1.0
 10
96.7389436891
 20
130.3978851737
 30
0.0
 10
96.629579626
 20
130.3978851737
 30
0.0
 10
96.3997854643
 20
130.414151455
 30
0.0
 10
96.0452054313
 20
130.4930554362
 30
0.0
 10
95.6731044485
 20
130.642265233
 30
0.0
 10
95.2969025524
 20
130.8777713732
 30
0.0
 10
94.9372972935
 20
131.2151637835
 30
0.0
 10
94.6237080073
 20
131.6669194913
 30
0.0
 10
94.3948924191
 20
132.2376998382
 30
0.0
 10
94.2985285506
 20
132.9073316957
 30
0.0
 10
94.3730844342
 20
133.6129240099
 30
0.0
 10
94.618009659
 20
134.2631173585
 30
0.0
 10
94.9874521829
 20
134.7856449551
 30
0.0
 10
95.4208916395
 20
135.1596103366
 30
0.0
 10
95.8728411511
 20
135.3982851275
 30
0.0
 10
96.3141629102
 20
135.5244267977
 30
0.0
 10
96.6025310185
 20
135.550331521
 30
0.0
 10
96.7389436891
 20
135.5503315209
 30
0.0
  0
SPLINE
  5
29A
100
AcDbEntity
  8
0
100
AcDbSpline
 62
7
  6
CONTINUOUS
 70
0
 71
3
 72
22
 73
18
 74
0
 42
0.0000001
 43
0.0000001
 44
0.0000000001
 40
0.0
 40
0.0
 40
0.0
 40
0.0
 40
0.041390549
 40
0.0868691637
 40
0.1369735278
 40
0.1923704845
 40
0.2537504584
 40
0.3219246098
 40
0.3978582811
 40
0.4829723001
 40
0.5752770846
 40
0.6666463307
 40
0.7494920647
 40
0.8225259492
 40
0.8880722359
 40
0.9469445752
 40
1.0
 40
1.0
 40
1.0
 40
1.0
 10
173.2389436891
 20
135.550331521
 30
0.0
 10
173.3470031286
 20
135.550331521
 30
0.0
 10
173.5741082643
 20
135.5341884173
 30
0.0
 10
173.924460598
 20
135.455918873
 30
0.0
 10
174.2919260352
 20
135.3081095803
 30
0.0
 10
174.6632112399
 20
135.0754566351
 30
0.0
 10
175.0183043703
 20
134.74357326
 30
0.0
 10
175.3296835673
 20
134.3018226757
 30
0.0
 10
175.5633388375
 20
133.7455790879
 30
0.0
 10
175.6761375304
 20
133.0875776726
 30
0.0
 10
175.6229449424
 20
132.3800080257
 30
0.0
 10
175.3894116444
 20
131.7154372267
 30
0.0
 10
175.0183273789
 20
131.1782503626
 30
0.0
 10
174.5779131065
 20
130.7953698822
 30
0.0
 10
174.118625238
 20
130.5523006368
 30
0.0
 10
173.6703093972
 20
130.4241723166
 30
0.0
 10
173.3774569392
 20
130.3978851738
 30
0.0
 10
173.2389436891
 20
130.3978851738
 30
0.0
  0
SPLINE
  5
29B
100
AcDbEntity
  8
0
100
AcDbSpline
 62
7
  6
CONTINUOUS
 70
0
 71
3
 72
22
 73
18
 74
0
 42
0.0000001
 43
0.0000001
 44
0.0000000001
 40
0.0
 40
0.0
 40
0.0
 40
0.0
 40
0.041390549
 40
0.0868691637
 40
0.1369735278
 40
0.1923704845
 40
0.2537504584
 40
0.3219246098
 40
0.3978582811
 40
0.4829723001
 40
0.5752770846
 40
0.6666463307
 40
0.7494920647
 40
0.8225259492
 40
0.8880722359
 40
0.9469445752
 40
1.0
 40
1.0
 40
1.0
 40
1.0
 10
173.2389436891
 20
125.550331521
 30
0.0
 10
173.3470031286
 20
125.550331521
 30
0.0
 10
173.5741082643
 20
125.5341884173
 30
0.0
 10
173.924460598
 20
125.455918873
 30
0.0
 10
174.2919260352
 20
125.3081095803
 30
0.0
 10
174.6632112399
 20
125.0754566351
 30
0.0
 10
175.0183043703
 20
124.74357326
 30
0.0
 10
175.3296835673
 20
124.3018226757
 30
0.0
 10
175.5633388375
 20
123.7455790879
 30
0.0
 10
175.6761375304
 20
123.0875776726
 30
0.0
 10
175.6229449424
 20
122.3800080257
 30
0.0
 10
175.3894116444
 20
121.7154372267
 30
0.0
 10
175.0183273789
 20
121.1782503626
 30
0.0
 10
174.5779131065
 20
120.7953698822
 30
0.0
 10
174.118625238
 20
120.5523006368
 30
0.0
 10
173.6703093972
 20
120.4241723166
 30
0.0
 10
173.3774569392
 20
120.3978851738
 30
0.0
 10
173.2389436891
 20
120.3978851738
 30
0.0
  0
SPLINE
  5
29C
100
AcDbEntity
  8
0
100
AcDbSpline
 62
7
  6
CONTINUOUS
 70
0
 71
3
 72
22
 73
18
 74
0
 42
0.0000001
 43
0.0000001
 44
0.0000000001
 40
0.0
 40
0.0
 40
0.0
 40
0.0
 40
0.0418896315
 40
0.0878972334
 40
0.138601891
 40
0.19470543
 40
0.2569261913
 40
0.3261922235
 40
0.403682603
 40
0.4903636689
 40
0.5827419111
 40
0.672506685
 40
0.7535232089
 40
0.8252923763
 40
0.889788095
 40
0.9477499616
 40
1.0
 40
1.0
 40
1.0
 40
1.0
 10
96.7389436891
 20
120.3978851737
 30
0.0
 10
96.629579626
 20
120.3978851737
 30
0.0
 10
96.3997854643
 20
120.414151455
 30
0.0
 10
96.0452054313
 20
120.4930554362
 30
0.0
 10
95.6731044485
 20
120.642265233
 30
0.0
 10
95.2969025524
 20
120.8777713732
 30
0.0
 10
94.9372972935
 20
121.2151637835
 30
0.0
 10
94.6237080073
 20
121.6669194913
 30
0.0
 10
94.3948924191
 20
122.2376998382
 30
0.0
 10
94.2985285506
 20
122.9073316957
 30
0.0
 10
94.3730844342
 20
123.6129240099
 30
0.0
 10
94.618009659
 20
124.2631173585
 30
0.0
 10
94.9874521829
 20
124.7856449551
 30
0.0
 10
95.4208916395
 20
125.1596103366
 30
0.0
 10
95.8728411511
 20
125.3982851275
 30
0.0
 10
96.3141629102
 20
125.5244267977
 30
0.0
 10
96.6025310185
 20
125.550331521
 30
0.0
 10
96.7389436891
 20
125.5503315209
 30
0.0
  0
SPLINE
  5
29D
100
AcDbEntity
  8
0
100
AcDbSpline
 62
7
  6
CONTINUOUS
 70
0
 71
3
 72
22
 73
18
 74
0
 42
0.0000001
 43
0.0000001
 44
0.0000000001
 40
0.0
 40
0.0
 40
0.0
 40
0.0
 40
0.041390549
 40
0.0868691637
 40
0.1369735278
 40
0.1923704845
 40
0.2537504584
 40
0.3219246098
 40
0.3978582811
 40
0.4829723001
 40
0.5752770846
 40
0.6666463307
 40
0.7494920647
 40
0.8225259492
 40
0.8880722359
 40
0.9469445752
 40
1.0
 40
1.0
 40
1.0
 40
1.0
 10
173.2389436891
 20
115.550331521
 30
0.0
 10
173.3470031286
 20
115.550331521
 30
0.0
 10
173.5741082643
 20
115.5341884173
 30
0.0
 10
173.924460598
 20
115.455918873
 30
0.0
 10
174.2919260352
 20
115.3081095803
 30
0.0
 10
174.6632112399
 20
115.0754566351
 30
0.0
 10
175.0183043703
 20
114.74357326
 30
0.0
 10
175.3296835673
 20
114.3018226757
 30
0.0
 10
175.5633388375
 20
113.7455790879
 30
0.0
 10
175.6761375304
 20
113.0875776726
 30
0.0
 10
175.6229449424
 20
112.3800080257
 30
0.0
 10
175.3894116444
 20
111.7154372267
 30
0.0
 10
175.0183273789
 20
111.1782503626
 30
0.0
 10
174.5779131065
 20
110.7953698822
 30
0.0
 10
174.118625238
 20
110.5523006368
 30
0.0
 10
173.6703093972
 20
110.4241723166
 30
0.0
 10
173.3774569392
 20
110.3978851738
 30
0.0
 10
173.2389436891
 20
110.3978851738
 30
0.0
  0
SPLINE
  5
29E
100
AcDbEntity
  8
0
100
AcDbSpline
 62
7
  6
CONTINUOUS
 70
0
 71
3
 72
22
 73
18
 74
0
 42
0.0000001
 43
0.0000001
 44
0.0000000001
 40
0.0
 40
0.0
 40
0.0
 40
0.0
 40
0.0418896315
 40
0.0878972334
 40
0.138601891
 40
0.19470543
 40
0.2569261913
 40
0.3261922235
 40
0.403682603
 40
0.4903636689
 40
0.5827419111
 40
0.672506685
 40
0.7535232089
 40
0.8252923763
 40
0.889788095
 40
0.9477499616
 40
1.0
 40
1.0
 40
1.0
 40
1.0
 10
96.7389436891
 20
110.3978851737
 30
0.0
 10
96.629579626
 20
110.3978851737
 30
0.0
 10
96.3997854643
 20
110.414151455
 30
0.0
 10
96.0452054313
 20
110.4930554362
 30
0.0
 10
95.6731044485
 20
110.642265233
 30
0.0
 10
95.2969025524
 20
110.8777713732
 30
0.0
 10
94.9372972935
 20
111.2151637835
 30
0.0
 10
94.6237080073
 20
111.6669194913
 30
0.0
 10
94.3948924191
 20
112.2376998382
 30
0.0
 10
94.2985285506
 20
112.9073316957
 30
0.0
 10
94.3730844342
 20
113.6129240099
 30
0.0
 10
94.618009659
 20
114.2631173585
 30
0.0
 10
94.9874521829
 20
114.7856449551
 30
0.0
 10
95.4208916395
 20
115.1596103366
 30
0.0
 10
95.8728411511
 20
115.3982851275
 30
0.0
 10
96.3141629102
 20
115.5244267977
 30
0.0
 10
96.6025310185
 20
115.550331521
 30
0.0
 10
96.7389436891
 20
115.5503315209
 30
0.0
  0
SPLINE
  5
29F
100
AcDbEntity
  8
0
100
AcDbSpline
 62
7
  6
CONTINUOUS
 70
0
 71
3
 72
22
 73
18
 74
0
 42
0.0000001
 43
0.0000001
 44
0.0000000001
 40
0.0
 40
0.0
 40
0.0
 40
0.0
 40
0.041390549
 40
0.0868691637
 40
0.1369735278
 40
0.1923704845
 40
0.2537504584
 40
0.3219246098
 40
0.3978582811
 40
0.4829723001
 40
0.5752770846
 40
0.6666463307
 40
0.7494920647
 40
0.8225259492
 40
0.8880722359
 40
0.9469445752
 40
1.0
 40
1.0
 40
1.0
 40
1.0
 10
173.2389436891
 20
105.550331521
 30
0.0
 10
173.3470031286
 20
105.550331521
 30
0.0
 10
173.5741082643
 20
105.5341884173
 30
0.0
 10
173.924460598
 20
105.455918873
 30
0.0
 10
174.2919260352
 20
105.3081095803
 30
0.0
 10
174.6632112399
 20
105.0754566351
 30
0.0
 10
175.0183043703
 20
104.74357326
 30
0.0
 10
175.3296835673
 20
104.3018226757
 30
0.0
 10
175.5633388375
 20
103.7455790879
 30
0.0
 10
175.6761375304
 20
103.0875776726
 30
0.0
 10
175.6229449424
 20
102.3800080257
 30
0.0
 10
175.3894116444
 20
101.7154372267
 30
0.0
 10
175.0183273789
 20
101.1782503626
 30
0.0
 10
174.5779131065
 20
100.7953698822
 30
0.0
 10
174.118625238
 20
100.5523006368
 30
0.0
 10
173.6703093972
 20
100.4241723166
 30
0.0
 10
173.3774569392
 20
100.3978851738
 30
0.0
 10
173.2389436891
 20
100.3978851738
 30
0.0
  0
SPLINE
  5
2A0
100
AcDbEntity
  8
0
100
AcDbSpline
 62
7
  6
CONTINUOUS
 70
0
 71
3
 72
22
 73
18
 74
0
 42
0.0000001
 43
0.0000001
 44
0.0000000001
 40
0.0
 40
0.0
 40
0.0
 40
0.0
 40
0.0418896315
 40
0.0878972334
 40
0.138601891
 40
0.19470543
 40
0.2569261913
 40
0.3261922235
 40
0.403682603
 40
0.4903636689
 40
0.5827419111
 40
0.672506685
 40
0.7535232089
 40
0.8252923763
 40
0.889788095
 40
0.9477499616
 40
1.0
 40
1.0
 40
1.0
 40
1.0
 10
96.7389436891
 20
100.3978851737
 30
0.0
 10
96.629579626
 20
100.3978851737
 30
0.0
 10
96.3997854643
 20
100.414151455
 30
0.0
 10
96.0452054313
 20
100.4930554362
 30
0.0
 10
95.6731044485
 20
100.642265233
 30
0.0
 10
95.2969025524
 20
100.8777713732
 30
0.0
 10
94.9372972935
 20
101.2151637835
 30
0.0
 10
94.6237080073
 20
101.6669194913
 30
0.0
 10
94.3948924191
 20
102.2376998382
 30
0.0
 10
94.2985285506
 20
102.9073316957
 30
0.0
 10
94.3730844342
 20
103.6129240099
 30
0.0
 10
94.618009659
 20
104.2631173585
 30
0.0
 10
94.9874521829
 20
104.7856449551
 30
0.0
 10
95.4208916395
 20
105.1596103366
 30
0.0
 10
95.8728411511
 20
105.3982851275
 30
0.0
 10
96.3141629102
 20
105.5244267977
 30
0.0
 10
96.6025310185
 20
105.550331521
 30
0.0
 10
96.7389436891
 20
105.5503315209
 30
0.0
  0
SPLINE
  5
2A1
100
AcDbEntity
  8
0
100
AcDbSpline
 62
7
  6
CONTINUOUS
 70
0
 71
3
 72
22
 73
18
 74
0
 42
0.0000001
 43
0.0000001
 44
0.0000000001
 40
0.0
 40
0.0
 40
0.0
 40
0.0
 40
0.041390549
 40
0.0868691637
 40
0.1369735278
 40
0.1923704845
 40
0.2537504584
 40
0.3219246098
 40
0.3978582811
 40
0.4829723001
 40
0.5752770846
 40
0.6666463307
 40
0.7494920647
 40
0.8225259492
 40
0.8880722359
 40
0.9469445752
 40
1.0
 40
1.0
 40
1.0
 40
1.0
 10
173.2389436891
 20
95.550331521
 30
0.0
 10
173.3470031286
 20
95.550331521
 30
0.0
 10
173.5741082643
 20
95.5341884173
 30
0.0
 10
173.924460598
 20
95.455918873
 30
0.0
 10
174.2919260352
 20
95.3081095803
 30
0.0
 10
174.6632112399
 20
95.0754566351
 30
0.0
 10
175.0183043703
 20
94.74357326
 30
0.0
 10
175.3296835673
 20
94.3018226757
 30
0.0
 10
175.5633388375
 20
93.7455790879
 30
0.0
 10
175.6761375304
 20
93.0875776726
 30
0.0
 10
175.6229449424
 20
92.3800080257
 30
0.0
 10
175.3894116444
 20
91.7154372267
 30
0.0
 10
175.0183273789
 20
91.1782503626
 30
0.0
 10
174.5779131065
 20
90.7953698822
 30
0.0
 10
174.118625238
 20
90.5523006368
 30
0.0
 10
173.6703093972
 20
90.4241723166
 30
0.0
 10
173.3774569392
 20
90.3978851738
 30
0.0
 10
173.2389436891
 20
90.3978851738
 30
0.0
  0
SPLINE
  5
2A2
100
AcDbEntity
  8
0
100
AcDbSpline
 62
7
  6
CONTINUOUS
 70
0
 71
3
 72
22
 73
18
 74
0
 42
0.0000001
 43
0.0000001
 44
0.0000000001
 40
0.0
 40
0.0
 40
0.0
 40
0.0
 40
0.0418896315
 40
0.0878972334
 40
0.138601891
 40
0.19470543
 40
0.2569261913
 40
0.3261922235
 40
0.403682603
 40
0.4903636689
 40
0.5827419111
 40
0.672506685
 40
0.7535232089
 40
0.8252923763
 40
0.889788095
 40
0.9477499616
 40
1.0
 40
1.0
 40
1.0
 40
1.0
 10
96.7389436891
 20
90.3978851737
 30
0.0
 10
96.629579626
 20
90.3978851737
 30
0.0
 10
96.3997854643
 20
90.414151455
 30
0.0
 10
96.0452054313
 20
90.4930554362
 30
0.0
 10
95.6731044485
 20
90.642265233
 30
0.0
 10
95.2969025524
 20
90.8777713732
 30
0.0
 10
94.9372972935
 20
91.2151637835
 30
0.0
 10
94.6237080073
 20
91.6669194913
 30
0.0
 10
94.3948924191
 20
92.2376998382
 30
0.0
 10
94.2985285506
 20
92.9073316957
 30
0.0
 10
94.3730844342
 20
93.6129240099
 30
0.0
 10
94.618009659
 20
94.2631173585
 30
0.0
 10
94.9874521829
 20
94.7856449551
 30
0.0
 10
95.4208916395
 20
95.1596103366
 30
0.0
 10
95.8728411511
 20
95.3982851275
 30
0.0
 10
96.3141629102
 20
95.5244267977
 30
0.0
 10
96.6025310185
 20
95.550331521
 30
0.0
 10
96.7389436891
 20
95.5503315209
 30
0.0
  0
SPLINE
  5
2A3
100
AcDbEntity
  8
0
100
AcDbSpline
 62
7
  6
CONTINUOUS
 70
0
 71
3
 72
22
 73
18
 74
0
 42
0.0000001
 43
0.0000001
 44
0.0000000001
 40
0.0
 40
0.0
 40
0.0
 40
0.0
 40
0.041390549
 40
0.0868691637
 40
0.1369735278
 40
0.1923704845
 40
0.2537504584
 40
0.3219246098
 40
0.3978582811
 40
0.4829723001
 40
0.5752770846
 40
0.6666463307
 40
0.7494920647
 40
0.8225259492
 40
0.8880722359
 40
0.9469445752
 40
1.0
 40
1.0
 40
1.0
 40
1.0
 10
173.2389436891
 20
85.550331521
 30
0.0
 10
173.3470031286
 20
85.550331521
 30
0.0
 10
173.5741082643
 20
85.5341884173
 30
0.0
 10
173.924460598
 20
85.455918873
 30
0.0
 10
174.2919260352
 20
85.3081095803
 30
0.0
 10
174.6632112399
 20
85.0754566351
 30
0.0
 10
175.0183043703
 20
84.74357326
 30
0.0
 10
175.3296835673
 20
84.3018226757
 30
0.0
 10
175.5633388375
 20
83.7455790879
 30
0.0
 10
175.6761375304
 20
83.0875776726
 30
0.0
 10
175.6229449424
 20
82.3800080257
 30
0.0
 10
175.3894116444
 20
81.7154372267
 30
0.0
 10
175.0183273789
 20
81.1782503626
 30
0.0
 10
174.5779131065
 20
80.7953698822
 30
0.0
 10
174.118625238
 20
80.5523006368
 30
0.0
 10
173.6703093972
 20
80.4241723166
 30
0.0
 10
173.3774569392
 20
80.3978851738
 30
0.0
 10
173.2389436891
 20
80.3978851738
 30
0.0
  0
SPLINE
  5
2A4
100
AcDbEntity
  8
0
100
AcDbSpline
 62
7
  6
CONTINUOUS
 70
0
 71
3
 72
22
 73
18
 74
0
 42
0.0000001
 43
0.0000001
 44
0.0000000001
 40
0.0
 40
0.0
 40
0.0
 40
0.0
 40
0.0418896315
 40
0.0878972334
 40
0.138601891
 40
0.19470543
 40
0.2569261913
 40
0.3261922235
 40
0.403682603
 40
0.4903636689
 40
0.5827419111
 40
0.672506685
 40
0.7535232089
 40
0.8252923763
 40
0.889788095
 40
0.9477499616
 40
1.0
 40
1.0
 40
1.0
 40
1.0
 10
96.7389436891
 20
80.3978851737
 30
0.0
 10
96.629579626
 20
80.3978851737
 30
0.0
 10
96.3997854643
 20
80.414151455
 30
0.0
 10
96.0452054313
 20
80.4930554362
 30
0.0
 10
95.6731044485
 20
80.642265233
 30
0.0
 10
95.2969025524
 20
80.8777713732
 30
0.0
 10
94.9372972935
 20
81.2151637835
 30
0.0
 10
94.6237080073
 20
81.6669194913
 30
0.0
 10
94.3948924191
 20
82.2376998382
 30
0.0
 10
94.2985285506
 20
82.9073316957
 30
0.0
 10
94.3730844342
 20
83.6129240099
 30
0.0
 10
94.618009659
 20
84.2631173585
 30
0.0
 10
94.9874521829
 20
84.7856449551
 30
0.0
 10
95.4208916395
 20
85.1596103366
 30
0.0
 10
95.8728411511
 20
85.3982851275
 30
0.0
 10
96.3141629102
 20
85.5244267977
 30
0.0
 10
96.6025310185
 20
85.550331521
 30
0.0
 10
96.7389436891
 20
85.5503315209
 30
0.0
  0
SPLINE
  5
2A5
100
AcDbEntity
  8
0
100
AcDbSpline
 62
7
  6
CONTINUOUS
 70
0
 71
3
 72
22
 73
18
 74
0
 42
0.0000001
 43
0.0000001
 44
0.0000000001
 40
0.0
 40
0.0
 40
0.0
 40
0.0
 40
0.041390549
 40
0.0868691637
 40
0.1369735278
 40
0.1923704845
 40
0.2537504584
 40
0.3219246098
 40
0.3978582811
 40
0.4829723001
 40
0.5752770846
 40
0.6666463307
 40
0.7494920647
 40
0.8225259492
 40
0.8880722359
 40
0.9469445752
 40
1.0
 40
1.0
 40
1.0
 40
1.0
 10
173.2389436891
 20
75.550331521
 30
0.0
 10
173.3470031286
 20
75.550331521
 30
0.0
 10
173.5741082643
 20
75.5341884173
 30
0.0
 10
173.924460598
 20
75.455918873
 30
0.0
 10
174.2919260352
 20
75.3081095803
 30
0.0
 10
174.6632112399
 20
75.0754566351
 30
0.0
 10
175.0183043703
 20
74.74357326
 30
0.0
 10
175.3296835673
 20
74.3018226757
 30
0.0
 10
175.5633388375
 20
73.7455790879
 30
0.0
 10
175.6761375304
 20
73.0875776726
 30
0.0
 10
175.6229449424
 20
72.3800080257
 30
0.0
 10
175.3894116444
 20
71.7154372267
 30
0.0
 10
175.0183273789
 20
71.1782503626
 30
0.0
 10
174.5779131065
 20
70.7953698822
 30
0.0
 10
174.118625238
 20
70.5523006368
 30
0.0
 10
173.6703093972
 20
70.4241723166
 30
0.0
 10
173.3774569392
 20
70.3978851738
 30
0.0
 10
173.2389436891
 20
70.3978851738
 30
0.0
  0
SPLINE
  5
2A6
100
AcDbEntity
  8
0
100
AcDbSpline
 62
7
  6
CONTINUOUS
 70
0
 71
3
 72
22
 73
18
 74
0
 42
0.0000001
 43
0.0000001
 44
0.0000000001
 40
0.0
 40
0.0
 40
0.0
 40
0.0
 40
0.0418896315
 40
0.0878972334
 40
0.138601891
 40
0.19470543
 40
0.2569261913
 40
0.3261922235
 40
0.403682603
 40
0.4903636689
 40
0.5827419111
 40
0.672506685
 40
0.7535232089
 40
0.8252923763
 40
0.889788095
 40
0.9477499616
 40
1.0
 40
1.0
 40
1.0
 40
1.0
 10
96.7389436891
 20
70.3978851737
 30
0.0
 10
96.629579626
 20
70.3978851737
 30
0.0
 10
96.3997854643
 20
70.414151455
 30
0.0
 10
96.0452054313
 20
70.4930554362
 30
0.0
 10
95.6731044485
 20
70.642265233
 30
0.0
 10
95.2969025524
 20
70.8777713732
 30
0.0
 10
94.9372972935
 20
71.2151637835
 30
0.0
 10
94.6237080073
 20
71.6669194913
 30
0.0
 10
94.3948924191
 20
72.2376998382
 30
0.0
 10
94.2985285506
 20
72.9073316957
 30
0.0
 10
94.3730844342
 20
73.6129240099
 30
0.0
 10
94.618009659
 20
74.2631173585
 30
0.0
 10
94.9874521829
 20
74.7856449551
 30
0.0
 10
95.4208916395
 20
75.1596103366
 30
0.0
 10
95.8728411511
 20
75.3982851275
 30
0.0
 10
96.3141629102
 20
75.5244267977
 30
0.0
 10
96.6025310185
 20
75.550331521
 30
0.0
 10
96.7389436891
 20
75.5503315209
 30
0.0
  0
SPLINE
  5
2A7
100
AcDbEntity
  8
0
100
AcDbSpline
 62
7
  6
CONTINUOUS
 70
0
 71
3
 72
22
 73
18
 74
0
 42
0.0000001
 43
0.0000001
 44
0.0000000001
 40
0.0
 40
0.0
 40
0.0
 40
0.0
 40
0.041390549
 40
0.0868691637
 40
0.1369735278
 40
0.1923704845
 40
0.2537504584
 40
0.3219246098
 40
0.3978582811
 40
0.4829723001
 40
0.5752770846
 40
0.6666463307
 40
0.7494920647
 40
0.8225259492
 40
0.8880722359
 40
0.9469445752
 40
1.0
 40
1.0
 40
1.0
 40
1.0
 10
173.2389436891
 20
65.550331521
 30
0.0
 10
173.3470031286
 20
65.550331521
 30
0.0
 10
173.5741082643
 20
65.5341884173
 30
0.0
 10
173.924460598
 20
65.455918873
 30
0.0
 10
174.2919260352
 20
65.3081095803
 30
0.0
 10
174.6632112399
 20
65.0754566351
 30
0.0
 10
175.0183043703
 20
64.74357326
 30
0.0
 10
175.3296835673
 20
64.3018226757
 30
0.0
 10
175.5633388375
 20
63.7455790879
 30
0.0
 10
175.6761375304
 20
63.0875776726
 30
0.0
 10
175.6229449424
 20
62.3800080257
 30
0.0
 10
175.3894116444
 20
61.7154372267
 30
0.0
 10
175.0183273789
 20
61.1782503626
 30
0.0
 10
174.5779131065
 20
60.7953698822
 30
0.0
 10
174.118625238
 20
60.5523006368
 30
0.0
 10
173.6703093972
 20
60.4241723166
 30
0.0
 10
173.3774569392
 20
60.3978851738
 30
0.0
 10
173.2389436891
 20
60.3978851738
 30
0.0
  0
SPLINE
  5
2A8
100
AcDbEntity
  8
0
100
AcDbSpline
 62
7
  6
CONTINUOUS
 70
0
 71
3
 72
22
 73
18
 74
0
 42
0.0000001
 43
0.0000001
 44
0.0000000001
 40
0.0
 40
0.0
 40
0.0
 40
0.0
 40
0.0418896315
 40
0.0878972334
 40
0.138601891
 40
0.19470543
 40
0.2569261913
 40
0.3261922235
 40
0.403682603
 40
0.4903636689
 40
0.5827419111
 40
0.672506685
 40
0.7535232089
 40
0.8252923763
 40
0.889788095
 40
0.9477499616
 40
1.0
 40
1.0
 40
1.0
 40
1.0
 10
96.7389436891
 20
60.3978851737
 30
0.0
 10
96.629579626
 20
60.3978851737
 30
0.0
 10
96.3997854643
 20
60.414151455
 30
0.0
 10
96.0452054313
 20
60.4930554362
 30
0.0
 10
95.6731044485
 20
60.642265233
 30
0.0
 10
95.2969025524
 20
60.8777713732
 30
0.0
 10
94.9372972935
 20
61.2151637835
 30
0.0
 10
94.6237080073
 20
61.6669194913
 30
0.0
 10
94.3948924191
 20
62.2376998382
 30
0.0
 10
94.2985285506
 20
62.9073316957
 30
0.0
 10
94.3730844342
 20
63.6129240099
 30
0.0
 10
94.618009659
 20
64.2631173585
 30
0.0
 10
94.9874521829
 20
64.7856449551
 30
0.0
 10
95.4208916395
 20
65.1596103366
 30
0.0
 10
95.8728411511
 20
65.3982851275
 30
0.0
 10
96.3141629102
 20
65.5244267977
 30
0.0
 10
96.6025310185
 20
65.550331521
 30
0.0
 10
96.7389436891
 20
65.5503315209
 30
0.0
  0
SPLINE
  5
2A9
100
AcDbEntity
  8
0
100
AcDbSpline
 62
7
  6
CONTINUOUS
 70
0
 71
3
 72
22
 73
18
 74
0
 42
0.0000001
 43
0.0000001
 44
0.0000000001
 40
0.0
 40
0.0
 40
0.0
 40
0.0
 40
0.041390549
 40
0.0868691637
 40
0.1369735278
 40
0.1923704845
 40
0.2537504584
 40
0.3219246098
 40
0.3978582811
 40
0.4829723001
 40
0.5752770846
 40
0.6666463307
 40
0.7494920647
 40
0.8225259492
 40
0.8880722359
 40
0.9469445752
 40
1.0
 40
1.0
 40
1.0
 40
1.0
 10
173.2389436891
 20
55.550331521
 30
0.0
 10
173.3470031286
 20
55.550331521
 30
0.0
 10
173.5741082643
 20
55.5341884173
 30
0.0
 10
173.924460598
 20
55.455918873
 30
0.0
 10
174.2919260352
 20
55.3081095803
 30
0.0
 10
174.6632112399
 20
55.0754566351
 30
0.0
 10
175.0183043703
 20
54.74357326
 30
0.0
 10
175.3296835673
 20
54.3018226757
 30
0.0
 10
175.5633388375
 20
53.7455790879
 30
0.0
 10
175.6761375304
 20
53.0875776726
 30
0.0
 10
175.6229449424
 20
52.3800080257
 30
0.0
 10
175.3894116444
 20
51.7154372267
 30
0.0
 10
175.0183273789
 20
51.1782503626
 30
0.0
 10
174.5779131065
 20
50.7953698822
 30
0.0
 10
174.118625238
 20
50.5523006368
 30
0.0
 10
173.6703093972
 20
50.4241723166
 30
0.0
 10
173.3774569392
 20
50.3978851738
 30
0.0
 10
173.2389436891
 20
50.3978851738
 30
0.0
  0
SPLINE
  5
2AA
100
AcDbEntity
  8
0
100
AcDbSpline
 62
7
  6
CONTINUOUS
 70
0
 71
3
 72
22
 73
18
 74
0
 42
0.0000001
 43
0.0000001
 44
0.0000000001
 40
0.0
 40
0.0
 40
0.0
 40
0.0
 40
0.0418896315
 40
0.0878972334
 40
0.138601891
 40
0.19470543
 40
0.2569261913
 40
0.3261922235
 40
0.403682603
 40
0.4903636689
 40
0.5827419111
 40
0.672506685
 40
0.7535232089
 40
0.8252923763
 40
0.889788095
 40
0.9477499616
 40
1.0
 40
1.0
 40
1.0
 40
1.0
 10
96.7389436891
 20
50.3978851737
 30
0.0
 10
96.629579626
 20
50.3978851737
 30
0.0
 10
96.3997854643
 20
50.414151455
 30
0.0
 10
96.0452054313
 20
50.4930554362
 30
0.0
 10
95.6731044485
 20
50.642265233
 30
0.0
 10
95.2969025524
 20
50.8777713732
 30
0.0
 10
94.9372972935
 20
51.2151637835
 30
0.0
 10
94.6237080073
 20
51.6669194913
 30
0.0
 10
94.3948924191
 20
52.2376998382
 30
0.0
 10
94.2985285506
 20
52.9073316957
 30
0.0
 10
94.3730844342
 20
53.6129240099
 30
0.0
 10
94.618009659
 20
54.2631173585
 30
0.0
 10
94.9874521829
 20
54.7856449551
 30
0.0
 10
95.4208916395
 20
55.1596103366
 30
0.0
 10
95.8728411511
 20
55.3982851275
 30
0.0
 10
96.3141629102
 20
55.5244267977
 30
0.0
 10
96.6025310185
 20
55.550331521
 30
0.0
 10
96.7389436891
 20
55.5503315209
 30
0.0
  0
SPLINE
  5
2AB
100
AcDbEntity
  8
0
100
AcDbSpline
 62
7
  6
CONTINUOUS
 70
0
 71
3
 72
13
 73
9
 74
0
 42
0.0000001
 43
0.0000001
 44
0.0000000001
 40
0.0
 40
0.0
 40
0.0
 40
0.0
 40
0.015977868
 40
0.063379281
 40
0.1422086172
 40
0.2523337287
 40
0.5655317077
 40
1.0
 40
1.0
 40
1.0
 40
1.0
 10
214.5058362109
 20
410.5481304985
 30
0.0
 10
214.5080457487
 20
410.5481304985
 30
0.0
 10
214.5049810456
 20
410.5620636353
 30
0.0
 10
214.5094291227
 20
410.5767310128
 30
0.0
 10
214.5083045542
 20
410.6122150762
 30
0.0
 10
214.5109582941
 20
410.6799373959
 30
0.0
 10
214.5116308758
 20
410.7998396517
 30
0.0
 10
214.5130012772
 20
410.9027665794
 30
0.0
 10
214.5135393996
 20
410.9628456572
 30
0.0
  0
SPLINE
  5
2AC
100
AcDbEntity
  8
0
100
AcDbSpline
 62
7
  6
CONTINUOUS
 70
0
 71
3
 72
22
 73
18
 74
0
 42
0.0000001
 43
0.0000001
 44
0.0000000001
 40
0.0
 40
0.0
 40
0.0
 40
0.0
 40
0.0813122196
 40
0.1738842823
 40
0.2776255959
 40
0.3796072526
 40
0.4706232892
 40
0.5514270451
 40
0.6238686991
 40
0.6889415227
 40
0.7475947063
 40
0.8005647639
 40
0.8484654379
 40
0.8918956964
 40
0.9313664384
 40
0.9671679245
 40
1.0
 40
1.0
 40
1.0
 40
1.0
 10
96.7389436891
 20
378.3978851737
 30
0.0
 10
96.5267577222
 20
378.3978851738
 30
0.0
 10
96.0707059242
 20
378.4608549991
 30
0.0
 10
95.4020624094
 20
378.768029066
 30
0.0
 10
94.8246558473
 20
379.3126424461
 30
0.0
 10
94.4558069426
 20
380.0080105871
 30
0.0
 10
94.3105075582
 20
380.7157729318
 30
0.0
 10
94.334423488
 20
381.3579880611
 30
0.0
 10
94.4757489246
 20
381.9139621324
 30
0.0
 10
94.6984172574
 20
382.3783992766
 30
0.0
 10
94.9729571243
 20
382.7520127717
 30
0.0
 10
95.2761626839
 20
383.0402127342
 30
0.0
 10
95.5893099587
 20
383.2521633023
 30
0.0
 10
95.8988438954
 20
383.3988951549
 30
0.0
 10
96.1955114191
 20
383.4912107303
 30
0.0
 10
96.4740130976
 20
383.5401399652
 30
0.0
 10
96.6532676896
 20
383.550331521
 30
0.0
 10
96.7389436891
 20
383.550331521
 30
0.0
  0
SPLINE
  5
2AD
100
AcDbEntity
  8
0
100
AcDbSpline
 62
7
  6
CONTINUOUS
 70
0
 71
3
 72
22
 73
18
 74
0
 42
0.0000001
 43
0.0000001
 44
0.0000000001
 40
0.0
 40
0.0
 40
0.0
 40
0.0
 40
0.0620334243
 40
0.1314162138
 40
0.2089465088
 40
0.2972797566
 40
0.3941670272
 40
0.4882470965
 40
0.5718374398
 40
0.6465226162
 40
0.7136537365
 40
0.7740201477
 40
0.8284457705
 40
0.8776936925
 40
0.9224141048
 40
0.9630812591
 40
1.0
 40
1.0
 40
1.0
 40
1.0
 10
173.2389436891
 20
383.550331521
 30
0.0
 10
173.4008772037
 20
383.5503315209
 30
0.0
 10
173.7449822464
 20
383.5135844086
 30
0.0
 10
174.2653887314
 20
383.3344820409
 30
0.0
 10
174.7851517955
 20
382.9946638385
 30
0.0
 10
175.243915053
 20
382.4725845718
 30
0.0
 10
175.5565308863
 20
381.8027768572
 30
0.0
 10
175.6761896193
 20
381.0878366459
 30
0.0
 10
175.62362198
 20
380.4251940497
 30
0.0
 10
175.4453834977
 20
379.8594654885
 30
0.0
 10
175.1817528079
 20
379.3978633887
 30
0.0
 10
174.8667646883
 20
379.0385049182
 30
0.0
 10
174.5279779608
 20
378.7728968508
 30
0.0
 10
174.18532778
 20
378.5885282256
 30
0.0
 10
173.8523444374
 20
378.4719946971
 30
0.0
 10
173.5380646153
 20
378.4105290374
 30
0.0
 10
173.3353172415
 20
378.3978851737
 30
0.0
 10
173.2389436891
 20
378.3978851737
 30
0.0
  0
SPLINE
  5
2AE
100
AcDbEntity
  8
0
100
AcDbSpline
 62
7
  6
CONTINUOUS
 70
0
 71
3
 72
22
 73
18
 74
0
 42
0.0000001
 43
0.0000001
 44
0.0000000001
 40
0.0
 40
0.0
 40
0.0
 40
0.0
 40
0.0813122196
 40
0.1738842823
 40
0.2776255959
 40
0.3796072526
 40
0.4706232892
 40
0.5514270451
 40
0.6238686991
 40
0.6889415227
 40
0.7475947063
 40
0.8005647639
 40
0.8484654379
 40
0.8918956964
 40
0.9313664384
 40
0.9671679245
 40
1.0
 40
1.0
 40
1.0
 40
1.0
 10
96.7389436891
 20
368.3978851737
 30
0.0
 10
96.5267577222
 20
368.3978851738
 30
0.0
 10
96.0707059242
 20
368.4608549991
 30
0.0
 10
95.4020624094
 20
368.768029066
 30
0.0
 10
94.8246558473
 20
369.3126424461
 30
0.0
 10
94.4558069426
 20
370.0080105871
 30
0.0
 10
94.3105075582
 20
370.7157729318
 30
0.0
 10
94.334423488
 20
371.3579880611
 30
0.0
 10
94.4757489246
 20
371.9139621324
 30
0.0
 10
94.6984172574
 20
372.3783992766
 30
0.0
 10
94.9729571243
 20
372.7520127717
 30
0.0
 10
95.2761626839
 20
373.0402127342
 30
0.0
 10
95.5893099587
 20
373.2521633023
 30
0.0
 10
95.8988438954
 20
373.3988951549
 30
0.0
 10
96.1955114191
 20
373.4912107303
 30
0.0
 10
96.4740130976
 20
373.5401399652
 30
0.0
 10
96.6532676896
 20
373.550331521
 30
0.0
 10
96.7389436891
 20
373.550331521
 30
0.0
  0
SPLINE
  5
2AF
100
AcDbEntity
  8
0
100
AcDbSpline
 62
7
  6
CONTINUOUS
 70
0
 71
3
 72
22
 73
18
 74
0
 42
0.0000001
 43
0.0000001
 44
0.0000000001
 40
0.0
 40
0.0
 40
0.0
 40
0.0
 40
0.0620334243
 40
0.1314162138
 40
0.2089465088
 40
0.2972797566
 40
0.3941670272
 40
0.4882470965
 40
0.5718374398
 40
0.6465226162
 40
0.7136537365
 40
0.7740201477
 40
0.8284457705
 40
0.8776936925
 40
0.9224141048
 40
0.9630812591
 40
1.0
 40
1.0
 40
1.0
 40
1.0
 10
173.2389436891
 20
373.550331521
 30
0.0
 10
173.4008772037
 20
373.5503315209
 30
0.0
 10
173.7449822464
 20
373.5135844086
 30
0.0
 10
174.2653887314
 20
373.3344820409
 30
0.0
 10
174.7851517955
 20
372.9946638385
 30
0.0
 10
175.243915053
 20
372.4725845718
 30
0.0
 10
175.5565308863
 20
371.8027768572
 30
0.0
 10
175.6761896193
 20
371.0878366459
 30
0.0
 10
175.62362198
 20
370.4251940497
 30
0.0
 10
175.4453834977
 20
369.8594654885
 30
0.0
 10
175.1817528079
 20
369.3978633887
 30
0.0
 10
174.8667646883
 20
369.0385049182
 30
0.0
 10
174.5279779608
 20
368.7728968508
 30
0.0
 10
174.18532778
 20
368.5885282256
 30
0.0
 10
173.8523444374
 20
368.4719946971
 30
0.0
 10
173.5380646153
 20
368.4105290374
 30
0.0
 10
173.3353172415
 20
368.3978851737
 30
0.0
 10
173.2389436891
 20
368.3978851737
 30
0.0
  0
SPLINE
  5
2B0
100
AcDbEntity
  8
0
100
AcDbSpline
 62
7
  6
CONTINUOUS
 70
0
 71
3
 72
22
 73
18
 74
0
 42
0.0000001
 43
0.0000001
 44
0.0000000001
 40
0.0
 40
0.0
 40
0.0
 40
0.0
 40
0.0813122196
 40
0.1738842823
 40
0.2776255959
 40
0.3796072526
 40
0.4706232892
 40
0.5514270451
 40
0.6238686991
 40
0.6889415227
 40
0.7475947063
 40
0.8005647639
 40
0.8484654379
 40
0.8918956964
 40
0.9313664384
 40
0.9671679245
 40
1.0
 40
1.0
 40
1.0
 40
1.0
 10
96.7389436891
 20
358.3978851738
 30
0.0
 10
96.5267577222
 20
358.3978851738
 30
0.0
 10
96.0707059242
 20
358.4608549991
 30
0.0
 10
95.4020624094
 20
358.7680290661
 30
0.0
 10
94.8246558473
 20
359.3126424461
 30
0.0
 10
94.4558069426
 20
360.0080105871
 30
0.0
 10
94.3105075582
 20
360.7157729318
 30
0.0
 10
94.334423488
 20
361.3579880611
 30
0.0
 10
94.4757489246
 20
361.9139621324
 30
0.0
 10
94.6984172574
 20
362.3783992766
 30
0.0
 10
94.9729571243
 20
362.7520127717
 30
0.0
 10
95.2761626839
 20
363.0402127342
 30
0.0
 10
95.5893099587
 20
363.2521633023
 30
0.0
 10
95.8988438954
 20
363.3988951549
 30
0.0
 10
96.1955114191
 20
363.4912107303
 30
0.0
 10
96.4740130976
 20
363.5401399652
 30
0.0
 10
96.6532676896
 20
363.550331521
 30
0.0
 10
96.7389436891
 20
363.550331521
 30
0.0
  0
SPLINE
  5
2B1
100
AcDbEntity
  8
0
100
AcDbSpline
 62
7
  6
CONTINUOUS
 70
0
 71
3
 72
22
 73
18
 74
0
 42
0.0000001
 43
0.0000001
 44
0.0000000001
 40
0.0
 40
0.0
 40
0.0
 40
0.0
 40
0.0620334243
 40
0.1314162138
 40
0.2089465088
 40
0.2972797566
 40
0.3941670272
 40
0.4882470965
 40
0.5718374398
 40
0.6465226162
 40
0.7136537365
 40
0.7740201477
 40
0.8284457705
 40
0.8776936925
 40
0.9224141048
 40
0.9630812591
 40
1.0
 40
1.0
 40
1.0
 40
1.0
 10
173.2389436891
 20
363.550331521
 30
0.0
 10
173.4008772037
 20
363.5503315209
 30
0.0
 10
173.7449822464
 20
363.5135844086
 30
0.0
 10
174.2653887314
 20
363.3344820409
 30
0.0
 10
174.7851517955
 20
362.9946638385
 30
0.0
 10
175.243915053
 20
362.4725845718
 30
0.0
 10
175.5565308863
 20
361.8027768572
 30
0.0
 10
175.6761896193
 20
361.0878366459
 30
0.0
 10
175.62362198
 20
360.4251940497
 30
0.0
 10
175.4453834977
 20
359.8594654885
 30
0.0
 10
175.1817528079
 20
359.3978633887
 30
0.0
 10
174.8667646883
 20
359.0385049183
 30
0.0
 10
174.5279779608
 20
358.7728968508
 30
0.0
 10
174.18532778
 20
358.5885282256
 30
0.0
 10
173.8523444374
 20
358.4719946971
 30
0.0
 10
173.5380646153
 20
358.4105290374
 30
0.0
 10
173.3353172415
 20
358.3978851738
 30
0.0
 10
173.2389436891
 20
358.3978851738
 30
0.0
  0
SPLINE
  5
2B2
100
AcDbEntity
  8
0
100
AcDbSpline
 62
7
  6
CONTINUOUS
 70
0
 71
3
 72
22
 73
18
 74
0
 42
0.0000001
 43
0.0000001
 44
0.0000000001
 40
0.0
 40
0.0
 40
0.0
 40
0.0
 40
0.0813122196
 40
0.1738842823
 40
0.2776255959
 40
0.3796072526
 40
0.4706232892
 40
0.5514270451
 40
0.6238686991
 40
0.6889415227
 40
0.7475947063
 40
0.8005647639
 40
0.8484654379
 40
0.8918956964
 40
0.9313664384
 40
0.9671679245
 40
1.0
 40
1.0
 40
1.0
 40
1.0
 10
96.7389436891
 20
348.3978851738
 30
0.0
 10
96.5267577222
 20
348.3978851738
 30
0.0
 10
96.0707059242
 20
348.4608549991
 30
0.0
 10
95.4020624094
 20
348.7680290661
 30
0.0
 10
94.8246558473
 20
349.3126424461
 30
0.0
 10
94.4558069426
 20
350.0080105872
 30
0.0
 10
94.3105075582
 20
350.7157729319
 30
0.0
 10
94.334423488
 20
351.3579880611
 30
0.0
 10
94.4757489246
 20
351.9139621325
 30
0.0
 10
94.6984172574
 20
352.3783992767
 30
0.0
 10
94.9729571243
 20
352.7520127717
 30
0.0
 10
95.2761626839
 20
353.0402127343
 30
0.0
 10
95.5893099587
 20
353.2521633023
 30
0.0
 10
95.8988438954
 20
353.3988951549
 30
0.0
 10
96.1955114191
 20
353.4912107304
 30
0.0
 10
96.4740130976
 20
353.5401399653
 30
0.0
 10
96.6532676896
 20
353.550331521
 30
0.0
 10
96.7389436891
 20
353.550331521
 30
0.0
  0
SPLINE
  5
2B3
100
AcDbEntity
  8
0
100
AcDbSpline
 62
7
  6
CONTINUOUS
 70
0
 71
3
 72
22
 73
18
 74
0
 42
0.0000001
 43
0.0000001
 44
0.0000000001
 40
0.0
 40
0.0
 40
0.0
 40
0.0
 40
0.0620334243
 40
0.1314162138
 40
0.2089465088
 40
0.2972797566
 40
0.3941670272
 40
0.4882470965
 40
0.5718374398
 40
0.6465226162
 40
0.7136537365
 40
0.7740201477
 40
0.8284457705
 40
0.8776936925
 40
0.9224141048
 40
0.9630812591
 40
1.0
 40
1.0
 40
1.0
 40
1.0
 10
173.2389436891
 20
353.550331521
 30
0.0
 10
173.4008772037
 20
353.550331521
 30
0.0
 10
173.7449822464
 20
353.5135844087
 30
0.0
 10
174.2653887314
 20
353.3344820409
 30
0.0
 10
174.7851517955
 20
352.9946638385
 30
0.0
 10
175.243915053
 20
352.4725845719
 30
0.0
 10
175.5565308863
 20
351.8027768573
 30
0.0
 10
175.6761896193
 20
351.0878366459
 30
0.0
 10
175.62362198
 20
350.4251940497
 30
0.0
 10
175.4453834977
 20
349.8594654886
 30
0.0
 10
175.1817528079
 20
349.3978633888
 30
0.0
 10
174.8667646883
 20
349.0385049183
 30
0.0
 10
174.5279779608
 20
348.7728968508
 30
0.0
 10
174.18532778
 20
348.5885282256
 30
0.0
 10
173.8523444374
 20
348.4719946971
 30
0.0
 10
173.5380646153
 20
348.4105290374
 30
0.0
 10
173.3353172415
 20
348.3978851738
 30
0.0
 10
173.2389436891
 20
348.3978851738
 30
0.0
  0
SPLINE
  5
2B4
100
AcDbEntity
  8
0
100
AcDbSpline
 62
7
  6
CONTINUOUS
 70
0
 71
3
 72
22
 73
18
 74
0
 42
0.0000001
 43
0.0000001
 44
0.0000000001
 40
0.0
 40
0.0
 40
0.0
 40
0.0
 40
0.0813122196
 40
0.1738842823
 40
0.2776255959
 40
0.3796072526
 40
0.4706232892
 40
0.5514270451
 40
0.6238686991
 40
0.6889415227
 40
0.7475947063
 40
0.8005647639
 40
0.8484654379
 40
0.8918956964
 40
0.9313664384
 40
0.9671679245
 40
1.0
 40
1.0
 40
1.0
 40
1.0
 10
96.7389436891
 20
338.3978851738
 30
0.0
 10
96.5267577222
 20
338.3978851738
 30
0.0
 10
96.0707059242
 20
338.4608549991
 30
0.0
 10
95.4020624094
 20
338.7680290661
 30
0.0
 10
94.8246558473
 20
339.3126424461
 30
0.0
 10
94.4558069426
 20
340.0080105872
 30
0.0
 10
94.3105075582
 20
340.7157729319
 30
0.0
 10
94.334423488
 20
341.3579880611
 30
0.0
 10
94.4757489246
 20
341.9139621325
 30
0.0
 10
94.6984172574
 20
342.3783992767
 30
0.0
 10
94.9729571243
 20
342.7520127717
 30
0.0
 10
95.2761626839
 20
343.0402127343
 30
0.0
 10
95.5893099587
 20
343.2521633023
 30
0.0
 10
95.8988438954
 20
343.3988951549
 30
0.0
 10
96.1955114191
 20
343.4912107304
 30
0.0
 10
96.4740130976
 20
343.5401399653
 30
0.0
 10
96.6532676896
 20
343.550331521
 30
0.0
 10
96.7389436891
 20
343.550331521
 30
0.0
  0
SPLINE
  5
2B5
100
AcDbEntity
  8
0
100
AcDbSpline
 62
7
  6
CONTINUOUS
 70
0
 71
3
 72
22
 73
18
 74
0
 42
0.0000001
 43
0.0000001
 44
0.0000000001
 40
0.0
 40
0.0
 40
0.0
 40
0.0
 40
0.0620334243
 40
0.1314162138
 40
0.2089465088
 40
0.2972797566
 40
0.3941670272
 40
0.4882470965
 40
0.5718374398
 40
0.6465226162
 40
0.7136537365
 40
0.7740201477
 40
0.8284457705
 40
0.8776936925
 40
0.9224141048
 40
0.9630812591
 40
1.0
 40
1.0
 40
1.0
 40
1.0
 10
173.2389436891
 20
343.550331521
 30
0.0
 10
173.4008772037
 20
343.550331521
 30
0.0
 10
173.7449822464
 20
343.5135844087
 30
0.0
 10
174.2653887314
 20
343.3344820409
 30
0.0
 10
174.7851517955
 20
342.9946638385
 30
0.0
 10
175.243915053
 20
342.4725845719
 30
0.0
 10
175.5565308863
 20
341.8027768573
 30
0.0
 10
175.6761896193
 20
341.0878366459
 30
0.0
 10
175.62362198
 20
340.4251940497
 30
0.0
 10
175.4453834977
 20
339.8594654886
 30
0.0
 10
175.1817528079
 20
339.3978633888
 30
0.0
 10
174.8667646883
 20
339.0385049183
 30
0.0
 10
174.5279779608
 20
338.7728968508
 30
0.0
 10
174.18532778
 20
338.5885282256
 30
0.0
 10
173.8523444374
 20
338.4719946971
 30
0.0
 10
173.5380646153
 20
338.4105290374
 30
0.0
 10
173.3353172415
 20
338.3978851738
 30
0.0
 10
173.2389436891
 20
338.3978851738
 30
0.0
  0
SPLINE
  5
2B6
100
AcDbEntity
  8
0
100
AcDbSpline
 62
7
  6
CONTINUOUS
 70
0
 71
3
 72
22
 73
18
 74
0
 42
0.0000001
 43
0.0000001
 44
0.0000000001
 40
0.0
 40
0.0
 40
0.0
 40
0.0
 40
0.0813122196
 40
0.1738842823
 40
0.2776255959
 40
0.3796072526
 40
0.4706232892
 40
0.5514270451
 40
0.6238686991
 40
0.6889415227
 40
0.7475947063
 40
0.8005647639
 40
0.8484654379
 40
0.8918956964
 40
0.9313664384
 40
0.9671679245
 40
1.0
 40
1.0
 40
1.0
 40
1.0
 10
96.7389436891
 20
328.3978851738
 30
0.0
 10
96.5267577222
 20
328.3978851738
 30
0.0
 10
96.0707059242
 20
328.4608549991
 30
0.0
 10
95.4020624094
 20
328.7680290661
 30
0.0
 10
94.8246558473
 20
329.3126424461
 30
0.0
 10
94.4558069426
 20
330.0080105872
 30
0.0
 10
94.3105075582
 20
330.7157729319
 30
0.0
 10
94.334423488
 20
331.3579880611
 30
0.0
 10
94.4757489246
 20
331.9139621325
 30
0.0
 10
94.6984172574
 20
332.3783992767
 30
0.0
 10
94.9729571243
 20
332.7520127717
 30
0.0
 10
95.2761626839
 20
333.0402127343
 30
0.0
 10
95.5893099587
 20
333.2521633023
 30
0.0
 10
95.8988438954
 20
333.3988951549
 30
0.0
 10
96.1955114191
 20
333.4912107304
 30
0.0
 10
96.4740130976
 20
333.5401399653
 30
0.0
 10
96.6532676896
 20
333.550331521
 30
0.0
 10
96.7389436891
 20
333.550331521
 30
0.0
  0
SPLINE
  5
2B7
100
AcDbEntity
  8
0
100
AcDbSpline
 62
7
  6
CONTINUOUS
 70
0
 71
3
 72
22
 73
18
 74
0
 42
0.0000001
 43
0.0000001
 44
0.0000000001
 40
0.0
 40
0.0
 40
0.0
 40
0.0
 40
0.0620334243
 40
0.1314162138
 40
0.2089465088
 40
0.2972797566
 40
0.3941670272
 40
0.4882470965
 40
0.5718374398
 40
0.6465226162
 40
0.7136537365
 40
0.7740201477
 40
0.8284457705
 40
0.8776936925
 40
0.9224141048
 40
0.9630812591
 40
1.0
 40
1.0
 40
1.0
 40
1.0
 10
173.2389436891
 20
333.550331521
 30
0.0
 10
173.4008772037
 20
333.550331521
 30
0.0
 10
173.7449822464
 20
333.5135844087
 30
0.0
 10
174.2653887314
 20
333.3344820409
 30
0.0
 10
174.7851517955
 20
332.9946638385
 30
0.0
 10
175.243915053
 20
332.4725845719
 30
0.0
 10
175.5565308863
 20
331.8027768573
 30
0.0
 10
175.6761896193
 20
331.0878366459
 30
0.0
 10
175.62362198
 20
330.4251940497
 30
0.0
 10
175.4453834977
 20
329.8594654886
 30
0.0
 10
175.1817528079
 20
329.3978633888
 30
0.0
 10
174.8667646883
 20
329.0385049183
 30
0.0
 10
174.5279779608
 20
328.7728968508
 30
0.0
 10
174.18532778
 20
328.5885282256
 30
0.0
 10
173.8523444374
 20
328.4719946971
 30
0.0
 10
173.5380646153
 20
328.4105290374
 30
0.0
 10
173.3353172415
 20
328.3978851738
 30
0.0
 10
173.2389436891
 20
328.3978851738
 30
0.0
  0
SPLINE
  5
2B8
100
AcDbEntity
  8
0
100
AcDbSpline
 62
7
  6
CONTINUOUS
 70
0
 71
3
 72
22
 73
18
 74
0
 42
0.0000001
 43
0.0000001
 44
0.0000000001
 40
0.0
 40
0.0
 40
0.0
 40
0.0
 40
0.0813122196
 40
0.1738842823
 40
0.2776255959
 40
0.3796072526
 40
0.4706232892
 40
0.5514270451
 40
0.6238686991
 40
0.6889415227
 40
0.7475947063
 40
0.8005647639
 40
0.8484654379
 40
0.8918956964
 40
0.9313664384
 40
0.9671679245
 40
1.0
 40
1.0
 40
1.0
 40
1.0
 10
96.7389436891
 20
318.3978851738
 30
0.0
 10
96.5267577222
 20
318.3978851738
 30
0.0
 10
96.0707059242
 20
318.4608549991
 30
0.0
 10
95.4020624094
 20
318.7680290661
 30
0.0
 10
94.8246558473
 20
319.3126424461
 30
0.0
 10
94.4558069426
 20
320.0080105872
 30
0.0
 10
94.3105075582
 20
320.7157729319
 30
0.0
 10
94.334423488
 20
321.3579880611
 30
0.0
 10
94.4757489246
 20
321.9139621325
 30
0.0
 10
94.6984172574
 20
322.3783992767
 30
0.0
 10
94.9729571243
 20
322.7520127717
 30
0.0
 10
95.2761626839
 20
323.0402127343
 30
0.0
 10
95.5893099587
 20
323.2521633023
 30
0.0
 10
95.8988438954
 20
323.3988951549
 30
0.0
 10
96.1955114191
 20
323.4912107304
 30
0.0
 10
96.4740130976
 20
323.5401399653
 30
0.0
 10
96.6532676896
 20
323.550331521
 30
0.0
 10
96.7389436891
 20
323.550331521
 30
0.0
  0
SPLINE
  5
2B9
100
AcDbEntity
  8
0
100
AcDbSpline
 62
7
  6
CONTINUOUS
 70
0
 71
3
 72
22
 73
18
 74
0
 42
0.0000001
 43
0.0000001
 44
0.0000000001
 40
0.0
 40
0.0
 40
0.0
 40
0.0
 40
0.0620334243
 40
0.1314162138
 40
0.2089465088
 40
0.2972797566
 40
0.3941670272
 40
0.4882470965
 40
0.5718374398
 40
0.6465226162
 40
0.7136537365
 40
0.7740201477
 40
0.8284457705
 40
0.8776936925
 40
0.9224141048
 40
0.9630812591
 40
1.0
 40
1.0
 40
1.0
 40
1.0
 10
173.2389436891
 20
323.550331521
 30
0.0
 10
173.4008772037
 20
323.550331521
 30
0.0
 10
173.7449822464
 20
323.5135844087
 30
0.0
 10
174.2653887314
 20
323.3344820409
 30
0.0
 10
174.7851517955
 20
322.9946638385
 30
0.0
 10
175.243915053
 20
322.4725845719
 30
0.0
 10
175.5565308863
 20
321.8027768573
 30
0.0
 10
175.6761896193
 20
321.0878366459
 30
0.0
 10
175.62362198
 20
320.4251940497
 30
0.0
 10
175.4453834977
 20
319.8594654886
 30
0.0
 10
175.1817528079
 20
319.3978633888
 30
0.0
 10
174.8667646883
 20
319.0385049183
 30
0.0
 10
174.5279779608
 20
318.7728968508
 30
0.0
 10
174.18532778
 20
318.5885282256
 30
0.0
 10
173.8523444374
 20
318.4719946971
 30
0.0
 10
173.5380646153
 20
318.4105290374
 30
0.0
 10
173.3353172415
 20
318.3978851738
 30
0.0
 10
173.2389436891
 20
318.3978851738
 30
0.0
  0
SPLINE
  5
2BA
100
AcDbEntity
  8
0
100
AcDbSpline
 62
7
  6
CONTINUOUS
 70
0
 71
3
 72
22
 73
18
 74
0
 42
0.0000001
 43
0.0000001
 44
0.0000000001
 40
0.0
 40
0.0
 40
0.0
 40
0.0
 40
0.0813122196
 40
0.1738842823
 40
0.2776255959
 40
0.3796072526
 40
0.4706232892
 40
0.5514270451
 40
0.6238686991
 40
0.6889415227
 40
0.7475947063
 40
0.8005647639
 40
0.8484654379
 40
0.8918956964
 40
0.9313664384
 40
0.9671679245
 40
1.0
 40
1.0
 40
1.0
 40
1.0
 10
96.7389436891
 20
308.3978851738
 30
0.0
 10
96.5267577222
 20
308.3978851738
 30
0.0
 10
96.0707059242
 20
308.4608549991
 30
0.0
 10
95.4020624094
 20
308.7680290661
 30
0.0
 10
94.8246558473
 20
309.3126424461
 30
0.0
 10
94.4558069426
 20
310.0080105872
 30
0.0
 10
94.3105075582
 20
310.7157729319
 30
0.0
 10
94.334423488
 20
311.3579880611
 30
0.0
 10
94.4757489246
 20
311.9139621325
 30
0.0
 10
94.6984172574
 20
312.3783992767
 30
0.0
 10
94.9729571243
 20
312.7520127717
 30
0.0
 10
95.2761626839
 20
313.0402127343
 30
0.0
 10
95.5893099587
 20
313.2521633023
 30
0.0
 10
95.8988438954
 20
313.3988951549
 30
0.0
 10
96.1955114191
 20
313.4912107304
 30
0.0
 10
96.4740130976
 20
313.5401399653
 30
0.0
 10
96.6532676896
 20
313.550331521
 30
0.0
 10
96.7389436891
 20
313.550331521
 30
0.0
  0
SPLINE
  5
2BB
100
AcDbEntity
  8
0
100
AcDbSpline
 62
7
  6
CONTINUOUS
 70
0
 71
3
 72
22
 73
18
 74
0
 42
0.0000001
 43
0.0000001
 44
0.0000000001
 40
0.0
 40
0.0
 40
0.0
 40
0.0
 40
0.0620334243
 40
0.1314162138
 40
0.2089465088
 40
0.2972797566
 40
0.3941670272
 40
0.4882470965
 40
0.5718374398
 40
0.6465226162
 40
0.7136537365
 40
0.7740201477
 40
0.8284457705
 40
0.8776936925
 40
0.9224141048
 40
0.9630812591
 40
1.0
 40
1.0
 40
1.0
 40
1.0
 10
173.2389436891
 20
313.550331521
 30
0.0
 10
173.4008772037
 20
313.550331521
 30
0.0
 10
173.7449822464
 20
313.5135844087
 30
0.0
 10
174.2653887314
 20
313.3344820409
 30
0.0
 10
174.7851517955
 20
312.9946638385
 30
0.0
 10
175.243915053
 20
312.4725845719
 30
0.0
 10
175.5565308863
 20
311.8027768573
 30
0.0
 10
175.6761896193
 20
311.0878366459
 30
0.0
 10
175.62362198
 20
310.4251940497
 30
0.0
 10
175.4453834977
 20
309.8594654886
 30
0.0
 10
175.1817528079
 20
309.3978633888
 30
0.0
 10
174.8667646883
 20
309.0385049183
 30
0.0
 10
174.5279779608
 20
308.7728968508
 30
0.0
 10
174.18532778
 20
308.5885282256
 30
0.0
 10
173.8523444374
 20
308.4719946971
 30
0.0
 10
173.5380646153
 20
308.4105290374
 30
0.0
 10
173.3353172415
 20
308.3978851738
 30
0.0
 10
173.2389436891
 20
308.3978851738
 30
0.0
  0
SPLINE
  5
2BC
100
AcDbEntity
  8
0
100
AcDbSpline
 62
7
  6
CONTINUOUS
 70
0
 71
3
 72
22
 73
18
 74
0
 42
0.0000001
 43
0.0000001
 44
0.0000000001
 40
0.0
 40
0.0
 40
0.0
 40
0.0
 40
0.0813122196
 40
0.1738842823
 40
0.2776255959
 40
0.3796072526
 40
0.4706232892
 40
0.5514270451
 40
0.6238686991
 40
0.6889415227
 40
0.7475947063
 40
0.8005647639
 40
0.8484654379
 40
0.8918956964
 40
0.9313664384
 40
0.9671679245
 40
1.0
 40
1.0
 40
1.0
 40
1.0
 10
96.7389436891
 20
298.3978851738
 30
0.0
 10
96.5267577222
 20
298.3978851738
 30
0.0
 10
96.0707059242
 20
298.4608549991
 30
0.0
 10
95.4020624094
 20
298.7680290661
 30
0.0
 10
94.8246558473
 20
299.3126424461
 30
0.0
 10
94.4558069426
 20
300.0080105872
 30
0.0
 10
94.3105075582
 20
300.7157729319
 30
0.0
 10
94.334423488
 20
301.3579880611
 30
0.0
 10
94.4757489246
 20
301.9139621325
 30
0.0
 10
94.6984172574
 20
302.3783992767
 30
0.0
 10
94.9729571243
 20
302.7520127717
 30
0.0
 10
95.2761626839
 20
303.0402127343
 30
0.0
 10
95.5893099587
 20
303.2521633023
 30
0.0
 10
95.8988438954
 20
303.3988951549
 30
0.0
 10
96.1955114191
 20
303.4912107304
 30
0.0
 10
96.4740130976
 20
303.5401399653
 30
0.0
 10
96.6532676896
 20
303.550331521
 30
0.0
 10
96.7389436891
 20
303.550331521
 30
0.0
  0
SPLINE
  5
2BD
100
AcDbEntity
  8
0
100
AcDbSpline
 62
7
  6
CONTINUOUS
 70
0
 71
3
 72
22
 73
18
 74
0
 42
0.0000001
 43
0.0000001
 44
0.0000000001
 40
0.0
 40
0.0
 40
0.0
 40
0.0
 40
0.0620334243
 40
0.1314162138
 40
0.2089465088
 40
0.2972797566
 40
0.3941670272
 40
0.4882470965
 40
0.5718374398
 40
0.6465226162
 40
0.7136537365
 40
0.7740201477
 40
0.8284457705
 40
0.8776936925
 40
0.9224141048
 40
0.9630812591
 40
1.0
 40
1.0
 40
1.0
 40
1.0
 10
173.2389436891
 20
303.550331521
 30
0.0
 10
173.4008772037
 20
303.550331521
 30
0.0
 10
173.7449822464
 20
303.5135844087
 30
0.0
 10
174.2653887314
 20
303.3344820409
 30
0.0
 10
174.7851517955
 20
302.9946638385
 30
0.0
 10
175.243915053
 20
302.4725845719
 30
0.0
 10
175.5565308863
 20
301.8027768573
 30
0.0
 10
175.6761896193
 20
301.0878366459
 30
0.0
 10
175.62362198
 20
300.4251940497
 30
0.0
 10
175.4453834977
 20
299.8594654886
 30
0.0
 10
175.1817528079
 20
299.3978633888
 30
0.0
 10
174.8667646883
 20
299.0385049183
 30
0.0
 10
174.5279779608
 20
298.7728968508
 30
0.0
 10
174.18532778
 20
298.5885282256
 30
0.0
 10
173.8523444374
 20
298.4719946971
 30
0.0
 10
173.5380646153
 20
298.4105290374
 30
0.0
 10
173.3353172415
 20
298.3978851738
 30
0.0
 10
173.2389436891
 20
298.3978851738
 30
0.0
  0
SPLINE
  5
2BE
100
AcDbEntity
  8
0
100
AcDbSpline
 62
7
  6
CONTINUOUS
 70
0
 71
3
 72
22
 73
18
 74
0
 42
0.0000001
 43
0.0000001
 44
0.0000000001
 40
0.0
 40
0.0
 40
0.0
 40
0.0
 40
0.0813122196
 40
0.1738842823
 40
0.2776255959
 40
0.3796072526
 40
0.4706232892
 40
0.5514270451
 40
0.6238686991
 40
0.6889415227
 40
0.7475947063
 40
0.8005647639
 40
0.8484654379
 40
0.8918956964
 40
0.9313664384
 40
0.9671679245
 40
1.0
 40
1.0
 40
1.0
 40
1.0
 10
96.7389436891
 20
288.3978851738
 30
0.0
 10
96.5267577222
 20
288.3978851738
 30
0.0
 10
96.0707059242
 20
288.4608549991
 30
0.0
 10
95.4020624094
 20
288.7680290661
 30
0.0
 10
94.8246558473
 20
289.3126424461
 30
0.0
 10
94.4558069426
 20
290.0080105872
 30
0.0
 10
94.3105075582
 20
290.7157729319
 30
0.0
 10
94.334423488
 20
291.3579880611
 30
0.0
 10
94.4757489246
 20
291.9139621325
 30
0.0
 10
94.6984172574
 20
292.3783992767
 30
0.0
 10
94.9729571243
 20
292.7520127717
 30
0.0
 10
95.2761626839
 20
293.0402127343
 30
0.0
 10
95.5893099587
 20
293.2521633023
 30
0.0
 10
95.8988438954
 20
293.3988951549
 30
0.0
 10
96.1955114191
 20
293.4912107304
 30
0.0
 10
96.4740130976
 20
293.5401399653
 30
0.0
 10
96.6532676896
 20
293.550331521
 30
0.0
 10
96.7389436891
 20
293.550331521
 30
0.0
  0
SPLINE
  5
2BF
100
AcDbEntity
  8
0
100
AcDbSpline
 62
7
  6
CONTINUOUS
 70
0
 71
3
 72
22
 73
18
 74
0
 42
0.0000001
 43
0.0000001
 44
0.0000000001
 40
0.0
 40
0.0
 40
0.0
 40
0.0
 40
0.0620334243
 40
0.1314162138
 40
0.2089465088
 40
0.2972797566
 40
0.3941670272
 40
0.4882470965
 40
0.5718374398
 40
0.6465226162
 40
0.7136537365
 40
0.7740201477
 40
0.8284457705
 40
0.8776936925
 40
0.9224141048
 40
0.9630812591
 40
1.0
 40
1.0
 40
1.0
 40
1.0
 10
173.2389436891
 20
293.550331521
 30
0.0
 10
173.4008772037
 20
293.550331521
 30
0.0
 10
173.7449822464
 20
293.5135844087
 30
0.0
 10
174.2653887314
 20
293.3344820409
 30
0.0
 10
174.7851517955
 20
292.9946638385
 30
0.0
 10
175.243915053
 20
292.4725845719
 30
0.0
 10
175.5565308863
 20
291.8027768573
 30
0.0
 10
175.6761896193
 20
291.0878366459
 30
0.0
 10
175.62362198
 20
290.4251940497
 30
0.0
 10
175.4453834977
 20
289.8594654886
 30
0.0
 10
175.1817528079
 20
289.3978633888
 30
0.0
 10
174.8667646883
 20
289.0385049183
 30
0.0
 10
174.5279779608
 20
288.7728968508
 30
0.0
 10
174.18532778
 20
288.5885282256
 30
0.0
 10
173.8523444374
 20
288.4719946971
 30
0.0
 10
173.5380646153
 20
288.4105290374
 30
0.0
 10
173.3353172415
 20
288.3978851738
 30
0.0
 10
173.2389436891
 20
288.3978851738
 30
0.0
  0
SPLINE
  5
2C0
100
AcDbEntity
  8
0
100
AcDbSpline
 62
7
  6
CONTINUOUS
 70
0
 71
3
 72
22
 73
18
 74
0
 42
0.0000001
 43
0.0000001
 44
0.0000000001
 40
0.0
 40
0.0
 40
0.0
 40
0.0
 40
0.0813122196
 40
0.1738842823
 40
0.2776255959
 40
0.3796072526
 40
0.4706232892
 40
0.5514270451
 40
0.6238686991
 40
0.6889415227
 40
0.7475947063
 40
0.8005647639
 40
0.8484654379
 40
0.8918956964
 40
0.9313664384
 40
0.9671679245
 40
1.0
 40
1.0
 40
1.0
 40
1.0
 10
96.7389436891
 20
278.3978851738
 30
0.0
 10
96.5267577222
 20
278.3978851738
 30
0.0
 10
96.0707059242
 20
278.4608549991
 30
0.0
 10
95.4020624094
 20
278.7680290661
 30
0.0
 10
94.8246558473
 20
279.3126424461
 30
0.0
 10
94.4558069426
 20
280.0080105872
 30
0.0
 10
94.3105075582
 20
280.7157729319
 30
0.0
 10
94.334423488
 20
281.3579880611
 30
0.0
 10
94.4757489246
 20
281.9139621325
 30
0.0
 10
94.6984172574
 20
282.3783992767
 30
0.0
 10
94.9729571243
 20
282.7520127717
 30
0.0
 10
95.2761626839
 20
283.0402127343
 30
0.0
 10
95.5893099587
 20
283.2521633023
 30
0.0
 10
95.8988438954
 20
283.3988951549
 30
0.0
 10
96.1955114191
 20
283.4912107304
 30
0.0
 10
96.4740130976
 20
283.5401399653
 30
0.0
 10
96.6532676896
 20
283.550331521
 30
0.0
 10
96.7389436891
 20
283.550331521
 30
0.0
  0
SPLINE
  5
2C1
100
AcDbEntity
  8
0
100
AcDbSpline
 62
7
  6
CONTINUOUS
 70
0
 71
3
 72
22
 73
18
 74
0
 42
0.0000001
 43
0.0000001
 44
0.0000000001
 40
0.0
 40
0.0
 40
0.0
 40
0.0
 40
0.0620334243
 40
0.1314162138
 40
0.2089465088
 40
0.2972797566
 40
0.3941670272
 40
0.4882470965
 40
0.5718374398
 40
0.6465226162
 40
0.7136537365
 40
0.7740201477
 40
0.8284457705
 40
0.8776936925
 40
0.9224141048
 40
0.9630812591
 40
1.0
 40
1.0
 40
1.0
 40
1.0
 10
173.2389436891
 20
283.550331521
 30
0.0
 10
173.4008772037
 20
283.550331521
 30
0.0
 10
173.7449822464
 20
283.5135844087
 30
0.0
 10
174.2653887314
 20
283.3344820409
 30
0.0
 10
174.7851517955
 20
282.9946638385
 30
0.0
 10
175.243915053
 20
282.4725845719
 30
0.0
 10
175.5565308863
 20
281.8027768573
 30
0.0
 10
175.6761896193
 20
281.0878366459
 30
0.0
 10
175.62362198
 20
280.4251940497
 30
0.0
 10
175.4453834977
 20
279.8594654886
 30
0.0
 10
175.1817528079
 20
279.3978633888
 30
0.0
 10
174.8667646883
 20
279.0385049183
 30
0.0
 10
174.5279779608
 20
278.7728968508
 30
0.0
 10
174.18532778
 20
278.5885282256
 30
0.0
 10
173.8523444374
 20
278.4719946971
 30
0.0
 10
173.5380646153
 20
278.4105290374
 30
0.0
 10
173.3353172415
 20
278.3978851738
 30
0.0
 10
173.2389436891
 20
278.3978851738
 30
0.0
  0
SPLINE
  5
2C2
100
AcDbEntity
  8
0
100
AcDbSpline
 62
7
  6
CONTINUOUS
 70
0
 71
3
 72
22
 73
18
 74
0
 42
0.0000001
 43
0.0000001
 44
0.0000000001
 40
0.0
 40
0.0
 40
0.0
 40
0.0
 40
0.0813122196
 40
0.1738842823
 40
0.2776255959
 40
0.3796072526
 40
0.4706232892
 40
0.5514270451
 40
0.6238686991
 40
0.6889415227
 40
0.7475947063
 40
0.8005647639
 40
0.8484654379
 40
0.8918956964
 40
0.9313664384
 40
0.9671679245
 40
1.0
 40
1.0
 40
1.0
 40
1.0
 10
96.7389436891
 20
268.3978851738
 30
0.0
 10
96.5267577222
 20
268.3978851738
 30
0.0
 10
96.0707059242
 20
268.4608549991
 30
0.0
 10
95.4020624094
 20
268.7680290661
 30
0.0
 10
94.8246558473
 20
269.3126424461
 30
0.0
 10
94.4558069426
 20
270.0080105872
 30
0.0
 10
94.3105075582
 20
270.7157729319
 30
0.0
 10
94.334423488
 20
271.3579880611
 30
0.0
 10
94.4757489246
 20
271.9139621325
 30
0.0
 10
94.6984172574
 20
272.3783992767
 30
0.0
 10
94.9729571243
 20
272.7520127717
 30
0.0
 10
95.2761626839
 20
273.0402127343
 30
0.0
 10
95.5893099587
 20
273.2521633023
 30
0.0
 10
95.8988438954
 20
273.3988951549
 30
0.0
 10
96.1955114191
 20
273.4912107304
 30
0.0
 10
96.4740130976
 20
273.5401399653
 30
0.0
 10
96.6532676896
 20
273.550331521
 30
0.0
 10
96.7389436891
 20
273.550331521
 30
0.0
  0
SPLINE
  5
2C3
100
AcDbEntity
  8
0
100
AcDbSpline
 62
7
  6
CONTINUOUS
 70
0
 71
3
 72
22
 73
18
 74
0
 42
0.0000001
 43
0.0000001
 44
0.0000000001
 40
0.0
 40
0.0
 40
0.0
 40
0.0
 40
0.0620334243
 40
0.1314162138
 40
0.2089465088
 40
0.2972797566
 40
0.3941670272
 40
0.4882470965
 40
0.5718374398
 40
0.6465226162
 40
0.7136537365
 40
0.7740201477
 40
0.8284457705
 40
0.8776936925
 40
0.9224141048
 40
0.9630812591
 40
1.0
 40
1.0
 40
1.0
 40
1.0
 10
173.2389436891
 20
273.550331521
 30
0.0
 10
173.4008772037
 20
273.550331521
 30
0.0
 10
173.7449822464
 20
273.5135844087
 30
0.0
 10
174.2653887314
 20
273.3344820409
 30
0.0
 10
174.7851517955
 20
272.9946638385
 30
0.0
 10
175.243915053
 20
272.4725845719
 30
0.0
 10
175.5565308863
 20
271.8027768573
 30
0.0
 10
175.6761896193
 20
271.0878366459
 30
0.0
 10
175.62362198
 20
270.4251940497
 30
0.0
 10
175.4453834977
 20
269.8594654886
 30
0.0
 10
175.1817528079
 20
269.3978633888
 30
0.0
 10
174.8667646883
 20
269.0385049183
 30
0.0
 10
174.5279779608
 20
268.7728968508
 30
0.0
 10
174.18532778
 20
268.5885282256
 30
0.0
 10
173.8523444374
 20
268.4719946971
 30
0.0
 10
173.5380646153
 20
268.4105290374
 30
0.0
 10
173.3353172415
 20
268.3978851738
 30
0.0
 10
173.2389436891
 20
268.3978851738
 30
0.0
  0
SPLINE
  5
2C4
100
AcDbEntity
  8
0
100
AcDbSpline
 62
7
  6
CONTINUOUS
 70
0
 71
3
 72
22
 73
18
 74
0
 42
0.0000001
 43
0.0000001
 44
0.0000000001
 40
0.0
 40
0.0
 40
0.0
 40
0.0
 40
0.0813122196
 40
0.1738842823
 40
0.2776255959
 40
0.3796072526
 40
0.4706232892
 40
0.5514270451
 40
0.6238686991
 40
0.6889415227
 40
0.7475947063
 40
0.8005647639
 40
0.8484654379
 40
0.8918956964
 40
0.9313664384
 40
0.9671679245
 40
1.0
 40
1.0
 40
1.0
 40
1.0
 10
96.7389436891
 20
258.3978851738
 30
0.0
 10
96.5267577222
 20
258.3978851738
 30
0.0
 10
96.0707059242
 20
258.4608549991
 30
0.0
 10
95.4020624094
 20
258.7680290661
 30
0.0
 10
94.8246558473
 20
259.3126424461
 30
0.0
 10
94.4558069426
 20
260.0080105872
 30
0.0
 10
94.3105075582
 20
260.7157729319
 30
0.0
 10
94.334423488
 20
261.3579880611
 30
0.0
 10
94.4757489246
 20
261.9139621325
 30
0.0
 10
94.6984172574
 20
262.3783992767
 30
0.0
 10
94.9729571243
 20
262.7520127717
 30
0.0
 10
95.2761626839
 20
263.0402127343
 30
0.0
 10
95.5893099587
 20
263.2521633023
 30
0.0
 10
95.8988438954
 20
263.3988951549
 30
0.0
 10
96.1955114191
 20
263.4912107304
 30
0.0
 10
96.4740130976
 20
263.5401399653
 30
0.0
 10
96.6532676896
 20
263.550331521
 30
0.0
 10
96.7389436891
 20
263.550331521
 30
0.0
  0
SPLINE
  5
2C5
100
AcDbEntity
  8
0
100
AcDbSpline
 62
7
  6
CONTINUOUS
 70
0
 71
3
 72
22
 73
18
 74
0
 42
0.0000001
 43
0.0000001
 44
0.0000000001
 40
0.0
 40
0.0
 40
0.0
 40
0.0
 40
0.0620334243
 40
0.1314162138
 40
0.2089465088
 40
0.2972797566
 40
0.3941670272
 40
0.4882470965
 40
0.5718374398
 40
0.6465226162
 40
0.7136537365
 40
0.7740201477
 40
0.8284457705
 40
0.8776936925
 40
0.9224141048
 40
0.9630812591
 40
1.0
 40
1.0
 40
1.0
 40
1.0
 10
173.2389436891
 20
263.550331521
 30
0.0
 10
173.4008772037
 20
263.550331521
 30
0.0
 10
173.7449822464
 20
263.5135844087
 30
0.0
 10
174.2653887314
 20
263.3344820409
 30
0.0
 10
174.7851517955
 20
262.9946638385
 30
0.0
 10
175.243915053
 20
262.4725845719
 30
0.0
 10
175.5565308863
 20
261.8027768573
 30
0.0
 10
175.6761896193
 20
261.0878366459
 30
0.0
 10
175.62362198
 20
260.4251940497
 30
0.0
 10
175.4453834977
 20
259.8594654886
 30
0.0
 10
175.1817528079
 20
259.3978633888
 30
0.0
 10
174.8667646883
 20
259.0385049183
 30
0.0
 10
174.5279779608
 20
258.7728968508
 30
0.0
 10
174.18532778
 20
258.5885282256
 30
0.0
 10
173.8523444374
 20
258.4719946971
 30
0.0
 10
173.5380646153
 20
258.4105290374
 30
0.0
 10
173.3353172415
 20
258.3978851738
 30
0.0
 10
173.2389436891
 20
258.3978851738
 30
0.0
  0
SPLINE
  5
2C6
100
AcDbEntity
  8
0
100
AcDbSpline
 62
7
  6
CONTINUOUS
 70
0
 71
3
 72
9
 73
5
 74
0
 42
0.0000001
 43
0.0000001
 44
0.0000000001
 40
0.0
 40
0.0
 40
0.0
 40
0.0
 40
0.2433636615
 40
1.0
 40
1.0
 40
1.0
 40
1.0
 10
229.1393318605
 20
410.5481304985
 30
0.0
 10
229.2081424471
 20
410.5481304985
 30
0.0
 10
229.4908899001
 20
410.5474231497
 30
0.0
 10
229.7736355923
 20
410.545960121
 30
0.0
 10
229.9875729977
 20
410.545960121
 30
0.0
  0
SPLINE
  5
2C7
100
AcDbEntity
  8
0
100
AcDbSpline
 62
7
  6
CONTINUOUS
 70
0
 71
3
 72
9
 73
5
 74
0
 42
0.0000001
 43
0.0000001
 44
0.0000000001
 40
0.0
 40
0.0
 40
0.0
 40
0.0
 40
0.2547325141
 40
1.0
 40
1.0
 40
1.0
 40
1.0
 10
229.9875729977
 20
410.545960121
 30
0.0
 10
230.0595981241
 20
410.545960121
 30
0.0
 10
230.3423463479
 20
410.5462375014
 30
0.0
 10
230.6250911926
 20
410.5481304985
 30
0.0
 10
230.8358141349
 20
410.5481304985
 30
0.0
  0
SPLINE
  5
2C8
100
AcDbEntity
  8
0
100
AcDbSpline
 62
7
  6
CONTINUOUS
 70
0
 71
3
 72
9
 73
5
 74
0
 42
0.0000001
 43
0.0000001
 44
0.0000000001
 40
0.0
 40
0.0
 40
0.0
 40
0.0
 40
0.2397363489
 40
1.0
 40
1.0
 40
1.0
 40
1.0
 10
237.946343107
 20
410.5481304985
 30
0.0
 10
238.0294962337
 20
410.5481304985
 30
0.0
 10
238.3763461415
 20
410.5464546399
 30
0.0
 10
238.723188384
 20
410.5430549173
 30
0.0
 10
238.986887652
 20
410.5430549173
 30
0.0
  0
SPLINE
  5
2C9
100
AcDbEntity
  8
0
100
AcDbSpline
 62
7
  6
CONTINUOUS
 70
0
 71
3
 72
9
 73
5
 74
0
 42
0.0000001
 43
0.0000001
 44
0.0000000001
 40
0.0
 40
0.0
 40
0.0
 40
0.0
 40
0.2573329879
 40
1.0
 40
1.0
 40
1.0
 40
1.0
 10
238.986887652
 20
410.5430549173
 30
0.0
 10
239.0761443075
 20
410.5430549173
 30
0.0
 10
239.4229978133
 20
410.5436842464
 30
0.0
 10
239.7698360986
 20
410.5481304985
 30
0.0
 10
240.027432197
 20
410.5481304985
 30
0.0
  0
SPLINE
  5
2CA
100
AcDbEntity
  8
0
100
AcDbSpline
 62
7
  6
CONTINUOUS
 70
0
 71
3
 72
9
 73
5
 74
0
 42
0.0000001
 43
0.0000001
 44
0.0000000001
 40
0.0
 40
0.0
 40
0.0
 40
0.0
 40
0.2360271473
 40
1.0
 40
1.0
 40
1.0
 40
1.0
 10
246.788864793
 20
410.5481304985
 30
0.0
 10
246.8830690045
 20
410.5481304985
 30
0.0
 10
247.2821860473
 20
410.5450389332
 30
0.0
 10
247.6812820418
 20
410.538944693
 30
0.0
 10
247.9862023063
 20
410.538944693
 30
0.0
  0
SPLINE
  5
2CB
100
AcDbEntity
  8
0
100
AcDbSpline
 62
7
  6
CONTINUOUS
 70
0
 71
3
 72
9
 73
5
 74
0
 42
0.0000001
 43
0.0000001
 44
0.0000000001
 40
0.0
 40
0.0
 40
0.0
 40
0.0
 40
0.2600021268
 40
1.0
 40
1.0
 40
1.0
 40
1.0
 10
247.9862023063
 20
410.538944693
 30
0.0
 10
248.0899758019
 20
410.538944693
 30
0.0
 10
248.4891037337
 20
410.5400341016
 30
0.0
 10
248.8881877506
 20
410.5481304985
 30
0.0
 10
249.1835398195
 20
410.5481304985
 30
0.0
  0
SPLINE
  5
2CC
100
AcDbEntity
  8
0
100
AcDbSpline
 62
7
  6
CONTINUOUS
 70
0
 71
3
 72
9
 73
5
 74
0
 42
0.0000001
 43
0.0000001
 44
0.0000000001
 40
0.0
 40
0.0
 40
0.0
 40
0.0
 40
0.2322301916
 40
1.0
 40
1.0
 40
1.0
 40
1.0
 10
255.6542898807
 20
410.5481304985
 30
0.0
 10
255.7573466812
 20
410.5481304985
 30
0.0
 10
256.2010965029
 20
410.5428253016
 30
0.0
 10
256.6448037254
 20
410.5333661642
 30
0.0
 10
256.9855169606
 20
410.5333661642
 30
0.0
  0
SPLINE
  5
2CD
100
AcDbEntity
  8
0
100
AcDbSpline
 62
7
  6
CONTINUOUS
 70
0
 71
3
 72
9
 73
5
 74
0
 42
0.0000001
 43
0.0000001
 44
0.0000000001
 40
0.0
 40
0.0
 40
0.0
 40
0.0
 40
0.2627388752
 40
1.0
 40
1.0
 40
1.0
 40
1.0
 10
256.9855169606
 20
410.5333701962
 30
0.0
 10
257.102113181
 20
410.5333701962
 30
0.0
 10
257.5458885137
 20
410.5355641229
 30
0.0
 10
257.9895680161
 20
410.5481304985
 30
0.0
 10
258.3167440404
 20
410.5481304985
 30
0.0
  0
LINE
  5
2CE
100
AcDbEntity
  8
0
100
AcDbLine
 62
7
  6
CONTINUOUS
 10
221.5747371158
 20
410.5481304985
 11
220.9893577719
 21
410.5476431655
  0
LINE
  5
2CF
100
AcDbEntity
  8
0
100
AcDbLine
 62
7
  6
CONTINUOUS
 10
220.9893577719
 20
410.5476431655
 11
220.4017795709
 21
410.5481304685
  0
SPLINE
  5
2D0
100
AcDbEntity
  8
0
100
AcDbSpline
 62
7
  6
CONTINUOUS
 70
0
 71
3
 72
9
 73
5
 74
0
 42
0.0000001
 43
0.0000001
 44
0.0000000001
 40
0.0
 40
0.0
 40
0.0
 40
0.0
 40
0.2176361951
 40
1.0
 40
1.0
 40
1.0
 40
1.0
 10
259.5101131064
 20
410.8242657346
 30
0.0
 10
259.5102902433
 20
410.839221492
 30
0.0
 10
259.5047563347
 20
410.9080459852
 30
0.0
 10
259.4786255251
 20
410.9735451159
 30
0.0
 10
259.4543523768
 20
411.0215212949
 30
0.0
  0
SPLINE
  5
2D1
100
AcDbEntity
  8
0
100
AcDbSpline
 62
7
  6
CONTINUOUS
 70
0
 71
3
 72
11
 73
7
 74
0
 42
0.0000001
 43
0.0000001
 44
0.0000000001
 40
0.0
 40
0.0
 40
0.0
 40
0.0
 40
0.1725241839
 40
0.4079661781
 40
0.6892251119
 40
1.0
 40
1.0
 40
1.0
 40
1.0
 10
259.4543523768
 20
411.0215212949
 30
0.0
 10
259.3784619086
 20
411.1715197472
 30
0.0
 10
259.11194852
 20
411.4772053423
 30
0.0
 10
258.5890178589
 20
411.899380893
 30
0.0
 10
257.8702259299
 20
412.280586309
 30
0.0
 10
257.2905128289
 20
412.3961409209
 30
0.0
 10
256.9877004991
 20
412.3961409209
 30
0.0
  0
SPLINE
  5
2D2
100
AcDbEntity
  8
0
100
AcDbSpline
 62
7
  6
CONTINUOUS
 70
0
 71
3
 72
11
 73
7
 74
0
 42
0.0000001
 43
0.0000001
 44
0.0000000001
 40
0.0
 40
0.0
 40
0.0
 40
0.0
 40
0.3107351659
 40
0.5919884168
 40
0.8274428136
 40
1.0
 40
1.0
 40
1.0
 40
1.0
 10
256.9877004991
 20
412.395525598
 30
0.0
 10
256.6849673211
 20
412.395525598
 30
0.0
 10
256.1052340074
 20
412.2808074369
 30
0.0
 10
255.3865799098
 20
411.8994556155
 30
0.0
 10
254.8636576848
 20
411.477394437
 30
0.0
 10
254.597106609
 20
411.1717566038
 30
0.0
 10
254.5211701465
 20
411.0217705631
 30
0.0
  0
SPLINE
  5
2D3
100
AcDbEntity
  8
0
100
AcDbSpline
 62
7
  6
CONTINUOUS
 70
0
 71
3
 72
9
 73
5
 74
0
 42
0.0000001
 43
0.0000001
 44
0.0000000001
 40
0.0
 40
0.0
 40
0.0
 40
0.0
 40
0.2862925762
 40
1.0
 40
1.0
 40
1.0
 40
1.0
 10
254.5211701465
 20
411.0217705631
 30
0.0
 10
254.5123055571
 20
411.0042616534
 30
0.0
 10
254.4837260574
 20
410.9422042487
 30
0.0
 10
254.4648315523
 20
410.873765667
 30
0.0
 10
254.4652809545
 20
410.8248438328
 30
0.0
  0
SPLINE
  5
2D4
100
AcDbEntity
  8
0
100
AcDbSpline
 62
7
  6
CONTINUOUS
 70
0
 71
3
 72
8
 73
4
 74
0
 42
0.0000001
 43
0.0000001
 44
0.0000000001
 40
0.0
 40
0.0
 40
0.0
 40
0.0
 40
1.0
 40
1.0
 40
1.0
 40
1.0
 10
273.4889436891
 20
407.7814858763
 30
0.0
 10
275.4888713215
 20
407.762492979
 30
0.0
 10
277.4890160655
 20
407.7751541502
 30
0.0
 10
279.4889436891
 20
407.7561603278
 30
0.0
  0
SPLINE
  5
2D5
100
AcDbEntity
  8
0
100
AcDbSpline
 62
7
  6
CONTINUOUS
 70
0
 71
3
 72
12
 73
8
 74
0
 42
0.0000001
 43
0.0000001
 44
0.0000000001
 40
0.0
 40
0.0
 40
0.0
 40
0.0
 40
0.0691066078
 40
0.1584914183
 40
0.3914922434
 40
0.6785490645
 40
1.0
 40
1.0
 40
1.0
 40
1.0
 10
214.5135398356
 20
410.9628455856
 30
0.0
 10
214.5142674277
 20
411.0395438144
 30
0.0
 10
214.4660578167
 20
411.2142390881
 30
0.0
 10
214.248281699
 20
411.5912513398
 30
0.0
 10
213.7823031668
 20
412.0924978332
 30
0.0
 10
213.0254315727
 20
412.6478970425
 30
0.0
 10
212.3479068109
 20
412.8483695908
 30
0.0
 10
211.9911272277
 20
412.8483695908
 30
0.0
  0
SPLINE
  5
2D6
100
AcDbEntity
  8
0
100
AcDbSpline
 62
7
  6
CONTINUOUS
 70
0
 71
3
 72
12
 73
8
 74
0
 42
0.0000001
 43
0.0000001
 44
0.0000000001
 40
0.0
 40
0.0
 40
0.0
 40
0.0
 40
0.0640282573
 40
0.149927825
 40
0.3809852055
 40
0.6716148509
 40
1.0
 40
1.0
 40
1.0
 40
1.0
 10
241.5114837981
 20
410.8760269844
 30
0.0
 10
241.5122214122
 20
410.9443600395
 30
0.0
 10
241.462183911
 20
411.102554674
 30
0.0
 10
241.2412655436
 20
411.4444255404
 30
0.0
 10
240.7694294665
 20
411.9009839204
 30
0.0
 10
240.0040118587
 20
412.3979131417
 30
0.0
 10
239.3395550033
 20
412.566048825
 30
0.0
 10
238.9890711905
 20
412.566048825
 30
0.0
  0
SPLINE
  5
2D7
100
AcDbEntity
  8
0
100
AcDbSpline
 62
7
  6
CONTINUOUS
 70
0
 71
3
 72
12
 73
8
 74
0
 42
0.0000001
 43
0.0000001
 44
0.0000000001
 40
0.0
 40
0.0
 40
0.0
 40
0.0
 40
0.328292735
 40
0.6188702816
 40
0.8499476402
 40
0.9358906776
 40
1.0
 40
1.0
 40
1.0
 40
1.0
 10
238.9890711905
 20
412.5660488149
 30
0.0
 10
238.6387529159
 20
412.5660488149
 30
0.0
 10
237.9745795939
 20
412.3980700612
 30
0.0
 10
237.2093125318
 20
411.9014493095
 30
0.0
 10
236.737493337
 20
411.4450797418
 30
0.0
 10
236.5163171694
 20
411.1032733681
 30
0.0
 10
236.4660788801
 20
410.9450720499
 30
0.0
 10
236.4666516459
 20
410.8766639566
 30
0.0
  0
SPLINE
  5
2D8
100
AcDbEntity
  8
0
100
AcDbSpline
 62
7
  6
CONTINUOUS
 70
0
 71
3
 72
12
 73
8
 74
0
 42
0.0000001
 43
0.0000001
 44
0.0000000001
 40
0.0
 40
0.0
 40
0.0
 40
0.0
 40
0.3236993969
 40
0.6118681102
 40
0.8442142839
 40
0.9324825585
 40
1.0
 40
1.0
 40
1.0
 40
1.0
 10
220.990441882
 20
412.7502590262
 30
0.0
 10
220.6360736107
 20
412.7502590262
 30
0.0
 10
219.9633418108
 20
412.5618515663
 30
0.0
 10
219.2033653186
 20
412.027028126
 30
0.0
 10
218.7354511315
 20
411.5413098847
 30
0.0
 10
218.5164105041
 20
411.1763342042
 30
0.0
 10
218.4674551672
 20
411.0072664607
 30
0.0
 10
218.4680223374
 20
410.9333542605
 30
0.0
  0
SPLINE
  5
2D9
100
AcDbEntity
  8
0
100
AcDbSpline
 62
7
  6
CONTINUOUS
 70
0
 71
3
 72
12
 73
8
 74
0
 42
0.0000001
 43
0.0000001
 44
0.0000000001
 40
0.0
 40
0.0
 40
0.0
 40
0.0
 40
0.0674389221
 40
0.1556671766
 40
0.3879961054
 40
0.6762144896
 40
1.0
 40
1.0
 40
1.0
 40
1.0
 10
223.5128544898
 20
410.932658378
 30
0.0
 10
223.5135849291
 20
411.006498235
 30
0.0
 10
223.4648303586
 20
411.1755579041
 30
0.0
 10
223.2460480583
 20
411.5406084444
 30
0.0
 10
222.7781163189
 20
412.0265286789
 30
0.0
 10
222.0179937206
 20
412.5616762251
 30
0.0
 10
221.3449766938
 20
412.750259024
 30
0.0
 10
220.990441882
 20
412.750259024
 30
0.0
  0
SPLINE
  5
2DA
100
AcDbEntity
  8
0
100
AcDbSpline
 62
7
  6
CONTINUOUS
 70
0
 71
3
 72
12
 73
8
 74
0
 42
0.0000001
 43
0.0000001
 44
0.0000000001
 40
0.0
 40
0.0
 40
0.0
 40
0.0
 40
0.3213680379
 40
0.6083763641
 40
0.8413930007
 40
0.9308161538
 40
1.0
 40
1.0
 40
1.0
 40
1.0
 10
211.9911272277
 20
412.8483695943
 30
0.0
 10
211.6345145611
 20
412.8483695943
 30
0.0
 10
210.9572752917
 20
412.6480825773
 30
0.0
 10
210.2005473878
 20
412.0930146251
 30
0.0
 10
209.7345869339
 20
411.5919768865
 30
0.0
 10
209.5165527549
 20
411.2150443069
 30
0.0
 10
209.4681427354
 20
411.0403407829
 30
0.0
 10
209.4687076831
 20
410.9635715807
 30
0.0
  0
SPLINE
  5
2DB
100
AcDbEntity
  8
0
100
AcDbSpline
 62
7
  6
CONTINUOUS
 70
0
 71
3
 72
12
 73
8
 74
0
 42
0.0000001
 43
0.0000001
 44
0.0000000001
 40
0.0
 40
0.0
 40
0.0
 40
0.0
 40
0.0622869949
 40
0.1470181463
 40
0.3774799859
 40
0.6693578853
 40
1.0
 40
1.0
 40
1.0
 40
1.0
 10
250.5107984522
 20
410.8495489292
 30
0.0
 10
250.511540441
 20
410.9152204872
 30
0.0
 10
250.4607606401
 20
411.0681509441
 30
0.0
 10
250.2387480653
 20
411.3987389335
 30
0.0
 10
249.7649935338
 20
411.8411596071
 30
0.0
 10
248.9975242688
 20
412.3202120164
 30
0.0
 10
248.3370167069
 20
412.4790199202
 30
0.0
 10
247.9883858448
 20
412.4790199202
 30
0.0
  0
SPLINE
  5
2DC
100
AcDbEntity
  8
0
100
AcDbSpline
 62
7
  6
CONTINUOUS
 70
0
 71
3
 72
12
 73
8
 74
0
 42
0.0000001
 43
0.0000001
 44
0.0000000001
 40
0.0
 40
0.0
 40
0.0
 40
0.0
 40
0.3305462299
 40
0.6223702831
 40
0.8528532223
 40
0.9376294501
 40
1.0
 40
1.0
 40
1.0
 40
1.0
 10
247.9883858448
 20
412.4790199202
 30
0.0
 10
247.6399199405
 20
412.4790199202
 30
0.0
 10
246.9796949798
 20
412.3203607139
 30
0.0
 10
246.2123778974
 20
411.8416086624
 30
0.0
 10
245.7386411081
 20
411.3993703192
 30
0.0
 10
245.5163693111
 20
411.0688405479
 30
0.0
 10
245.465390114
 20
410.9159029963
 30
0.0
 10
245.4659663002
 20
410.8501537195
 30
0.0
  0
SPLINE
  5
2DD
100
AcDbEntity
  8
0
100
AcDbSpline
 62
7
  6
CONTINUOUS
 70
0
 71
3
 72
12
 73
8
 74
0
 42
0.0000001
 43
0.0000001
 44
0.0000000001
 40
0.0
 40
0.0
 40
0.0
 40
0.0
 40
0.0657459747
 40
0.1528122686
 40
0.3844936744
 40
0.6739042859
 40
1.0
 40
1.0
 40
1.0
 40
1.0
 10
232.5121691439
 20
410.9037252962
 30
0.0
 10
232.5129029155
 20
410.974778738
 30
0.0
 10
232.4635396165
 20
411.1383435209
 30
0.0
 10
232.243705208
 20
411.4916915741
 30
0.0
 10
231.7738148309
 20
411.9627249672
 30
0.0
 10
231.0108603456
 20
412.4784072795
 30
0.0
 10
230.3421957302
 20
412.656216246
 30
0.0
 10
229.9897565363
 20
412.656216246
 30
0.0
  0
SPLINE
  5
2DE
100
AcDbEntity
  8
0
100
AcDbSpline
 62
7
  6
CONTINUOUS
 70
0
 71
3
 72
12
 73
8
 74
0
 42
0.0000001
 43
0.0000001
 44
0.0000000001
 40
0.0
 40
0.0
 40
0.0
 40
0.0
 40
0.3260064091
 40
0.6153661834
 40
0.8470662344
 40
0.9341742401
 40
1.0
 40
1.0
 40
1.0
 40
1.0
 10
229.9897565363
 20
412.656216246
 30
0.0
 10
229.6374834372
 20
412.656216246
 30
0.0
 10
228.9691033547
 20
412.4785730922
 30
0.0
 10
228.206297241
 20
411.9632072355
 30
0.0
 10
227.7364240085
 20
411.4923691482
 30
0.0
 10
227.5163313727
 20
411.1390909164
 30
0.0
 10
227.4667672229
 20
410.9755185898
 30
0.0
 10
227.4673369917
 20
410.904391459
 30
0.0
  0
ELLIPSE
  5
2DF
100
AcDbEntity
  8
0
100
AcDbEllipse
 62
7
  6
CONTINUOUS
 10
209.4750496103
 20
416.5481304985
 30
0.0
 11
0.0
 21
6.0
 31
0.0
 40
0.0028908581
 41
-3.5159034982
 42
-3.1415926536
  0
ENDSEC
  0
SECTION
  2
OBJECTS
  0
DICTIONARY
  5
C
100
AcDbDictionary
280
0
281
1
  3
ACAD_GROUP
350
D
  3
ACAD_MLINESTYLE
350
17
  3
ACAD_LAYOUT
350
1A
  3
ACAD_PLOTSETTINGS
350
19
  3
ACAD_PLOTSTYLENAME
350
E
  0
DICTIONARY
  5
D
102
{ACAD_REACTORS
330
C
102
}
100
AcDbDictionary
280
0
281
1
  0
ACDBDICTIONARYWDFLT
  5
E
102
{ACAD_REACTORS
330
C
102
}
100
AcDbDictionary
281
1
  3
Normal
350
F
100
AcDbDictionaryWithDefault
340
F
  0
DICTIONARY
  5
17
102
{ACAD_REACTORS
330
C
102
}
100
AcDbDictionary
280
0
281
1
  3
Standard
350
18
  0
DICTIONARY
  5
19
102
{ACAD_REACTORS
330
C
102
}
100
AcDbDictionary
281
1
  0
DICTIONARY
  5
1A
102
{ACAD_REACTORS
330
C
102
}
100
AcDbDictionary
281
1
  3
Model
350
2E0
  3
Layout1
350
2E1
  0
ACDBPLACEHOLDER
  5
F
102
{ACAD_REACTORS
330
E
102
}
  0
MLINESTYLE
  5
18
102
{ACAD_REACTORS
330
17
102
}
100
AcDbMlineStyle
  2
STANDARD
 70
0
  3

 62
256
 51
90.0
 52
90.0
 71
2
 49
0.5
 62
256
  6
BYLAYER
 49
-0.5
 62
256
  6
BYLAYER
  0
LAYOUT
  5
2E0
102
{ACAD_REACTORS
330
1A
102
}
100
AcDbPlotSettings
  1

  2
none_device
  4

  6

 40
0.0
 41
0.0
 42
0.0
 43
0.0
 44
210.0
 45
297.0
 46
0.0
 47
0.0
 48
0.0
 49
0.0
140
0.0
141
0.0
142
1.0
143
1.0
 70
1024
 72
1
 73
0
 74
0
  7

 75
0
147
1.0
148
0.0
149
0.0
100
AcDbLayout
  1
Model
 70
0
 71
0
 10
0.0
 20
0.0
 11
210.0
 21
297.0
 12
0.0
 22
0.0
 32
0.0
 14
0.0
 24
0.0
 34
0.0
 15
0.0
 25
0.0
 35
0.0
146
0.0
 13
0.0
 23
0.0
 33
0.0
 16
1.0
 26
0.0
 36
0.0
 17
0.0
 27
1.0
 37
0.0
 76
0
330
210
345
0
346
0
  0
LAYOUT
  5
2E1
102
{ACAD_REACTORS
330
1A
102
}
100
AcDbPlotSettings
  1

  2
none_device
  4

  6

 40
0.0
 41
0.0
 42
0.0
 43
0.0
 44
210.0
 45
297.0
 46
0.0
 47
0.0
 48
0.0
 49
0.0
140
0.0
141
0.0
142
1.0
143
1.0
 70
0
 72
1
 73
0
 74
0
  7

 75
0
147
1.0
148
0.0
149
0.0
100
AcDbLayout
  1
Layout1
 70
0
 71
1
 10
0.0
 20
0.0
 11
210.0
 21
297.0
 12
0.0
 22
0.0
 32
0.0
 14
0.0
 24
0.0
 34
0.0
 15
0.0
 25
0.0
 35
0.0
146
0.0
 13
0.0
 23
0.0
 33
0.0
 16
1.0
 26
0.0
 36
0.0
 17
0.0
 27
1.0
 37
0.0
 76
0
330
211
345
0
346
0
  0
ENDSEC
  0
EOF
