999
DXF file: C:\Users\sesa63760\Dev\_Creo\CAD\MCADID0000746_3D-CAD\drw0001_2.dxf
999
Pro/ENGINEER 2019471 by Parametric Technology Corporation
  0
SECTION
  2
HEADER
  9
$ACADVER
  1
AC1024
  9
$DWGCODEPAGE
  3
ANSI_1252
  9
$EXTMAX
 10
157.6793279198
 20
223.0036209151
 30
0.0
  9
$EXTMIN
 10
0.0
 20
0.0
 30
0.0
  9
$LIMMIN
 10
0.0
 20
0.0
  9
$LIMMAX
 10
157.6793279198
 20
223.0036209151
  9
$VIEWCTR
 10
78.8396639599
 20
111.5018104575
  9
$VIEWSIZE
 40
223.0036209151
  9
$CLAYER
  8
0
  9
$LTSCALE
 40
14.5365323263
  9
$CELTYPE
  6
BYLAYER
  9
$DIMSCALE
 40
1.0
  9
$DIMASZ
 40
1.8771348562
  9
$DIMEXO
 40
1.0
  9
$DIMDLI
 40
10.0434223345
  9
$DIMEXE
 40
1.0
  9
$DIMCEN
 40
2.3787052898
  9
$DIMLFAC
 40
1.0
  9
$DIMBLK
  1
_FILLED
  9
$DIMALT
 70
0
  9
$DIMALTF
 40
0.0393700787
  9
$DIMTXT
 40
2.6279887987
  9
$DIMTOL
 70
1
  9
$DIMLIM
 70
0
  9
$DIMTFAC
 40
1.0
  9
$DIMTP
 40
0.01
  9
$DIMTM
 40
0.01
  9
$DIMGAP
 40
0.625
  9
$DIMDSEP
 70
46
  9
$AUNITS
 70
0
  9
$PDMODE
 70
3
  9
$PDSIZE
 40
0.3125
  9
$HANDSEED
  5
3EE
  9
$TILEMODE
 70
1
  9
$MEASUREMENT
 70
1
  9
$INSUNITS
 70
4
  0
ENDSEC
  0
SECTION
  2
CLASSES
  0
CLASS
  1
ACDBDICTIONARYWDFLT
  2
AcDbDictionaryWithDefault
  3
AutoCAD 2000
 90
0
 91
1
280
0
281
0
  0
CLASS
  1
ACDBPLACEHOLDER
  2
AcDbPlaceHolder
  3
AutoCAD 2000
 90
0
 91
1
280
0
281
0
  0
CLASS
  1
LAYOUT
  2
AcDbLayout
  3
AutoCAD 2000
 90
0
 91
0
280
0
281
0
  0
ENDSEC
  0
SECTION
  2
TABLES
  0
TABLE
  2
VPORT
  5
8
100
AcDbSymbolTable
 70
2
  0
VPORT
  5
1F4
100
AcDbSymbolTableRecord
100
AcDbViewportTableRecord
  2
*ACTIVE
 70
0
 10
0.0
 20
0.0
 11
1.0
 21
1.0
 12
78.8396639599
 22
111.5018104575
 13
0.0
 23
0.0
 14
1.0
 24
1.0
 15
0.0
 25
0.0
 16
0.0
 26
0.0
 36
1.0
 17
0.0
 27
0.0
 37
0.0
 40
223.0036209151
 41
0.7070707071
 42
50.0
 43
0.0
 44
0.0
 50
0.0
 51
0.0
 71
0
 72
100
 73
1
 74
1
 75
0
 76
0
 77
0
 78
0
  0
ENDTAB
  0
TABLE
  2
LTYPE
  5
5
100
AcDbSymbolTable
 70
6
  0
LTYPE
  5
14
100
AcDbSymbolTableRecord
100
AcDbLinetypeTableRecord
  2
BYBLOCK
 70
0
  3

 72
65
 73
0
 40
0.0
  0
LTYPE
  5
15
100
AcDbSymbolTableRecord
100
AcDbLinetypeTableRecord
  2
BYLAYER
 70
0
  3

 72
65
 73
0
 40
0.0
  0
LTYPE
  5
16
100
AcDbSymbolTableRecord
100
AcDbLinetypeTableRecord
  2
CONTINUOUS
 70
64
  3
Solid line
 72
65
 73
0
 40
0.0
  0
LTYPE
  5
1F5
100
AcDbSymbolTableRecord
100
AcDbLinetypeTableRecord
  2
CENTER
 70
64
  3
____ _ ____ _ ____ _ ____ _ ____ _ ____ _ ____
 72
65
 73
4
 40
0.6
 49
0.375
 74
0
 49
-0.075
 74
0
 49
0.075
 74
0
 49
-0.075
 74
0
  0
LTYPE
  5
1F6
100
AcDbSymbolTableRecord
100
AcDbLinetypeTableRecord
  2
HIDDEN
 70
64
  3
- - - - - - - - - - - - - - - - - - - -
 72
65
 73
2
 40
0.2
 49
0.1
 74
0
 49
-0.1
 74
0
  0
LTYPE
  5
1F7
100
AcDbSymbolTableRecord
100
AcDbLinetypeTableRecord
  2
PHANTOM
 70
64
  3
_____ _ _ _____ _ _ _____ _ _ _____
 72
65
 73
6
 40
0.8
 49
0.45
 74
0
 49
-0.05
 74
0
 49
0.1
 74
0
 49
-0.05
 74
0
 49
0.1
 74
0
 49
-0.05
 74
0
  0
LTYPE
  5
1F8
100
AcDbSymbolTableRecord
100
AcDbLinetypeTableRecord
  2
DOT
 70
64
  3
. . . . . . . . . . . . . . . . . . . .
 72
65
 73
2
 40
0.2
 49
0.1
 74
0
 49
-0.1
 74
0
  0
LTYPE
  5
1F9
100
AcDbSymbolTableRecord
100
AcDbLinetypeTableRecord
  2
DASHED
 70
64
  3
- - - - - - - - - - - - - - - - - - - -
 72
65
 73
2
 40
0.2
 49
0.1
 74
0
 49
-0.1
 74
0
  0
ENDTAB
  0
TABLE
  2
LAYER
  5
2
100
AcDbSymbolTable
 70
36
  0
LAYER
  5
10
100
AcDbSymbolTableRecord
100
AcDbLayerTableRecord
  2
0
 70
0
 62
7
  6
CONTINUOUS
370
-3
390
F
  0
LAYER
  5
1FA
100
AcDbSymbolTableRecord
100
AcDbLayerTableRecord
  2
DEFAULT_1
 70
0
 62
7
  6
CENTER
370
-3
390
F
  0
LAYER
  5
1FB
100
AcDbSymbolTableRecord
100
AcDbLayerTableRecord
  2
DEFAULT_2
 70
0
 62
8
  6
HIDDEN
370
-3
390
F
  0
LAYER
  5
1FC
100
AcDbSymbolTableRecord
100
AcDbLayerTableRecord
  2
DEFAULT_3
 70
0
 62
7
  6
PHANTOM
370
-3
390
F
  0
LAYER
  5
1FD
100
AcDbSymbolTableRecord
100
AcDbLayerTableRecord
  2
00_COMPONENTS
 70
0
 62
7
  6
CONTINUOUS
370
-3
390
F
  0
LAYER
  5
1FE
100
AcDbSymbolTableRecord
100
AcDbLayerTableRecord
  2
01_1_DEFAULT_DATUMS
 70
0
 62
7
  6
CONTINUOUS
370
-3
390
F
  0
LAYER
  5
1FF
100
AcDbSymbolTableRecord
100
AcDbLayerTableRecord
  2
01_PLANES
 70
0
 62
7
  6
CONTINUOUS
370
-3
390
F
  0
LAYER
  5
200
100
AcDbSymbolTableRecord
100
AcDbLayerTableRecord
  2
02_COORD_SYS
 70
0
 62
7
  6
CONTINUOUS
370
-3
390
F
  0
LAYER
  5
201
100
AcDbSymbolTableRecord
100
AcDbLayerTableRecord
  2
03_AXES
 70
0
 62
7
  6
CONTINUOUS
370
-3
390
F
  0
LAYER
  5
202
100
AcDbSymbolTableRecord
100
AcDbLayerTableRecord
  2
04_POINTS
 70
0
 62
7
  6
CONTINUOUS
370
-3
390
F
  0
LAYER
  5
203
100
AcDbSymbolTableRecord
100
AcDbLayerTableRecord
  2
05_CURVES
 70
0
 62
7
  6
CONTINUOUS
370
-3
390
F
  0
LAYER
  5
204
100
AcDbSymbolTableRecord
100
AcDbLayerTableRecord
  2
06_SURFS
 70
0
 62
7
  6
CONTINUOUS
370
-3
390
F
  0
LAYER
  5
205
100
AcDbSymbolTableRecord
100
AcDbLayerTableRecord
  2
07_COSMETICS
 70
0
 62
7
  6
CONTINUOUS
370
-3
390
F
  0
LAYER
  5
206
100
AcDbSymbolTableRecord
100
AcDbLayerTableRecord
  2
10_NOTES
 70
0
 62
7
  6
CONTINUOUS
370
-3
390
F
  0
LAYER
  5
207
100
AcDbSymbolTableRecord
100
AcDbLayerTableRecord
  2
11_NOTES_PUB
 70
0
 62
7
  6
CONTINUOUS
370
-3
390
F
  0
LAYER
  5
208
100
AcDbSymbolTableRecord
100
AcDbLayerTableRecord
  2
13_REF_GTOL
 70
0
 62
7
  6
CONTINUOUS
370
-3
390
F
  0
LAYER
  5
209
100
AcDbSymbolTableRecord
100
AcDbLayerTableRecord
  2
16_MISC
 70
0
 62
7
  6
CONTINUOUS
370
-3
390
F
  0
LAYER
  5
20A
100
AcDbSymbolTableRecord
100
AcDbLayerTableRecord
  2
17_NO_PRINT
 70
0
 62
7
  6
CONTINUOUS
370
-3
390
F
  0
LAYER
  5
20B
100
AcDbSymbolTableRecord
100
AcDbLayerTableRecord
  2
18_DATUM_CAMS_JOINTS
 70
0
 62
7
  6
CONTINUOUS
370
-3
390
F
  0
LAYER
  5
20C
100
AcDbSymbolTableRecord
100
AcDbLayerTableRecord
  2
19_DATUM_FUNCTIONAL
 70
0
 62
7
  6
CONTINUOUS
370
-3
390
F
  0
LAYER
  5
20D
100
AcDbSymbolTableRecord
100
AcDbLayerTableRecord
  2
20_DATUM_KINEMATIC_SCHEME
 70
0
 62
7
  6
CONTINUOUS
370
-3
390
F
  0
ENDTAB
  0
TABLE
  2
STYLE
  5
3
100
AcDbSymbolTable
 70
1
  0
STYLE
  5
11
100
AcDbSymbolTableRecord
100
AcDbTextStyleTableRecord
  2
STANDARD
 70
0
 40
0.0
 41
0.8
 50
0.0
 71
0
 42
0.2
  3
txt
  4

  0
STYLE
  5
20E
100
AcDbSymbolTableRecord
100
AcDbTextStyleTableRecord
  2
TEXTSTYLE_1
 70
0
 40
0.0
 41
0.8
 50
0.0
 71
0
 42
0.2
  3
gdt
  4

  0
ENDTAB
  0
TABLE
  2
VIEW
  5
6
100
AcDbSymbolTable
 70
0
  0
ENDTAB
  0
TABLE
  2
UCS
  5
7
100
AcDbSymbolTable
 70
0
  0
ENDTAB
  0
TABLE
  2
APPID
  5
9
100
AcDbSymbolTable
 70
1
  0
APPID
  5
20F
100
AcDbSymbolTableRecord
100
AcDbRegAppTableRecord
  2
ACAD
 70
0
  0
ENDTAB
  0
TABLE
  2
BLOCK_RECORD
  5
1
100
AcDbSymbolTable
 70
0
  0
BLOCK_RECORD
  5
210
100
AcDbSymbolTableRecord
100
AcDbBlockTableRecord
  2
*Model_Space
  0
BLOCK_RECORD
  5
211
100
AcDbSymbolTableRecord
100
AcDbBlockTableRecord
  2
*Paper_Space
  0
BLOCK_RECORD
  5
212
100
AcDbSymbolTableRecord
100
AcDbBlockTableRecord
  2
_FILLED
  0
ENDTAB
  0
TABLE
  2
DIMSTYLE
  5
A
100
AcDbSymbolTable
 70
1
100
AcDbDimStyleTable
 71
0
  0
DIMSTYLE
105
213
100
AcDbSymbolTableRecord
100
AcDbDimStyleTableRecord
  2
STANDARD
 70
0
  3

  4

 40
1.0
 41
1.8771348562
 42
1.0
 43
0.38
 44
1.0
 45
0.0
 46
0.0
 47
0.01
 48
0.01
140
2.6279887987
141
0.09
142
0.0
143
25.4
144
1.0
145
0.0
146
1.0
147
0.625
 71
1
 72
0
 73
0
 74
0
 75
0
 76
0
 77
1
 78
8
 79
2
170
0
171
1
172
0
173
0
174
0
175
0
176
0
177
0
178
0
270
2
179
2
271
2
272
2
273
2
274
2
275
0
280
0
281
0
282
0
283
1
284
8
285
0
286
0
287
3
288
0
340
11
278
46
341
212
342
212
343
212
344
212
  0
ENDTAB
  0
ENDSEC
  0
SECTION
  2
BLOCKS
  0
BLOCK
  5
20
100
AcDbEntity
  8
0
100
AcDbBlockBegin
  2
*Model_Space
 70
0
 10
0.0
 20
0.0
 30
0.0
  3
*Model_Space
  1

  0
ENDBLK
  5
21
100
AcDbEntity
  8
0
100
AcDbBlockEnd
  0
BLOCK
  5
1C
100
AcDbEntity
  8
0
100
AcDbBlockBegin
  2
*Paper_Space
 70
0
 10
0.0
 20
0.0
 30
0.0
  3
*Paper_Space
  1

  0
ENDBLK
  5
1D
100
AcDbEntity
  8
0
100
AcDbBlockEnd
  0
BLOCK
  5
214
100
AcDbEntity
  8
0
100
AcDbBlockBegin
  2
_FILLED
 70
64
 10
0.0
 20
0.0
  3
_FILLED
  1

  0
SOLID
  5
215
100
AcDbEntity
  8
0
  6
BYBLOCK
 62
0
100
AcDbTrace
 10
0.0
 20
0.0
 11
-1.0
 21
0.25
 12
-1.0
 22
-0.25
 13
-1.0
 23
-0.25
  0
ENDBLK
  5
216
100
AcDbEntity
  8
0
  6
BYBLOCK
 62
0
100
AcDbBlockEnd
  0
ENDSEC
  0
SECTION
  2
ENTITIES
  0
LINE
  5
217
100
AcDbEntity
  8
0
100
AcDbLine
 62
7
  6
CONTINUOUS
 10
17.2884809533
 20
155.8813261374
 11
17.4884809533
 21
156.0813261374
  0
LINE
  5
218
100
AcDbEntity
  8
0
100
AcDbLine
 62
7
  6
CONTINUOUS
 10
30.4185923491
 20
57.6033474205
 11
30.2639894002
 21
57.7579503694
  0
LINE
  5
219
100
AcDbEntity
  8
0
100
AcDbLine
 62
7
  6
CONTINUOUS
 10
33.2598780044
 20
60.7538389736
 11
33.4144809533
 21
60.5992360247
  0
LINE
  5
21A
100
AcDbEntity
  8
0
100
AcDbLine
 62
7
  6
CONTINUOUS
 10
20.4244809533
 20
88.9413261374
 11
20.5227699883
 21
79.579487021
  0
LINE
  5
21B
100
AcDbEntity
  8
0
100
AcDbLine
 62
7
  6
CONTINUOUS
 10
17.2884809533
 20
136.2813261374
 11
17.2884809533
 21
155.8813261374
  0
LINE
  5
21C
100
AcDbEntity
  8
0
100
AcDbLine
 62
7
  6
CONTINUOUS
 10
17.4884809533
 20
156.0813261374
 11
17.4884809533
 21
136.0813261374
  0
LINE
  5
21D
100
AcDbEntity
  8
0
100
AcDbLine
 62
7
  6
CONTINUOUS
 10
17.5744809533
 20
140.23514354
 11
17.5744809533
 21
137.2875087347
  0
LINE
  5
21E
100
AcDbEntity
  8
0
100
AcDbLine
 62
7
  6
CONTINUOUS
 10
17.5744809533
 20
64.5813261374
 11
17.5744809533
 21
137.2613261374
  0
LINE
  5
21F
100
AcDbEntity
  8
0
100
AcDbLine
 62
7
  6
CONTINUOUS
 10
17.5744809533
 20
140.2613261374
 11
17.5744809533
 21
164.5813261374
  0
LINE
  5
220
100
AcDbEntity
  8
0
100
AcDbLine
 62
7
  6
CONTINUOUS
 10
20.3982983559
 20
140.23514354
 11
20.4244809533
 21
140.2613261374
  0
LINE
  5
221
100
AcDbEntity
  8
0
100
AcDbLine
 62
7
  6
CONTINUOUS
 10
33.3856207632
 20
68.6322076106
 11
33.4144809533
 21
68.6033474205
  0
LINE
  5
222
100
AcDbEntity
  8
0
100
AcDbLine
 62
7
  6
CONTINUOUS
 10
20.4244809533
 20
88.9413261374
 11
20.3946963392
 21
89.0307526442
  0
LINE
  5
223
100
AcDbEntity
  8
0
100
AcDbLine
 62
7
  6
CONTINUOUS
 10
22.3295091216
 20
101.3033474205
 11
22.2754449921
 21
101.8056475587
  0
LINE
  5
224
100
AcDbEntity
  8
0
100
AcDbLine
 62
7
  6
CONTINUOUS
 10
22.3325525236
 20
103.7452758502
 11
22.4290839022
 21
101.9033474205
  0
LINE
  5
225
100
AcDbEntity
  8
0
100
AcDbLine
 62
7
  6
CONTINUOUS
 10
20.2935779365
 20
149.6972003253
 11
20.2935779365
 21
149.5813261374
  0
LINE
  5
226
100
AcDbEntity
  8
0
100
AcDbLine
 62
7
  6
CONTINUOUS
 10
20.3546606936
 20
89.9111463971
 11
20.3546606936
 21
79.3716950202
  0
LINE
  5
227
100
AcDbEntity
  8
0
100
AcDbLine
 62
7
  6
CONTINUOUS
 10
20.3881744183
 20
89.8776326724
 11
20.3881744183
 21
89.0503343183
  0
LINE
  5
228
100
AcDbEntity
  8
0
100
AcDbLine
 62
7
  6
CONTINUOUS
 10
20.3982983559
 20
137.2875087347
 11
20.3982983559
 21
140.23514354
  0
LINE
  5
229
100
AcDbEntity
  8
0
100
AcDbLine
 62
7
  6
CONTINUOUS
 10
20.4244809533
 20
137.2613261374
 11
20.4244809533
 21
140.2613261374
  0
LINE
  5
22A
100
AcDbEntity
  8
0
100
AcDbLine
 62
7
  6
CONTINUOUS
 10
20.4534891342
 20
89.8776326724
 11
20.4534891342
 21
89.0503343183
  0
LINE
  5
22B
100
AcDbEntity
  8
0
100
AcDbLine
 62
7
  6
CONTINUOUS
 10
20.5944809533
 20
79.4654519494
 11
20.5944809533
 21
89.8776326724
  0
LINE
  5
22C
100
AcDbEntity
  8
0
100
AcDbLine
 62
7
  6
CONTINUOUS
 10
20.6495091216
 20
79.4654519494
 11
20.6495091216
 21
89.8776326724
  0
LINE
  5
22D
100
AcDbEntity
  8
0
100
AcDbLine
 62
7
  6
CONTINUOUS
 10
22.1796606936
 20
164.5813261374
 11
22.1796606936
 21
149.6972003253
  0
LINE
  5
22E
100
AcDbEntity
  8
0
100
AcDbLine
 62
7
  6
CONTINUOUS
 10
22.1796606936
 20
101.821853379
 11
22.1796606936
 21
101.8109362208
  0
LINE
  5
22F
100
AcDbEntity
  8
0
100
AcDbLine
 62
7
  6
CONTINUOUS
 10
22.1796606936
 20
101.7715058776
 11
22.1796606936
 21
89.9111463971
  0
LINE
  5
230
100
AcDbEntity
  8
0
100
AcDbLine
 62
7
  6
CONTINUOUS
 10
22.1796606936
 20
79.3716950202
 11
22.1796606936
 21
64.5813261374
  0
LINE
  5
231
100
AcDbEntity
  8
0
100
AcDbLine
 62
7
  6
CONTINUOUS
 10
22.2131744183
 20
89.8776326724
 11
22.2131744183
 21
101.8050196023
  0
LINE
  5
232
100
AcDbEntity
  8
0
100
AcDbLine
 62
7
  6
CONTINUOUS
 10
22.2744809533
 20
60.5993620312
 11
22.2744809533
 21
68.6033474205
  0
LINE
  5
233
100
AcDbEntity
  8
0
100
AcDbLine
 62
7
  6
CONTINUOUS
 10
22.3295091216
 20
101.3033474205
 11
22.3295091216
 21
69.1583755887
  0
LINE
  5
234
100
AcDbEntity
  8
0
100
AcDbLine
 62
7
  6
CONTINUOUS
 10
22.4290839022
 20
101.9033474205
 11
22.4290839022
 21
60.7540919358
  0
LINE
  5
235
100
AcDbEntity
  8
0
100
AcDbLine
 62
7
  6
CONTINUOUS
 10
20.4227511746
 20
79.5761239984
 11
20.4244809533
 21
88.9413261374
  0
LINE
  5
236
100
AcDbEntity
  8
0
100
AcDbLine
 62
7
  6
CONTINUOUS
 10
22.2086203392
 20
64.5813261374
 11
22.2108876089
 21
79.4654519494
  0
LINE
  5
237
100
AcDbEntity
  8
0
100
AcDbLine
 62
7
  6
CONTINUOUS
 10
22.2859505551
 20
103.7918778187
 11
22.2755688801
 21
101.8109362208
  0
LINE
  5
238
100
AcDbEntity
  8
0
100
AcDbLine
 62
7
  6
CONTINUOUS
 10
20.4244354903
 20
79.5761165872
 11
20.4234697346
 21
79.4654519494
  0
LINE
  5
239
100
AcDbEntity
  8
0
100
AcDbLine
 62
7
  6
CONTINUOUS
 10
25.0611602779
 20
162.2813261374
 11
25.1013069273
 21
164.5813261374
  0
LINE
  5
23A
100
AcDbEntity
  8
0
100
AcDbLine
 62
7
  6
CONTINUOUS
 10
22.3295091216
 20
69.1583755887
 11
22.3033411435
 21
68.6322076106
  0
LINE
  5
23B
100
AcDbEntity
  8
0
100
AcDbLine
 62
7
  6
CONTINUOUS
 10
35.2553755756
 20
149.5865201431
 11
35.324301213
 21
149.7909572545
  0
LINE
  5
23C
100
AcDbEntity
  8
0
100
AcDbLine
 62
7
  6
CONTINUOUS
 10
36.8546606936
 20
147.1102466359
 11
37.6846606936
 21
147.9402466359
  0
LINE
  5
23D
100
AcDbEntity
  8
0
100
AcDbLine
 62
7
  6
CONTINUOUS
 10
37.7544809533
 20
147.9113261374
 11
36.9244809533
 21
147.0813261374
  0
LINE
  5
23E
100
AcDbEntity
  8
0
100
AcDbLine
 62
7
  6
CONTINUOUS
 10
20.3881744183
 20
89.8776326724
 11
20.3546606936
 21
89.9111463971
  0
LINE
  5
23F
100
AcDbEntity
  8
0
100
AcDbLine
 62
7
  6
CONTINUOUS
 10
22.2131744183
 20
89.8776326724
 11
22.1796606936
 21
89.9111463971
  0
LINE
  5
240
100
AcDbEntity
  8
0
100
AcDbLine
 62
7
  6
CONTINUOUS
 10
22.2754449921
 20
101.8056475587
 11
22.2739465431
 21
101.8180062337
  0
LINE
  5
241
100
AcDbEntity
  8
0
100
AcDbLine
 62
7
  6
CONTINUOUS
 10
35.2544809533
 20
137.2613261373
 11
35.324301213
 21
137.3311463971
  0
LINE
  5
242
100
AcDbEntity
  8
0
100
AcDbLine
 62
7
  6
CONTINUOUS
 10
25.2703695576
 20
57.6033474205
 11
30.4185923491
 21
57.6033474205
  0
LINE
  5
243
100
AcDbEntity
  8
0
100
AcDbLine
 62
7
  6
CONTINUOUS
 10
129.7303695576
 20
57.6033474205
 11
134.8785923491
 21
57.6033474205
  0
LINE
  5
244
100
AcDbEntity
  8
0
100
AcDbLine
 62
7
  6
CONTINUOUS
 10
134.7239894002
 20
57.7579503694
 11
129.8849725065
 21
57.7579503694
  0
LINE
  5
245
100
AcDbEntity
  8
0
100
AcDbLine
 62
7
  6
CONTINUOUS
 10
30.2639894002
 20
57.7579503694
 11
25.4249725065
 21
57.7579503694
  0
LINE
  5
246
100
AcDbEntity
  8
0
100
AcDbLine
 62
7
  6
CONTINUOUS
 10
50.0144809533
 20
66.2513261374
 11
50.084301213
 21
66.1815058776
  0
LINE
  5
247
100
AcDbEntity
  8
0
100
AcDbLine
 62
7
  6
CONTINUOUS
 10
33.499301213
 20
79.3716950202
 11
33.4680742977
 21
79.4654519494
  0
LINE
  5
248
100
AcDbEntity
  8
0
100
AcDbLine
 62
7
  6
CONTINUOUS
 10
35.2562107279
 20
79.5761238937
 11
35.324301213
 21
79.3716950202
  0
LINE
  5
249
100
AcDbEntity
  8
0
100
AcDbLine
 62
7
  6
CONTINUOUS
 10
33.3856207632
 20
68.6322076106
 11
33.3594527851
 21
69.1583755887
  0
LINE
  5
24A
100
AcDbEntity
  8
0
100
AcDbLine
 62
7
  6
CONTINUOUS
 10
30.6178016287
 20
162.2813261374
 11
30.5776549794
 21
164.5813261374
  0
LINE
  5
24B
100
AcDbEntity
  8
0
100
AcDbLine
 62
7
  6
CONTINUOUS
 10
35.255492172
 20
79.4654519494
 11
35.2545267909
 21
79.576073669
  0
LINE
  5
24C
100
AcDbEntity
  8
0
100
AcDbLine
 62
7
  6
CONTINUOUS
 10
35.2544809468
 20
137.2613269581
 11
35.1561934331
 21
149.5835569434
  0
LINE
  5
24D
100
AcDbEntity
  8
0
100
AcDbLine
 62
7
  6
CONTINUOUS
 10
33.4133930265
 20
101.8109362208
 11
33.4030113515
 21
103.7918778187
  0
LINE
  5
24E
100
AcDbEntity
  8
0
100
AcDbLine
 62
7
  6
CONTINUOUS
 10
33.4680742977
 20
79.4654519494
 11
33.4703415675
 21
64.5813261374
  0
LINE
  5
24F
100
AcDbEntity
  8
0
100
AcDbLine
 62
7
  6
CONTINUOUS
 10
35.2544809532
 20
88.941326137
 11
35.2562107279
 21
79.5761238937
  0
LINE
  5
250
100
AcDbEntity
  8
0
100
AcDbLine
 62
7
  6
CONTINUOUS
 10
33.2598780044
 20
101.9033474205
 11
33.2598780044
 21
60.7538389736
  0
LINE
  5
251
100
AcDbEntity
  8
0
100
AcDbLine
 62
7
  6
CONTINUOUS
 10
33.3594527851
 20
69.1583755887
 11
33.3594527851
 21
101.3033474205
  0
LINE
  5
252
100
AcDbEntity
  8
0
100
AcDbLine
 62
7
  6
CONTINUOUS
 10
33.4144809533
 20
60.5992360247
 11
33.4144809533
 21
68.6033474205
  0
LINE
  5
253
100
AcDbEntity
  8
0
100
AcDbLine
 62
7
  6
CONTINUOUS
 10
33.4657874884
 20
89.8776326724
 11
33.4657874884
 21
101.8050196023
  0
LINE
  5
254
100
AcDbEntity
  8
0
100
AcDbLine
 62
7
  6
CONTINUOUS
 10
33.499301213
 20
64.5813261374
 11
33.499301213
 21
79.3716950202
  0
LINE
  5
255
100
AcDbEntity
  8
0
100
AcDbLine
 62
7
  6
CONTINUOUS
 10
33.499301213
 20
89.9111463971
 11
33.499301213
 21
101.7715058776
  0
LINE
  5
256
100
AcDbEntity
  8
0
100
AcDbLine
 62
7
  6
CONTINUOUS
 10
33.499301213
 20
149.6972003253
 11
33.499301213
 21
164.5813261374
  0
LINE
  5
257
100
AcDbEntity
  8
0
100
AcDbLine
 62
7
  6
CONTINUOUS
 10
35.0394527851
 20
89.8776326724
 11
35.0394527851
 21
79.4654519494
  0
LINE
  5
258
100
AcDbEntity
  8
0
100
AcDbLine
 62
7
  6
CONTINUOUS
 10
35.0944809533
 20
79.4654519494
 11
35.0944809533
 21
89.8776326724
  0
LINE
  5
259
100
AcDbEntity
  8
0
100
AcDbLine
 62
7
  6
CONTINUOUS
 10
35.2254727724
 20
89.0503343183
 11
35.2254727724
 21
89.8776326724
  0
LINE
  5
25A
100
AcDbEntity
  8
0
100
AcDbLine
 62
7
  6
CONTINUOUS
 10
35.2907874884
 20
89.0503343183
 11
35.2907874884
 21
89.8776326724
  0
LINE
  5
25B
100
AcDbEntity
  8
0
100
AcDbLine
 62
7
  6
CONTINUOUS
 10
35.324301213
 20
79.3716950202
 11
35.324301213
 21
89.9111463971
  0
LINE
  5
25C
100
AcDbEntity
  8
0
100
AcDbLine
 62
7
  6
CONTINUOUS
 10
35.324301213
 20
137.3311463971
 11
35.324301213
 21
149.7909572545
  0
LINE
  5
25D
100
AcDbEntity
  8
0
100
AcDbLine
 62
7
  6
CONTINUOUS
 10
35.2562106202
 20
149.586527948
 11
35.2544809533
 21
137.2613261373
  0
LINE
  5
25E
100
AcDbEntity
  8
0
100
AcDbLine
 62
7
  6
CONTINUOUS
 10
35.2545267905
 20
149.5865785623
 11
35.255492172
 21
149.6972003253
  0
LINE
  5
25F
100
AcDbEntity
  8
0
100
AcDbLine
 62
7
  6
CONTINUOUS
 10
35.1561871139
 20
79.5790294107
 11
35.2544809477
 21
88.9413255992
  0
LINE
  5
260
100
AcDbEntity
  8
0
100
AcDbLine
 62
7
  6
CONTINUOUS
 10
33.2598780044
 20
101.9033474205
 11
33.356409383
 21
103.7452758502
  0
LINE
  5
261
100
AcDbEntity
  8
0
100
AcDbLine
 62
7
  6
CONTINUOUS
 10
36.9244809533
 20
140.4613261374
 11
36.8546606936
 21
139.3895293676
  0
LINE
  5
262
100
AcDbEntity
  8
0
100
AcDbLine
 62
7
  6
CONTINUOUS
 10
33.3594527851
 20
101.3033474205
 11
33.3606401927
 21
101.3145211708
  0
LINE
  5
263
100
AcDbEntity
  8
0
100
AcDbLine
 62
7
  6
CONTINUOUS
 10
35.0936133265
 20
101.8050196023
 11
35.0950153636
 21
101.8180062337
  0
LINE
  5
264
100
AcDbEntity
  8
0
100
AcDbLine
 62
7
  6
CONTINUOUS
 10
22.2108876089
 20
79.4654519494
 11
22.1796606936
 21
79.3716950202
  0
LINE
  5
265
100
AcDbEntity
  8
0
100
AcDbLine
 62
7
  6
CONTINUOUS
 10
20.4235862491
 20
79.5761317957
 11
20.3791384831
 21
79.4442974145
  0
LINE
  5
266
100
AcDbEntity
  8
0
100
AcDbLine
 62
7
  6
CONTINUOUS
 10
39.5744809533
 20
135.2925357291
 11
39.5892159059
 21
135.3072706817
  0
LINE
  5
267
100
AcDbEntity
  8
0
100
AcDbLine
 62
7
  6
CONTINUOUS
 10
39.6130916213
 20
137.3311463971
 11
39.5746261112
 21
137.2927335882
  0
LINE
  5
268
100
AcDbEntity
  8
0
100
AcDbLine
 62
7
  6
CONTINUOUS
 10
17.5744809533
 20
64.5813261374
 11
22.1796606936
 21
64.5813261374
  0
LINE
  5
269
100
AcDbEntity
  8
0
100
AcDbLine
 62
7
  6
CONTINUOUS
 10
22.2086203392
 20
64.5813261374
 11
22.2744809533
 21
64.5813261374
  0
LINE
  5
26A
100
AcDbEntity
  8
0
100
AcDbLine
 62
7
  6
CONTINUOUS
 10
25.9139068883
 20
64.5813261374
 11
29.7725557418
 21
64.5813261374
  0
LINE
  5
26B
100
AcDbEntity
  8
0
100
AcDbLine
 62
7
  6
CONTINUOUS
 10
33.4144809533
 20
64.5813261374
 11
33.4703415675
 21
64.5813261374
  0
LINE
  5
26C
100
AcDbEntity
  8
0
100
AcDbLine
 62
7
  6
CONTINUOUS
 10
33.499301213
 20
64.5813261374
 11
126.6496606936
 21
64.5813261374
  0
LINE
  5
26D
100
AcDbEntity
  8
0
100
AcDbLine
 62
7
  6
CONTINUOUS
 10
126.6786203392
 20
64.5813261374
 11
126.7344809533
 21
64.5813261374
  0
LINE
  5
26E
100
AcDbEntity
  8
0
100
AcDbLine
 62
7
  6
CONTINUOUS
 10
130.3739068883
 20
64.5813261374
 11
134.2325557418
 21
64.5813261374
  0
LINE
  5
26F
100
AcDbEntity
  8
0
100
AcDbLine
 62
7
  6
CONTINUOUS
 10
137.8744809533
 20
64.5813261374
 11
137.9403415675
 21
64.5813261374
  0
LINE
  5
270
100
AcDbEntity
  8
0
100
AcDbLine
 62
7
  6
CONTINUOUS
 10
137.969301213
 20
64.5813261374
 11
142.5744809533
 21
64.5813261374
  0
LINE
  5
271
100
AcDbEntity
  8
0
100
AcDbLine
 62
7
  6
CONTINUOUS
 10
37.6846606936
 20
66.1815058776
 11
50.084301213
 21
66.1815058776
  0
LINE
  5
272
100
AcDbEntity
  8
0
100
AcDbLine
 62
7
  6
CONTINUOUS
 10
51.6146606936
 20
66.1815058776
 11
108.534301213
 21
66.1815058776
  0
LINE
  5
273
100
AcDbEntity
  8
0
100
AcDbLine
 62
7
  6
CONTINUOUS
 10
110.0646606936
 20
66.1815058776
 11
122.464301213
 21
66.1815058776
  0
LINE
  5
274
100
AcDbEntity
  8
0
100
AcDbLine
 62
7
  6
CONTINUOUS
 10
37.7544809533
 20
66.2513261374
 11
50.0144809533
 21
66.2513261374
  0
LINE
  5
275
100
AcDbEntity
  8
0
100
AcDbLine
 62
7
  6
CONTINUOUS
 10
51.6844809533
 20
66.2513261374
 11
108.4644809533
 21
66.2513261374
  0
LINE
  5
276
100
AcDbEntity
  8
0
100
AcDbLine
 62
7
  6
CONTINUOUS
 10
110.1344809533
 20
66.2513261374
 11
122.3944809533
 21
66.2513261374
  0
LINE
  5
277
100
AcDbEntity
  8
0
100
AcDbLine
 62
7
  6
CONTINUOUS
 10
35.2744687624
 20
89.0013383282
 11
35.2254727724
 21
89.0503343183
  0
LINE
  5
278
100
AcDbEntity
  8
0
100
AcDbLine
 62
7
  6
CONTINUOUS
 10
22.3325525236
 20
103.7452758502
 11
22.2859505551
 21
103.7918778187
  0
LINE
  5
279
100
AcDbEntity
  8
0
100
AcDbLine
 62
7
  6
CONTINUOUS
 10
36.8546606936
 20
147.1102466359
 11
36.8546606936
 21
139.3895293676
  0
LINE
  5
27A
100
AcDbEntity
  8
0
100
AcDbLine
 62
7
  6
CONTINUOUS
 10
36.9244809533
 20
147.0813261374
 11
36.9244809533
 21
140.4613261374
  0
LINE
  5
27B
100
AcDbEntity
  8
0
100
AcDbLine
 62
7
  6
CONTINUOUS
 10
37.6846606936
 20
162.2810990206
 11
37.6846606936
 21
147.9402466359
  0
LINE
  5
27C
100
AcDbEntity
  8
0
100
AcDbLine
 62
7
  6
CONTINUOUS
 10
37.6846606936
 20
100.2411463971
 11
37.6846606936
 21
66.1815058776
  0
LINE
  5
27D
100
AcDbEntity
  8
0
100
AcDbLine
 62
7
  6
CONTINUOUS
 10
37.7544809533
 20
162.2810990206
 11
37.7544809533
 21
147.9113261374
  0
LINE
  5
27E
100
AcDbEntity
  8
0
100
AcDbLine
 62
7
  6
CONTINUOUS
 10
37.7544809533
 20
100.1713261374
 11
37.7544809533
 21
66.2513261374
  0
LINE
  5
27F
100
AcDbEntity
  8
0
100
AcDbLine
 62
7
  6
CONTINUOUS
 10
39.5744809533
 20
135.2925357291
 11
39.5743357883
 21
137.2927335882
  0
LINE
  5
280
100
AcDbEntity
  8
0
100
AcDbLine
 62
7
  6
CONTINUOUS
 10
39.6130916213
 20
137.2613261374
 11
39.6130916213
 21
137.3311463971
  0
LINE
  5
281
100
AcDbEntity
  8
0
100
AcDbLine
 62
7
  6
CONTINUOUS
 10
41.0744809533
 20
91.6998272343
 11
41.0744809533
 21
100.1713261374
  0
LINE
  5
282
100
AcDbEntity
  8
0
100
AcDbLine
 62
7
  6
CONTINUOUS
 10
41.0744809533
 20
91.6998272343
 11
41.1074690361
 21
100.2043142201
  0
LINE
  5
283
100
AcDbEntity
  8
0
100
AcDbLine
 62
7
  6
CONTINUOUS
 10
39.5892159059
 20
135.3072706817
 11
39.6130916213
 21
137.2613261374
  0
LINE
  5
284
100
AcDbEntity
  8
0
100
AcDbLine
 62
7
  6
CONTINUOUS
 10
126.7344809533
 20
68.6033474205
 11
126.6792330058
 21
68.6033474205
  0
LINE
  5
285
100
AcDbEntity
  8
0
100
AcDbLine
 62
7
  6
CONTINUOUS
 10
33.4697289008
 20
68.6033474205
 11
33.4144809533
 21
68.6033474205
  0
LINE
  5
286
100
AcDbEntity
  8
0
100
AcDbLine
 62
7
  6
CONTINUOUS
 10
22.2744809533
 20
68.6033474205
 11
22.2092330058
 21
68.6033474205
  0
LINE
  5
287
100
AcDbEntity
  8
0
100
AcDbLine
 62
7
  6
CONTINUOUS
 10
137.8744809533
 20
68.6033474205
 11
137.9397289008
 21
68.6033474205
  0
LINE
  5
288
100
AcDbEntity
  8
0
100
AcDbLine
 62
7
  6
CONTINUOUS
 10
137.9397245046
 20
68.6322076106
 11
137.8456207632
 21
68.6322076106
  0
LINE
  5
289
100
AcDbEntity
  8
0
100
AcDbLine
 62
7
  6
CONTINUOUS
 10
126.7633411435
 20
68.6322076106
 11
126.679237402
 21
68.6322076106
  0
LINE
  5
28A
100
AcDbEntity
  8
0
100
AcDbLine
 62
7
  6
CONTINUOUS
 10
33.4697245046
 20
68.6322076106
 11
33.3856207632
 21
68.6322076106
  0
LINE
  5
28B
100
AcDbEntity
  8
0
100
AcDbLine
 62
7
  6
CONTINUOUS
 10
22.3033411435
 20
68.6322076106
 11
22.209237402
 21
68.6322076106
  0
LINE
  5
28C
100
AcDbEntity
  8
0
100
AcDbLine
 62
7
  6
CONTINUOUS
 10
126.7895091216
 20
69.1583755887
 11
126.6793175522
 21
69.1583755887
  0
LINE
  5
28D
100
AcDbEntity
  8
0
100
AcDbLine
 62
7
  6
CONTINUOUS
 10
33.4696443545
 20
69.1583755887
 11
33.3594527851
 21
69.1583755887
  0
LINE
  5
28E
100
AcDbEntity
  8
0
100
AcDbLine
 62
7
  6
CONTINUOUS
 10
22.3295091216
 20
69.1583755887
 11
22.2093175522
 21
69.1583755887
  0
LINE
  5
28F
100
AcDbEntity
  8
0
100
AcDbLine
 62
7
  6
CONTINUOUS
 10
137.8194527851
 20
69.1583755887
 11
137.9396443545
 21
69.1583755887
  0
LINE
  5
290
100
AcDbEntity
  8
0
100
AcDbLine
 62
7
  6
CONTINUOUS
 10
33.499301213
 20
101.7715058776
 11
33.4657874884
 21
101.8050196023
  0
LINE
  5
291
100
AcDbEntity
  8
0
100
AcDbLine
 62
7
  6
CONTINUOUS
 10
43.1544809533
 20
140.4613261374
 11
43.224301213
 21
139.3895293676
  0
LINE
  5
292
100
AcDbEntity
  8
0
100
AcDbLine
 62
7
  6
CONTINUOUS
 10
43.1544809533
 20
151.4613261374
 11
43.224301213
 21
145.4613261374
  0
LINE
  5
293
100
AcDbEntity
  8
0
100
AcDbLine
 62
7
  6
CONTINUOUS
 10
43.1544809533
 20
140.4613261374
 11
43.1544809533
 21
151.4613261374
  0
LINE
  5
294
100
AcDbEntity
  8
0
100
AcDbLine
 62
7
  6
CONTINUOUS
 10
43.224301213
 20
139.3895293676
 11
43.224301213
 21
145.4613261374
  0
LINE
  5
295
100
AcDbEntity
  8
0
100
AcDbLine
 62
7
  6
CONTINUOUS
 10
43.8744809533
 20
101.8315170745
 11
43.8744809533
 21
105.5026150353
  0
LINE
  5
296
100
AcDbEntity
  8
0
100
AcDbLine
 62
7
  6
CONTINUOUS
 10
44.7546606936
 20
145.4613261374
 11
44.7546606936
 21
139.3895293676
  0
LINE
  5
297
100
AcDbEntity
  8
0
100
AcDbLine
 62
7
  6
CONTINUOUS
 10
44.8244809533
 20
151.4613261374
 11
44.8244809533
 21
140.4613261374
  0
LINE
  5
298
100
AcDbEntity
  8
0
100
AcDbLine
 62
7
  6
CONTINUOUS
 10
44.7546606936
 20
145.4613261374
 11
44.8244809533
 21
151.4613261374
  0
LINE
  5
299
100
AcDbEntity
  8
0
100
AcDbLine
 62
7
  6
CONTINUOUS
 10
44.8244809533
 20
140.4613261374
 11
44.7546606936
 21
139.3895293676
  0
LINE
  5
29A
100
AcDbEntity
  8
0
100
AcDbLine
 62
7
  6
CONTINUOUS
 10
35.2842655674
 20
89.0307526442
 11
35.2544809532
 21
88.941326137
  0
LINE
  5
29B
100
AcDbEntity
  8
0
100
AcDbLine
 62
7
  6
CONTINUOUS
 10
58.6846606936
 20
138.8615058776
 11
58.7544809533
 21
138.9313261374
  0
LINE
  5
29C
100
AcDbEntity
  8
0
100
AcDbLine
 62
7
  6
CONTINUOUS
 10
22.2131744183
 20
101.8050196023
 11
22.1796606936
 21
101.7715058776
  0
LINE
  5
29D
100
AcDbEntity
  8
0
100
AcDbLine
 62
7
  6
CONTINUOUS
 10
37.7544809533
 20
100.1713261374
 11
37.6846606936
 21
100.2411463971
  0
LINE
  5
29E
100
AcDbEntity
  8
0
100
AcDbLine
 62
7
  6
CONTINUOUS
 10
50.0144809533
 20
140.4613261374
 11
50.084301213
 21
139.3895293676
  0
LINE
  5
29F
100
AcDbEntity
  8
0
100
AcDbLine
 62
7
  6
CONTINUOUS
 10
48.8744809533
 20
105.5026150353
 11
48.8744809533
 21
101.8315170745
  0
LINE
  5
2A0
100
AcDbEntity
  8
0
100
AcDbLine
 62
7
  6
CONTINUOUS
 10
50.0144809533
 20
66.2513261374
 11
50.0144809533
 21
91.6998272343
  0
LINE
  5
2A1
100
AcDbEntity
  8
0
100
AcDbLine
 62
7
  6
CONTINUOUS
 10
50.0144809533
 20
140.4613261374
 11
50.0144809533
 21
162.2810990206
  0
LINE
  5
2A2
100
AcDbEntity
  8
0
100
AcDbLine
 62
7
  6
CONTINUOUS
 10
50.084301213
 20
66.1815058776
 11
50.084301213
 21
100.2411463971
  0
LINE
  5
2A3
100
AcDbEntity
  8
0
100
AcDbLine
 62
7
  6
CONTINUOUS
 10
50.084301213
 20
139.3895293676
 11
50.084301213
 21
162.2810990206
  0
LINE
  5
2A4
100
AcDbEntity
  8
0
100
AcDbLine
 62
7
  6
CONTINUOUS
 10
51.6146606936
 20
100.2411463971
 11
51.6146606936
 21
66.1815058776
  0
LINE
  5
2A5
100
AcDbEntity
  8
0
100
AcDbLine
 62
7
  6
CONTINUOUS
 10
51.6844809533
 20
100.1713261374
 11
51.6844809533
 21
66.2513261374
  0
LINE
  5
2A6
100
AcDbEntity
  8
0
100
AcDbLine
 62
7
  6
CONTINUOUS
 10
50.0474690361
 20
100.2043142201
 11
50.0144809533
 21
91.6998272343
  0
LINE
  5
2A7
100
AcDbEntity
  8
0
100
AcDbLine
 62
7
  6
CONTINUOUS
 10
33.356409383
 20
103.7452758502
 11
33.4030113515
 21
103.7918778187
  0
LINE
  5
2A8
100
AcDbEntity
  8
0
100
AcDbLine
 62
7
  6
CONTINUOUS
 10
20.3546606936
 20
79.3716950202
 11
22.1796606936
 21
79.3716950202
  0
LINE
  5
2A9
100
AcDbEntity
  8
0
100
AcDbLine
 62
7
  6
CONTINUOUS
 10
33.499301213
 20
79.3716950202
 11
35.324301213
 21
79.3716950202
  0
LINE
  5
2AA
100
AcDbEntity
  8
0
100
AcDbLine
 62
7
  6
CONTINUOUS
 10
124.8246606936
 20
79.3716950202
 11
126.6496606936
 21
79.3716950202
  0
LINE
  5
2AB
100
AcDbEntity
  8
0
100
AcDbLine
 62
7
  6
CONTINUOUS
 10
137.969301213
 20
79.3716950202
 11
139.794301213
 21
79.3716950202
  0
LINE
  5
2AC
100
AcDbEntity
  8
0
100
AcDbLine
 62
7
  6
CONTINUOUS
 10
139.725492172
 20
79.4654519494
 11
137.9380742977
 21
79.4654519494
  0
LINE
  5
2AD
100
AcDbEntity
  8
0
100
AcDbLine
 62
7
  6
CONTINUOUS
 10
126.6808876089
 20
79.4654519494
 11
124.8934697346
 21
79.4654519494
  0
LINE
  5
2AE
100
AcDbEntity
  8
0
100
AcDbLine
 62
7
  6
CONTINUOUS
 10
20.4234697346
 20
79.4654519494
 11
22.2108876089
 21
79.4654519494
  0
LINE
  5
2AF
100
AcDbEntity
  8
0
100
AcDbLine
 62
7
  6
CONTINUOUS
 10
33.4680742977
 20
79.4654519494
 11
35.255492172
 21
79.4654519494
  0
LINE
  5
2B0
100
AcDbEntity
  8
0
100
AcDbLine
 62
7
  6
CONTINUOUS
 10
51.6844809533
 20
100.1713261374
 11
51.6146606936
 21
100.2411463971
  0
LINE
  5
2B1
100
AcDbEntity
  8
0
100
AcDbLine
 62
7
  6
CONTINUOUS
 10
54.5358702853
 20
137.2613261374
 11
54.5597460007
 21
135.3072706817
  0
LINE
  5
2B2
100
AcDbEntity
  8
0
100
AcDbLine
 62
7
  6
CONTINUOUS
 10
54.5358702853
 20
137.3311463971
 11
54.5358702853
 21
137.2613261374
  0
LINE
  5
2B3
100
AcDbEntity
  8
0
100
AcDbLine
 62
7
  6
CONTINUOUS
 10
54.5744809533
 20
135.2925357291
 11
54.5743357981
 21
137.2927335856
  0
LINE
  5
2B4
100
AcDbEntity
  8
0
100
AcDbLine
 62
7
  6
CONTINUOUS
 10
58.6846606936
 20
162.2810990206
 11
58.6846606936
 21
138.8615058776
  0
LINE
  5
2B5
100
AcDbEntity
  8
0
100
AcDbLine
 62
7
  6
CONTINUOUS
 10
20.4534891342
 20
89.0503343183
 11
20.4044931442
 21
89.0013383282
  0
LINE
  5
2B6
100
AcDbEntity
  8
0
100
AcDbLine
 62
7
  6
CONTINUOUS
 10
139.7607874884
 20
89.0503343183
 11
139.6954727724
 21
89.0503343183
  0
LINE
  5
2B7
100
AcDbEntity
  8
0
100
AcDbLine
 62
7
  6
CONTINUOUS
 10
124.9234891342
 20
89.0503343183
 11
124.8581744183
 21
89.0503343183
  0
LINE
  5
2B8
100
AcDbEntity
  8
0
100
AcDbLine
 62
7
  6
CONTINUOUS
 10
20.4534891342
 20
89.0503343183
 11
20.3881744183
 21
89.0503343183
  0
LINE
  5
2B9
100
AcDbEntity
  8
0
100
AcDbLine
 62
7
  6
CONTINUOUS
 10
35.2254727724
 20
89.0503343183
 11
35.2907874884
 21
89.0503343183
  0
LINE
  5
2BA
100
AcDbEntity
  8
0
100
AcDbLine
 62
7
  6
CONTINUOUS
 10
33.413346551
 20
101.8185598804
 11
33.4150153636
 21
101.8180062337
  0
LINE
  5
2BB
100
AcDbEntity
  8
0
100
AcDbLine
 62
7
  6
CONTINUOUS
 10
17.2884809533
 20
136.2813261374
 11
17.4884809533
 21
136.0813261374
  0
LINE
  5
2BC
100
AcDbEntity
  8
0
100
AcDbLine
 62
7
  6
CONTINUOUS
 10
20.3982983559
 20
137.2875087347
 11
20.4244809533
 21
137.2613261374
  0
LINE
  5
2BD
100
AcDbEntity
  8
0
100
AcDbLine
 62
7
  6
CONTINUOUS
 10
58.7544809533
 20
162.2810990206
 11
58.7544809533
 21
138.9313261374
  0
LINE
  5
2BE
100
AcDbEntity
  8
0
100
AcDbLine
 62
7
  6
CONTINUOUS
 10
41.1074690361
 20
100.2043142201
 11
41.0744809533
 21
100.1713261374
  0
LINE
  5
2BF
100
AcDbEntity
  8
0
100
AcDbLine
 62
7
  6
CONTINUOUS
 10
33.4657874884
 20
89.8776326724
 11
33.499301213
 21
89.9111463971
  0
LINE
  5
2C0
100
AcDbEntity
  8
0
100
AcDbLine
 62
7
  6
CONTINUOUS
 10
35.2907874884
 20
89.8776326724
 11
35.324301213
 21
89.9111463971
  0
LINE
  5
2C1
100
AcDbEntity
  8
0
100
AcDbLine
 62
7
  6
CONTINUOUS
 10
122.464301213
 20
147.9402466359
 11
122.3944809533
 21
147.9113261374
  0
LINE
  5
2C2
100
AcDbEntity
  8
0
100
AcDbLine
 62
7
  6
CONTINUOUS
 10
123.2244809533
 20
147.0813261374
 11
123.294301213
 21
147.1102466359
  0
LINE
  5
2C3
100
AcDbEntity
  8
0
100
AcDbLine
 62
7
  6
CONTINUOUS
 10
139.549995184
 20
101.821853379
 11
139.5554440574
 21
101.8228226425
  0
LINE
  5
2C4
100
AcDbEntity
  8
0
100
AcDbLine
 62
7
  6
CONTINUOUS
 10
126.6831744183
 20
89.8776326724
 11
124.8581744183
 21
89.8776326724
  0
LINE
  5
2C5
100
AcDbEntity
  8
0
100
AcDbLine
 62
7
  6
CONTINUOUS
 10
20.3881744183
 20
89.8776326724
 11
22.2131744183
 21
89.8776326724
  0
LINE
  5
2C6
100
AcDbEntity
  8
0
100
AcDbLine
 62
7
  6
CONTINUOUS
 10
33.4657874884
 20
89.8776326724
 11
35.2907874884
 21
89.8776326724
  0
LINE
  5
2C7
100
AcDbEntity
  8
0
100
AcDbLine
 62
7
  6
CONTINUOUS
 10
137.9357874884
 20
89.8776326724
 11
139.7607874884
 21
89.8776326724
  0
LINE
  5
2C8
100
AcDbEntity
  8
0
100
AcDbLine
 62
7
  6
CONTINUOUS
 10
139.794301213
 20
89.9111463971
 11
137.969301213
 21
89.9111463971
  0
LINE
  5
2C9
100
AcDbEntity
  8
0
100
AcDbLine
 62
7
  6
CONTINUOUS
 10
126.6496606936
 20
89.9111463971
 11
124.8246606936
 21
89.9111463971
  0
LINE
  5
2CA
100
AcDbEntity
  8
0
100
AcDbLine
 62
7
  6
CONTINUOUS
 10
35.324301213
 20
89.9111463971
 11
33.499301213
 21
89.9111463971
  0
LINE
  5
2CB
100
AcDbEntity
  8
0
100
AcDbLine
 62
7
  6
CONTINUOUS
 10
22.1796606936
 20
89.9111463971
 11
20.3546606936
 21
89.9111463971
  0
LINE
  5
2CC
100
AcDbEntity
  8
0
100
AcDbLine
 62
7
  6
CONTINUOUS
 10
119.0744809533
 20
91.6998272343
 11
110.1344809533
 21
91.6998272343
  0
LINE
  5
2CD
100
AcDbEntity
  8
0
100
AcDbLine
 62
7
  6
CONTINUOUS
 10
50.0144809533
 20
91.6998272343
 11
41.0744809533
 21
91.6998272343
  0
LINE
  5
2CE
100
AcDbEntity
  8
0
100
AcDbLine
 62
7
  6
CONTINUOUS
 10
20.5935178493
 20
101.8228226425
 11
20.5989667227
 21
101.821853379
  0
LINE
  5
2CF
100
AcDbEntity
  8
0
100
AcDbLine
 62
7
  6
CONTINUOUS
 10
50.084301213
 20
100.2411463971
 11
50.0474690361
 21
100.2043142201
  0
LINE
  5
2D0
100
AcDbEntity
  8
0
100
AcDbLine
 62
7
  6
CONTINUOUS
 10
22.2744809533
 20
68.6033474205
 11
22.3033411435
 21
68.6322076106
  0
LINE
  5
2D1
100
AcDbEntity
  8
0
100
AcDbLine
 62
7
  6
CONTINUOUS
 10
122.3944809533
 20
100.1713261374
 11
119.0744809533
 21
100.1713261374
  0
LINE
  5
2D2
100
AcDbEntity
  8
0
100
AcDbLine
 62
7
  6
CONTINUOUS
 10
108.4644809533
 20
100.1713261374
 11
51.6844809533
 21
100.1713261374
  0
LINE
  5
2D3
100
AcDbEntity
  8
0
100
AcDbLine
 62
7
  6
CONTINUOUS
 10
41.0744809533
 20
100.1713261374
 11
37.7544809533
 21
100.1713261374
  0
LINE
  5
2D4
100
AcDbEntity
  8
0
100
AcDbLine
 62
7
  6
CONTINUOUS
 10
119.0414928705
 20
100.2043142201
 11
110.1014928705
 21
100.2043142201
  0
LINE
  5
2D5
100
AcDbEntity
  8
0
100
AcDbLine
 62
7
  6
CONTINUOUS
 10
50.0474690361
 20
100.2043142201
 11
41.1074690361
 21
100.2043142201
  0
LINE
  5
2D6
100
AcDbEntity
  8
0
100
AcDbLine
 62
7
  6
CONTINUOUS
 10
122.464301213
 20
100.2411463971
 11
110.0646606936
 21
100.2411463971
  0
LINE
  5
2D7
100
AcDbEntity
  8
0
100
AcDbLine
 62
7
  6
CONTINUOUS
 10
108.534301213
 20
100.2411463971
 11
51.6146606936
 21
100.2411463971
  0
LINE
  5
2D8
100
AcDbEntity
  8
0
100
AcDbLine
 62
7
  6
CONTINUOUS
 10
50.084301213
 20
100.2411463971
 11
37.6846606936
 21
100.2411463971
  0
LINE
  5
2D9
100
AcDbEntity
  8
0
100
AcDbLine
 62
7
  6
CONTINUOUS
 10
108.534301213
 20
66.1815058776
 11
108.4644809533
 21
66.2513261374
  0
LINE
  5
2DA
100
AcDbEntity
  8
0
100
AcDbLine
 62
7
  6
CONTINUOUS
 10
22.2744809533
 20
60.5992360247
 11
22.4290839022
 21
60.7538389736
  0
LINE
  5
2DB
100
AcDbEntity
  8
0
100
AcDbLine
 62
7
  6
CONTINUOUS
 10
20.5944809533
 20
101.8233474205
 11
20.6390275657
 21
101.8381842257
  0
LINE
  5
2DC
100
AcDbEntity
  8
0
100
AcDbLine
 62
7
  6
CONTINUOUS
 10
35.3344809533
 20
101.8413261374
 11
35.2254727724
 21
101.8050196023
  0
LINE
  5
2DD
100
AcDbEntity
  8
0
100
AcDbLine
 62
7
  6
CONTINUOUS
 10
137.9357874884
 20
101.3033474205
 11
137.8194527851
 21
101.3033474205
  0
LINE
  5
2DE
100
AcDbEntity
  8
0
100
AcDbLine
 62
7
  6
CONTINUOUS
 10
22.2131744183
 20
101.3033474205
 11
22.3295091216
 21
101.3033474205
  0
LINE
  5
2DF
100
AcDbEntity
  8
0
100
AcDbLine
 62
7
  6
CONTINUOUS
 10
33.3594527851
 20
101.3033474205
 11
33.4657874884
 21
101.3033474205
  0
LINE
  5
2E0
100
AcDbEntity
  8
0
100
AcDbLine
 62
7
  6
CONTINUOUS
 10
126.6831744183
 20
101.3033474205
 11
126.7895091216
 21
101.3033474205
  0
LINE
  5
2E1
100
AcDbEntity
  8
0
100
AcDbLine
 62
7
  6
CONTINUOUS
 10
17.5744809533
 20
101.7715058776
 11
22.1796606936
 21
101.7715058776
  0
LINE
  5
2E2
100
AcDbEntity
  8
0
100
AcDbLine
 62
7
  6
CONTINUOUS
 10
33.499301213
 20
101.7715058776
 11
126.6496606936
 21
101.7715058776
  0
LINE
  5
2E3
100
AcDbEntity
  8
0
100
AcDbLine
 62
7
  6
CONTINUOUS
 10
137.969301213
 20
101.7715058776
 11
142.5744809533
 21
101.7715058776
  0
LINE
  5
2E4
100
AcDbEntity
  8
0
100
AcDbLine
 62
7
  6
CONTINUOUS
 10
22.1796606936
 20
101.8050196023
 11
22.2131744183
 21
101.8050196023
  0
LINE
  5
2E5
100
AcDbEntity
  8
0
100
AcDbLine
 62
7
  6
CONTINUOUS
 10
33.4657874884
 20
101.8050196023
 11
35.2254727724
 21
101.8050196023
  0
LINE
  5
2E6
100
AcDbEntity
  8
0
100
AcDbLine
 62
7
  6
CONTINUOUS
 10
124.9234891342
 20
101.8050196023
 11
126.6831744183
 21
101.8050196023
  0
LINE
  5
2E7
100
AcDbEntity
  8
0
100
AcDbLine
 62
7
  6
CONTINUOUS
 10
137.9357874884
 20
101.8050196023
 11
137.969301213
 21
101.8050196023
  0
LINE
  5
2E8
100
AcDbEntity
  8
0
100
AcDbLine
 62
7
  6
CONTINUOUS
 10
33.4150153636
 20
101.8180062337
 11
35.0939465431
 21
101.8180062337
  0
LINE
  5
2E9
100
AcDbEntity
  8
0
100
AcDbLine
 62
7
  6
CONTINUOUS
 10
125.0550153636
 20
101.8180062337
 11
126.7339465431
 21
101.8180062337
  0
LINE
  5
2EA
100
AcDbEntity
  8
0
100
AcDbLine
 62
7
  6
CONTINUOUS
 10
20.5989667227
 20
101.821853379
 11
22.2739465431
 21
101.8180062337
  0
LINE
  5
2EB
100
AcDbEntity
  8
0
100
AcDbLine
 62
7
  6
CONTINUOUS
 10
137.8750153636
 20
101.8180062337
 11
139.549995184
 21
101.821853379
  0
LINE
  5
2EC
100
AcDbEntity
  8
0
100
AcDbLine
 62
7
  6
CONTINUOUS
 10
43.8744809533
 20
101.8315170745
 11
48.8744809533
 21
101.8315170745
  0
LINE
  5
2ED
100
AcDbEntity
  8
0
100
AcDbLine
 62
7
  6
CONTINUOUS
 10
111.2744809533
 20
101.8315170745
 11
116.2744809533
 21
101.8315170745
  0
LINE
  5
2EE
100
AcDbEntity
  8
0
100
AcDbLine
 62
7
  6
CONTINUOUS
 10
139.5099343409
 20
101.8381842257
 11
137.969301213
 21
101.8381842257
  0
LINE
  5
2EF
100
AcDbEntity
  8
0
100
AcDbLine
 62
7
  6
CONTINUOUS
 10
22.1796606936
 20
101.8381842257
 11
20.6390275657
 21
101.8381842257
  0
LINE
  5
2F0
100
AcDbEntity
  8
0
100
AcDbLine
 62
7
  6
CONTINUOUS
 10
142.5744809533
 20
101.8413261374
 11
139.5539465431
 21
101.8413261374
  0
LINE
  5
2F1
100
AcDbEntity
  8
0
100
AcDbLine
 62
7
  6
CONTINUOUS
 10
124.8144809533
 20
101.8413261374
 11
116.2744809533
 21
101.8413261374
  0
LINE
  5
2F2
100
AcDbEntity
  8
0
100
AcDbLine
 62
7
  6
CONTINUOUS
 10
111.2744809533
 20
101.8413261374
 11
48.8744809533
 21
101.8413261374
  0
LINE
  5
2F3
100
AcDbEntity
  8
0
100
AcDbLine
 62
7
  6
CONTINUOUS
 10
43.8744809533
 20
101.8413261374
 11
35.3344809533
 21
101.8413261374
  0
LINE
  5
2F4
100
AcDbEntity
  8
0
100
AcDbLine
 62
7
  6
CONTINUOUS
 10
20.5950153636
 20
101.8413261374
 11
17.5744809533
 21
101.8413261374
  0
LINE
  5
2F5
100
AcDbEntity
  8
0
100
AcDbLine
 62
7
  6
CONTINUOUS
 10
22.4290839022
 20
101.9033474205
 11
33.2598780044
 21
101.9033474205
  0
LINE
  5
2F6
100
AcDbEntity
  8
0
100
AcDbLine
 62
7
  6
CONTINUOUS
 10
126.8890839022
 20
101.9033474205
 11
137.7198780044
 21
101.9033474205
  0
LINE
  5
2F7
100
AcDbEntity
  8
0
100
AcDbLine
 62
7
  6
CONTINUOUS
 10
116.2744809533
 20
102.8914110947
 11
111.2744809533
 21
102.8914110947
  0
LINE
  5
2F8
100
AcDbEntity
  8
0
100
AcDbLine
 62
7
  6
CONTINUOUS
 10
48.8744809533
 20
102.8914110947
 11
43.8744809533
 21
102.8914110947
  0
LINE
  5
2F9
100
AcDbEntity
  8
0
100
AcDbLine
 62
7
  6
CONTINUOUS
 10
43.8744809533
 20
103.1810235031
 11
48.8744809533
 21
103.1810235031
  0
LINE
  5
2FA
100
AcDbEntity
  8
0
100
AcDbLine
 62
7
  6
CONTINUOUS
 10
111.2744809533
 20
103.1810235031
 11
116.2744809533
 21
103.1810235031
  0
LINE
  5
2FB
100
AcDbEntity
  8
0
100
AcDbLine
 62
7
  6
CONTINUOUS
 10
137.816409383
 20
103.7452758502
 11
126.7925525236
 21
103.7452758502
  0
LINE
  5
2FC
100
AcDbEntity
  8
0
100
AcDbLine
 62
7
  6
CONTINUOUS
 10
33.356409383
 20
103.7452758502
 11
22.3325525236
 21
103.7452758502
  0
LINE
  5
2FD
100
AcDbEntity
  8
0
100
AcDbLine
 62
7
  6
CONTINUOUS
 10
22.2859505551
 20
103.7918778187
 11
33.4030113515
 21
103.7918778187
  0
LINE
  5
2FE
100
AcDbEntity
  8
0
100
AcDbLine
 62
7
  6
CONTINUOUS
 10
126.7459505551
 20
103.7918778187
 11
137.8630113515
 21
103.7918778187
  0
LINE
  5
2FF
100
AcDbEntity
  8
0
100
AcDbLine
 62
7
  6
CONTINUOUS
 10
116.2744809533
 20
104.7389196232
 11
111.2744809533
 21
104.7389196232
  0
LINE
  5
300
100
AcDbEntity
  8
0
100
AcDbLine
 62
7
  6
CONTINUOUS
 10
48.8744809533
 20
104.7389196232
 11
43.8744809533
 21
104.7389196232
  0
LINE
  5
301
100
AcDbEntity
  8
0
100
AcDbLine
 62
7
  6
CONTINUOUS
 10
116.2744809533
 20
105.5026150353
 11
111.2744809533
 21
105.5026150353
  0
LINE
  5
302
100
AcDbEntity
  8
0
100
AcDbLine
 62
7
  6
CONTINUOUS
 10
48.8744809533
 20
105.5026150353
 11
43.8744809533
 21
105.5026150353
  0
LINE
  5
303
100
AcDbEntity
  8
0
100
AcDbLine
 62
7
  6
CONTINUOUS
 10
25.4249725065
 20
57.7579503694
 11
25.2703695576
 21
57.6033474205
  0
LINE
  5
304
100
AcDbEntity
  8
0
100
AcDbLine
 62
7
  6
CONTINUOUS
 10
105.6130916213
 20
137.3311463971
 11
105.5746261513
 21
137.2927935168
  0
LINE
  5
305
100
AcDbEntity
  8
0
100
AcDbLine
 62
7
  6
CONTINUOUS
 10
54.5743357981
 20
137.2927335856
 11
54.5358702853
 21
137.3311463971
  0
LINE
  5
306
100
AcDbEntity
  8
0
100
AcDbLine
 62
7
  6
CONTINUOUS
 10
122.3944809533
 20
66.2513261374
 11
122.464301213
 21
66.1815058776
  0
LINE
  5
307
100
AcDbEntity
  8
0
100
AcDbLine
 62
7
  6
CONTINUOUS
 10
37.7544809533
 20
66.2513261374
 11
37.6846606936
 21
66.1815058776
  0
LINE
  5
308
100
AcDbEntity
  8
0
100
AcDbLine
 62
7
  6
CONTINUOUS
 10
124.9234891342
 20
101.8050196023
 11
124.8144809533
 21
101.8413261374
  0
LINE
  5
309
100
AcDbEntity
  8
0
100
AcDbLine
 62
7
  6
CONTINUOUS
 10
134.8785923491
 20
57.6033474205
 11
134.7239894002
 21
57.7579503694
  0
LINE
  5
30A
100
AcDbEntity
  8
0
100
AcDbLine
 62
7
  6
CONTINUOUS
 10
137.7198780044
 20
60.7538389736
 11
137.8744809533
 21
60.5992360247
  0
LINE
  5
30B
100
AcDbEntity
  8
0
100
AcDbLine
 62
7
  6
CONTINUOUS
 10
139.5099343409
 20
101.8381842257
 11
139.5544809533
 21
101.8233474205
  0
LINE
  5
30C
100
AcDbEntity
  8
0
100
AcDbLine
 62
7
  6
CONTINUOUS
 10
137.8456207632
 20
68.6322076106
 11
137.8744809533
 21
68.6033474205
  0
LINE
  5
30D
100
AcDbEntity
  8
0
100
AcDbLine
 62
7
  6
CONTINUOUS
 10
51.6844809533
 20
66.2513261374
 11
51.6146606936
 21
66.1815058776
  0
LINE
  5
30E
100
AcDbEntity
  8
0
100
AcDbLine
 62
7
  6
CONTINUOUS
 10
36.8546606936
 20
147.1102466359
 11
36.9244809533
 21
147.0813261374
  0
LINE
  5
30F
100
AcDbEntity
  8
0
100
AcDbLine
 62
7
  6
CONTINUOUS
 10
110.1014928705
 20
100.2043142201
 11
110.0646606936
 21
100.2411463971
  0
LINE
  5
310
100
AcDbEntity
  8
0
100
AcDbLine
 62
7
  6
CONTINUOUS
 10
124.8581744183
 20
89.8776326724
 11
124.8246606936
 21
89.9111463971
  0
LINE
  5
311
100
AcDbEntity
  8
0
100
AcDbLine
 62
7
  6
CONTINUOUS
 10
101.3944809533
 20
138.9313261374
 11
101.3944809533
 21
162.2810990206
  0
LINE
  5
312
100
AcDbEntity
  8
0
100
AcDbLine
 62
7
  6
CONTINUOUS
 10
101.464301213
 20
138.8615058776
 11
101.464301213
 21
162.2810990206
  0
LINE
  5
313
100
AcDbEntity
  8
0
100
AcDbLine
 62
7
  6
CONTINUOUS
 10
37.7544809533
 20
147.9113261374
 11
37.6846606936
 21
147.9402466359
  0
LINE
  5
314
100
AcDbEntity
  8
0
100
AcDbLine
 62
7
  6
CONTINUOUS
 10
126.6831744183
 20
89.8776326724
 11
126.6496606936
 21
89.9111463971
  0
LINE
  5
315
100
AcDbEntity
  8
0
100
AcDbLine
 62
7
  6
CONTINUOUS
 10
119.0744809533
 20
100.1713261374
 11
119.0414928705
 21
100.2043142201
  0
LINE
  5
316
100
AcDbEntity
  8
0
100
AcDbLine
 62
7
  6
CONTINUOUS
 10
105.5744809533
 20
135.2925357291
 11
105.5743357425
 21
137.2927935168
  0
LINE
  5
317
100
AcDbEntity
  8
0
100
AcDbLine
 62
7
  6
CONTINUOUS
 10
105.6130916213
 20
137.2613261374
 11
105.6130916213
 21
137.3311463971
  0
LINE
  5
318
100
AcDbEntity
  8
0
100
AcDbLine
 62
7
  6
CONTINUOUS
 10
105.5892159059
 20
135.3072706817
 11
105.6130916213
 21
137.2613261374
  0
LINE
  5
319
100
AcDbEntity
  8
0
100
AcDbLine
 62
7
  6
CONTINUOUS
 10
139.7506635507
 20
137.2875087347
 11
139.7244809533
 21
137.2613261374
  0
LINE
  5
31A
100
AcDbEntity
  8
0
100
AcDbLine
 62
7
  6
CONTINUOUS
 10
108.4644809533
 20
100.1713261374
 11
108.534301213
 21
100.2411463971
  0
LINE
  5
31B
100
AcDbEntity
  8
0
100
AcDbLine
 62
7
  6
CONTINUOUS
 10
54.5597460007
 20
135.3072706817
 11
39.5892159059
 21
135.3072706817
  0
LINE
  5
31C
100
AcDbEntity
  8
0
100
AcDbLine
 62
7
  6
CONTINUOUS
 10
105.5892159059
 20
135.3072706817
 11
120.5597460007
 21
135.3072706817
  0
LINE
  5
31D
100
AcDbEntity
  8
0
100
AcDbLine
 62
7
  6
CONTINUOUS
 10
17.4884809533
 20
136.0813261374
 11
17.5744809533
 21
136.0813261374
  0
LINE
  5
31E
100
AcDbEntity
  8
0
100
AcDbLine
 62
7
  6
CONTINUOUS
 10
120.5358702853
 20
137.2613261374
 11
105.6130916213
 21
137.2613261374
  0
LINE
  5
31F
100
AcDbEntity
  8
0
100
AcDbLine
 62
7
  6
CONTINUOUS
 10
54.5358702853
 20
137.2613261374
 11
39.6130916213
 21
137.2613261374
  0
LINE
  5
320
100
AcDbEntity
  8
0
100
AcDbLine
 62
7
  6
CONTINUOUS
 10
17.5744809533
 20
137.2613261374
 11
20.4244809533
 21
137.2613261374
  0
LINE
  5
321
100
AcDbEntity
  8
0
100
AcDbLine
 62
7
  6
CONTINUOUS
 10
35.25448095
 20
137.2613261376
 11
39.5743357883
 21
137.2613261376
  0
LINE
  5
322
100
AcDbEntity
  8
0
100
AcDbLine
 62
7
  6
CONTINUOUS
 10
54.5743357981
 20
137.2613261376
 11
105.5743357425
 21
137.2613261376
  0
LINE
  5
323
100
AcDbEntity
  8
0
100
AcDbLine
 62
7
  6
CONTINUOUS
 10
120.5743357553
 20
137.2613261376
 11
124.8944809566
 21
137.2613261376
  0
LINE
  5
324
100
AcDbEntity
  8
0
100
AcDbLine
 62
7
  6
CONTINUOUS
 10
139.7244809533
 20
137.2613261374
 11
142.5744809533
 21
137.2613261374
  0
LINE
  5
325
100
AcDbEntity
  8
0
100
AcDbLine
 62
7
  6
CONTINUOUS
 10
17.5744809533
 20
137.2875087347
 11
20.3982983559
 21
137.2875087347
  0
LINE
  5
326
100
AcDbEntity
  8
0
100
AcDbLine
 62
7
  6
CONTINUOUS
 10
139.7506635507
 20
137.2875087347
 11
142.5744809533
 21
137.2875087347
  0
LINE
  5
327
100
AcDbEntity
  8
0
100
AcDbLine
 62
7
  6
CONTINUOUS
 10
35.324301213
 20
137.3311463971
 11
39.6130916213
 21
137.3311463971
  0
LINE
  5
328
100
AcDbEntity
  8
0
100
AcDbLine
 62
7
  6
CONTINUOUS
 10
54.5358702853
 20
137.3311463971
 11
105.6130916213
 21
137.3311463971
  0
LINE
  5
329
100
AcDbEntity
  8
0
100
AcDbLine
 62
7
  6
CONTINUOUS
 10
120.5358702853
 20
137.3311463971
 11
124.8246606936
 21
137.3311463971
  0
LINE
  5
32A
100
AcDbEntity
  8
0
100
AcDbLine
 62
7
  6
CONTINUOUS
 10
58.6846606936
 20
138.8615058776
 11
101.464301213
 21
138.8615058776
  0
LINE
  5
32B
100
AcDbEntity
  8
0
100
AcDbLine
 62
7
  6
CONTINUOUS
 10
58.7544809533
 20
138.9313261374
 11
101.3944809533
 21
138.9313261374
  0
LINE
  5
32C
100
AcDbEntity
  8
0
100
AcDbLine
 62
7
  6
CONTINUOUS
 10
139.6954727724
 20
89.0503343183
 11
139.7444687624
 21
89.0013383282
  0
LINE
  5
32D
100
AcDbEntity
  8
0
100
AcDbLine
 62
7
  6
CONTINUOUS
 10
126.7925525236
 20
103.7452758502
 11
126.7459505551
 21
103.7918778187
  0
LINE
  5
32E
100
AcDbEntity
  8
0
100
AcDbLine
 62
7
  6
CONTINUOUS
 10
110.1344809533
 20
91.6998272343
 11
110.1014928705
 21
100.2043142201
  0
LINE
  5
32F
100
AcDbEntity
  8
0
100
AcDbLine
 62
7
  6
CONTINUOUS
 10
108.4644809533
 20
66.2513261374
 11
108.4644809533
 21
100.1713261374
  0
LINE
  5
330
100
AcDbEntity
  8
0
100
AcDbLine
 62
7
  6
CONTINUOUS
 10
108.534301213
 20
66.1815058776
 11
108.534301213
 21
100.2411463971
  0
LINE
  5
331
100
AcDbEntity
  8
0
100
AcDbLine
 62
7
  6
CONTINUOUS
 10
110.0646606936
 20
162.2810990206
 11
110.0646606936
 21
139.3895293676
  0
LINE
  5
332
100
AcDbEntity
  8
0
100
AcDbLine
 62
7
  6
CONTINUOUS
 10
110.0646606936
 20
100.2411463971
 11
110.0646606936
 21
66.1815058776
  0
LINE
  5
333
100
AcDbEntity
  8
0
100
AcDbLine
 62
7
  6
CONTINUOUS
 10
110.1344809533
 20
162.2810990206
 11
110.1344809533
 21
140.4613261374
  0
LINE
  5
334
100
AcDbEntity
  8
0
100
AcDbLine
 62
7
  6
CONTINUOUS
 10
110.1344809533
 20
91.6998272343
 11
110.1344809533
 21
66.2513261374
  0
LINE
  5
335
100
AcDbEntity
  8
0
100
AcDbLine
 62
7
  6
CONTINUOUS
 10
111.2744809533
 20
101.8315170745
 11
111.2744809533
 21
105.5026150353
  0
LINE
  5
336
100
AcDbEntity
  8
0
100
AcDbLine
 62
7
  6
CONTINUOUS
 10
110.1344809533
 20
140.4613261374
 11
110.0646606936
 21
139.3895293676
  0
LINE
  5
337
100
AcDbEntity
  8
0
100
AcDbLine
 62
7
  6
CONTINUOUS
 10
36.8546606936
 20
139.3895293676
 11
43.224301213
 21
139.3895293676
  0
LINE
  5
338
100
AcDbEntity
  8
0
100
AcDbLine
 62
7
  6
CONTINUOUS
 10
44.7546606936
 20
139.3895293676
 11
50.084301213
 21
139.3895293676
  0
LINE
  5
339
100
AcDbEntity
  8
0
100
AcDbLine
 62
7
  6
CONTINUOUS
 10
110.0646606936
 20
139.3895293676
 11
115.394301213
 21
139.3895293676
  0
LINE
  5
33A
100
AcDbEntity
  8
0
100
AcDbLine
 62
7
  6
CONTINUOUS
 10
116.9246606936
 20
139.3895293676
 11
123.294301213
 21
139.3895293676
  0
LINE
  5
33B
100
AcDbEntity
  8
0
100
AcDbLine
 62
7
  6
CONTINUOUS
 10
142.5744809533
 20
140.23514354
 11
139.7506635507
 21
140.23514354
  0
LINE
  5
33C
100
AcDbEntity
  8
0
100
AcDbLine
 62
7
  6
CONTINUOUS
 10
17.5744809533
 20
140.23514354
 11
20.3982983559
 21
140.23514354
  0
LINE
  5
33D
100
AcDbEntity
  8
0
100
AcDbLine
 62
7
  6
CONTINUOUS
 10
142.5744809533
 20
140.2613261374
 11
139.7244809533
 21
140.2613261374
  0
LINE
  5
33E
100
AcDbEntity
  8
0
100
AcDbLine
 62
7
  6
CONTINUOUS
 10
20.4244809533
 20
140.2613261374
 11
17.5744809533
 21
140.2613261374
  0
LINE
  5
33F
100
AcDbEntity
  8
0
100
AcDbLine
 62
7
  6
CONTINUOUS
 10
36.9244809533
 20
140.4613261374
 11
43.1544809533
 21
140.4613261374
  0
LINE
  5
340
100
AcDbEntity
  8
0
100
AcDbLine
 62
7
  6
CONTINUOUS
 10
44.8244809533
 20
140.4613261374
 11
50.0144809533
 21
140.4613261374
  0
LINE
  5
341
100
AcDbEntity
  8
0
100
AcDbLine
 62
7
  6
CONTINUOUS
 10
110.1344809533
 20
140.4613261374
 11
115.3244809533
 21
140.4613261374
  0
LINE
  5
342
100
AcDbEntity
  8
0
100
AcDbLine
 62
7
  6
CONTINUOUS
 10
116.9944809533
 20
140.4613261374
 11
123.2244809533
 21
140.4613261374
  0
LINE
  5
343
100
AcDbEntity
  8
0
100
AcDbLine
 62
7
  6
CONTINUOUS
 10
115.3244809533
 20
140.4613261374
 11
115.394301213
 21
139.3895293676
  0
LINE
  5
344
100
AcDbEntity
  8
0
100
AcDbLine
 62
7
  6
CONTINUOUS
 10
115.3244809533
 20
151.4613261374
 11
115.394301213
 21
145.4613261374
  0
LINE
  5
345
100
AcDbEntity
  8
0
100
AcDbLine
 62
7
  6
CONTINUOUS
 10
119.0414928705
 20
100.2043142201
 11
119.0744809533
 21
91.6998272343
  0
LINE
  5
346
100
AcDbEntity
  8
0
100
AcDbLine
 62
7
  6
CONTINUOUS
 10
115.3244809533
 20
140.4613261374
 11
115.3244809533
 21
151.4613261374
  0
LINE
  5
347
100
AcDbEntity
  8
0
100
AcDbLine
 62
7
  6
CONTINUOUS
 10
115.394301213
 20
139.3895293676
 11
115.394301213
 21
145.4613261374
  0
LINE
  5
348
100
AcDbEntity
  8
0
100
AcDbLine
 62
7
  6
CONTINUOUS
 10
116.2744809533
 20
105.5026150353
 11
116.2744809533
 21
101.8315170745
  0
LINE
  5
349
100
AcDbEntity
  8
0
100
AcDbLine
 62
7
  6
CONTINUOUS
 10
116.9246606936
 20
145.4613261374
 11
116.9246606936
 21
139.3895293676
  0
LINE
  5
34A
100
AcDbEntity
  8
0
100
AcDbLine
 62
7
  6
CONTINUOUS
 10
116.9944809533
 20
151.4613261374
 11
116.9944809533
 21
140.4613261374
  0
LINE
  5
34B
100
AcDbEntity
  8
0
100
AcDbLine
 62
7
  6
CONTINUOUS
 10
119.0744809533
 20
100.1713261374
 11
119.0744809533
 21
91.6998272343
  0
LINE
  5
34C
100
AcDbEntity
  8
0
100
AcDbLine
 62
7
  6
CONTINUOUS
 10
116.9246606936
 20
145.4613261374
 11
116.9944809533
 21
151.4613261374
  0
LINE
  5
34D
100
AcDbEntity
  8
0
100
AcDbLine
 62
7
  6
CONTINUOUS
 10
116.9944809533
 20
140.4613261374
 11
116.9246606936
 21
139.3895293676
  0
LINE
  5
34E
100
AcDbEntity
  8
0
100
AcDbLine
 62
7
  6
CONTINUOUS
 10
122.3944809533
 20
100.1713261374
 11
122.464301213
 21
100.2411463971
  0
LINE
  5
34F
100
AcDbEntity
  8
0
100
AcDbLine
 62
7
  6
CONTINUOUS
 10
116.9246606936
 20
145.4613261374
 11
115.394301213
 21
145.4613261374
  0
LINE
  5
350
100
AcDbEntity
  8
0
100
AcDbLine
 62
7
  6
CONTINUOUS
 10
44.7546606936
 20
145.4613261374
 11
43.224301213
 21
145.4613261374
  0
LINE
  5
351
100
AcDbEntity
  8
0
100
AcDbLine
 62
7
  6
CONTINUOUS
 10
17.5744809533
 20
149.5813261374
 11
20.2935779365
 21
149.5813261374
  0
LINE
  5
352
100
AcDbEntity
  8
0
100
AcDbLine
 62
7
  6
CONTINUOUS
 10
139.6242683895
 20
149.5813261374
 11
142.5744809533
 21
149.5813261374
  0
LINE
  5
353
100
AcDbEntity
  8
0
100
AcDbLine
 62
7
  6
CONTINUOUS
 10
139.804777688
 20
149.6972815694
 11
137.9380742977
 21
149.6972003253
  0
LINE
  5
354
100
AcDbEntity
  8
0
100
AcDbLine
 62
7
  6
CONTINUOUS
 10
35.255492172
 20
149.6972003253
 11
33.499301213
 21
149.6972003253
  0
LINE
  5
355
100
AcDbEntity
  8
0
100
AcDbLine
 62
7
  6
CONTINUOUS
 10
22.1796606936
 20
149.6972003253
 11
20.2935779365
 21
149.6972003253
  0
LINE
  5
356
100
AcDbEntity
  8
0
100
AcDbLine
 62
7
  6
CONTINUOUS
 10
124.8934697346
 20
149.6972003253
 11
126.6808876089
 21
149.6972003253
  0
LINE
  5
357
100
AcDbEntity
  8
0
100
AcDbLine
 62
7
  6
CONTINUOUS
 10
126.6496606936
 20
149.7909572545
 11
124.8246606936
 21
149.7909572545
  0
LINE
  5
358
100
AcDbEntity
  8
0
100
AcDbLine
 62
7
  6
CONTINUOUS
 10
35.324301213
 20
149.7909572545
 11
33.499301213
 21
149.7909572545
  0
LINE
  5
359
100
AcDbEntity
  8
0
100
AcDbLine
 62
7
  6
CONTINUOUS
 10
17.5744809533
 20
149.7909572545
 11
22.1796606936
 21
149.7909572545
  0
LINE
  5
35A
100
AcDbEntity
  8
0
100
AcDbLine
 62
7
  6
CONTINUOUS
 10
137.969301213
 20
149.7909572545
 11
142.5744809533
 21
149.7909572545
  0
LINE
  5
35B
100
AcDbEntity
  8
0
100
AcDbLine
 62
7
  6
CONTINUOUS
 10
137.969301213
 20
101.7715058776
 11
137.9357874884
 21
101.8050196023
  0
LINE
  5
35C
100
AcDbEntity
  8
0
100
AcDbLine
 62
7
  6
CONTINUOUS
 10
101.3944809533
 20
138.9313261374
 11
101.464301213
 21
138.8615058776
  0
LINE
  5
35D
100
AcDbEntity
  8
0
100
AcDbLine
 62
7
  6
CONTINUOUS
 10
124.8944809533
 20
88.9413261373
 11
124.8646963392
 21
89.0307526442
  0
LINE
  5
35E
100
AcDbEntity
  8
0
100
AcDbLine
 62
7
  6
CONTINUOUS
 10
125.0539465431
 20
101.8180062337
 11
125.0553485801
 21
101.8050196023
  0
LINE
  5
35F
100
AcDbEntity
  8
0
100
AcDbLine
 62
7
  6
CONTINUOUS
 10
120.5358702853
 20
137.2613261374
 11
120.5597460007
 21
135.3072706817
  0
LINE
  5
360
100
AcDbEntity
  8
0
100
AcDbLine
 62
7
  6
CONTINUOUS
 10
120.5358702853
 20
137.3311463971
 11
120.5358702853
 21
137.2613261374
  0
LINE
  5
361
100
AcDbEntity
  8
0
100
AcDbLine
 62
7
  6
CONTINUOUS
 10
120.5744809533
 20
135.2925357291
 11
120.5743357553
 21
137.2927935168
  0
LINE
  5
362
100
AcDbEntity
  8
0
100
AcDbLine
 62
7
  6
CONTINUOUS
 10
122.3944809533
 20
66.2513261374
 11
122.3944809533
 21
100.1713261374
  0
LINE
  5
363
100
AcDbEntity
  8
0
100
AcDbLine
 62
7
  6
CONTINUOUS
 10
122.3944809533
 20
147.9113261374
 11
122.3944809533
 21
162.2810990206
  0
LINE
  5
364
100
AcDbEntity
  8
0
100
AcDbLine
 62
7
  6
CONTINUOUS
 10
122.464301213
 20
66.1815058776
 11
122.464301213
 21
100.2411463971
  0
LINE
  5
365
100
AcDbEntity
  8
0
100
AcDbLine
 62
7
  6
CONTINUOUS
 10
122.464301213
 20
147.9402466359
 11
122.464301213
 21
162.2810990206
  0
LINE
  5
366
100
AcDbEntity
  8
0
100
AcDbLine
 62
7
  6
CONTINUOUS
 10
123.2244809533
 20
140.4613261374
 11
123.2244809533
 21
147.0813261374
  0
LINE
  5
367
100
AcDbEntity
  8
0
100
AcDbLine
 62
7
  6
CONTINUOUS
 10
123.294301213
 20
139.3895293676
 11
123.294301213
 21
147.1102466359
  0
LINE
  5
368
100
AcDbEntity
  8
0
100
AcDbLine
 62
7
  6
CONTINUOUS
 10
137.9380742977
 20
149.6972003253
 11
137.969301213
 21
149.7909572545
  0
LINE
  5
369
100
AcDbEntity
  8
0
100
AcDbLine
 62
7
  6
CONTINUOUS
 10
126.6831744183
 20
101.8050196023
 11
126.6496606936
 21
101.7715058776
  0
LINE
  5
36A
100
AcDbEntity
  8
0
100
AcDbLine
 62
7
  6
CONTINUOUS
 10
43.1544809533
 20
151.4613261374
 11
44.8244809533
 21
151.4613261374
  0
LINE
  5
36B
100
AcDbEntity
  8
0
100
AcDbLine
 62
7
  6
CONTINUOUS
 10
115.3244809533
 20
151.4613261374
 11
116.9944809533
 21
151.4613261374
  0
LINE
  5
36C
100
AcDbEntity
  8
0
100
AcDbLine
 62
7
  6
CONTINUOUS
 10
126.7895091216
 20
101.3033474205
 11
126.7354449921
 21
101.8056475587
  0
LINE
  5
36D
100
AcDbEntity
  8
0
100
AcDbLine
 62
7
  6
CONTINUOUS
 10
123.2244809533
 20
140.4613261374
 11
123.294301213
 21
139.3895293676
  0
LINE
  5
36E
100
AcDbEntity
  8
0
100
AcDbLine
 62
7
  6
CONTINUOUS
 10
126.7925525236
 20
103.7452758502
 11
126.8890839022
 21
101.9033474205
  0
LINE
  5
36F
100
AcDbEntity
  8
0
100
AcDbLine
 62
7
  6
CONTINUOUS
 10
124.8944809533
 20
88.9413261374
 11
124.9927738832
 21
79.5791160477
  0
LINE
  5
370
100
AcDbEntity
  8
0
100
AcDbLine
 62
7
  6
CONTINUOUS
 10
124.8934697346
 20
149.6972003253
 11
124.8944354856
 21
149.5865362214
  0
LINE
  5
371
100
AcDbEntity
  8
0
100
AcDbLine
 62
7
  6
CONTINUOUS
 10
124.8944809533
 20
137.2613261374
 11
124.8927512694
 21
149.5865288109
  0
LINE
  5
372
100
AcDbEntity
  8
0
100
AcDbLine
 62
7
  6
CONTINUOUS
 10
126.6808876089
 20
149.6972003253
 11
126.6786203392
 21
164.5813261374
  0
LINE
  5
373
100
AcDbEntity
  8
0
100
AcDbLine
 62
7
  6
CONTINUOUS
 10
124.8246606936
 20
149.7909572545
 11
124.8246606936
 21
137.3311463971
  0
LINE
  5
374
100
AcDbEntity
  8
0
100
AcDbLine
 62
7
  6
CONTINUOUS
 10
124.8246606936
 20
89.9111463971
 11
124.8246606936
 21
79.3716950202
  0
LINE
  5
375
100
AcDbEntity
  8
0
100
AcDbLine
 62
7
  6
CONTINUOUS
 10
124.8581744183
 20
89.8776326724
 11
124.8581744183
 21
89.0503343183
  0
LINE
  5
376
100
AcDbEntity
  8
0
100
AcDbLine
 62
7
  6
CONTINUOUS
 10
124.9234891342
 20
89.0503343183
 11
124.9234891342
 21
89.8776326724
  0
LINE
  5
377
100
AcDbEntity
  8
0
100
AcDbLine
 62
7
  6
CONTINUOUS
 10
125.0544809533
 20
89.8776326724
 11
125.0544809533
 21
79.4654519494
  0
LINE
  5
378
100
AcDbEntity
  8
0
100
AcDbLine
 62
7
  6
CONTINUOUS
 10
125.1095091216
 20
79.4654519494
 11
125.1095091216
 21
89.8776326724
  0
LINE
  5
379
100
AcDbEntity
  8
0
100
AcDbLine
 62
7
  6
CONTINUOUS
 10
126.6496606936
 20
164.5813261374
 11
126.6496606936
 21
149.7909572545
  0
LINE
  5
37A
100
AcDbEntity
  8
0
100
AcDbLine
 62
7
  6
CONTINUOUS
 10
126.6496606936
 20
101.7715058776
 11
126.6496606936
 21
89.9111463971
  0
LINE
  5
37B
100
AcDbEntity
  8
0
100
AcDbLine
 62
7
  6
CONTINUOUS
 10
126.6496606936
 20
79.3716950202
 11
126.6496606936
 21
64.5813261374
  0
LINE
  5
37C
100
AcDbEntity
  8
0
100
AcDbLine
 62
7
  6
CONTINUOUS
 10
126.6831744183
 20
101.8050196023
 11
126.6831744183
 21
89.8776326724
  0
LINE
  5
37D
100
AcDbEntity
  8
0
100
AcDbLine
 62
7
  6
CONTINUOUS
 10
126.7344809533
 20
60.5992418622
 11
126.7344809533
 21
68.6033474205
  0
LINE
  5
37E
100
AcDbEntity
  8
0
100
AcDbLine
 62
7
  6
CONTINUOUS
 10
126.7895091216
 20
101.3033474205
 11
126.7895091216
 21
69.1583755887
  0
LINE
  5
37F
100
AcDbEntity
  8
0
100
AcDbLine
 62
7
  6
CONTINUOUS
 10
126.8890839022
 20
101.9033474205
 11
126.8890839022
 21
60.7540919346
  0
LINE
  5
380
100
AcDbEntity
  8
0
100
AcDbLine
 62
7
  6
CONTINUOUS
 10
124.8927511904
 20
79.5761250044
 11
124.8944809533
 21
88.9413261373
  0
LINE
  5
381
100
AcDbEntity
  8
0
100
AcDbLine
 62
7
  6
CONTINUOUS
 10
126.6786203392
 20
64.5813261374
 11
126.6808876089
 21
79.4654519494
  0
LINE
  5
382
100
AcDbEntity
  8
0
100
AcDbLine
 62
7
  6
CONTINUOUS
 10
126.7459505551
 20
103.7918778187
 11
126.7355688801
 21
101.8109362208
  0
LINE
  5
383
100
AcDbEntity
  8
0
100
AcDbLine
 62
7
  6
CONTINUOUS
 10
124.9936099779
 20
149.58138946
 11
124.8944809566
 21
137.2613269581
  0
LINE
  5
384
100
AcDbEntity
  8
0
100
AcDbLine
 62
7
  6
CONTINUOUS
 10
124.8944352489
 20
79.5760889303
 11
124.8934697346
 21
79.4654519494
  0
LINE
  5
385
100
AcDbEntity
  8
0
100
AcDbLine
 62
7
  6
CONTINUOUS
 10
129.5311602779
 20
162.2813261374
 11
129.5713069273
 21
164.5813261374
  0
LINE
  5
386
100
AcDbEntity
  8
0
100
AcDbLine
 62
7
  6
CONTINUOUS
 10
126.7895091216
 20
69.1583755887
 11
126.7633411435
 21
68.6322076106
  0
LINE
  5
387
100
AcDbEntity
  8
0
100
AcDbLine
 62
7
  6
CONTINUOUS
 10
137.8630113515
 20
103.7918778187
 11
137.816409383
 21
103.7452758502
  0
LINE
  5
388
100
AcDbEntity
  8
0
100
AcDbLine
 62
7
  6
CONTINUOUS
 10
124.8744931442
 20
89.0013383282
 11
124.9234891342
 21
89.0503343183
  0
LINE
  5
389
100
AcDbEntity
  8
0
100
AcDbLine
 62
7
  6
CONTINUOUS
 10
17.5744809533
 20
156.0813261374
 11
17.4884809533
 21
156.0813261374
  0
LINE
  5
38A
100
AcDbEntity
  8
0
100
AcDbLine
 62
7
  6
CONTINUOUS
 10
120.5743357553
 20
137.2927935168
 11
120.5358702853
 21
137.3311463971
  0
LINE
  5
38B
100
AcDbEntity
  8
0
100
AcDbLine
 62
7
  6
CONTINUOUS
 10
137.969301213
 20
79.3716950202
 11
137.9380742977
 21
79.4654519494
  0
LINE
  5
38C
100
AcDbEntity
  8
0
100
AcDbLine
 62
7
  6
CONTINUOUS
 10
139.726210715
 20
79.5761247183
 11
139.7703525859
 21
79.4435965449
  0
LINE
  5
38D
100
AcDbEntity
  8
0
100
AcDbLine
 62
7
  6
CONTINUOUS
 10
126.7354449921
 20
101.8056475587
 11
126.7339465431
 21
101.8180062337
  0
LINE
  5
38E
100
AcDbEntity
  8
0
100
AcDbLine
 62
7
  6
CONTINUOUS
 10
126.6808876089
 20
79.4654519494
 11
126.6496606936
 21
79.3716950202
  0
LINE
  5
38F
100
AcDbEntity
  8
0
100
AcDbLine
 62
7
  6
CONTINUOUS
 10
124.8940151021
 20
79.5761318282
 11
124.8246606936
 21
79.3716950202
  0
LINE
  5
390
100
AcDbEntity
  8
0
100
AcDbLine
 62
7
  6
CONTINUOUS
 10
110.0646606936
 20
66.1815058776
 11
110.1344809533
 21
66.2513261374
  0
LINE
  5
391
100
AcDbEntity
  8
0
100
AcDbLine
 62
7
  6
CONTINUOUS
 10
122.464301213
 20
162.2810990206
 11
110.0646606936
 21
162.2810990206
  0
LINE
  5
392
100
AcDbEntity
  8
0
100
AcDbLine
 62
7
  6
CONTINUOUS
 10
101.464301213
 20
162.2810990206
 11
58.6846606936
 21
162.2810990206
  0
LINE
  5
393
100
AcDbEntity
  8
0
100
AcDbLine
 62
7
  6
CONTINUOUS
 10
50.084301213
 20
162.2810990206
 11
37.6846606936
 21
162.2810990206
  0
LINE
  5
394
100
AcDbEntity
  8
0
100
AcDbLine
 62
7
  6
CONTINUOUS
 10
25.0611602779
 20
162.2813261374
 11
30.6178016287
 21
162.2813261374
  0
LINE
  5
395
100
AcDbEntity
  8
0
100
AcDbLine
 62
7
  6
CONTINUOUS
 10
129.5311602779
 20
162.2813261374
 11
135.0878016287
 21
162.2813261374
  0
LINE
  5
396
100
AcDbEntity
  8
0
100
AcDbLine
 62
7
  6
CONTINUOUS
 10
135.0870240647
 20
162.3258727497
 11
129.5319378419
 21
162.3258727497
  0
LINE
  5
397
100
AcDbEntity
  8
0
100
AcDbLine
 62
7
  6
CONTINUOUS
 10
25.0619378419
 20
162.3258727497
 11
30.6170240647
 21
162.3258727497
  0
LINE
  5
398
100
AcDbEntity
  8
0
100
AcDbLine
 62
7
  6
CONTINUOUS
 10
142.5744809533
 20
164.5813261374
 11
137.969301213
 21
164.5813261374
  0
LINE
  5
399
100
AcDbEntity
  8
0
100
AcDbLine
 62
7
  6
CONTINUOUS
 10
17.5744809533
 20
164.5813261374
 11
126.6496606936
 21
164.5813261374
  0
LINE
  5
39A
100
AcDbEntity
  8
0
100
AcDbLine
 62
7
  6
CONTINUOUS
 10
126.6786203392
 20
164.5813261374
 11
137.9403415675
 21
164.5813261374
  0
LINE
  5
39B
100
AcDbEntity
  8
0
100
AcDbLine
 62
7
  6
CONTINUOUS
 10
124.8246606936
 20
137.3311463971
 11
124.8944809533
 21
137.2613261374
  0
LINE
  5
39C
100
AcDbEntity
  8
0
100
AcDbLine
 62
7
  6
CONTINUOUS
 10
124.8246606936
 20
149.7909572545
 11
124.8935863287
 21
149.5865201965
  0
LINE
  5
39D
100
AcDbEntity
  8
0
100
AcDbLine
 62
7
  6
CONTINUOUS
 10
137.8456207632
 20
68.6322076106
 11
137.8194527851
 21
69.1583755887
  0
LINE
  5
39E
100
AcDbEntity
  8
0
100
AcDbLine
 62
7
  6
CONTINUOUS
 10
135.0878016287
 20
162.2813261374
 11
135.0476549794
 21
164.5813261374
  0
LINE
  5
39F
100
AcDbEntity
  8
0
100
AcDbLine
 62
7
  6
CONTINUOUS
 10
139.725492172
 20
79.4654519494
 11
139.7245264087
 21
79.5761174629
  0
LINE
  5
3A0
100
AcDbEntity
  8
0
100
AcDbLine
 62
7
  6
CONTINUOUS
 10
137.8733930265
 20
101.8109362208
 11
137.8630113515
 21
103.7918778187
  0
LINE
  5
3A1
100
AcDbEntity
  8
0
100
AcDbLine
 62
7
  6
CONTINUOUS
 10
137.9380742977
 20
79.4654519494
 11
137.9403415675
 21
64.5813261374
  0
LINE
  5
3A2
100
AcDbEntity
  8
0
100
AcDbLine
 62
7
  6
CONTINUOUS
 10
139.7244809533
 20
88.9413261372
 11
139.726210715
 21
79.5761247183
  0
LINE
  5
3A3
100
AcDbEntity
  8
0
100
AcDbLine
 62
7
  6
CONTINUOUS
 10
137.7198780044
 20
60.7539649818
 11
137.7198780044
 21
101.9033474205
  0
LINE
  5
3A4
100
AcDbEntity
  8
0
100
AcDbLine
 62
7
  6
CONTINUOUS
 10
137.8194527851
 20
69.1583755887
 11
137.8194527851
 21
101.3033474205
  0
LINE
  5
3A5
100
AcDbEntity
  8
0
100
AcDbLine
 62
7
  6
CONTINUOUS
 10
137.8744809533
 20
68.6033474205
 11
137.8744809533
 21
60.5994899351
  0
LINE
  5
3A6
100
AcDbEntity
  8
0
100
AcDbLine
 62
7
  6
CONTINUOUS
 10
137.9357874884
 20
89.8776326724
 11
137.9357874884
 21
101.8050196023
  0
LINE
  5
3A7
100
AcDbEntity
  8
0
100
AcDbLine
 62
7
  6
CONTINUOUS
 10
137.969301213
 20
64.5813261374
 11
137.969301213
 21
79.3716950202
  0
LINE
  5
3A8
100
AcDbEntity
  8
0
100
AcDbLine
 62
7
  6
CONTINUOUS
 10
137.969301213
 20
101.8050196023
 11
137.969301213
 21
101.8180062337
  0
LINE
  5
3A9
100
AcDbEntity
  8
0
100
AcDbLine
 62
7
  6
CONTINUOUS
 10
137.969301213
 20
89.9111463971
 11
137.969301213
 21
101.7715058776
  0
LINE
  5
3AA
100
AcDbEntity
  8
0
100
AcDbLine
 62
7
  6
CONTINUOUS
 10
137.969301213
 20
149.7909572545
 11
137.969301213
 21
164.5813261374
  0
LINE
  5
3AB
100
AcDbEntity
  8
0
100
AcDbLine
 62
7
  6
CONTINUOUS
 10
139.4994527851
 20
89.8776326724
 11
139.4994527851
 21
79.4654519494
  0
LINE
  5
3AC
100
AcDbEntity
  8
0
100
AcDbLine
 62
7
  6
CONTINUOUS
 10
139.5544809533
 20
79.4654519494
 11
139.5544809533
 21
89.8776326724
  0
LINE
  5
3AD
100
AcDbEntity
  8
0
100
AcDbLine
 62
7
  6
CONTINUOUS
 10
139.6954727724
 20
89.8776326724
 11
139.6954727724
 21
89.0503343183
  0
LINE
  5
3AE
100
AcDbEntity
  8
0
100
AcDbLine
 62
7
  6
CONTINUOUS
 10
139.7244809533
 20
140.2613261374
 11
139.7244809533
 21
137.2613261374
  0
LINE
  5
3AF
100
AcDbEntity
  8
0
100
AcDbLine
 62
7
  6
CONTINUOUS
 10
139.7506635507
 20
140.23514354
 11
139.7506635507
 21
137.2875087347
  0
LINE
  5
3B0
100
AcDbEntity
  8
0
100
AcDbLine
 62
7
  6
CONTINUOUS
 10
139.7607874884
 20
89.0503343183
 11
139.7607874884
 21
89.8776326724
  0
LINE
  5
3B1
100
AcDbEntity
  8
0
100
AcDbLine
 62
7
  6
CONTINUOUS
 10
139.794301213
 20
79.3716950202
 11
139.794301213
 21
89.9111463971
  0
LINE
  5
3B2
100
AcDbEntity
  8
0
100
AcDbLine
 62
7
  6
CONTINUOUS
 10
137.9403415675
 20
164.5813261374
 11
137.9380742977
 21
149.6972003253
  0
LINE
  5
3B3
100
AcDbEntity
  8
0
100
AcDbLine
 62
7
  6
CONTINUOUS
 10
139.7471749874
 20
149.5864614911
 11
139.7477554445
 21
149.6975794418
  0
LINE
  5
3B4
100
AcDbEntity
  8
0
100
AcDbLine
 62
7
  6
CONTINUOUS
 10
139.6261911441
 20
79.5794132762
 11
139.7244809517
 21
88.9413259836
  0
LINE
  5
3B5
100
AcDbEntity
  8
0
100
AcDbLine
 62
7
  6
CONTINUOUS
 10
137.7198780044
 20
101.9033474205
 11
137.816409383
 21
103.7452758502
  0
LINE
  5
3B6
100
AcDbEntity
  8
0
100
AcDbLine
 62
7
  6
CONTINUOUS
 10
137.8735169146
 20
101.8056475587
 11
137.8194527851
 21
101.3033474205
  0
LINE
  5
3B7
100
AcDbEntity
  8
0
100
AcDbLine
 62
7
  6
CONTINUOUS
 10
137.8750153636
 20
101.8180062337
 11
137.8735169146
 21
101.8056475587
  0
LINE
  5
3B8
100
AcDbEntity
  8
0
100
AcDbLine
 62
7
  6
CONTINUOUS
 10
137.9357874884
 20
89.8776326724
 11
137.969301213
 21
89.9111463971
  0
LINE
  5
3B9
100
AcDbEntity
  8
0
100
AcDbLine
 62
7
  6
CONTINUOUS
 10
139.7607874884
 20
89.8776326724
 11
139.794301213
 21
89.9111463971
  0
LINE
  5
3BA
100
AcDbEntity
  8
0
100
AcDbLine
 62
7
  6
CONTINUOUS
 10
123.2244809533
 20
147.0813261374
 11
122.3944809533
 21
147.9113261374
  0
LINE
  5
3BB
100
AcDbEntity
  8
0
100
AcDbLine
 62
7
  6
CONTINUOUS
 10
122.464301213
 20
147.9402466359
 11
123.294301213
 21
147.1102466359
  0
LINE
  5
3BC
100
AcDbEntity
  8
0
100
AcDbLine
 62
7
  6
CONTINUOUS
 10
126.6496606936
 20
149.7909572545
 11
126.6808876089
 21
149.6972003253
  0
LINE
  5
3BD
100
AcDbEntity
  8
0
100
AcDbLine
 62
7
  6
CONTINUOUS
 10
142.5744809533
 20
137.2613261374
 11
142.5744809533
 21
64.5813261374
  0
LINE
  5
3BE
100
AcDbEntity
  8
0
100
AcDbLine
 62
7
  6
CONTINUOUS
 10
142.5744809533
 20
137.2875087347
 11
142.5744809533
 21
140.23514354
  0
LINE
  5
3BF
100
AcDbEntity
  8
0
100
AcDbLine
 62
7
  6
CONTINUOUS
 10
142.5744809533
 20
140.2613261374
 11
142.5744809533
 21
164.5813261374
  0
LINE
  5
3C0
100
AcDbEntity
  8
0
100
AcDbLine
 62
7
  6
CONTINUOUS
 10
139.7542655674
 20
89.0307526442
 11
139.7244809533
 21
88.9413261372
  0
LINE
  5
3C1
100
AcDbEntity
  8
0
100
AcDbLine
 62
7
  6
CONTINUOUS
 10
126.7344809533
 20
68.6033474205
 11
126.7633411435
 21
68.6322076106
  0
LINE
  5
3C2
100
AcDbEntity
  8
0
100
AcDbLine
 62
7
  6
CONTINUOUS
 10
139.7506635507
 20
140.23514354
 11
139.7244809533
 21
140.2613261374
  0
LINE
  5
3C3
100
AcDbEntity
  8
0
100
AcDbLine
 62
7
  6
CONTINUOUS
 10
126.7344809533
 20
60.5992360247
 11
126.8890839022
 21
60.7538389736
  0
LINE
  5
3C4
100
AcDbEntity
  8
0
100
AcDbLine
 62
7
  6
CONTINUOUS
 10
129.8849725065
 20
57.7579503694
 11
129.7303695576
 21
57.6033474205
  0
CIRCLE
  5
3C5
100
AcDbEntity
  8
0
100
AcDbCircle
 62
7
  6
CONTINUOUS
 10
44.0744809533
 20
157.0813261374
 40
3.2221854545
  0
CIRCLE
  5
3C6
100
AcDbEntity
  8
0
100
AcDbCircle
 62
7
  6
CONTINUOUS
 10
116.0744809533
 20
157.0813261374
 40
3.2221854545
  0
CIRCLE
  5
3C7
100
AcDbEntity
  8
0
100
AcDbCircle
 62
7
  6
CONTINUOUS
 10
116.0744809533
 20
72.0813261374
 40
3.2221854545
  0
CIRCLE
  5
3C8
100
AcDbEntity
  8
0
100
AcDbCircle
 62
7
  6
CONTINUOUS
 10
44.0744809533
 20
72.0813261374
 40
3.2221854545
  0
CIRCLE
  5
3C9
100
AcDbEntity
  8
0
100
AcDbCircle
 62
7
  6
CONTINUOUS
 10
44.0744809533
 20
157.0813261374
 40
3.1837843685
  0
CIRCLE
  5
3CA
100
AcDbEntity
  8
0
100
AcDbCircle
 62
7
  6
CONTINUOUS
 10
116.0744809533
 20
157.0813261374
 40
3.1837843685
  0
CIRCLE
  5
3CB
100
AcDbEntity
  8
0
100
AcDbCircle
 62
7
  6
CONTINUOUS
 10
116.0744809533
 20
72.0813261374
 40
3.1837843685
  0
CIRCLE
  5
3CC
100
AcDbEntity
  8
0
100
AcDbCircle
 62
7
  6
CONTINUOUS
 10
44.0744809533
 20
72.0813261374
 40
3.1837843685
  0
ARC
  5
3CD
100
AcDbEntity
  8
0
100
AcDbCircle
 62
7
  6
CONTINUOUS
 10
134.7254078288
 20
60.7524205449
 40
2.9944741712
100
AcDbArc
 50
269.9704482532
 51
0.029551039
  0
ARC
  5
3CE
100
AcDbEntity
  8
0
100
AcDbCircle
 62
7
  6
CONTINUOUS
 10
25.2689511285
 20
60.5978175956
 40
2.9944741708
100
AcDbArc
 50
179.9704489844
 51
270.0295517234
  0
ARC
  5
3CF
100
AcDbEntity
  8
0
100
AcDbCircle
 62
7
  6
CONTINUOUS
 10
134.8801028791
 20
60.597725631
 40
2.9943621084
100
AcDbArc
 50
269.9710000177
 51
0.0337589874
  0
ARC
  5
3D0
100
AcDbEntity
  8
0
100
AcDbCircle
 62
7
  6
CONTINUOUS
 10
30.4201028793
 20
60.5977256308
 40
2.9943621081
100
AcDbArc
 50
269.9710000197
 51
0.0337589894
  0
ARC
  5
3D1
100
AcDbEntity
  8
0
100
AcDbCircle
 62
7
  6
CONTINUOUS
 10
129.7288591626
 20
60.5977254943
 40
2.9943621071
100
AcDbArc
 50
179.970985136
 51
270.0337449028
  0
ARC
  5
3D2
100
AcDbEntity
  8
0
100
AcDbCircle
 62
7
  6
CONTINUOUS
 10
30.2654997949
 20
60.7523284433
 40
2.9943621073
100
AcDbArc
 50
269.9662537333
 51
0.0290128717
  0
ARC
  5
3D3
100
AcDbEntity
  8
0
100
AcDbCircle
 62
7
  6
CONTINUOUS
 10
129.8834619756
 20
60.752328578
 40
2.9943621066
100
AcDbArc
 50
179.9662591428
 51
270.0290205709
  0
ARC
  5
3D4
100
AcDbEntity
  8
0
100
AcDbCircle
 62
7
  6
CONTINUOUS
 10
25.4234619756
 20
60.7523285779
 40
2.9943621066
100
AcDbArc
 50
179.9662591197
 51
270.0290206094
  0
CIRCLE
  5
3D5
100
AcDbEntity
  8
0
100
AcDbCircle
 62
7
  6
CONTINUOUS
 10
132.3044809533
 20
63.6033474205
 40
2.2500000089
  0
CIRCLE
  5
3D6
100
AcDbEntity
  8
0
100
AcDbCircle
 62
7
  6
CONTINUOUS
 10
27.8444809533
 20
63.6033474205
 40
2.2500000089
  0
ARC
  5
3D7
100
AcDbEntity
  8
0
100
AcDbCircle
 62
7
  6
CONTINUOUS
 10
125.073514374
 20
149.6232209004
 40
0.0901919171
100
AcDbArc
 50
194.7899065538
 51
207.6328955111
  0
SPLINE
  5
3D8
100
AcDbEntity
  8
0
100
AcDbSpline
 62
7
  6
CONTINUOUS
 70
0
 71
3
 72
9
 73
5
 74
0
 42
0.0000001
 43
0.0000001
 44
0.0000000001
 40
0.0
 40
0.0
 40
0.0
 40
0.0
 40
0.5000673301
 40
1.0
 40
1.0
 40
1.0
 40
1.0
 10
124.9741396661
 20
149.6971968794
 30
0.0
 10
124.9755824446
 20
149.6809601672
 30
0.0
 10
124.9791526802
 20
149.6486271038
 30
0.0
 10
124.982159434
 20
149.6159558206
 30
0.0
 10
124.9863106617
 20
149.6001971196
 30
0.0
  0
SPLINE
  5
3D9
100
AcDbEntity
  8
0
100
AcDbSpline
 62
7
  6
CONTINUOUS
 70
0
 71
3
 72
9
 73
5
 74
0
 42
0.0000001
 43
0.0000001
 44
0.0000000001
 40
0.0
 40
0.0
 40
0.0
 40
0.0
 40
0.5000667523
 40
1.0
 40
1.0
 40
1.0
 40
1.0
 10
35.1748228847
 20
79.465453864
 30
0.0
 10
35.1733738763
 20
79.4817679992
 30
0.0
 10
35.1698041653
 20
79.514258461
 30
0.0
 10
35.1667165278
 20
79.5470741962
 30
0.0
 10
35.1625520196
 20
79.562909735
 30
0.0
  0
SPLINE
  5
3DA
100
AcDbEntity
  8
0
100
AcDbSpline
 62
7
  6
CONTINUOUS
 70
0
 71
3
 72
8
 73
4
 74
0
 42
0.0000001
 43
0.0000001
 44
0.0000000001
 40
0.0
 40
0.0
 40
0.0
 40
0.0
 40
1.0
 40
1.0
 40
1.0
 40
1.0
 10
35.1625520196
 20
79.562909735
 30
0.0
 10
35.1610827341
 20
79.5684966918
 30
0.0
 10
35.1590571219
 20
79.5740158352
 30
0.0
 10
35.1561871139
 20
79.5790294107
 30
0.0
  0
LINE
  5
3DB
100
AcDbEntity
  8
0
100
AcDbLine
 62
7
  6
CONTINUOUS
 10
139.7798655143
 20
149.6579623835
 11
139.7978704833
 21
149.6973158054
  0
LINE
  5
3DC
100
AcDbEntity
  8
0
100
AcDbLine
 62
7
  6
CONTINUOUS
 10
139.7471749874
 20
149.5864614911
 11
139.7798655143
 21
149.6579623835
  0
SPLINE
  5
3DD
100
AcDbEntity
  8
0
100
AcDbSpline
 62
7
  6
CONTINUOUS
 70
0
 71
3
 72
13
 73
9
 74
0
 42
0.0000001
 43
0.0000001
 44
0.0000000001
 40
0.0
 40
0.0
 40
0.0
 40
0.0
 40
0.3804640049
 40
0.7041065616
 40
0.8282933838
 40
0.9209000266
 40
0.9787807996
 40
1.0
 40
1.0
 40
1.0
 40
1.0
 10
20.523609556
 20
79.5812698775
 30
0.0
 10
20.5110235907
 20
79.5807157976
 30
0.0
 10
20.4877823278
 20
79.5796917592
 30
0.0
 10
20.4602105365
 20
79.5786974569
 30
0.0
 10
20.4425881499
 20
79.5775801882
 30
0.0
 10
20.4330562033
 20
79.5774719646
 30
0.0
 10
20.428231945
 20
79.5762190682
 30
0.0
 10
20.42469968
 20
79.576768873
 30
0.0
 10
20.4244387828
 20
79.5761164837
 30
0.0
  0
SPLINE
  5
3DE
100
AcDbEntity
  8
0
100
AcDbSpline
 62
7
  6
CONTINUOUS
 70
0
 71
3
 72
14
 73
10
 74
0
 42
0.0000001
 43
0.0000001
 44
0.0000000001
 40
0.0
 40
0.0
 40
0.0
 40
0.0
 40
0.3528834776
 40
0.6346378071
 40
0.7510030068
 40
0.8654465697
 40
0.9595156001
 40
0.9884033242
 40
1.0
 40
1.0
 40
1.0
 40
1.0
 10
139.6242683895
 20
149.5813261374
 30
0.0
 10
139.6374199796
 20
149.5813261279
 30
0.0
 10
139.661095229
 20
149.5815075954
 30
0.0
 10
139.6890054265
 20
149.5825307977
 30
0.0
 10
139.7081767841
 20
149.5837390959
 30
0.0
 10
139.7199727712
 20
149.5846465416
 30
0.0
 10
139.7294923245
 20
149.5850566012
 30
0.0
 10
139.7336204915
 20
149.5860060564
 30
0.0
 10
139.7357864375
 20
149.5861147397
 30
0.0
 10
139.7358142715
 20
149.5865460382
 30
0.0
  0
SPLINE
  5
3DF
100
AcDbEntity
  8
0
100
AcDbSpline
 62
7
  6
CONTINUOUS
 70
0
 71
3
 72
9
 73
5
 74
0
 42
0.0000001
 43
0.0000001
 44
0.0000000001
 40
0.0
 40
0.0
 40
0.0
 40
0.0
 40
0.5000634165
 40
1.0
 40
1.0
 40
1.0
 40
1.0
 10
35.1748223031
 20
149.6971968742
 30
0.0
 10
35.1733798841
 20
149.680960295
 30
0.0
 10
35.1698329332
 20
149.6486209745
 30
0.0
 10
35.1667529878
 20
149.6159690728
 30
0.0
 10
35.1626512872
 20
149.6001973145
 30
0.0
  0
SPLINE
  5
3E0
100
AcDbEntity
  8
0
100
AcDbSpline
 62
7
  6
CONTINUOUS
 70
0
 71
3
 72
8
 73
4
 74
0
 42
0.0000001
 43
0.0000001
 44
0.0000000001
 40
0.0
 40
0.0
 40
0.0
 40
0.0
 40
1.0
 40
1.0
 40
1.0
 40
1.0
 10
35.1626512872
 20
149.6001973145
 30
0.0
 10
35.1611537481
 20
149.594439014
 30
0.0
 10
35.1590817189
 20
149.5887587174
 30
0.0
 10
35.1561934331
 20
149.5835569434
 30
0.0
  0
SPLINE
  5
3E1
100
AcDbEntity
  8
0
100
AcDbSpline
 62
7
  6
CONTINUOUS
 70
0
 71
3
 72
13
 73
9
 74
0
 42
0.0000001
 43
0.0000001
 44
0.0000000001
 40
0.0
 40
0.0
 40
0.0
 40
0.0
 40
0.3822266215
 40
0.7067602978
 40
0.8308733168
 40
0.9229863098
 40
0.9799823942
 40
1.0
 40
1.0
 40
1.0
 40
1.0
 10
35.1553522777
 20
149.5813895021
 30
0.0
 10
35.1680004417
 20
149.5819118303
 30
0.0
 10
35.1913027581
 20
149.5828909903
 30
0.0
 10
35.2190713343
 20
149.5838610266
 30
0.0
 10
35.2365529405
 20
149.5849859304
 30
0.0
 10
35.2463097823
 20
149.5851165179
 30
0.0
 10
35.2505589808
 20
149.5863704261
 30
0.0
 10
35.2545208309
 20
149.5858956624
 30
0.0
 10
35.2545266163
 20
149.5865585993
 30
0.0
  0
SPLINE
  5
3E2
100
AcDbEntity
  8
0
100
AcDbSpline
 62
7
  6
CONTINUOUS
 70
0
 71
3
 72
9
 73
5
 74
0
 42
0.0000001
 43
0.0000001
 44
0.0000000001
 40
0.0
 40
0.0
 40
0.0
 40
0.0
 40
0.4987486034
 40
1.0
 40
1.0
 40
1.0
 40
1.0
 10
139.6243039253
 20
149.5813261374
 30
0.0
 10
139.6334238539
 20
149.598683001
 30
0.0
 10
139.6383941485
 20
149.6389929668
 30
0.0
 10
139.642718323
 20
149.6776342248
 30
0.0
 10
139.644488601
 20
149.6972599196
 30
0.0
  0
SPLINE
  5
3E3
100
AcDbEntity
  8
0
100
AcDbSpline
 62
7
  6
CONTINUOUS
 70
0
 71
3
 72
13
 73
9
 74
0
 42
0.0000001
 43
0.0000001
 44
0.0000000001
 40
0.0
 40
0.0
 40
0.0
 40
0.0
 40
0.3793151932
 40
0.7025753199
 40
0.8268136793
 40
0.9195811917
 40
0.9778077093
 40
1.0
 40
1.0
 40
1.0
 40
1.0
 10
35.1562106185
 20
79.5812681799
 30
0.0
 10
35.1688817837
 20
79.58094697
 30
0.0
 10
35.1922928116
 20
79.5802600432
 30
0.0
 10
35.2200866381
 20
79.5793623263
 30
0.0
 10
35.2378454168
 20
79.5782744046
 30
0.0
 10
35.2475100142
 20
79.5779050709
 30
0.0
 10
35.2523474981
 20
79.5767887602
 30
0.0
 10
35.2560306149
 20
79.5768440959
 30
0.0
 10
35.2562076776
 20
79.5761239644
 30
0.0
  0
SPLINE
  5
3E4
100
AcDbEntity
  8
0
100
AcDbSpline
 62
7
  6
CONTINUOUS
 70
0
 71
3
 72
11
 73
7
 74
0
 42
0.0000001
 43
0.0000001
 44
0.0000000001
 40
0.0
 40
0.0
 40
0.0
 40
0.0
 40
0.2487349515
 40
0.4991495647
 40
0.7495736532
 40
1.0
 40
1.0
 40
1.0
 40
1.0
 10
20.5227699883
 20
79.579487021
 30
0.0
 10
20.5158772513
 20
79.5704266688
 30
0.0
 10
20.5137134486
 20
79.5459931249
 30
0.0
 10
20.5085075586
 20
79.5127507165
 30
0.0
 10
20.5052853702
 20
79.4783216596
 30
0.0
 10
20.503260273
 20
79.4555313274
 30
0.0
 10
20.502329777
 20
79.4441075569
 30
0.0
  0
LINE
  5
3E5
100
AcDbEntity
  8
0
100
AcDbLine
 62
7
  6
CONTINUOUS
 10
33.3606435626
 20
101.3143886182
 11
33.4133930265
 21
101.8109362208
  0
SPLINE
  5
3E6
100
AcDbEntity
  8
0
100
AcDbSpline
 62
7
  6
CONTINUOUS
 70
0
 71
3
 72
13
 73
9
 74
0
 42
0.0000001
 43
0.0000001
 44
0.0000000001
 40
0.0
 40
0.0
 40
0.0
 40
0.0
 40
0.3822805656
 40
0.7068679065
 40
0.8309983191
 40
0.923114619
 40
0.9800885485
 40
1.0
 40
1.0
 40
1.0
 40
1.0
 10
124.9936095448
 20
79.5812698772
 30
0.0
 10
124.9809624247
 20
79.5807131551
 30
0.0
 10
124.9576623595
 20
79.5796813419
 30
0.0
 10
124.9298895723
 20
79.5786960198
 30
0.0
 10
124.9124135828
 20
79.5775571365
 30
0.0
 10
124.9026455966
 20
79.5774780687
 30
0.0
 10
124.8984187398
 20
79.576185057
 30
0.0
 10
124.8944410649
 20
79.5767553647
 30
0.0
 10
124.8944353107
 20
79.5760960145
 30
0.0
  0
SPLINE
  5
3E7
100
AcDbEntity
  8
0
100
AcDbSpline
 62
7
  6
CONTINUOUS
 70
0
 71
3
 72
9
 73
5
 74
0
 42
0.0000001
 43
0.0000001
 44
0.0000000001
 40
0.0
 40
0.0
 40
0.0
 40
0.0
 40
0.5000634799
 40
1.0
 40
1.0
 40
1.0
 40
1.0
 10
124.9741396015
 20
79.465455397
 30
0.0
 10
124.9755821037
 20
79.4816929567
 30
0.0
 10
124.9791291645
 20
79.5140342386
 30
0.0
 10
124.9822098053
 20
79.5466880485
 30
0.0
 10
124.9863118701
 20
79.5624607244
 30
0.0
  0
SPLINE
  5
3E8
100
AcDbEntity
  8
0
100
AcDbSpline
 62
7
  6
CONTINUOUS
 70
0
 71
3
 72
8
 73
4
 74
0
 42
0.0000001
 43
0.0000001
 44
0.0000000001
 40
0.0
 40
0.0
 40
0.0
 40
0.0
 40
1.0
 40
1.0
 40
1.0
 40
1.0
 10
124.9863118701
 20
79.5624607244
 30
0.0
 10
124.9878107479
 20
79.568223996
 30
0.0
 10
124.9898849037
 20
79.5739087709
 30
0.0
 10
124.9927738832
 20
79.5791160477
 30
0.0
  0
SPLINE
  5
3E9
100
AcDbEntity
  8
0
100
AcDbSpline
 62
7
  6
CONTINUOUS
 70
0
 71
3
 72
12
 73
8
 74
0
 42
0.0000001
 43
0.0000001
 44
0.0000000001
 40
0.0
 40
0.0
 40
0.0
 40
0.0
 40
0.1247265156
 40
0.2496664986
 40
0.4997721152
 40
0.7498848942
 40
1.0
 40
1.0
 40
1.0
 40
1.0
 10
139.6261911441
 20
79.5794132762
 30
0.0
 10
139.6297127583
 20
79.574930521
 30
0.0
 10
139.6328869038
 20
79.5634428061
 30
0.0
 10
139.6365224197
 20
79.5411136329
 30
0.0
 10
139.640295751
 20
79.5126745656
 30
0.0
 10
139.6436982266
 20
79.478582862
 30
0.0
 10
139.6456800357
 20
79.4557979492
 30
0.0
 10
139.6466093149
 20
79.4444043195
 30
0.0
  0
SPLINE
  5
3EA
100
AcDbEntity
  8
0
100
AcDbSpline
 62
7
  6
CONTINUOUS
 70
0
 71
3
 72
13
 73
9
 74
0
 42
0.0000001
 43
0.0000001
 44
0.0000000001
 40
0.0
 40
0.0
 40
0.0
 40
0.0
 40
0.3793143203
 40
0.702574198
 40
0.8268128022
 40
0.919580794
 40
0.9778078658
 40
1.0
 40
1.0
 40
1.0
 40
1.0
 10
139.6262106185
 20
79.5812681801
 30
0.0
 10
139.6388817314
 20
79.5809469711
 30
0.0
 10
139.6622926927
 20
79.5802600646
 30
0.0
 10
139.6900863988
 20
79.5793623581
 30
0.0
 10
139.7078452175
 20
79.5782743384
 30
0.0
 10
139.7175097482
 20
79.5779053267
 30
0.0
 10
139.7223474567
 20
79.5767888499
 30
0.0
 10
139.7260304046
 20
79.5768448642
 30
0.0
 10
139.7262076714
 20
79.5761247896
 30
0.0
  0
SPLINE
  5
3EB
100
AcDbEntity
  8
0
100
AcDbSpline
 62
7
  6
CONTINUOUS
 70
0
 71
3
 72
13
 73
9
 74
0
 42
0.0000001
 43
0.0000001
 44
0.0000000001
 40
0.0
 40
0.0
 40
0.0
 40
0.0
 40
0.3788250072
 40
0.7022917667
 40
0.8266096641
 40
0.9194901551
 40
0.9778053395
 40
1.0
 40
1.0
 40
1.0
 40
1.0
 10
124.9936099055
 20
149.5813849187
 30
0.0
 10
124.9808472458
 20
149.58171498
 30
0.0
 10
124.9572459898
 20
149.5824022079
 30
0.0
 10
124.9292203105
 20
149.5832890788
 30
0.0
 10
124.9112974588
 20
149.584380311
 30
0.0
 10
124.9015375833
 20
149.5847425215
 30
0.0
 10
124.8966571884
 20
149.5858739139
 30
0.0
 10
124.8929329547
 20
149.5858023949
 30
0.0
 10
124.8927543834
 20
149.5865287574
 30
0.0
  0
ENDSEC
  0
SECTION
  2
OBJECTS
  0
DICTIONARY
  5
C
100
AcDbDictionary
280
0
281
1
  3
ACAD_GROUP
350
D
  3
ACAD_MLINESTYLE
350
17
  3
ACAD_LAYOUT
350
1A
  3
ACAD_PLOTSETTINGS
350
19
  3
ACAD_PLOTSTYLENAME
350
E
  0
DICTIONARY
  5
D
102
{ACAD_REACTORS
330
C
102
}
100
AcDbDictionary
280
0
281
1
  0
ACDBDICTIONARYWDFLT
  5
E
102
{ACAD_REACTORS
330
C
102
}
100
AcDbDictionary
281
1
  3
Normal
350
F
100
AcDbDictionaryWithDefault
340
F
  0
DICTIONARY
  5
17
102
{ACAD_REACTORS
330
C
102
}
100
AcDbDictionary
280
0
281
1
  3
Standard
350
18
  0
DICTIONARY
  5
19
102
{ACAD_REACTORS
330
C
102
}
100
AcDbDictionary
281
1
  0
DICTIONARY
  5
1A
102
{ACAD_REACTORS
330
C
102
}
100
AcDbDictionary
281
1
  3
Model
350
3EC
  3
Layout1
350
3ED
  0
ACDBPLACEHOLDER
  5
F
102
{ACAD_REACTORS
330
E
102
}
  0
MLINESTYLE
  5
18
102
{ACAD_REACTORS
330
17
102
}
100
AcDbMlineStyle
  2
STANDARD
 70
0
  3

 62
256
 51
90.0
 52
90.0
 71
2
 49
0.5
 62
256
  6
BYLAYER
 49
-0.5
 62
256
  6
BYLAYER
  0
LAYOUT
  5
3EC
102
{ACAD_REACTORS
330
1A
102
}
100
AcDbPlotSettings
  1

  2
none_device
  4

  6

 40
0.0
 41
0.0
 42
0.0
 43
0.0
 44
210.0
 45
297.0
 46
0.0
 47
0.0
 48
0.0
 49
0.0
140
0.0
141
0.0
142
1.0
143
1.0
 70
1024
 72
1
 73
0
 74
0
  7

 75
0
147
1.0
148
0.0
149
0.0
100
AcDbLayout
  1
Model
 70
0
 71
0
 10
0.0
 20
0.0
 11
210.0
 21
297.0
 12
0.0
 22
0.0
 32
0.0
 14
0.0
 24
0.0
 34
0.0
 15
0.0
 25
0.0
 35
0.0
146
0.0
 13
0.0
 23
0.0
 33
0.0
 16
1.0
 26
0.0
 36
0.0
 17
0.0
 27
1.0
 37
0.0
 76
0
330
210
345
0
346
0
  0
LAYOUT
  5
3ED
102
{ACAD_REACTORS
330
1A
102
}
100
AcDbPlotSettings
  1

  2
none_device
  4

  6

 40
0.0
 41
0.0
 42
0.0
 43
0.0
 44
210.0
 45
297.0
 46
0.0
 47
0.0
 48
0.0
 49
0.0
140
0.0
141
0.0
142
1.0
143
1.0
 70
0
 72
1
 73
0
 74
0
  7

 75
0
147
1.0
148
0.0
149
0.0
100
AcDbLayout
  1
Layout1
 70
0
 71
1
 10
0.0
 20
0.0
 11
210.0
 21
297.0
 12
0.0
 22
0.0
 32
0.0
 14
0.0
 24
0.0
 34
0.0
 15
0.0
 25
0.0
 35
0.0
146
0.0
 13
0.0
 23
0.0
 33
0.0
 16
1.0
 26
0.0
 36
0.0
 17
0.0
 27
1.0
 37
0.0
 76
0
330
211
345
0
346
0
  0
ENDSEC
  0
EOF
