999
DXF file: C:\Users\sesa63760\Dev\_Creo\CAD\MCADID0001039_3D-CAD\drw0001_5.dxf
999
Pro/ENGINEER 2019471 by Parametric Technology Corporation
  0
SECTION
  2
HEADER
  9
$ACADVER
  1
AC1024
  9
$DWGCODEPAGE
  3
ANSI_1252
  9
$EXTMAX
 10
1504.4574174232
 20
2127.7326332129
 30
0.0
  9
$EXTMIN
 10
0.0
 20
0.0
 30
0.0
  9
$LIMMIN
 10
0.0
 20
0.0
  9
$LIMMAX
 10
1504.4574174232
 20
2127.7326332129
  9
$VIEWCTR
 10
752.2287087116
 20
1063.8663166064
  9
$VIEWSIZE
 40
2127.7326332129
  9
$CLAYER
  8
0
  9
$LTSCALE
 40
138.6966457205
  9
$CELTYPE
  6
BYLAYER
  9
$DIMSCALE
 40
1.0
  9
$DIMASZ
 40
17.9102073503
  9
$DIMEXO
 40
1.0
  9
$DIMDLI
 40
95.8267734069
  9
$DIMEXE
 40
1.0
  9
$DIMCEN
 40
22.6958147543
  9
$DIMLFAC
 40
1.0
  9
$DIMBLK
  1
_FILLED
  9
$DIMALT
 70
0
  9
$DIMALTF
 40
0.0393700787
  9
$DIMTXT
 40
25.0742902904
  9
$DIMTOL
 70
1
  9
$DIMLIM
 70
0
  9
$DIMTFAC
 40
1.0
  9
$DIMTP
 40
0.01
  9
$DIMTM
 40
0.01
  9
$DIMGAP
 40
0.625
  9
$DIMDSEP
 70
46
  9
$AUNITS
 70
0
  9
$PDMODE
 70
3
  9
$PDSIZE
 40
0.3125
  9
$HANDSEED
  5
32A
  9
$TILEMODE
 70
1
  9
$MEASUREMENT
 70
1
  9
$INSUNITS
 70
4
  0
ENDSEC
  0
SECTION
  2
CLASSES
  0
CLASS
  1
ACDBDICTIONARYWDFLT
  2
AcDbDictionaryWithDefault
  3
AutoCAD 2000
 90
0
 91
1
280
0
281
0
  0
CLASS
  1
ACDBPLACEHOLDER
  2
AcDbPlaceHolder
  3
AutoCAD 2000
 90
0
 91
1
280
0
281
0
  0
CLASS
  1
LAYOUT
  2
AcDbLayout
  3
AutoCAD 2000
 90
0
 91
0
280
0
281
0
  0
ENDSEC
  0
SECTION
  2
TABLES
  0
TABLE
  2
VPORT
  5
8
100
AcDbSymbolTable
 70
2
  0
VPORT
  5
1F4
100
AcDbSymbolTableRecord
100
AcDbViewportTableRecord
  2
*ACTIVE
 70
0
 10
0.0
 20
0.0
 11
1.0
 21
1.0
 12
752.2287087116
 22
1063.8663166064
 13
0.0
 23
0.0
 14
1.0
 24
1.0
 15
0.0
 25
0.0
 16
0.0
 26
0.0
 36
1.0
 17
0.0
 27
0.0
 37
0.0
 40
2127.7326332129
 41
0.7070707071
 42
50.0
 43
0.0
 44
0.0
 50
0.0
 51
0.0
 71
0
 72
100
 73
1
 74
1
 75
0
 76
0
 77
0
 78
0
  0
ENDTAB
  0
TABLE
  2
LTYPE
  5
5
100
AcDbSymbolTable
 70
6
  0
LTYPE
  5
14
100
AcDbSymbolTableRecord
100
AcDbLinetypeTableRecord
  2
BYBLOCK
 70
0
  3

 72
65
 73
0
 40
0.0
  0
LTYPE
  5
15
100
AcDbSymbolTableRecord
100
AcDbLinetypeTableRecord
  2
BYLAYER
 70
0
  3

 72
65
 73
0
 40
0.0
  0
LTYPE
  5
16
100
AcDbSymbolTableRecord
100
AcDbLinetypeTableRecord
  2
CONTINUOUS
 70
64
  3
Solid line
 72
65
 73
0
 40
0.0
  0
LTYPE
  5
1F5
100
AcDbSymbolTableRecord
100
AcDbLinetypeTableRecord
  2
CENTER
 70
64
  3
____ _ ____ _ ____ _ ____ _ ____ _ ____ _ ____
 72
65
 73
4
 40
0.6
 49
0.375
 74
0
 49
-0.075
 74
0
 49
0.075
 74
0
 49
-0.075
 74
0
  0
LTYPE
  5
1F6
100
AcDbSymbolTableRecord
100
AcDbLinetypeTableRecord
  2
HIDDEN
 70
64
  3
- - - - - - - - - - - - - - - - - - - -
 72
65
 73
2
 40
0.2
 49
0.1
 74
0
 49
-0.1
 74
0
  0
LTYPE
  5
1F7
100
AcDbSymbolTableRecord
100
AcDbLinetypeTableRecord
  2
PHANTOM
 70
64
  3
_____ _ _ _____ _ _ _____ _ _ _____
 72
65
 73
6
 40
0.8
 49
0.45
 74
0
 49
-0.05
 74
0
 49
0.1
 74
0
 49
-0.05
 74
0
 49
0.1
 74
0
 49
-0.05
 74
0
  0
LTYPE
  5
1F8
100
AcDbSymbolTableRecord
100
AcDbLinetypeTableRecord
  2
DOT
 70
64
  3
. . . . . . . . . . . . . . . . . . . .
 72
65
 73
2
 40
0.2
 49
0.1
 74
0
 49
-0.1
 74
0
  0
LTYPE
  5
1F9
100
AcDbSymbolTableRecord
100
AcDbLinetypeTableRecord
  2
DASHED
 70
64
  3
- - - - - - - - - - - - - - - - - - - -
 72
65
 73
2
 40
0.2
 49
0.1
 74
0
 49
-0.1
 74
0
  0
ENDTAB
  0
TABLE
  2
LAYER
  5
2
100
AcDbSymbolTable
 70
36
  0
LAYER
  5
10
100
AcDbSymbolTableRecord
100
AcDbLayerTableRecord
  2
0
 70
0
 62
7
  6
CONTINUOUS
370
-3
390
F
  0
LAYER
  5
1FA
100
AcDbSymbolTableRecord
100
AcDbLayerTableRecord
  2
DEFAULT_1
 70
0
 62
7
  6
CENTER
370
-3
390
F
  0
LAYER
  5
1FB
100
AcDbSymbolTableRecord
100
AcDbLayerTableRecord
  2
DEFAULT_2
 70
0
 62
8
  6
HIDDEN
370
-3
390
F
  0
LAYER
  5
1FC
100
AcDbSymbolTableRecord
100
AcDbLayerTableRecord
  2
DEFAULT_3
 70
0
 62
7
  6
PHANTOM
370
-3
390
F
  0
LAYER
  5
1FD
100
AcDbSymbolTableRecord
100
AcDbLayerTableRecord
  2
00_COMPONENTS
 70
0
 62
7
  6
CONTINUOUS
370
-3
390
F
  0
LAYER
  5
1FE
100
AcDbSymbolTableRecord
100
AcDbLayerTableRecord
  2
01_1_DEFAULT_DATUMS
 70
0
 62
7
  6
CONTINUOUS
370
-3
390
F
  0
LAYER
  5
1FF
100
AcDbSymbolTableRecord
100
AcDbLayerTableRecord
  2
01_PLANES
 70
0
 62
7
  6
CONTINUOUS
370
-3
390
F
  0
LAYER
  5
200
100
AcDbSymbolTableRecord
100
AcDbLayerTableRecord
  2
02_COORD_SYS
 70
0
 62
7
  6
CONTINUOUS
370
-3
390
F
  0
LAYER
  5
201
100
AcDbSymbolTableRecord
100
AcDbLayerTableRecord
  2
03_AXES
 70
0
 62
7
  6
CONTINUOUS
370
-3
390
F
  0
LAYER
  5
202
100
AcDbSymbolTableRecord
100
AcDbLayerTableRecord
  2
04_POINTS
 70
0
 62
7
  6
CONTINUOUS
370
-3
390
F
  0
LAYER
  5
203
100
AcDbSymbolTableRecord
100
AcDbLayerTableRecord
  2
05_CURVES
 70
0
 62
7
  6
CONTINUOUS
370
-3
390
F
  0
LAYER
  5
204
100
AcDbSymbolTableRecord
100
AcDbLayerTableRecord
  2
06_SURFS
 70
0
 62
7
  6
CONTINUOUS
370
-3
390
F
  0
LAYER
  5
205
100
AcDbSymbolTableRecord
100
AcDbLayerTableRecord
  2
07_COSMETICS
 70
0
 62
7
  6
CONTINUOUS
370
-3
390
F
  0
LAYER
  5
206
100
AcDbSymbolTableRecord
100
AcDbLayerTableRecord
  2
10_NOTES
 70
0
 62
7
  6
CONTINUOUS
370
-3
390
F
  0
LAYER
  5
207
100
AcDbSymbolTableRecord
100
AcDbLayerTableRecord
  2
11_NOTES_PUB
 70
0
 62
7
  6
CONTINUOUS
370
-3
390
F
  0
LAYER
  5
208
100
AcDbSymbolTableRecord
100
AcDbLayerTableRecord
  2
13_REF_GTOL
 70
0
 62
7
  6
CONTINUOUS
370
-3
390
F
  0
LAYER
  5
209
100
AcDbSymbolTableRecord
100
AcDbLayerTableRecord
  2
16_MISC
 70
0
 62
7
  6
CONTINUOUS
370
-3
390
F
  0
LAYER
  5
20A
100
AcDbSymbolTableRecord
100
AcDbLayerTableRecord
  2
17_NO_PRINT
 70
0
 62
7
  6
CONTINUOUS
370
-3
390
F
  0
LAYER
  5
20B
100
AcDbSymbolTableRecord
100
AcDbLayerTableRecord
  2
18_DATUM_CAMS_JOINTS
 70
0
 62
7
  6
CONTINUOUS
370
-3
390
F
  0
LAYER
  5
20C
100
AcDbSymbolTableRecord
100
AcDbLayerTableRecord
  2
19_DATUM_FUNCTIONAL
 70
0
 62
7
  6
CONTINUOUS
370
-3
390
F
  0
LAYER
  5
20D
100
AcDbSymbolTableRecord
100
AcDbLayerTableRecord
  2
20_DATUM_KINEMATIC_SCHEME
 70
0
 62
7
  6
CONTINUOUS
370
-3
390
F
  0
ENDTAB
  0
TABLE
  2
STYLE
  5
3
100
AcDbSymbolTable
 70
1
  0
STYLE
  5
11
100
AcDbSymbolTableRecord
100
AcDbTextStyleTableRecord
  2
STANDARD
 70
0
 40
0.0
 41
0.8
 50
0.0
 71
0
 42
0.2
  3
txt
  4

  0
STYLE
  5
20E
100
AcDbSymbolTableRecord
100
AcDbTextStyleTableRecord
  2
TEXTSTYLE_1
 70
0
 40
0.0
 41
0.8
 50
0.0
 71
0
 42
0.2
  3
gdt
  4

  0
ENDTAB
  0
TABLE
  2
VIEW
  5
6
100
AcDbSymbolTable
 70
0
  0
ENDTAB
  0
TABLE
  2
UCS
  5
7
100
AcDbSymbolTable
 70
0
  0
ENDTAB
  0
TABLE
  2
APPID
  5
9
100
AcDbSymbolTable
 70
1
  0
APPID
  5
20F
100
AcDbSymbolTableRecord
100
AcDbRegAppTableRecord
  2
ACAD
 70
0
  0
ENDTAB
  0
TABLE
  2
BLOCK_RECORD
  5
1
100
AcDbSymbolTable
 70
0
  0
BLOCK_RECORD
  5
210
100
AcDbSymbolTableRecord
100
AcDbBlockTableRecord
  2
*Model_Space
  0
BLOCK_RECORD
  5
211
100
AcDbSymbolTableRecord
100
AcDbBlockTableRecord
  2
*Paper_Space
  0
BLOCK_RECORD
  5
212
100
AcDbSymbolTableRecord
100
AcDbBlockTableRecord
  2
_FILLED
  0
ENDTAB
  0
TABLE
  2
DIMSTYLE
  5
A
100
AcDbSymbolTable
 70
1
100
AcDbDimStyleTable
 71
0
  0
DIMSTYLE
105
213
100
AcDbSymbolTableRecord
100
AcDbDimStyleTableRecord
  2
STANDARD
 70
0
  3

  4

 40
1.0
 41
17.9102073503
 42
1.0
 43
0.38
 44
1.0
 45
0.0
 46
0.0
 47
0.01
 48
0.01
140
25.0742902904
141
0.09
142
0.0
143
25.4
144
1.0
145
0.0
146
1.0
147
0.625
 71
1
 72
0
 73
0
 74
0
 75
0
 76
0
 77
1
 78
8
 79
2
170
0
171
1
172
0
173
0
174
0
175
0
176
0
177
0
178
0
270
2
179
2
271
2
272
2
273
2
274
2
275
0
280
0
281
0
282
0
283
1
284
8
285
0
286
0
287
3
288
0
340
11
278
46
341
212
342
212
343
212
344
212
  0
ENDTAB
  0
ENDSEC
  0
SECTION
  2
BLOCKS
  0
BLOCK
  5
20
100
AcDbEntity
  8
0
100
AcDbBlockBegin
  2
*Model_Space
 70
0
 10
0.0
 20
0.0
 30
0.0
  3
*Model_Space
  1

  0
ENDBLK
  5
21
100
AcDbEntity
  8
0
100
AcDbBlockEnd
  0
BLOCK
  5
1C
100
AcDbEntity
  8
0
100
AcDbBlockBegin
  2
*Paper_Space
 70
0
 10
0.0
 20
0.0
 30
0.0
  3
*Paper_Space
  1

  0
ENDBLK
  5
1D
100
AcDbEntity
  8
0
100
AcDbBlockEnd
  0
BLOCK
  5
214
100
AcDbEntity
  8
0
100
AcDbBlockBegin
  2
_FILLED
 70
64
 10
0.0
 20
0.0
  3
_FILLED
  1

  0
SOLID
  5
215
100
AcDbEntity
  8
0
  6
BYBLOCK
 62
0
100
AcDbTrace
 10
0.0
 20
0.0
 11
-1.0
 21
0.25
 12
-1.0
 22
-0.25
 13
-1.0
 23
-0.25
  0
ENDBLK
  5
216
100
AcDbEntity
  8
0
  6
BYBLOCK
 62
0
100
AcDbBlockEnd
  0
ENDSEC
  0
SECTION
  2
ENTITIES
  0
LINE
  5
217
100
AcDbEntity
  8
0
100
AcDbLine
 62
7
  6
CONTINUOUS
 10
175.3709696833
 20
1097.8659240592
 11
175.3709696832
 21
1097.2382996061
  0
LINE
  5
218
100
AcDbEntity
  8
0
100
AcDbLine
 62
7
  6
CONTINUOUS
 10
175.3709696832
 20
1095.8182866921
 11
175.3709696833
 21
1095.1906719732
  0
LINE
  5
219
100
AcDbEntity
  8
0
100
AcDbLine
 62
7
  6
CONTINUOUS
 10
175.370969683
 20
917.8659240592
 11
175.3709696829
 21
917.2382996061
  0
LINE
  5
21A
100
AcDbEntity
  8
0
100
AcDbLine
 62
7
  6
CONTINUOUS
 10
175.3709696829
 20
915.8182866921
 11
175.370969683
 21
915.1906719733
  0
LINE
  5
21B
100
AcDbEntity
  8
0
100
AcDbLine
 62
7
  6
CONTINUOUS
 10
177.089375696
 20
910.7566333317
 11
177.089375696
 21
922.2999737123
  0
LINE
  5
21C
100
AcDbEntity
  8
0
100
AcDbLine
 62
7
  6
CONTINUOUS
 10
177.0893756963
 20
1090.7566333317
 11
177.0893756963
 21
1102.2999737123
  0
LINE
  5
21D
100
AcDbEntity
  8
0
100
AcDbLine
 62
7
  6
CONTINUOUS
 10
177.5303538048
 20
910.528303522
 11
177.5303538048
 21
922.528303522
  0
LINE
  5
21E
100
AcDbEntity
  8
0
100
AcDbLine
 62
7
  6
CONTINUOUS
 10
177.5303538051
 20
1090.528303522
 11
177.5303538051
 21
1102.528303522
  0
LINE
  5
21F
100
AcDbEntity
  8
0
100
AcDbLine
 62
7
  6
CONTINUOUS
 10
179.8556369715
 20
1102.528303522
 11
179.8556369715
 21
1090.528303522
  0
LINE
  5
220
100
AcDbEntity
  8
0
100
AcDbLine
 62
7
  6
CONTINUOUS
 10
179.8556369712
 20
922.528303522
 11
179.8556369712
 21
910.528303522
  0
LINE
  5
221
100
AcDbEntity
  8
0
100
AcDbLine
 62
7
  6
CONTINUOUS
 10
181.1556369712
 20
910.528303522
 11
181.1556369712
 21
922.528303522
  0
LINE
  5
222
100
AcDbEntity
  8
0
100
AcDbLine
 62
7
  6
CONTINUOUS
 10
181.1556369715
 20
1090.528303522
 11
181.1556369715
 21
1102.528303522
  0
LINE
  5
223
100
AcDbEntity
  8
0
100
AcDbLine
 62
7
  6
CONTINUOUS
 10
181.2364035919
 20
1252.5689978544
 11
181.2364035919
 21
1116.4890143585
  0
LINE
  5
224
100
AcDbEntity
  8
0
100
AcDbLine
 62
7
  6
CONTINUOUS
 10
182.7556369712
 20
1112.2859763071
 11
182.7556369712
 21
880.6805257218
  0
LINE
  5
225
100
AcDbEntity
  8
0
100
AcDbLine
 62
7
  6
CONTINUOUS
 10
184.7556369712
 20
1116.4890143585
 11
184.7556369712
 21
876.528303522
  0
LINE
  5
226
100
AcDbEntity
  8
0
100
AcDbLine
 62
7
  6
CONTINUOUS
 10
191.3172138916
 20
1249.0283035226
 11
191.3172138916
 21
1252.5689978544
  0
LINE
  5
227
100
AcDbEntity
  8
0
100
AcDbLine
 62
7
  6
CONTINUOUS
 10
214.8594054598
 20
1256.0344394973
 11
214.8480218792
 21
1256.0116075661
  0
LINE
  5
228
100
AcDbEntity
  8
0
100
AcDbLine
 62
7
  6
CONTINUOUS
 10
205.7556369712
 20
1254.2535866889
 11
205.7556369712
 21
1251.9283035226
  0
LINE
  5
229
100
AcDbEntity
  8
0
100
AcDbLine
 62
7
  6
CONTINUOUS
 10
208.7556369712
 20
1251.6783035226
 11
208.7556369712
 21
1249.0283035226
  0
LINE
  5
22A
100
AcDbEntity
  8
0
100
AcDbLine
 62
7
  6
CONTINUOUS
 10
211.0456369712
 20
1256.4129775076
 11
211.0456369712
 21
1256.0116075661
  0
LINE
  5
22B
100
AcDbEntity
  8
0
100
AcDbLine
 62
7
  6
CONTINUOUS
 10
212.4656369712
 20
1256.0116075661
 11
212.4656369712
 21
1256.4129692559
  0
LINE
  5
22C
100
AcDbEntity
  8
0
100
AcDbLine
 62
7
  6
CONTINUOUS
 10
214.7556369712
 20
1251.6783035226
 11
214.7556369712
 21
1249.0283035226
  0
LINE
  5
22D
100
AcDbEntity
  8
0
100
AcDbLine
 62
7
  6
CONTINUOUS
 10
217.7556369712
 20
1254.2535866889
 11
217.7556369712
 21
1251.9283035226
  0
LINE
  5
22E
100
AcDbEntity
  8
0
100
AcDbLine
 62
7
  6
CONTINUOUS
 10
208.6632520632
 20
1256.0116075661
 11
208.6518684826
 21
1256.0344394973
  0
LINE
  5
22F
100
AcDbEntity
  8
0
100
AcDbLine
 62
7
  6
CONTINUOUS
 10
424.8594054598
 20
1256.0344394973
 11
424.8480218792
 21
1256.0116075661
  0
LINE
  5
230
100
AcDbEntity
  8
0
100
AcDbLine
 62
7
  6
CONTINUOUS
 10
175.7495021022
 20
919.6320714593
 11
175.7723329277
 21
919.62068843
  0
LINE
  5
231
100
AcDbEntity
  8
0
100
AcDbLine
 62
7
  6
CONTINUOUS
 10
415.7556369712
 20
1254.2535866889
 11
415.7556369712
 21
1251.9283035226
  0
LINE
  5
232
100
AcDbEntity
  8
0
100
AcDbLine
 62
7
  6
CONTINUOUS
 10
418.7556369712
 20
1251.6783035226
 11
418.7556369712
 21
1249.0283035226
  0
LINE
  5
233
100
AcDbEntity
  8
0
100
AcDbLine
 62
7
  6
CONTINUOUS
 10
419.7556369712
 20
879.528303522
 11
419.7556369712
 21
876.528303522
  0
LINE
  5
234
100
AcDbEntity
  8
0
100
AcDbLine
 62
7
  6
CONTINUOUS
 10
420.7556369712
 20
876.528303522
 11
420.7556369712
 21
879.528303522
  0
LINE
  5
235
100
AcDbEntity
  8
0
100
AcDbLine
 62
7
  6
CONTINUOUS
 10
421.0456369712
 20
1256.4129775076
 11
421.0456369712
 21
1256.0116075661
  0
LINE
  5
236
100
AcDbEntity
  8
0
100
AcDbLine
 62
7
  6
CONTINUOUS
 10
422.4656369712
 20
1256.0116075661
 11
422.4656369712
 21
1256.4129692559
  0
LINE
  5
237
100
AcDbEntity
  8
0
100
AcDbLine
 62
7
  6
CONTINUOUS
 10
424.7556369712
 20
1251.6783035226
 11
424.7556369712
 21
1249.0283035226
  0
LINE
  5
238
100
AcDbEntity
  8
0
100
AcDbLine
 62
7
  6
CONTINUOUS
 10
427.7556369712
 20
1254.2535866889
 11
427.7556369712
 21
1251.9283035226
  0
LINE
  5
239
100
AcDbEntity
  8
0
100
AcDbLine
 62
7
  6
CONTINUOUS
 10
441.7556369712
 20
1249.0283035226
 11
441.7556369712
 21
879.528303522
  0
LINE
  5
23A
100
AcDbEntity
  8
0
100
AcDbLine
 62
7
  6
CONTINUOUS
 10
445.7556369712
 20
1240.528303522
 11
445.7556369712
 21
1146.528303522
  0
LINE
  5
23B
100
AcDbEntity
  8
0
100
AcDbLine
 62
7
  6
CONTINUOUS
 10
445.7556369712
 20
1111.528303522
 11
445.7556369712
 21
1031.528303522
  0
LINE
  5
23C
100
AcDbEntity
  8
0
100
AcDbLine
 62
7
  6
CONTINUOUS
 10
448.7556369712
 20
1244.028303522
 11
448.7556369712
 21
1240.528303522
  0
LINE
  5
23D
100
AcDbEntity
  8
0
100
AcDbLine
 62
7
  6
CONTINUOUS
 10
450.7556369712
 20
1240.528303522
 11
450.7556369712
 21
1244.028303522
  0
LINE
  5
23E
100
AcDbEntity
  8
0
100
AcDbLine
 62
7
  6
CONTINUOUS
 10
455.7556369712
 20
1240.528303522
 11
455.7556369712
 21
1246.528303522
  0
LINE
  5
23F
100
AcDbEntity
  8
0
100
AcDbLine
 62
7
  6
CONTINUOUS
 10
457.7556369712
 20
1244.528303522
 11
457.7556369712
 21
1246.528303522
  0
LINE
  5
240
100
AcDbEntity
  8
0
100
AcDbLine
 62
7
  6
CONTINUOUS
 10
475.7556369712
 20
1111.528303522
 11
475.7556369712
 21
1146.528303522
  0
LINE
  5
241
100
AcDbEntity
  8
0
100
AcDbLine
 62
7
  6
CONTINUOUS
 10
533.8594049085
 20
1253.5344383909
 11
533.8480218792
 21
1253.5116075655
  0
LINE
  5
242
100
AcDbEntity
  8
0
100
AcDbLine
 62
7
  6
CONTINUOUS
 10
175.772332928
 20
1093.435918614
 11
175.7495021025
 21
1093.4245355847
  0
LINE
  5
243
100
AcDbEntity
  8
0
100
AcDbLine
 62
7
  6
CONTINUOUS
 10
524.7556369712
 20
1251.7535866883
 11
524.7556369712
 21
1249.428303522
  0
LINE
  5
244
100
AcDbEntity
  8
0
100
AcDbLine
 62
7
  6
CONTINUOUS
 10
524.7556369712
 20
1248.128303522
 11
524.7556369712
 21
1246.528303522
  0
LINE
  5
245
100
AcDbEntity
  8
0
100
AcDbLine
 62
7
  6
CONTINUOUS
 10
524.8556369712
 20
1248.128303522
 11
524.8556369712
 21
1249.428303522
  0
LINE
  5
246
100
AcDbEntity
  8
0
100
AcDbLine
 62
7
  6
CONTINUOUS
 10
530.0456369712
 20
1253.9129692032
 11
530.0456369712
 21
1253.5116075655
  0
LINE
  5
247
100
AcDbEntity
  8
0
100
AcDbLine
 62
7
  6
CONTINUOUS
 10
531.4656369712
 20
1253.5116075655
 11
531.4656369712
 21
1253.9129774897
  0
LINE
  5
248
100
AcDbEntity
  8
0
100
AcDbLine
 62
7
  6
CONTINUOUS
 10
536.6466788994
 20
1248.128303522
 11
536.6466788994
 21
1249.428303522
  0
LINE
  5
249
100
AcDbEntity
  8
0
100
AcDbLine
 62
7
  6
CONTINUOUS
 10
536.7556369712
 20
1246.528303522
 11
536.7556369712
 21
1248.128303522
  0
LINE
  5
24A
100
AcDbEntity
  8
0
100
AcDbLine
 62
7
  6
CONTINUOUS
 10
536.7556369712
 20
1249.428303522
 11
536.7556369712
 21
1251.7535866883
  0
LINE
  5
24B
100
AcDbEntity
  8
0
100
AcDbLine
 62
7
  6
CONTINUOUS
 10
445.7556369712
 20
1031.528303522
 11
441.7556369712
 21
1027.528303522
  0
LINE
  5
24C
100
AcDbEntity
  8
0
100
AcDbLine
 62
7
  6
CONTINUOUS
 10
175.7495021025
 20
1099.6320714593
 11
175.772332928
 21
1099.62068843
  0
LINE
  5
24D
100
AcDbEntity
  8
0
100
AcDbLine
 62
7
  6
CONTINUOUS
 10
418.6632520632
 20
1256.0116075661
 11
418.6518684826
 21
1256.0344394973
  0
LINE
  5
24E
100
AcDbEntity
  8
0
100
AcDbLine
 62
7
  6
CONTINUOUS
 10
419.7556369712
 20
876.528303522
 11
184.7556369712
 21
876.528303522
  0
LINE
  5
24F
100
AcDbEntity
  8
0
100
AcDbLine
 62
7
  6
CONTINUOUS
 10
420.7556369712
 20
876.528303522
 11
1370.7556369712
 21
876.528303522
  0
LINE
  5
250
100
AcDbEntity
  8
0
100
AcDbLine
 62
7
  6
CONTINUOUS
 10
419.7556369712
 20
879.528303522
 11
1370.7556369712
 21
879.528303522
  0
LINE
  5
251
100
AcDbEntity
  8
0
100
AcDbLine
 62
7
  6
CONTINUOUS
 10
182.7556369712
 20
880.6805257218
 11
184.7556369712
 21
880.6805257218
  0
LINE
  5
252
100
AcDbEntity
  8
0
100
AcDbLine
 62
7
  6
CONTINUOUS
 10
175.7723329277
 20
913.435918614
 11
175.7495021022
 21
913.4245355847
  0
LINE
  5
253
100
AcDbEntity
  8
0
100
AcDbLine
 62
7
  6
CONTINUOUS
 10
182.7556369712
 20
910.528303522
 11
181.1556369712
 21
910.528303522
  0
LINE
  5
254
100
AcDbEntity
  8
0
100
AcDbLine
 62
7
  6
CONTINUOUS
 10
179.8556369712
 20
910.528303522
 11
177.5303538048
 21
910.528303522
  0
LINE
  5
255
100
AcDbEntity
  8
0
100
AcDbLine
 62
7
  6
CONTINUOUS
 10
181.1556369712
 20
910.628303522
 11
179.8556369712
 21
910.628303522
  0
LINE
  5
256
100
AcDbEntity
  8
0
100
AcDbLine
 62
7
  6
CONTINUOUS
 10
175.3709629874
 20
915.818303522
 11
175.7723329277
 21
915.818303522
  0
LINE
  5
257
100
AcDbEntity
  8
0
100
AcDbLine
 62
7
  6
CONTINUOUS
 10
175.7723329277
 20
917.238303522
 11
175.3709712408
 21
917.238303522
  0
LINE
  5
258
100
AcDbEntity
  8
0
100
AcDbLine
 62
7
  6
CONTINUOUS
 10
181.1556369712
 20
922.4193454502
 11
179.8556369712
 21
922.4193454502
  0
LINE
  5
259
100
AcDbEntity
  8
0
100
AcDbLine
 62
7
  6
CONTINUOUS
 10
182.7556369712
 20
922.528303522
 11
181.1556369712
 21
922.528303522
  0
LINE
  5
25A
100
AcDbEntity
  8
0
100
AcDbLine
 62
7
  6
CONTINUOUS
 10
179.8556369712
 20
922.528303522
 11
177.5303538048
 21
922.528303522
  0
LINE
  5
25B
100
AcDbEntity
  8
0
100
AcDbLine
 62
7
  6
CONTINUOUS
 10
527.6632520632
 20
1253.5116075655
 11
527.6518690339
 21
1253.5344383909
  0
LINE
  5
25C
100
AcDbEntity
  8
0
100
AcDbLine
 62
7
  6
CONTINUOUS
 10
677.8356369712
 20
1251.828303522
 11
677.8356369712
 21
1246.528303522
  0
LINE
  5
25D
100
AcDbEntity
  8
0
100
AcDbLine
 62
7
  6
CONTINUOUS
 10
684.8356369712
 20
1246.528303522
 11
684.8356369712
 21
1251.828303522
  0
LINE
  5
25E
100
AcDbEntity
  8
0
100
AcDbLine
 62
7
  6
CONTINUOUS
 10
783.8594049085
 20
1253.5344383909
 11
783.8480218792
 21
1253.5116075655
  0
LINE
  5
25F
100
AcDbEntity
  8
0
100
AcDbLine
 62
7
  6
CONTINUOUS
 10
750.5356370041
 20
1251.828303522
 11
750.5356370041
 21
1252.328303522
  0
LINE
  5
260
100
AcDbEntity
  8
0
100
AcDbLine
 62
7
  6
CONTINUOUS
 10
764.5356370041
 20
1251.828303522
 11
764.5356370041
 21
1252.328303522
  0
LINE
  5
261
100
AcDbEntity
  8
0
100
AcDbLine
 62
7
  6
CONTINUOUS
 10
774.7556369712
 20
1251.7535866883
 11
774.7556369712
 21
1249.428303522
  0
LINE
  5
262
100
AcDbEntity
  8
0
100
AcDbLine
 62
7
  6
CONTINUOUS
 10
774.7556369712
 20
1248.128303522
 11
774.7556369712
 21
1246.528303522
  0
LINE
  5
263
100
AcDbEntity
  8
0
100
AcDbLine
 62
7
  6
CONTINUOUS
 10
774.8556369712
 20
1248.128303522
 11
774.8556369712
 21
1249.428303522
  0
LINE
  5
264
100
AcDbEntity
  8
0
100
AcDbLine
 62
7
  6
CONTINUOUS
 10
867.8594049085
 20
1253.5344383909
 11
867.8480218792
 21
1253.5116075655
  0
LINE
  5
265
100
AcDbEntity
  8
0
100
AcDbLine
 62
7
  6
CONTINUOUS
 10
780.0456369712
 20
1253.9129692032
 11
780.0456369712
 21
1253.5116075655
  0
LINE
  5
266
100
AcDbEntity
  8
0
100
AcDbLine
 62
7
  6
CONTINUOUS
 10
781.4656369712
 20
1253.5116075655
 11
781.4656369712
 21
1253.9129774897
  0
LINE
  5
267
100
AcDbEntity
  8
0
100
AcDbLine
 62
7
  6
CONTINUOUS
 10
786.6466788994
 20
1248.128303522
 11
786.6466788994
 21
1249.428303522
  0
LINE
  5
268
100
AcDbEntity
  8
0
100
AcDbLine
 62
7
  6
CONTINUOUS
 10
786.7556369712
 20
1246.528303522
 11
786.7556369712
 21
1248.128303522
  0
LINE
  5
269
100
AcDbEntity
  8
0
100
AcDbLine
 62
7
  6
CONTINUOUS
 10
786.7556369712
 20
1249.428303522
 11
786.7556369712
 21
1251.7535866883
  0
LINE
  5
26A
100
AcDbEntity
  8
0
100
AcDbLine
 62
7
  6
CONTINUOUS
 10
792.5356370041
 20
1251.828303522
 11
792.5356370041
 21
1252.328303522
  0
LINE
  5
26B
100
AcDbEntity
  8
0
100
AcDbLine
 62
7
  6
CONTINUOUS
 10
796.8356369712
 20
1251.828303522
 11
796.8356369712
 21
1246.528303522
  0
LINE
  5
26C
100
AcDbEntity
  8
0
100
AcDbLine
 62
7
  6
CONTINUOUS
 10
803.8356369712
 20
1246.528303522
 11
803.8356369712
 21
1251.828303522
  0
LINE
  5
26D
100
AcDbEntity
  8
0
100
AcDbLine
 62
7
  6
CONTINUOUS
 10
820.2556369712
 20
1244.028303522
 11
820.2556369712
 21
1239.528303522
  0
LINE
  5
26E
100
AcDbEntity
  8
0
100
AcDbLine
 62
7
  6
CONTINUOUS
 10
182.7556369715
 20
1090.528303522
 11
181.1556369715
 21
1090.528303522
  0
LINE
  5
26F
100
AcDbEntity
  8
0
100
AcDbLine
 62
7
  6
CONTINUOUS
 10
179.8556369715
 20
1090.528303522
 11
177.5303538051
 21
1090.528303522
  0
LINE
  5
270
100
AcDbEntity
  8
0
100
AcDbLine
 62
7
  6
CONTINUOUS
 10
181.1556369715
 20
1090.628303522
 11
179.8556369715
 21
1090.628303522
  0
LINE
  5
271
100
AcDbEntity
  8
0
100
AcDbLine
 62
7
  6
CONTINUOUS
 10
175.3709629877
 20
1095.818303522
 11
175.772332928
 21
1095.818303522
  0
LINE
  5
272
100
AcDbEntity
  8
0
100
AcDbLine
 62
7
  6
CONTINUOUS
 10
175.772332928
 20
1097.238303522
 11
175.3709712411
 21
1097.238303522
  0
LINE
  5
273
100
AcDbEntity
  8
0
100
AcDbLine
 62
7
  6
CONTINUOUS
 10
181.1556369715
 20
1102.4193454502
 11
179.8556369715
 21
1102.4193454502
  0
LINE
  5
274
100
AcDbEntity
  8
0
100
AcDbLine
 62
7
  6
CONTINUOUS
 10
182.7556369715
 20
1102.528303522
 11
181.1556369715
 21
1102.528303522
  0
LINE
  5
275
100
AcDbEntity
  8
0
100
AcDbLine
 62
7
  6
CONTINUOUS
 10
179.8556369715
 20
1102.528303522
 11
177.5303538051
 21
1102.528303522
  0
LINE
  5
276
100
AcDbEntity
  8
0
100
AcDbLine
 62
7
  6
CONTINUOUS
 10
475.7556369712
 20
1111.528303522
 11
445.7556369712
 21
1111.528303522
  0
LINE
  5
277
100
AcDbEntity
  8
0
100
AcDbLine
 62
7
  6
CONTINUOUS
 10
182.7556369712
 20
1112.2859763071
 11
184.7556369712
 21
1112.2859763071
  0
LINE
  5
278
100
AcDbEntity
  8
0
100
AcDbLine
 62
7
  6
CONTINUOUS
 10
475.7556369712
 20
1112.6356628349
 11
1345.7556369712
 21
1112.6356628349
  0
LINE
  5
279
100
AcDbEntity
  8
0
100
AcDbLine
 62
7
  6
CONTINUOUS
 10
822.2556369712
 20
1239.528303522
 11
822.2556369712
 21
1244.028303522
  0
LINE
  5
27A
100
AcDbEntity
  8
0
100
AcDbLine
 62
7
  6
CONTINUOUS
 10
822.2556369712
 20
1244.528303522
 11
822.2556369712
 21
1246.528303522
  0
LINE
  5
27B
100
AcDbEntity
  8
0
100
AcDbLine
 62
7
  6
CONTINUOUS
 10
823.2556369712
 20
1244.028303522
 11
823.2556369712
 21
1239.528303522
  0
LINE
  5
27C
100
AcDbEntity
  8
0
100
AcDbLine
 62
7
  6
CONTINUOUS
 10
825.2556369712
 20
1239.528303522
 11
825.2556369712
 21
1244.028303522
  0
LINE
  5
27D
100
AcDbEntity
  8
0
100
AcDbLine
 62
7
  6
CONTINUOUS
 10
858.7556369712
 20
1251.7535866883
 11
858.7556369712
 21
1249.428303522
  0
LINE
  5
27E
100
AcDbEntity
  8
0
100
AcDbLine
 62
7
  6
CONTINUOUS
 10
858.7556369712
 20
1248.128303522
 11
858.7556369712
 21
1246.528303522
  0
LINE
  5
27F
100
AcDbEntity
  8
0
100
AcDbLine
 62
7
  6
CONTINUOUS
 10
858.8556369712
 20
1248.128303522
 11
858.8556369712
 21
1249.428303522
  0
LINE
  5
280
100
AcDbEntity
  8
0
100
AcDbLine
 62
7
  6
CONTINUOUS
 10
1345.7556369712
 20
1114.7569831784
 11
475.7556369712
 21
1114.7569831784
  0
LINE
  5
281
100
AcDbEntity
  8
0
100
AcDbLine
 62
7
  6
CONTINUOUS
 10
181.2364035919
 20
1116.4890143585
 11
184.7556369712
 21
1116.4890143585
  0
LINE
  5
282
100
AcDbEntity
  8
0
100
AcDbLine
 62
7
  6
CONTINUOUS
 10
475.7556369712
 20
1118.5854103032
 11
1345.7556369712
 21
1118.5854103032
  0
LINE
  5
283
100
AcDbEntity
  8
0
100
AcDbLine
 62
7
  6
CONTINUOUS
 10
1345.7556369712
 20
1119.2925170844
 11
475.7556369712
 21
1119.2925170844
  0
LINE
  5
284
100
AcDbEntity
  8
0
100
AcDbLine
 62
7
  6
CONTINUOUS
 10
475.7556369712
 20
1137.7640899596
 11
1345.7556369712
 21
1137.7640899596
  0
LINE
  5
285
100
AcDbEntity
  8
0
100
AcDbLine
 62
7
  6
CONTINUOUS
 10
1345.7556369712
 20
1138.4711967408
 11
475.7556369712
 21
1138.4711967408
  0
LINE
  5
286
100
AcDbEntity
  8
0
100
AcDbLine
 62
7
  6
CONTINUOUS
 10
475.7556369712
 20
1142.2996238656
 11
1345.7556369712
 21
1142.2996238656
  0
LINE
  5
287
100
AcDbEntity
  8
0
100
AcDbLine
 62
7
  6
CONTINUOUS
 10
1345.7556369712
 20
1144.4209442091
 11
475.7556369712
 21
1144.4209442091
  0
LINE
  5
288
100
AcDbEntity
  8
0
100
AcDbLine
 62
7
  6
CONTINUOUS
 10
445.7556369712
 20
1146.528303522
 11
475.7556369712
 21
1146.528303522
  0
LINE
  5
289
100
AcDbEntity
  8
0
100
AcDbLine
 62
7
  6
CONTINUOUS
 10
777.6632520632
 20
1253.5116075655
 11
777.6518690339
 21
1253.5344383909
  0
LINE
  5
28A
100
AcDbEntity
  8
0
100
AcDbLine
 62
7
  6
CONTINUOUS
 10
864.0456369712
 20
1253.9129692032
 11
864.0456369712
 21
1253.5116075655
  0
LINE
  5
28B
100
AcDbEntity
  8
0
100
AcDbLine
 62
7
  6
CONTINUOUS
 10
865.4656369712
 20
1253.5116075655
 11
865.4656369712
 21
1253.9129774897
  0
LINE
  5
28C
100
AcDbEntity
  8
0
100
AcDbLine
 62
7
  6
CONTINUOUS
 10
870.6466788994
 20
1248.128303522
 11
870.6466788994
 21
1249.428303522
  0
LINE
  5
28D
100
AcDbEntity
  8
0
100
AcDbLine
 62
7
  6
CONTINUOUS
 10
870.7556369712
 20
1246.528303522
 11
870.7556369712
 21
1248.128303522
  0
LINE
  5
28E
100
AcDbEntity
  8
0
100
AcDbLine
 62
7
  6
CONTINUOUS
 10
870.7556369712
 20
1249.428303522
 11
870.7556369712
 21
1251.7535866883
  0
LINE
  5
28F
100
AcDbEntity
  8
0
100
AcDbLine
 62
7
  6
CONTINUOUS
 10
892.4556369712
 20
1247.028303522
 11
892.4556369712
 21
1246.528303522
  0
LINE
  5
290
100
AcDbEntity
  8
0
100
AcDbLine
 62
7
  6
CONTINUOUS
 10
902.4556369712
 20
1247.028303522
 11
902.4556369712
 21
1246.528303522
  0
LINE
  5
291
100
AcDbEntity
  8
0
100
AcDbLine
 62
7
  6
CONTINUOUS
 10
861.6632520632
 20
1253.5116075655
 11
861.6518690339
 21
1253.5344383909
  0
LINE
  5
292
100
AcDbEntity
  8
0
100
AcDbLine
 62
7
  6
CONTINUOUS
 10
825.2556369712
 20
1239.528303522
 11
823.2556369712
 21
1239.528303522
  0
LINE
  5
293
100
AcDbEntity
  8
0
100
AcDbLine
 62
7
  6
CONTINUOUS
 10
822.2556369712
 20
1239.528303522
 11
820.2556369712
 21
1239.528303522
  0
LINE
  5
294
100
AcDbEntity
  8
0
100
AcDbLine
 62
7
  6
CONTINUOUS
 10
1345.7556369712
 20
1240.528303522
 11
1335.7556369712
 21
1240.528303522
  0
LINE
  5
295
100
AcDbEntity
  8
0
100
AcDbLine
 62
7
  6
CONTINUOUS
 10
455.7556369712
 20
1240.528303522
 11
445.7556369712
 21
1240.528303522
  0
LINE
  5
296
100
AcDbEntity
  8
0
100
AcDbLine
 62
7
  6
CONTINUOUS
 10
1336.7556369712
 20
1243.528303522
 11
1335.7556369712
 21
1243.528303522
  0
LINE
  5
297
100
AcDbEntity
  8
0
100
AcDbLine
 62
7
  6
CONTINUOUS
 10
451.2556369712
 20
1244.528303522
 11
1340.2556369712
 21
1244.528303522
  0
LINE
  5
298
100
AcDbEntity
  8
0
100
AcDbLine
 62
7
  6
CONTINUOUS
 10
451.2556369712
 20
1246.528303522
 11
819.7556369712
 21
1246.528303522
  0
LINE
  5
299
100
AcDbEntity
  8
0
100
AcDbLine
 62
7
  6
CONTINUOUS
 10
820.0711740895
 20
1246.528303522
 11
822.2556369712
 21
1246.528303522
  0
LINE
  5
29A
100
AcDbEntity
  8
0
100
AcDbLine
 62
7
  6
CONTINUOUS
 10
825.7556369712
 20
1246.528303522
 11
1340.2556369712
 21
1246.528303522
  0
LINE
  5
29B
100
AcDbEntity
  8
0
100
AcDbLine
 62
7
  6
CONTINUOUS
 10
902.4556369712
 20
1247.028303522
 11
892.4556369712
 21
1247.028303522
  0
LINE
  5
29C
100
AcDbEntity
  8
0
100
AcDbLine
 62
7
  6
CONTINUOUS
 10
524.7556369712
 20
1248.128303522
 11
536.7556369712
 21
1248.128303522
  0
LINE
  5
29D
100
AcDbEntity
  8
0
100
AcDbLine
 62
7
  6
CONTINUOUS
 10
774.7556369712
 20
1248.128303522
 11
786.7556369712
 21
1248.128303522
  0
LINE
  5
29E
100
AcDbEntity
  8
0
100
AcDbLine
 62
7
  6
CONTINUOUS
 10
858.7556369712
 20
1248.128303522
 11
870.7556369712
 21
1248.128303522
  0
LINE
  5
29F
100
AcDbEntity
  8
0
100
AcDbLine
 62
7
  6
CONTINUOUS
 10
1254.7556369712
 20
1248.128303522
 11
1266.7556369712
 21
1248.128303522
  0
LINE
  5
2A0
100
AcDbEntity
  8
0
100
AcDbLine
 62
7
  6
CONTINUOUS
 10
441.7556369712
 20
1249.0283035226
 11
191.3172138916
 21
1249.0283035226
  0
LINE
  5
2A1
100
AcDbEntity
  8
0
100
AcDbLine
 62
7
  6
CONTINUOUS
 10
1266.7556369712
 20
1249.428303522
 11
1254.7556369712
 21
1249.428303522
  0
LINE
  5
2A2
100
AcDbEntity
  8
0
100
AcDbLine
 62
7
  6
CONTINUOUS
 10
870.7556369712
 20
1249.428303522
 11
858.7556369712
 21
1249.428303522
  0
LINE
  5
2A3
100
AcDbEntity
  8
0
100
AcDbLine
 62
7
  6
CONTINUOUS
 10
786.7556369712
 20
1249.428303522
 11
774.7556369712
 21
1249.428303522
  0
LINE
  5
2A4
100
AcDbEntity
  8
0
100
AcDbLine
 62
7
  6
CONTINUOUS
 10
536.7556369712
 20
1249.428303522
 11
524.7556369712
 21
1249.428303522
  0
LINE
  5
2A5
100
AcDbEntity
  8
0
100
AcDbLine
 62
7
  6
CONTINUOUS
 10
208.7556369712
 20
1251.6783035226
 11
214.7556369712
 21
1251.6783035226
  0
LINE
  5
2A6
100
AcDbEntity
  8
0
100
AcDbLine
 62
7
  6
CONTINUOUS
 10
418.7556369712
 20
1251.6783035226
 11
424.7556369712
 21
1251.6783035226
  0
LINE
  5
2A7
100
AcDbEntity
  8
0
100
AcDbLine
 62
7
  6
CONTINUOUS
 10
524.7556369712
 20
1251.7535866883
 11
536.7556369712
 21
1251.7535866883
  0
LINE
  5
2A8
100
AcDbEntity
  8
0
100
AcDbLine
 62
7
  6
CONTINUOUS
 10
774.7556369712
 20
1251.7535866883
 11
786.7556369712
 21
1251.7535866883
  0
LINE
  5
2A9
100
AcDbEntity
  8
0
100
AcDbLine
 62
7
  6
CONTINUOUS
 10
858.7556369712
 20
1251.7535866883
 11
870.7556369712
 21
1251.7535866883
  0
LINE
  5
2AA
100
AcDbEntity
  8
0
100
AcDbLine
 62
7
  6
CONTINUOUS
 10
1254.7556369712
 20
1251.7535866883
 11
1266.7556369712
 21
1251.7535866883
  0
LINE
  5
2AB
100
AcDbEntity
  8
0
100
AcDbLine
 62
7
  6
CONTINUOUS
 10
677.8356369712
 20
1251.828303522
 11
774.7556369712
 21
1251.828303522
  0
LINE
  5
2AC
100
AcDbEntity
  8
0
100
AcDbLine
 62
7
  6
CONTINUOUS
 10
786.7556369712
 20
1251.828303522
 11
803.8356369712
 21
1251.828303522
  0
LINE
  5
2AD
100
AcDbEntity
  8
0
100
AcDbLine
 62
7
  6
CONTINUOUS
 10
427.7555607915
 20
1251.9283035226
 11
415.7557131509
 21
1251.9283035226
  0
LINE
  5
2AE
100
AcDbEntity
  8
0
100
AcDbLine
 62
7
  6
CONTINUOUS
 10
217.7555607915
 20
1251.9283035226
 11
205.7557131509
 21
1251.9283035226
  0
LINE
  5
2AF
100
AcDbEntity
  8
0
100
AcDbLine
 62
7
  6
CONTINUOUS
 10
524.9839667809
 20
1252.1945647972
 11
536.5273071615
 21
1252.1945647972
  0
LINE
  5
2B0
100
AcDbEntity
  8
0
100
AcDbLine
 62
7
  6
CONTINUOUS
 10
774.9839667809
 20
1252.1945647972
 11
786.5273071615
 21
1252.1945647972
  0
LINE
  5
2B1
100
AcDbEntity
  8
0
100
AcDbLine
 62
7
  6
CONTINUOUS
 10
858.9839667809
 20
1252.1945647972
 11
870.5273071615
 21
1252.1945647972
  0
LINE
  5
2B2
100
AcDbEntity
  8
0
100
AcDbLine
 62
7
  6
CONTINUOUS
 10
1254.9839667809
 20
1252.1945647972
 11
1266.5273071615
 21
1252.1945647972
  0
LINE
  5
2B3
100
AcDbEntity
  8
0
100
AcDbLine
 62
7
  6
CONTINUOUS
 10
792.5356369712
 20
1252.328303522
 11
786.2778983005
 21
1252.328303522
  0
LINE
  5
2B4
100
AcDbEntity
  8
0
100
AcDbLine
 62
7
  6
CONTINUOUS
 10
775.2333756419
 20
1252.328303522
 11
757.7356369712
 21
1252.328303522
  0
LINE
  5
2B5
100
AcDbEntity
  8
0
100
AcDbLine
 62
7
  6
CONTINUOUS
 10
750.5356369712
 20
1252.328303522
 11
743.7356369712
 21
1252.328303522
  0
LINE
  5
2B6
100
AcDbEntity
  8
0
100
AcDbLine
 62
7
  6
CONTINUOUS
 10
191.3172138916
 20
1252.5689978544
 11
181.2364035919
 21
1252.5689978544
  0
LINE
  5
2B7
100
AcDbEntity
  8
0
100
AcDbLine
 62
7
  6
CONTINUOUS
 10
1260.0456410105
 20
1253.9129708102
 11
1259.418016412
 21
1253.9129708102
  0
LINE
  5
2B8
100
AcDbEntity
  8
0
100
AcDbLine
 62
7
  6
CONTINUOUS
 10
1262.0932575093
 20
1253.9129708102
 11
1261.465653761
 21
1253.9129708102
  0
LINE
  5
2B9
100
AcDbEntity
  8
0
100
AcDbLine
 62
7
  6
CONTINUOUS
 10
864.0456410105
 20
1253.9129708102
 11
863.4180164115
 21
1253.9129708102
  0
LINE
  5
2BA
100
AcDbEntity
  8
0
100
AcDbLine
 62
7
  6
CONTINUOUS
 10
866.0932575093
 20
1253.9129708102
 11
865.465653761
 21
1253.9129708102
  0
LINE
  5
2BB
100
AcDbEntity
  8
0
100
AcDbLine
 62
7
  6
CONTINUOUS
 10
782.0932575093
 20
1253.9129708102
 11
781.465653761
 21
1253.9129708102
  0
LINE
  5
2BC
100
AcDbEntity
  8
0
100
AcDbLine
 62
7
  6
CONTINUOUS
 10
780.0456410105
 20
1253.9129708102
 11
779.4180164115
 21
1253.9129708102
  0
LINE
  5
2BD
100
AcDbEntity
  8
0
100
AcDbLine
 62
7
  6
CONTINUOUS
 10
532.0932575093
 20
1253.9129708102
 11
531.465653761
 21
1253.9129708102
  0
LINE
  5
2BE
100
AcDbEntity
  8
0
100
AcDbLine
 62
7
  6
CONTINUOUS
 10
530.0456410105
 20
1253.9129708102
 11
529.418016412
 21
1253.9129708102
  0
LINE
  5
2BF
100
AcDbEntity
  8
0
100
AcDbLine
 62
7
  6
CONTINUOUS
 10
205.7556369712
 20
1254.2535866889
 11
217.7556369712
 21
1254.2535866889
  0
LINE
  5
2C0
100
AcDbEntity
  8
0
100
AcDbLine
 62
7
  6
CONTINUOUS
 10
415.7556369712
 20
1254.2535866889
 11
427.7556369712
 21
1254.2535866889
  0
LINE
  5
2C1
100
AcDbEntity
  8
0
100
AcDbLine
 62
7
  6
CONTINUOUS
 10
205.9839667809
 20
1254.6945647978
 11
217.5273071615
 21
1254.6945647978
  0
LINE
  5
2C2
100
AcDbEntity
  8
0
100
AcDbLine
 62
7
  6
CONTINUOUS
 10
415.9839667809
 20
1254.6945647978
 11
427.5273071615
 21
1254.6945647978
  0
LINE
  5
2C3
100
AcDbEntity
  8
0
100
AcDbLine
 62
7
  6
CONTINUOUS
 10
423.093257507
 20
1256.4129708108
 11
422.4656330627
 21
1256.4129708108
  0
LINE
  5
2C4
100
AcDbEntity
  8
0
100
AcDbLine
 62
7
  6
CONTINUOUS
 10
421.0456201382
 20
1256.4129708108
 11
420.4180054256
 21
1256.4129708108
  0
LINE
  5
2C5
100
AcDbEntity
  8
0
100
AcDbLine
 62
7
  6
CONTINUOUS
 10
211.0456201382
 20
1256.4129708108
 11
210.418005427
 21
1256.4129708108
  0
LINE
  5
2C6
100
AcDbEntity
  8
0
100
AcDbLine
 62
7
  6
CONTINUOUS
 10
213.0932575067
 20
1256.4129708108
 11
212.4656330627
 21
1256.4129708108
  0
LINE
  5
2C7
100
AcDbEntity
  8
0
100
AcDbLine
 62
7
  6
CONTINUOUS
 10
1263.8594049085
 20
1253.5344383909
 11
1263.8480218792
 21
1253.5116075655
  0
LINE
  5
2C8
100
AcDbEntity
  8
0
100
AcDbLine
 62
7
  6
CONTINUOUS
 10
1370.7556369712
 20
1006.528303522
 11
1345.7556369712
 21
1031.528303522
  0
LINE
  5
2C9
100
AcDbEntity
  8
0
100
AcDbLine
 62
7
  6
CONTINUOUS
 10
1254.7556369712
 20
1251.7535866883
 11
1254.7556369712
 21
1249.428303522
  0
LINE
  5
2CA
100
AcDbEntity
  8
0
100
AcDbLine
 62
7
  6
CONTINUOUS
 10
1254.7556369712
 20
1248.128303522
 11
1254.7556369712
 21
1246.528303522
  0
LINE
  5
2CB
100
AcDbEntity
  8
0
100
AcDbLine
 62
7
  6
CONTINUOUS
 10
1254.8556369712
 20
1248.128303522
 11
1254.8556369712
 21
1249.428303522
  0
LINE
  5
2CC
100
AcDbEntity
  8
0
100
AcDbLine
 62
7
  6
CONTINUOUS
 10
1260.0456369712
 20
1253.9129692032
 11
1260.0456369712
 21
1253.5116075655
  0
LINE
  5
2CD
100
AcDbEntity
  8
0
100
AcDbLine
 62
7
  6
CONTINUOUS
 10
1261.4656369712
 20
1253.5116075655
 11
1261.4656369712
 21
1253.9129774897
  0
LINE
  5
2CE
100
AcDbEntity
  8
0
100
AcDbLine
 62
7
  6
CONTINUOUS
 10
1266.6466788994
 20
1248.128303522
 11
1266.6466788994
 21
1249.428303522
  0
LINE
  5
2CF
100
AcDbEntity
  8
0
100
AcDbLine
 62
7
  6
CONTINUOUS
 10
1266.7556369712
 20
1246.528303522
 11
1266.7556369712
 21
1248.128303522
  0
LINE
  5
2D0
100
AcDbEntity
  8
0
100
AcDbLine
 62
7
  6
CONTINUOUS
 10
1266.7556369712
 20
1249.428303522
 11
1266.7556369712
 21
1251.7535866883
  0
LINE
  5
2D1
100
AcDbEntity
  8
0
100
AcDbLine
 62
7
  6
CONTINUOUS
 10
1257.6632520632
 20
1253.5116075655
 11
1257.6518690339
 21
1253.5344383909
  0
LINE
  5
2D2
100
AcDbEntity
  8
0
100
AcDbLine
 62
7
  6
CONTINUOUS
 10
1333.7556369712
 20
1246.528303522
 11
1333.7556369712
 21
1244.528303522
  0
LINE
  5
2D3
100
AcDbEntity
  8
0
100
AcDbLine
 62
7
  6
CONTINUOUS
 10
1335.7556369712
 20
1240.528303522
 11
1335.7556369712
 21
1246.528303522
  0
LINE
  5
2D4
100
AcDbEntity
  8
0
100
AcDbLine
 62
7
  6
CONTINUOUS
 10
1336.7556369712
 20
1243.528303522
 11
1336.7556369712
 21
1240.528303522
  0
LINE
  5
2D5
100
AcDbEntity
  8
0
100
AcDbLine
 62
7
  6
CONTINUOUS
 10
1340.7556369712
 20
1244.028303522
 11
1340.7556369712
 21
1240.528303522
  0
LINE
  5
2D6
100
AcDbEntity
  8
0
100
AcDbLine
 62
7
  6
CONTINUOUS
 10
1342.7556369712
 20
1240.528303522
 11
1342.7556369712
 21
1244.028303522
  0
LINE
  5
2D7
100
AcDbEntity
  8
0
100
AcDbLine
 62
7
  6
CONTINUOUS
 10
1345.7556369712
 20
1031.528303522
 11
1345.7556369712
 21
1240.528303522
  0
LINE
  5
2D8
100
AcDbEntity
  8
0
100
AcDbLine
 62
7
  6
CONTINUOUS
 10
1370.7556369712
 20
876.528303522
 11
1370.7556369712
 21
1006.528303522
  0
ARC
  5
2D9
100
AcDbEntity
  8
0
100
AcDbCircle
 62
7
  6
CONTINUOUS
 10
448.7556369712
 20
998.528303522
 40
12.0
100
AcDbArc
 50
232.3519367627
 51
127.7048951532
  0
ARC
  5
2DA
100
AcDbEntity
  8
0
100
AcDbCircle
 62
7
  6
CONTINUOUS
 10
186.8003008148
 20
916.5283041598
 40
11.0507998184
100
AcDbArc
 50
176.3162775517
 51
183.6837224483
  0
ARC
  5
2DB
100
AcDbEntity
  8
0
100
AcDbCircle
 62
7
  6
CONTINUOUS
 10
185.2556369712
 20
916.528303522
 40
10.0
100
AcDbArc
 50
144.748468458
 51
161.9180573866
  0
ARC
  5
2DC
100
AcDbEntity
  8
0
100
AcDbCircle
 62
7
  6
CONTINUOUS
 10
185.2556369712
 20
916.528303522
 40
10.0
100
AcDbArc
 50
198.0819426134
 51
215.251531542
  0
ARC
  5
2DD
100
AcDbEntity
  8
0
100
AcDbCircle
 62
7
  6
CONTINUOUS
 10
185.2556369712
 20
916.528303522
 40
9.9747631551
100
AcDbArc
 50
187.7067146388
 51
198.0604891642
  0
ARC
  5
2DE
100
AcDbEntity
  8
0
100
AcDbCircle
 62
7
  6
CONTINUOUS
 10
185.2556369712
 20
916.528303522
 40
9.9747631551
100
AcDbArc
 50
161.9395108358
 51
172.2935745045
  0
ARC
  5
2DF
100
AcDbEntity
  8
0
100
AcDbCircle
 62
7
  6
CONTINUOUS
 10
177.5303538048
 20
911.068303522
 40
0.54
100
AcDbArc
 50
215.251531542
 51
270.0
  0
ARC
  5
2E0
100
AcDbEntity
  8
0
100
AcDbCircle
 62
7
  6
CONTINUOUS
 10
177.5303538048
 20
921.988303522
 40
0.54
100
AcDbArc
 50
90.0
 51
144.7484684581
  0
ARC
  5
2E1
100
AcDbEntity
  8
0
100
AcDbCircle
 62
7
  6
CONTINUOUS
 10
186.8003008151
 20
1096.5283041599
 40
11.0507998184
100
AcDbArc
 50
176.3162775517
 51
183.6837224483
  0
ARC
  5
2E2
100
AcDbEntity
  8
0
100
AcDbCircle
 62
7
  6
CONTINUOUS
 10
185.2556369715
 20
1096.528303522
 40
10.0
100
AcDbArc
 50
144.748468458
 51
161.9180573866
  0
ARC
  5
2E3
100
AcDbEntity
  8
0
100
AcDbCircle
 62
7
  6
CONTINUOUS
 10
185.2556369715
 20
1096.528303522
 40
10.0
100
AcDbArc
 50
198.0819426134
 51
215.251531542
  0
ARC
  5
2E4
100
AcDbEntity
  8
0
100
AcDbCircle
 62
7
  6
CONTINUOUS
 10
185.2556369715
 20
1096.528303522
 40
9.9747631551
100
AcDbArc
 50
187.7067146417
 51
198.0604891642
  0
ARC
  5
2E5
100
AcDbEntity
  8
0
100
AcDbCircle
 62
7
  6
CONTINUOUS
 10
185.2556369715
 20
1096.528303522
 40
9.9747631551
100
AcDbArc
 50
161.9395108358
 51
172.2935745045
  0
ARC
  5
2E6
100
AcDbEntity
  8
0
100
AcDbCircle
 62
7
  6
CONTINUOUS
 10
177.5303538051
 20
1091.068303522
 40
0.54
100
AcDbArc
 50
215.251531542
 51
270.0
  0
ARC
  5
2E7
100
AcDbEntity
  8
0
100
AcDbCircle
 62
7
  6
CONTINUOUS
 10
177.5303538051
 20
1101.988303522
 40
0.54
100
AcDbArc
 50
90.0
 51
144.748468458
  0
ARC
  5
2E8
100
AcDbEntity
  8
0
100
AcDbCircle
 62
7
  6
CONTINUOUS
 10
211.7556369712
 20
1244.9750666353
 40
11.0593551221
100
AcDbArc
 50
86.319134448
 51
93.680865552
  0
ARC
  5
2E9
100
AcDbEntity
  8
0
100
AcDbCircle
 62
7
  6
CONTINUOUS
 10
211.7556369712
 20
1246.5283035226
 40
10.0
100
AcDbArc
 50
108.0819426134
 51
125.251531542
  0
ARC
  5
2EA
100
AcDbEntity
  8
0
100
AcDbCircle
 62
7
  6
CONTINUOUS
 10
211.7556369712
 20
1246.5283035226
 40
10.0
100
AcDbArc
 50
54.748468458
 51
71.9180573866
  0
ARC
  5
2EB
100
AcDbEntity
  8
0
100
AcDbCircle
 62
7
  6
CONTINUOUS
 10
211.7556369712
 20
1246.5283035226
 40
9.9747631551
100
AcDbArc
 50
71.9395108358
 51
82.2935745466
  0
ARC
  5
2EC
100
AcDbEntity
  8
0
100
AcDbCircle
 62
7
  6
CONTINUOUS
 10
211.7556369712
 20
1246.5283035226
 40
9.9747631551
100
AcDbArc
 50
97.70671452
 51
108.0604891642
  0
ARC
  5
2ED
100
AcDbEntity
  8
0
100
AcDbCircle
 62
7
  6
CONTINUOUS
 10
206.2956369712
 20
1254.2535866889
 40
0.54
100
AcDbArc
 50
125.251531542
 51
180.0
  0
ARC
  5
2EE
100
AcDbEntity
  8
0
100
AcDbCircle
 62
7
  6
CONTINUOUS
 10
217.2156369712
 20
1254.2535866889
 40
0.54
100
AcDbArc
 50
0.0
 51
54.748468458
  0
ARC
  5
2EF
100
AcDbEntity
  8
0
100
AcDbCircle
 62
7
  6
CONTINUOUS
 10
208.5056369712
 20
1251.6783035226
 40
0.25
100
AcDbArc
 50
0.0
 51
90.0
  0
ARC
  5
2F0
100
AcDbEntity
  8
0
100
AcDbCircle
 62
7
  6
CONTINUOUS
 10
215.0056369712
 20
1251.6783035226
 40
0.25
100
AcDbArc
 50
90.0
 51
180.0
  0
ARC
  5
2F1
100
AcDbEntity
  8
0
100
AcDbCircle
 62
7
  6
CONTINUOUS
 10
421.7556369712
 20
1244.9750666353
 40
11.0593551221
100
AcDbArc
 50
86.319134448
 51
93.680865552
  0
ARC
  5
2F2
100
AcDbEntity
  8
0
100
AcDbCircle
 62
7
  6
CONTINUOUS
 10
530.7556363333
 20
1242.4836396782
 40
11.0507998185
100
AcDbArc
 50
86.3162775517
 51
93.6837224483
  0
ARC
  5
2F3
100
AcDbEntity
  8
0
100
AcDbCircle
 62
7
  6
CONTINUOUS
 10
530.7556369712
 20
1244.028303522
 40
10.0
100
AcDbArc
 50
54.748468458
 51
71.9180573866
  0
ARC
  5
2F4
100
AcDbEntity
  8
0
100
AcDbCircle
 62
7
  6
CONTINUOUS
 10
530.7556369712
 20
1244.028303522
 40
10.0
100
AcDbArc
 50
108.0819426134
 51
125.251531542
  0
ARC
  5
2F5
100
AcDbEntity
  8
0
100
AcDbCircle
 62
7
  6
CONTINUOUS
 10
421.7556369712
 20
1246.5283035226
 40
10.0
100
AcDbArc
 50
108.0819426134
 51
125.251531542
  0
ARC
  5
2F6
100
AcDbEntity
  8
0
100
AcDbCircle
 62
7
  6
CONTINUOUS
 10
421.7556369712
 20
1246.5283035226
 40
10.0
100
AcDbArc
 50
54.748468458
 51
71.9180573866
  0
ARC
  5
2F7
100
AcDbEntity
  8
0
100
AcDbCircle
 62
7
  6
CONTINUOUS
 10
530.7556369712
 20
1244.028303522
 40
9.9747631551
100
AcDbArc
 50
71.9395108358
 51
82.2935744801
  0
ARC
  5
2F8
100
AcDbEntity
  8
0
100
AcDbCircle
 62
7
  6
CONTINUOUS
 10
530.7556369712
 20
1244.028303522
 40
9.9747631551
100
AcDbArc
 50
97.7064260764
 51
108.0604891642
  0
ARC
  5
2F9
100
AcDbEntity
  8
0
100
AcDbCircle
 62
7
  6
CONTINUOUS
 10
421.7556369712
 20
1246.5283035226
 40
9.9747631551
100
AcDbArc
 50
71.9395108358
 51
82.2935745394
  0
ARC
  5
2FA
100
AcDbEntity
  8
0
100
AcDbCircle
 62
7
  6
CONTINUOUS
 10
421.7556369712
 20
1246.5283035226
 40
9.9747631551
100
AcDbArc
 50
97.7067145567
 51
108.0604891642
  0
ARC
  5
2FB
100
AcDbEntity
  8
0
100
AcDbCircle
 62
7
  6
CONTINUOUS
 10
451.2556369712
 20
1244.028303522
 40
2.5
100
AcDbArc
 50
90.0
 51
180.0
  0
ARC
  5
2FC
100
AcDbEntity
  8
0
100
AcDbCircle
 62
7
  6
CONTINUOUS
 10
525.2956369712
 20
1251.7535866883
 40
0.54
100
AcDbArc
 50
125.251531542
 51
180.0
  0
ARC
  5
2FD
100
AcDbEntity
  8
0
100
AcDbCircle
 62
7
  6
CONTINUOUS
 10
536.2156369712
 20
1251.7535866883
 40
0.54
100
AcDbArc
 50
0.0
 51
54.748468458
  0
ARC
  5
2FE
100
AcDbEntity
  8
0
100
AcDbCircle
 62
7
  6
CONTINUOUS
 10
416.2956369712
 20
1254.2535866889
 40
0.54
100
AcDbArc
 50
125.251531542
 51
180.0
  0
ARC
  5
2FF
100
AcDbEntity
  8
0
100
AcDbCircle
 62
7
  6
CONTINUOUS
 10
427.2156369712
 20
1254.2535866889
 40
0.54
100
AcDbArc
 50
0.0
 51
54.748468458
  0
ARC
  5
300
100
AcDbEntity
  8
0
100
AcDbCircle
 62
7
  6
CONTINUOUS
 10
451.2556369712
 20
1244.028303522
 40
0.5
100
AcDbArc
 50
90.0
 51
180.0
  0
ARC
  5
301
100
AcDbEntity
  8
0
100
AcDbCircle
 62
7
  6
CONTINUOUS
 10
418.5056369712
 20
1251.6783035226
 40
0.25
100
AcDbArc
 50
0.0
 51
90.0
  0
ARC
  5
302
100
AcDbEntity
  8
0
100
AcDbCircle
 62
7
  6
CONTINUOUS
 10
425.0056369712
 20
1251.6783035226
 40
0.25
100
AcDbArc
 50
90.0
 51
180.0
  0
CIRCLE
  5
303
100
AcDbEntity
  8
0
100
AcDbCircle
 62
7
  6
CONTINUOUS
 10
1342.7556369712
 20
998.528303522
 40
12.0
  0
ARC
  5
304
100
AcDbEntity
  8
0
100
AcDbCircle
 62
7
  6
CONTINUOUS
 10
864.7556363333
 20
1242.4836396782
 40
11.0507998185
100
AcDbArc
 50
86.3162775517
 51
93.6837224483
  0
ARC
  5
305
100
AcDbEntity
  8
0
100
AcDbCircle
 62
7
  6
CONTINUOUS
 10
1260.7556363333
 20
1242.4836396783
 40
11.0507998183
100
AcDbArc
 50
86.3162775517
 51
93.6837224483
  0
ARC
  5
306
100
AcDbEntity
  8
0
100
AcDbCircle
 62
7
  6
CONTINUOUS
 10
780.7556363333
 20
1242.4836396782
 40
11.0507998185
100
AcDbArc
 50
86.3162775517
 51
93.6837224483
  0
ARC
  5
307
100
AcDbEntity
  8
0
100
AcDbCircle
 62
7
  6
CONTINUOUS
 10
864.7556369712
 20
1244.028303522
 40
10.0
100
AcDbArc
 50
54.748468458
 51
71.9180573866
  0
ARC
  5
308
100
AcDbEntity
  8
0
100
AcDbCircle
 62
7
  6
CONTINUOUS
 10
864.7556369712
 20
1244.028303522
 40
10.0
100
AcDbArc
 50
108.0819426134
 51
125.251531542
  0
ARC
  5
309
100
AcDbEntity
  8
0
100
AcDbCircle
 62
7
  6
CONTINUOUS
 10
1260.7556369712
 20
1244.028303522
 40
10.0
100
AcDbArc
 50
54.748468458
 51
71.9180573866
  0
ARC
  5
30A
100
AcDbEntity
  8
0
100
AcDbCircle
 62
7
  6
CONTINUOUS
 10
1260.7556369712
 20
1244.028303522
 40
10.0
100
AcDbArc
 50
108.0819426134
 51
125.251531542
  0
ARC
  5
30B
100
AcDbEntity
  8
0
100
AcDbCircle
 62
7
  6
CONTINUOUS
 10
780.7556369712
 20
1244.028303522
 40
10.0
100
AcDbArc
 50
54.748468458
 51
71.9180573866
  0
ARC
  5
30C
100
AcDbEntity
  8
0
100
AcDbCircle
 62
7
  6
CONTINUOUS
 10
780.7556369712
 20
1244.028303522
 40
10.0
100
AcDbArc
 50
108.0819426134
 51
125.251531542
  0
ARC
  5
30D
100
AcDbEntity
  8
0
100
AcDbCircle
 62
7
  6
CONTINUOUS
 10
864.7556369712
 20
1244.028303522
 40
9.9747631551
100
AcDbArc
 50
71.9395108358
 51
82.2935744795
  0
ARC
  5
30E
100
AcDbEntity
  8
0
100
AcDbCircle
 62
7
  6
CONTINUOUS
 10
864.7556369712
 20
1244.028303522
 40
9.9747631551
100
AcDbArc
 50
97.7064260893
 51
108.0604891642
  0
ARC
  5
30F
100
AcDbEntity
  8
0
100
AcDbCircle
 62
7
  6
CONTINUOUS
 10
1260.7556369712
 20
1244.028303522
 40
9.9747631551
100
AcDbArc
 50
71.9395108358
 51
82.2935744795
  0
ARC
  5
310
100
AcDbEntity
  8
0
100
AcDbCircle
 62
7
  6
CONTINUOUS
 10
1260.7556369712
 20
1244.028303522
 40
9.9747631551
100
AcDbArc
 50
97.7064260765
 51
108.0604891642
  0
ARC
  5
311
100
AcDbEntity
  8
0
100
AcDbCircle
 62
7
  6
CONTINUOUS
 10
780.7556369712
 20
1244.028303522
 40
9.9747631551
100
AcDbArc
 50
71.9395108358
 51
82.2935744795
  0
ARC
  5
312
100
AcDbEntity
  8
0
100
AcDbCircle
 62
7
  6
CONTINUOUS
 10
780.7556369712
 20
1244.028303522
 40
9.9747631551
100
AcDbArc
 50
97.7064260893
 51
108.0604891642
  0
ARC
  5
313
100
AcDbEntity
  8
0
100
AcDbCircle
 62
7
  6
CONTINUOUS
 10
825.7556369712
 20
1244.028303522
 40
2.5
100
AcDbArc
 50
90.0
 51
180.0
  0
ARC
  5
314
100
AcDbEntity
  8
0
100
AcDbCircle
 62
7
  6
CONTINUOUS
 10
1340.2556369712
 20
1244.028303522
 40
2.5
100
AcDbArc
 50
0.0
 51
90.0
  0
ARC
  5
315
100
AcDbEntity
  8
0
100
AcDbCircle
 62
7
  6
CONTINUOUS
 10
819.7556369712
 20
1244.028303522
 40
2.5
100
AcDbArc
 50
0.0
 51
90.0
  0
ARC
  5
316
100
AcDbEntity
  8
0
100
AcDbCircle
 62
7
  6
CONTINUOUS
 10
859.2956369712
 20
1251.7535866883
 40
0.54
100
AcDbArc
 50
125.251531542
 51
180.0
  0
ARC
  5
317
100
AcDbEntity
  8
0
100
AcDbCircle
 62
7
  6
CONTINUOUS
 10
870.2156369712
 20
1251.7535866883
 40
0.54
100
AcDbArc
 50
0.0
 51
54.748468458
  0
ARC
  5
318
100
AcDbEntity
  8
0
100
AcDbCircle
 62
7
  6
CONTINUOUS
 10
1255.2956369712
 20
1251.7535866883
 40
0.54
100
AcDbArc
 50
125.251531542
 51
180.0
  0
ARC
  5
319
100
AcDbEntity
  8
0
100
AcDbCircle
 62
7
  6
CONTINUOUS
 10
1266.2156369712
 20
1251.7535866883
 40
0.54
100
AcDbArc
 50
0.0
 51
54.748468458
  0
ARC
  5
31A
100
AcDbEntity
  8
0
100
AcDbCircle
 62
7
  6
CONTINUOUS
 10
775.2956369712
 20
1251.7535866883
 40
0.54
100
AcDbArc
 50
125.251531542
 51
180.0
  0
ARC
  5
31B
100
AcDbEntity
  8
0
100
AcDbCircle
 62
7
  6
CONTINUOUS
 10
786.2156369712
 20
1251.7535866883
 40
0.54
100
AcDbArc
 50
0.0
 51
54.748468458
  0
ARC
  5
31C
100
AcDbEntity
  8
0
100
AcDbCircle
 62
7
  6
CONTINUOUS
 10
825.7556369712
 20
1244.028303522
 40
0.5
100
AcDbArc
 50
90.0
 51
180.0
  0
ARC
  5
31D
100
AcDbEntity
  8
0
100
AcDbCircle
 62
7
  6
CONTINUOUS
 10
1340.2556369712
 20
1244.028303522
 40
0.5
100
AcDbArc
 50
0.0
 51
90.0
  0
ARC
  5
31E
100
AcDbEntity
  8
0
100
AcDbCircle
 62
7
  6
CONTINUOUS
 10
819.7556369712
 20
1244.028303522
 40
0.5
100
AcDbArc
 50
0.0
 51
90.0
  0
SPLINE
  5
31F
100
AcDbEntity
  8
0
100
AcDbSpline
 62
7
  6
CONTINUOUS
 70
0
 71
3
 72
12
 73
8
 74
0
 42
0.0000001
 43
0.0000001
 44
0.0000000001
 40
0.0
 40
0.0
 40
0.0
 40
0.0
 40
0.25
 40
0.375
 40
0.5
 40
0.75
 40
1.0
 40
1.0
 40
1.0
 40
1.0
 10
752.1356369712
 20
1251.828303522
 30
0.0
 10
752.1356369712
 20
1251.8640178077
 30
0.0
 10
752.0832419469
 20
1251.9370288039
 30
0.0
 10
751.8411438299
 20
1252.0613263205
 30
0.0
 10
751.4964542581
 20
1252.1872951076
 30
0.0
 10
750.9607470959
 20
1252.3072652595
 30
0.0
 10
750.6499226855
 20
1252.328303522
 30
0.0
 10
750.5356369712
 20
1252.328303522
 30
0.0
  0
SPLINE
  5
320
100
AcDbEntity
  8
0
100
AcDbSpline
 62
7
  6
CONTINUOUS
 70
0
 71
3
 72
12
 73
8
 74
0
 42
0.0000001
 43
0.0000001
 44
0.0000000001
 40
0.0
 40
0.0
 40
0.0
 40
0.0
 40
0.25
 40
0.375
 40
0.5
 40
0.75
 40
1.0
 40
1.0
 40
1.0
 40
1.0
 10
742.1356369712
 20
1251.828303522
 30
0.0
 10
742.1356369712
 20
1251.8640178077
 30
0.0
 10
742.1880319955
 20
1251.9370288039
 30
0.0
 10
742.4301301125
 20
1252.0613263205
 30
0.0
 10
742.7748196843
 20
1252.1872951076
 30
0.0
 10
743.3105268465
 20
1252.3072652595
 30
0.0
 10
743.6213512569
 20
1252.328303522
 30
0.0
 10
743.7356369712
 20
1252.328303522
 30
0.0
  0
SPLINE
  5
321
100
AcDbEntity
  8
0
100
AcDbSpline
 62
7
  6
CONTINUOUS
 70
0
 71
3
 72
12
 73
8
 74
0
 42
0.0000001
 43
0.0000001
 44
0.0000000001
 40
0.0
 40
0.0
 40
0.0
 40
0.0
 40
0.2512333151
 40
0.3768499726
 40
0.5024666302
 40
0.7536999453
 40
1.0
 40
1.0
 40
1.0
 40
1.0
 10
766.1356369712
 20
1251.828303522
 30
0.0
 10
766.1356369712
 20
1251.8640178077
 30
0.0
 10
766.0832419469
 20
1251.9370288039
 30
0.0
 10
765.8411438299
 20
1252.0613263205
 30
0.0
 10
765.4964542581
 20
1252.1872951076
 30
0.0
 10
764.9649547909
 20
1252.3063229577
 30
0.0
 10
764.6560374364
 20
1252.3278831875
 30
0.0
 10
764.5424168567
 20
1252.3282912919
 30
0.0
  0
SPLINE
  5
322
100
AcDbEntity
  8
0
100
AcDbSpline
 62
7
  6
CONTINUOUS
 70
0
 71
3
 72
12
 73
8
 74
0
 42
0.0000001
 43
0.0000001
 44
0.0000000001
 40
0.0
 40
0.0
 40
0.0
 40
0.0
 40
0.25
 40
0.375
 40
0.5
 40
0.75
 40
1.0
 40
1.0
 40
1.0
 40
1.0
 10
756.1356369712
 20
1251.828303522
 30
0.0
 10
756.1356369712
 20
1251.8640178077
 30
0.0
 10
756.1880319955
 20
1251.9370288039
 30
0.0
 10
756.4301301125
 20
1252.0613263205
 30
0.0
 10
756.7748196843
 20
1252.1872951076
 30
0.0
 10
757.3105268465
 20
1252.3072652595
 30
0.0
 10
757.6213512569
 20
1252.328303522
 30
0.0
 10
757.7356369712
 20
1252.328303522
 30
0.0
  0
SPLINE
  5
323
100
AcDbEntity
  8
0
100
AcDbSpline
 62
7
  6
CONTINUOUS
 70
0
 71
3
 72
12
 73
8
 74
0
 42
0.0000001
 43
0.0000001
 44
0.0000000001
 40
0.0
 40
0.0
 40
0.0
 40
0.0
 40
0.25
 40
0.375
 40
0.5
 40
0.75
 40
1.0
 40
1.0
 40
1.0
 40
1.0
 10
794.1356369712
 20
1251.828303522
 30
0.0
 10
794.1356369712
 20
1251.8640178077
 30
0.0
 10
794.0832419469
 20
1251.9370288039
 30
0.0
 10
793.8411438299
 20
1252.0613263205
 30
0.0
 10
793.4964542581
 20
1252.1872951076
 30
0.0
 10
792.9607470959
 20
1252.3072652595
 30
0.0
 10
792.6499226855
 20
1252.328303522
 30
0.0
 10
792.5356369712
 20
1252.328303522
 30
0.0
  0
SPLINE
  5
324
100
AcDbEntity
  8
0
100
AcDbSpline
 62
7
  6
CONTINUOUS
 70
0
 71
3
 72
12
 73
8
 74
0
 42
0.0000001
 43
0.0000001
 44
0.0000000001
 40
0.0
 40
0.0
 40
0.0
 40
0.0
 40
0.25
 40
0.375
 40
0.5
 40
0.75
 40
1.0
 40
1.0
 40
1.0
 40
1.0
 10
770.1356369712
 20
1251.828303522
 30
0.0
 10
770.1356369712
 20
1251.8640178077
 30
0.0
 10
770.1880319955
 20
1251.9370288039
 30
0.0
 10
770.4301301125
 20
1252.0613263205
 30
0.0
 10
770.7748196843
 20
1252.1872951076
 30
0.0
 10
771.3105268465
 20
1252.3072652595
 30
0.0
 10
771.6213512569
 20
1252.328303522
 30
0.0
 10
771.7356369712
 20
1252.328303522
 30
0.0
  0
SPLINE
  5
325
100
AcDbEntity
  8
0
100
AcDbSpline
 62
7
  6
CONTINUOUS
 70
0
 71
3
 72
13
 73
9
 74
0
 42
0.0000001
 43
0.0000001
 44
0.0000000001
 40
0.0
 40
0.0
 40
0.0
 40
0.0
 40
0.4917151838
 40
0.7565612817
 40
0.8530629404
 40
0.928115982
 40
0.9795150313
 40
1.0
 40
1.0
 40
1.0
 40
1.0
 10
743.7356362954
 20
1251.828303522
 30
0.0
 10
743.7356344582
 20
1251.9102560527
 30
0.0
 10
743.7362074801
 20
1252.035778552
 30
0.0
 10
743.734871618
 20
1252.179293212
 30
0.0
 10
743.7365013987
 20
1252.250394419
 30
0.0
 10
743.7334545481
 20
1252.2906050123
 30
0.0
 10
743.7397115209
 20
1252.3088277292
 30
0.0
 10
743.7322228097
 20
1252.328303522
 30
0.0
 10
743.7356369712
 20
1252.328303522
 30
0.0
  0
SPLINE
  5
326
100
AcDbEntity
  8
0
100
AcDbSpline
 62
7
  6
CONTINUOUS
 70
0
 71
3
 72
13
 73
9
 74
0
 42
0.0000001
 43
0.0000001
 44
0.0000000001
 40
0.0
 40
0.0
 40
0.0
 40
0.0
 40
0.4917151864
 40
0.7565612831
 40
0.8530629413
 40
0.9281159825
 40
0.9795150315
 40
1.0
 40
1.0
 40
1.0
 40
1.0
 10
757.7356362954
 20
1251.828303522
 30
0.0
 10
757.7356344582
 20
1251.9102560531
 30
0.0
 10
757.7362074799
 20
1252.0357785527
 30
0.0
 10
757.7348716183
 20
1252.1792932128
 30
0.0
 10
757.7365013984
 20
1252.2503944195
 30
0.0
 10
757.7334545488
 20
1252.2906050126
 30
0.0
 10
757.7397115195
 20
1252.3088277294
 30
0.0
 10
757.7322228098
 20
1252.328303522
 30
0.0
 10
757.7356369712
 20
1252.328303522
 30
0.0
  0
SPLINE
  5
327
100
AcDbEntity
  8
0
100
AcDbSpline
 62
7
  6
CONTINUOUS
 70
0
 71
3
 72
13
 73
9
 74
0
 42
0.0000001
 43
0.0000001
 44
0.0000000001
 40
0.0
 40
0.0
 40
0.0
 40
0.0
 40
0.4917151864
 40
0.7565612831
 40
0.8530629413
 40
0.9281159825
 40
0.9795150315
 40
1.0
 40
1.0
 40
1.0
 40
1.0
 10
771.7356362954
 20
1251.828303522
 30
0.0
 10
771.7356344582
 20
1251.9102560531
 30
0.0
 10
771.7362074799
 20
1252.0357785527
 30
0.0
 10
771.7348716183
 20
1252.1792932128
 30
0.0
 10
771.7365013984
 20
1252.2503944195
 30
0.0
 10
771.7334545488
 20
1252.2906050126
 30
0.0
 10
771.7397115195
 20
1252.3088277294
 30
0.0
 10
771.7322228098
 20
1252.328303522
 30
0.0
 10
771.7356369712
 20
1252.328303522
 30
0.0
  0
ENDSEC
  0
SECTION
  2
OBJECTS
  0
DICTIONARY
  5
C
100
AcDbDictionary
280
0
281
1
  3
ACAD_GROUP
350
D
  3
ACAD_MLINESTYLE
350
17
  3
ACAD_LAYOUT
350
1A
  3
ACAD_PLOTSETTINGS
350
19
  3
ACAD_PLOTSTYLENAME
350
E
  0
DICTIONARY
  5
D
102
{ACAD_REACTORS
330
C
102
}
100
AcDbDictionary
280
0
281
1
  0
ACDBDICTIONARYWDFLT
  5
E
102
{ACAD_REACTORS
330
C
102
}
100
AcDbDictionary
281
1
  3
Normal
350
F
100
AcDbDictionaryWithDefault
340
F
  0
DICTIONARY
  5
17
102
{ACAD_REACTORS
330
C
102
}
100
AcDbDictionary
280
0
281
1
  3
Standard
350
18
  0
DICTIONARY
  5
19
102
{ACAD_REACTORS
330
C
102
}
100
AcDbDictionary
281
1
  0
DICTIONARY
  5
1A
102
{ACAD_REACTORS
330
C
102
}
100
AcDbDictionary
281
1
  3
Model
350
328
  3
Layout1
350
329
  0
ACDBPLACEHOLDER
  5
F
102
{ACAD_REACTORS
330
E
102
}
  0
MLINESTYLE
  5
18
102
{ACAD_REACTORS
330
17
102
}
100
AcDbMlineStyle
  2
STANDARD
 70
0
  3

 62
256
 51
90.0
 52
90.0
 71
2
 49
0.5
 62
256
  6
BYLAYER
 49
-0.5
 62
256
  6
BYLAYER
  0
LAYOUT
  5
328
102
{ACAD_REACTORS
330
1A
102
}
100
AcDbPlotSettings
  1

  2
none_device
  4

  6

 40
0.0
 41
0.0
 42
0.0
 43
0.0
 44
210.0
 45
297.0
 46
0.0
 47
0.0
 48
0.0
 49
0.0
140
0.0
141
0.0
142
1.0
143
1.0
 70
1024
 72
1
 73
0
 74
0
  7

 75
0
147
1.0
148
0.0
149
0.0
100
AcDbLayout
  1
Model
 70
0
 71
0
 10
0.0
 20
0.0
 11
210.0
 21
297.0
 12
0.0
 22
0.0
 32
0.0
 14
0.0
 24
0.0
 34
0.0
 15
0.0
 25
0.0
 35
0.0
146
0.0
 13
0.0
 23
0.0
 33
0.0
 16
1.0
 26
0.0
 36
0.0
 17
0.0
 27
1.0
 37
0.0
 76
0
330
210
345
0
346
0
  0
LAYOUT
  5
329
102
{ACAD_REACTORS
330
1A
102
}
100
AcDbPlotSettings
  1

  2
none_device
  4

  6

 40
0.0
 41
0.0
 42
0.0
 43
0.0
 44
210.0
 45
297.0
 46
0.0
 47
0.0
 48
0.0
 49
0.0
140
0.0
141
0.0
142
1.0
143
1.0
 70
0
 72
1
 73
0
 74
0
  7

 75
0
147
1.0
148
0.0
149
0.0
100
AcDbLayout
  1
Layout1
 70
0
 71
1
 10
0.0
 20
0.0
 11
210.0
 21
297.0
 12
0.0
 22
0.0
 32
0.0
 14
0.0
 24
0.0
 34
0.0
 15
0.0
 25
0.0
 35
0.0
146
0.0
 13
0.0
 23
0.0
 33
0.0
 16
1.0
 26
0.0
 36
0.0
 17
0.0
 27
1.0
 37
0.0
 76
0
330
211
345
0
346
0
  0
ENDSEC
  0
EOF
