  0
SECTION
  2
HEADER
  9
$ACADVER
  1
AC1009
  9
$DWGCODEPAGE
  3
ansi_1250
  9
$INSBASE
 10
0.0
 20
0.0
 30
0.0
  9
$EXTMIN
 10
-0.866
 20
-0.925
 30
0.0
  9
$EXTMAX
 10
0.866
 20
0.925
 30
0.0
  9
$LIMMIN
 10
0.0
 20
0.0
  9
$LIMMAX
 10
0.0
 20
0.0
  9
$ORTHOMODE
 70
     0
  9
$REGENMODE
 70
     1
  9
$FILLMODE
 70
     1
  9
$QTEXTMODE
 70
     0
  9
$MIRRTEXT
 70
     1
  9
$DRAGMODE
 70
     2
  9
$LTSCALE
 40
1.0
  9
$OSMODE
 70
     0
  9
$ATTMODE
 70
     1
  9
$TEXTSIZE
 40
0.2
  9
$TRACEWID
 40
0.05
  9
$TEXTSTYLE
  7
STANDARD
  9
$CLAYER
  8
0
  9
$CELTYPE
  6
CONTINUOUS
  9
$CECOLOR
 62
   256
  9
$DIMSCALE
 40
1.0
  9
$DIMASZ
 40
0.18
  9
$DIMEXO
 40
0.0625
  9
$DIMDLI
 40
0.38
  9
$DIMRND
 40
0.0
  9
$DIMDLE
 40
0.0
  9
$DIMEXE
 40
0.18
  9
$DIMTP
 40
0.0
  9
$DIMTM
 40
0.0
  9
$DIMTXT
 40
0.18
  9
$DIMCEN
 40
0.09
  9
$DIMTSZ
 40
0.0
  9
$DIMTOL
 70
     0
  9
$DIMLIM
 70
     0
  9
$DIMTIH
 70
     1
  9
$DIMTOH
 70
     1
  9
$DIMSE1
 70
     0
  9
$DIMSE2
 70
     0
  9
$DIMTAD
 70
     0
  9
$DIMZIN
 70
     0
  9
$DIMBLK
  1

  9
$DIMASO
 70
     1
  9
$DIMSHO
 70
     1
  9
$DIMPOST
  1

  9
$DIMAPOST
  1

  9
$DIMALT
 70
     0
  9
$DIMALTD
 70
     2
  9
$DIMALTF
 40
25.4
  9
$DIMLFAC
 40
1.0
  9
$DIMTOFL
 70
     0
  9
$DIMTVP
 40
0.0
  9
$DIMTIX
 70
     0
  9
$DIMSOXD
 70
     0
  9
$DIMSAH
 70
     0
  9
$DIMBLK1
  1

  9
$DIMBLK2
  1

  9
$DIMSTYLE
  2
STANDARD
  9
$DIMCLRD
 70
     0
  9
$DIMCLRE
 70
     0
  9
$DIMCLRT
 70
     0
  9
$DIMTFAC
 40
1.0
  9
$DIMGAP
 40
0.09
  9
$LUNITS
 70
     2
  9
$LUPREC
 70
     4
  9
$AXISMODE
 70
     0
  9
$AXISUNIT
 10
0.0
 20
0.0
  9
$SKETCHINC
 40
0.1
  9
$FILLETRAD
 40
0.0
  9
$AUNITS
 70
     0
  9
$AUPREC
 70
     0
  9
$MENU
  1
acad
  9
$ELEVATION
 40
0.0
  9
$PELEVATION
 40
0.0
  9
$THICKNESS
 40
0.0
  9
$LIMCHECK
 70
     0
  9
$BLIPMODE
 70
     1
  9
$CHAMFERA
 40
0.0
  9
$CHAMFERB
 40
0.0
  9
$SKPOLY
 70
     0
  9
$TDCREATE
 40
0.000000000
  9
$TDUPDATE
 40
0.000000000
  9
$TDINDWG
 40
0.0000000000
  9
$TDUSRTIMER
 40
0.0000000000
  9
$USRTIMER
 70
     1
  9
$ANGBASE
 50
0.0
  9
$ANGDIR
 70
     0
  9
$PDMODE
 70
     0
  9
$PDSIZE
 40
0.0
  9
$PLINEWID
 40
0.0
  9
$COORDS
 70
     0
  9
$SPLFRAME
 70
     0
  9
$SPLINETYPE
 70
     6
  9
$SPLINESEGS
 70
     8
  9
$ATTDIA
 70
     0
  9
$ATTREQ
 70
     1
  9
$HANDLING
 70
     1
  9
$HANDSEED
  5
1C6
  9
$SURFTAB1
 70
     6
  9
$SURFTAB2
 70
     6
  9
$SURFTYPE
 70
     6
  9
$SURFU
 70
     6
  9
$SURFV
 70
     6
  9
$UCSNAME
  2

  9
$UCSORG
 10
0.0
 20
0.0
 30
0.0
  9
$UCSXDIR
 10
1.0
 20
0.0
 30
0.0
  9
$UCSYDIR
 10
0.0
 20
1.0
 30
0.0
  9
$PUCSNAME
  2

  9
$PUCSORG
 10
0.0
 20
0.0
 30
0.0
  9
$PUCSXDIR
 10
1.0
 20
0.0
 30
0.0
  9
$PUCSYDIR
 10
0.0
 20
1.0
 30
0.0
  9
$USERI1
 70
     0
  9
$USERI2
 70
     0
  9
$USERI3
 70
     0
  9
$USERI4
 70
     0
  9
$USERI5
 70
     0
  9
$USERR1
 40
0.0
  9
$USERR2
 40
0.0
  9
$USERR3
 40
0.0
  9
$USERR4
 40
0.0
  9
$USERR5
 40
0.0
  9
$WORLDVIEW
 70
     1
  9
$SHADEDGE
 70
     3
  9
$SHADEDIF
 70
    70
  9
$TILEMODE
 70
     1
  9
$MAXACTVP
 70
    16
  9
$PINSBASE
 10
0.0
 20
0.0
 30
0.0
  9
$PLIMCHECK
 70
     0
  9
$PEXTMIN
 10
1.000000E+20
 20
1.000000E+20
 30
1.000000E+20
  9
$PEXTMAX
 10
-1.000000E+20
 20
-1.000000E+20
 30
-1.000000E+20
  9
$PLIMMIN
 10
0.0
 20
0.0
  9
$PLIMMAX
 10
12.0
 20
9.0
  9
$UNITMODE
 70
     0
  9
$VISRETAIN
 70
     0
  9
$PLINEGEN
 70
     1
  9
$PSLTSCALE
 70
     0
  9
$TREEDEPTH
 70
  3020
  0
ENDSEC
  0
SECTION
  2
TABLES
  0
TABLE
  2
VPORT
 70
     1
  0
VPORT
  2
*ACTIVE
 70
     0
 10
0.0
 20
0.0
 11
1.0
 21
1.0
 12
6.591288
 22
4.579184
 13
0.0
 23
0.0
 14
1.0
 24
1.0
 15
0.0
 25
0.0
 16
0.0
 26
0.0
 36
1.0
 17
0.0
 27
0.0
 37
0.0
 40
9.158369
 41
0.688564
 42
50.0
 43
0.0
 44
0.0
 50
0.0
 51
0.0
 71
     0
 72
   100
 73
     1
 74
     1
 75
     0
 76
     0
 77
     0
 78
     0
  0
ENDTAB
  0
TABLE
  2
LTYPE
 70
     5
  0
LTYPE
  2
CONTINUOUS
 70
    64
  3
Solid line
 72
    65
 73
     0
 40
0.0
  0
LTYPE
  2
CENTER
 70
    64
  3
Center ____ _ ____ _ ____ _ ____ _ ____ _ ____
 72
    65
 73
     4
 40
50.8
 49
31.75
 49
-6.35
 49
6.35
 49
-6.35
  0
LTYPE
  2
HIDDEN
 70
    64
  3
Hidden __ __ __ __ __ __ __ __ __ __ __ __ __ __
 72
    65
 73
     2
 40
9.525
 49
6.35
 49
-3.175
  0
LTYPE
  2
CENTER2
 70
    64
  3
Center (.5x) ___ _ ___ _ ___ _ ___ _ ___ _ ___
 72
    65
 73
     4
 40
28.575
 49
19.05
 49
-3.175
 49
3.175
 49
-3.175
  0
LTYPE
  2
HIDDEN2
 70
    64
  3
Hidden (.5x) _ _ _ _ _ _ _ _ _ _ _ _ _ _ _ _ _
 72
    65
 73
     2
 40
4.7625
 49
3.175
 49
-1.5875
  0
ENDTAB
  0
TABLE
  2
LAYER
 70
     1
  0
LAYER
  2
0
 70
     0
 62
     7
  6
CONTINUOUS
  0
ENDTAB
  0
TABLE
  2
STYLE
 70
     1
  0
STYLE
  2
STANDARD
 70
     0
 40
0.0
 41
1.0
 50
0.0
 71
     0
 42
0.0
  3
txt
  4

  0
ENDTAB
  0
TABLE
  2
VIEW
 70
     0
  0
ENDTAB
  0
TABLE
  2
UCS
 70
     0
  0
ENDTAB
  0
TABLE
  2
APPID
 70
     1
  0
APPID
  2
ACAD
 70
     0
  0
ENDTAB
  0
TABLE
  2
DIMSTYLE
 70
     1
  0
DIMSTYLE
  2
STANDARD
 70
     0
  3

  4

  5

  6

  7

 40
1.0
 41
0.18
 42
0.0625
 43
0.38
 44
0.18
 45
0.0
 46
0.0
 47
0.0
 48
0.0
 71
     0
 72
     0
 73
     1
 74
     1
 75
     0
 76
     0
 77
     0
 78
     0
140
0.18
141
0.09
142
0.0
143
25.4
144
1.0
145
0.0
146
1.0
147
0.09
170
     0
171
     2
172
     0
173
     0
174
     0
175
     0
176
     0
177
     0
178
     0
  0
ENDTAB
  0
ENDSEC
  0
SECTION
  2
BLOCKS
  0
ENDSEC
  0
SECTION
  2
ENTITIES
  0
LINE
  8
0
  6
CONTINUOUS
 62
     7
  5
102
 10
0.763
 20
-0.57
 30
0.0
 11
0.760809
 21
-0.594671
 31
0.0
  0
LINE
  8
0
  6
CONTINUOUS
 62
     7
  5
103
 10
0.760809
 20
-0.594671
 30
0.0
 11
0.754054
 21
-0.619243
 31
0.0
  0
LINE
  8
0
  6
CONTINUOUS
 62
     7
  5
104
 10
0.754054
 20
-0.619243
 30
0.0
 11
0.742919
 21
-0.642245
 31
0.0
  0
LINE
  8
0
  6
CONTINUOUS
 62
     7
  5
105
 10
0.742919
 20
-0.642245
 30
0.0
 11
0.728129
 21
-0.662455
 31
0.0
  0
LINE
  8
0
  6
CONTINUOUS
 62
     7
  5
106
 10
0.728129
 20
-0.662455
 30
0.0
 11
0.710477
 21
-0.679306
 31
0.0
  0
LINE
  8
0
  6
CONTINUOUS
 62
     7
  5
107
 10
0.710477
 20
-0.679306
 30
0.0
 11
0.689486
 21
-0.693205
 31
0.0
  0
LINE
  8
0
  6
CONTINUOUS
 62
     7
  5
108
 10
0.689486
 20
-0.693205
 30
0.0
 11
0.666067
 21
-0.703211
 31
0.0
  0
LINE
  8
0
  6
CONTINUOUS
 62
     7
  5
109
 10
0.666067
 20
-0.703211
 30
0.0
 11
0.64147
 21
-0.708776
 31
0.0
  0
LINE
  8
0
  6
CONTINUOUS
 62
     7
  5
10A
 10
0.64147
 20
-0.708776
 30
0.0
 11
0.617092
 21
-0.709875
 31
0.0
  0
LINE
  8
0
  6
CONTINUOUS
 62
     7
  5
10B
 10
0.617092
 20
-0.709875
 30
0.0
 11
0.592437
 21
-0.706623
 31
0.0
  0
LINE
  8
0
  6
CONTINUOUS
 62
     7
  5
10C
 10
0.592437
 20
-0.706623
 30
0.0
 11
0.568207
 21
-0.698832
 31
0.0
  0
LINE
  8
0
  6
CONTINUOUS
 62
     7
  5
10D
 10
0.568207
 20
-0.698832
 30
0.0
 11
0.54579
 21
-0.686785
 31
0.0
  0
LINE
  8
0
  6
CONTINUOUS
 62
     7
  5
10E
 10
0.54579
 20
-0.686785
 30
0.0
 11
0.526363
 21
-0.671298
 31
0.0
  0
LINE
  8
0
  6
CONTINUOUS
 62
     7
  5
10F
 10
0.526363
 20
-0.671298
 30
0.0
 11
0.510129
 21
-0.652826
 31
0.0
  0
LINE
  8
0
  6
CONTINUOUS
 62
     7
  5
110
 10
0.510129
 20
-0.652826
 30
0.0
 11
0.497013
 21
-0.631052
 31
0.0
  0
LINE
  8
0
  6
CONTINUOUS
 62
     7
  5
111
 10
0.497013
 20
-0.631052
 30
0.0
 11
0.488
 21
-0.60708
 31
0.0
  0
LINE
  8
0
  6
CONTINUOUS
 62
     7
  5
112
 10
0.488
 20
-0.60708
 30
0.0
 11
0.483537
 21
-0.58225
 31
0.0
  0
LINE
  8
0
  6
CONTINUOUS
 62
     7
  5
113
 10
0.483537
 20
-0.58225
 30
0.0
 11
0.483537
 21
-0.55775
 31
0.0
  0
LINE
  8
0
  6
CONTINUOUS
 62
     7
  5
114
 10
0.483537
 20
-0.55775
 30
0.0
 11
0.488
 21
-0.53292
 31
0.0
  0
LINE
  8
0
  6
CONTINUOUS
 62
     7
  5
115
 10
0.488
 20
-0.53292
 30
0.0
 11
0.497013
 21
-0.508948
 31
0.0
  0
LINE
  8
0
  6
CONTINUOUS
 62
     7
  5
116
 10
0.497013
 20
-0.508948
 30
0.0
 11
0.510129
 21
-0.487174
 31
0.0
  0
LINE
  8
0
  6
CONTINUOUS
 62
     7
  5
117
 10
0.510129
 20
-0.487174
 30
0.0
 11
0.526363
 21
-0.468702
 31
0.0
  0
LINE
  8
0
  6
CONTINUOUS
 62
     7
  5
118
 10
0.526363
 20
-0.468702
 30
0.0
 11
0.54579
 21
-0.453215
 31
0.0
  0
LINE
  8
0
  6
CONTINUOUS
 62
     7
  5
119
 10
0.54579
 20
-0.453215
 30
0.0
 11
0.568207
 21
-0.441168
 31
0.0
  0
LINE
  8
0
  6
CONTINUOUS
 62
     7
  5
11A
 10
0.568207
 20
-0.441168
 30
0.0
 11
0.592437
 21
-0.433377
 31
0.0
  0
LINE
  8
0
  6
CONTINUOUS
 62
     7
  5
11B
 10
0.592437
 20
-0.433377
 30
0.0
 11
0.617092
 21
-0.430125
 31
0.0
  0
LINE
  8
0
  6
CONTINUOUS
 62
     7
  5
11C
 10
0.617092
 20
-0.430125
 30
0.0
 11
0.64147
 21
-0.431224
 31
0.0
  0
LINE
  8
0
  6
CONTINUOUS
 62
     7
  5
11D
 10
0.64147
 20
-0.431224
 30
0.0
 11
0.666067
 21
-0.436789
 31
0.0
  0
LINE
  8
0
  6
CONTINUOUS
 62
     7
  5
11E
 10
0.666067
 20
-0.436789
 30
0.0
 11
0.689486
 21
-0.446795
 31
0.0
  0
LINE
  8
0
  6
CONTINUOUS
 62
     7
  5
11F
 10
0.689486
 20
-0.446795
 30
0.0
 11
0.710477
 21
-0.460694
 31
0.0
  0
LINE
  8
0
  6
CONTINUOUS
 62
     7
  5
120
 10
0.710477
 20
-0.460694
 30
0.0
 11
0.728129
 21
-0.477545
 31
0.0
  0
LINE
  8
0
  6
CONTINUOUS
 62
     7
  5
121
 10
0.728129
 20
-0.477545
 30
0.0
 11
0.742919
 21
-0.497755
 31
0.0
  0
LINE
  8
0
  6
CONTINUOUS
 62
     7
  5
122
 10
0.742919
 20
-0.497755
 30
0.0
 11
0.754054
 21
-0.520757
 31
0.0
  0
LINE
  8
0
  6
CONTINUOUS
 62
     7
  5
123
 10
0.754054
 20
-0.520757
 30
0.0
 11
0.760809
 21
-0.545329
 31
0.0
  0
LINE
  8
0
  6
CONTINUOUS
 62
     7
  5
124
 10
0.760809
 20
-0.545329
 30
0.0
 11
0.763
 21
-0.57
 31
0.0
  0
LINE
  8
0
  6
CONTINUOUS
 62
     7
  5
125
 10
-0.485
 20
-0.57
 30
0.0
 11
-0.487192
 21
-0.594677
 31
0.0
  0
LINE
  8
0
  6
CONTINUOUS
 62
     7
  5
126
 10
-0.487192
 20
-0.594677
 30
0.0
 11
-0.493954
 21
-0.619265
 31
0.0
  0
LINE
  8
0
  6
CONTINUOUS
 62
     7
  5
127
 10
-0.493954
 20
-0.619265
 30
0.0
 11
-0.505108
 21
-0.642291
 31
0.0
  0
LINE
  8
0
  6
CONTINUOUS
 62
     7
  5
128
 10
-0.505108
 20
-0.642291
 30
0.0
 11
-0.519933
 21
-0.662526
 31
0.0
  0
LINE
  8
0
  6
CONTINUOUS
 62
     7
  5
129
 10
-0.519933
 20
-0.662526
 30
0.0
 11
-0.537639
 21
-0.679399
 31
0.0
  0
LINE
  8
0
  6
CONTINUOUS
 62
     7
  5
12A
 10
-0.537639
 20
-0.679399
 30
0.0
 11
-0.558696
 21
-0.693304
 31
0.0
  0
LINE
  8
0
  6
CONTINUOUS
 62
     7
  5
12B
 10
-0.558696
 20
-0.693304
 30
0.0
 11
-0.582175
 21
-0.703289
 31
0.0
  0
LINE
  8
0
  6
CONTINUOUS
 62
     7
  5
12C
 10
-0.582175
 20
-0.703289
 30
0.0
 11
-0.606809
 21
-0.708813
 31
0.0
  0
LINE
  8
0
  6
CONTINUOUS
 62
     7
  5
12D
 10
-0.606809
 20
-0.708813
 30
0.0
 11
-0.63119
 21
-0.709863
 31
0.0
  0
LINE
  8
0
  6
CONTINUOUS
 62
     7
  5
12E
 10
-0.63119
 20
-0.709863
 30
0.0
 11
-0.655827
 21
-0.706564
 31
0.0
  0
LINE
  8
0
  6
CONTINUOUS
 62
     7
  5
12F
 10
-0.655827
 20
-0.706564
 30
0.0
 11
-0.680006
 21
-0.698741
 31
0.0
  0
LINE
  8
0
  6
CONTINUOUS
 62
     7
  5
130
 10
-0.680006
 20
-0.698741
 30
0.0
 11
-0.702357
 21
-0.686687
 31
0.0
  0
LINE
  8
0
  6
CONTINUOUS
 62
     7
  5
131
 10
-0.702357
 20
-0.686687
 30
0.0
 11
-0.721722
 21
-0.671217
 31
0.0
  0
LINE
  8
0
  6
CONTINUOUS
 62
     7
  5
132
 10
-0.721722
 20
-0.671217
 30
0.0
 11
-0.737912
 21
-0.65277
 31
0.0
  0
LINE
  8
0
  6
CONTINUOUS
 62
     7
  5
133
 10
-0.737912
 20
-0.65277
 30
0.0
 11
-0.751002
 21
-0.631021
 31
0.0
  0
LINE
  8
0
  6
CONTINUOUS
 62
     7
  5
134
 10
-0.751002
 20
-0.631021
 30
0.0
 11
-0.760003
 21
-0.607069
 31
0.0
  0
LINE
  8
0
  6
CONTINUOUS
 62
     7
  5
135
 10
-0.760003
 20
-0.607069
 30
0.0
 11
-0.764463
 21
-0.582248
 31
0.0
  0
LINE
  8
0
  6
CONTINUOUS
 62
     7
  5
136
 10
-0.764463
 20
-0.582248
 30
0.0
 11
-0.764463
 21
-0.557752
 31
0.0
  0
LINE
  8
0
  6
CONTINUOUS
 62
     7
  5
137
 10
-0.764463
 20
-0.557752
 30
0.0
 11
-0.760003
 21
-0.532931
 31
0.0
  0
LINE
  8
0
  6
CONTINUOUS
 62
     7
  5
138
 10
-0.760003
 20
-0.532931
 30
0.0
 11
-0.751002
 21
-0.508979
 31
0.0
  0
LINE
  8
0
  6
CONTINUOUS
 62
     7
  5
139
 10
-0.751002
 20
-0.508979
 30
0.0
 11
-0.737912
 21
-0.48723
 31
0.0
  0
LINE
  8
0
  6
CONTINUOUS
 62
     7
  5
13A
 10
-0.737912
 20
-0.48723
 30
0.0
 11
-0.721722
 21
-0.468783
 31
0.0
  0
LINE
  8
0
  6
CONTINUOUS
 62
     7
  5
13B
 10
-0.721722
 20
-0.468783
 30
0.0
 11
-0.702357
 21
-0.453313
 31
0.0
  0
LINE
  8
0
  6
CONTINUOUS
 62
     7
  5
13C
 10
-0.702357
 20
-0.453313
 30
0.0
 11
-0.680006
 21
-0.441259
 31
0.0
  0
LINE
  8
0
  6
CONTINUOUS
 62
     7
  5
13D
 10
-0.680006
 20
-0.441259
 30
0.0
 11
-0.655827
 21
-0.433436
 31
0.0
  0
LINE
  8
0
  6
CONTINUOUS
 62
     7
  5
13E
 10
-0.655827
 20
-0.433436
 30
0.0
 11
-0.63119
 21
-0.430137
 31
0.0
  0
LINE
  8
0
  6
CONTINUOUS
 62
     7
  5
13F
 10
-0.63119
 20
-0.430137
 30
0.0
 11
-0.606809
 21
-0.431187
 31
0.0
  0
LINE
  8
0
  6
CONTINUOUS
 62
     7
  5
140
 10
-0.606809
 20
-0.431187
 30
0.0
 11
-0.582175
 21
-0.436711
 31
0.0
  0
LINE
  8
0
  6
CONTINUOUS
 62
     7
  5
141
 10
-0.582175
 20
-0.436711
 30
0.0
 11
-0.558696
 21
-0.446696
 31
0.0
  0
LINE
  8
0
  6
CONTINUOUS
 62
     7
  5
142
 10
-0.558696
 20
-0.446696
 30
0.0
 11
-0.537639
 21
-0.460601
 31
0.0
  0
LINE
  8
0
  6
CONTINUOUS
 62
     7
  5
143
 10
-0.537639
 20
-0.460601
 30
0.0
 11
-0.519933
 21
-0.477474
 31
0.0
  0
LINE
  8
0
  6
CONTINUOUS
 62
     7
  5
144
 10
-0.519933
 20
-0.477474
 30
0.0
 11
-0.505108
 21
-0.497709
 31
0.0
  0
LINE
  8
0
  6
CONTINUOUS
 62
     7
  5
145
 10
-0.505108
 20
-0.497709
 30
0.0
 11
-0.493954
 21
-0.520735
 31
0.0
  0
LINE
  8
0
  6
CONTINUOUS
 62
     7
  5
146
 10
-0.493954
 20
-0.520735
 30
0.0
 11
-0.487192
 21
-0.545323
 31
0.0
  0
LINE
  8
0
  6
CONTINUOUS
 62
     7
  5
147
 10
-0.487192
 20
-0.545323
 30
0.0
 11
-0.485
 21
-0.57
 31
0.0
  0
LINE
  8
0
  6
CONTINUOUS
 62
     7
  5
148
 10
0.763
 20
0.57
 30
0.0
 11
0.760809
 21
0.545329
 31
0.0
  0
LINE
  8
0
  6
CONTINUOUS
 62
     7
  5
149
 10
0.760809
 20
0.545329
 30
0.0
 11
0.754054
 21
0.520757
 31
0.0
  0
LINE
  8
0
  6
CONTINUOUS
 62
     7
  5
14A
 10
0.754054
 20
0.520757
 30
0.0
 11
0.742919
 21
0.497755
 31
0.0
  0
LINE
  8
0
  6
CONTINUOUS
 62
     7
  5
14B
 10
0.742919
 20
0.497755
 30
0.0
 11
0.728129
 21
0.477545
 31
0.0
  0
LINE
  8
0
  6
CONTINUOUS
 62
     7
  5
14C
 10
0.728129
 20
0.477545
 30
0.0
 11
0.710477
 21
0.460694
 31
0.0
  0
LINE
  8
0
  6
CONTINUOUS
 62
     7
  5
14D
 10
0.710477
 20
0.460694
 30
0.0
 11
0.689486
 21
0.446795
 31
0.0
  0
LINE
  8
0
  6
CONTINUOUS
 62
     7
  5
14E
 10
0.689486
 20
0.446795
 30
0.0
 11
0.666067
 21
0.436789
 31
0.0
  0
LINE
  8
0
  6
CONTINUOUS
 62
     7
  5
14F
 10
0.666067
 20
0.436789
 30
0.0
 11
0.64147
 21
0.431224
 31
0.0
  0
LINE
  8
0
  6
CONTINUOUS
 62
     7
  5
150
 10
0.64147
 20
0.431224
 30
0.0
 11
0.617092
 21
0.430125
 31
0.0
  0
LINE
  8
0
  6
CONTINUOUS
 62
     7
  5
151
 10
0.617092
 20
0.430125
 30
0.0
 11
0.592437
 21
0.433377
 31
0.0
  0
LINE
  8
0
  6
CONTINUOUS
 62
     7
  5
152
 10
0.592437
 20
0.433377
 30
0.0
 11
0.568207
 21
0.441168
 31
0.0
  0
LINE
  8
0
  6
CONTINUOUS
 62
     7
  5
153
 10
0.568207
 20
0.441168
 30
0.0
 11
0.54579
 21
0.453215
 31
0.0
  0
LINE
  8
0
  6
CONTINUOUS
 62
     7
  5
154
 10
0.54579
 20
0.453215
 30
0.0
 11
0.526363
 21
0.468702
 31
0.0
  0
LINE
  8
0
  6
CONTINUOUS
 62
     7
  5
155
 10
0.526363
 20
0.468702
 30
0.0
 11
0.510129
 21
0.487174
 31
0.0
  0
LINE
  8
0
  6
CONTINUOUS
 62
     7
  5
156
 10
0.510129
 20
0.487174
 30
0.0
 11
0.497013
 21
0.508948
 31
0.0
  0
LINE
  8
0
  6
CONTINUOUS
 62
     7
  5
157
 10
0.497013
 20
0.508948
 30
0.0
 11
0.488
 21
0.53292
 31
0.0
  0
LINE
  8
0
  6
CONTINUOUS
 62
     7
  5
158
 10
0.488
 20
0.53292
 30
0.0
 11
0.483537
 21
0.55775
 31
0.0
  0
LINE
  8
0
  6
CONTINUOUS
 62
     7
  5
159
 10
0.483537
 20
0.55775
 30
0.0
 11
0.483537
 21
0.58225
 31
0.0
  0
LINE
  8
0
  6
CONTINUOUS
 62
     7
  5
15A
 10
0.483537
 20
0.58225
 30
0.0
 11
0.488
 21
0.60708
 31
0.0
  0
LINE
  8
0
  6
CONTINUOUS
 62
     7
  5
15B
 10
0.488
 20
0.60708
 30
0.0
 11
0.497013
 21
0.631052
 31
0.0
  0
LINE
  8
0
  6
CONTINUOUS
 62
     7
  5
15C
 10
0.497013
 20
0.631052
 30
0.0
 11
0.510129
 21
0.652826
 31
0.0
  0
LINE
  8
0
  6
CONTINUOUS
 62
     7
  5
15D
 10
0.510129
 20
0.652826
 30
0.0
 11
0.526363
 21
0.671298
 31
0.0
  0
LINE
  8
0
  6
CONTINUOUS
 62
     7
  5
15E
 10
0.526363
 20
0.671298
 30
0.0
 11
0.54579
 21
0.686785
 31
0.0
  0
LINE
  8
0
  6
CONTINUOUS
 62
     7
  5
15F
 10
0.54579
 20
0.686785
 30
0.0
 11
0.568207
 21
0.698832
 31
0.0
  0
LINE
  8
0
  6
CONTINUOUS
 62
     7
  5
160
 10
0.568207
 20
0.698832
 30
0.0
 11
0.592437
 21
0.706623
 31
0.0
  0
LINE
  8
0
  6
CONTINUOUS
 62
     7
  5
161
 10
0.592437
 20
0.706623
 30
0.0
 11
0.617092
 21
0.709875
 31
0.0
  0
LINE
  8
0
  6
CONTINUOUS
 62
     7
  5
162
 10
0.617092
 20
0.709875
 30
0.0
 11
0.64147
 21
0.708776
 31
0.0
  0
LINE
  8
0
  6
CONTINUOUS
 62
     7
  5
163
 10
0.64147
 20
0.708776
 30
0.0
 11
0.666067
 21
0.703211
 31
0.0
  0
LINE
  8
0
  6
CONTINUOUS
 62
     7
  5
164
 10
0.666067
 20
0.703211
 30
0.0
 11
0.689486
 21
0.693205
 31
0.0
  0
LINE
  8
0
  6
CONTINUOUS
 62
     7
  5
165
 10
0.689486
 20
0.693205
 30
0.0
 11
0.710477
 21
0.679306
 31
0.0
  0
LINE
  8
0
  6
CONTINUOUS
 62
     7
  5
166
 10
0.710477
 20
0.679306
 30
0.0
 11
0.728129
 21
0.662455
 31
0.0
  0
LINE
  8
0
  6
CONTINUOUS
 62
     7
  5
167
 10
0.728129
 20
0.662455
 30
0.0
 11
0.742919
 21
0.642245
 31
0.0
  0
LINE
  8
0
  6
CONTINUOUS
 62
     7
  5
168
 10
0.742919
 20
0.642245
 30
0.0
 11
0.754054
 21
0.619243
 31
0.0
  0
LINE
  8
0
  6
CONTINUOUS
 62
     7
  5
169
 10
0.754054
 20
0.619243
 30
0.0
 11
0.760809
 21
0.594671
 31
0.0
  0
LINE
  8
0
  6
CONTINUOUS
 62
     7
  5
16A
 10
0.760809
 20
0.594671
 30
0.0
 11
0.763
 21
0.57
 31
0.0
  0
LINE
  8
0
  6
CONTINUOUS
 62
     7
  5
16B
 10
-0.485
 20
0.57
 30
0.0
 11
-0.487192
 21
0.545323
 31
0.0
  0
LINE
  8
0
  6
CONTINUOUS
 62
     7
  5
16C
 10
-0.487192
 20
0.545323
 30
0.0
 11
-0.493954
 21
0.520735
 31
0.0
  0
LINE
  8
0
  6
CONTINUOUS
 62
     7
  5
16D
 10
-0.493954
 20
0.520735
 30
0.0
 11
-0.505108
 21
0.497709
 31
0.0
  0
LINE
  8
0
  6
CONTINUOUS
 62
     7
  5
16E
 10
-0.505108
 20
0.497709
 30
0.0
 11
-0.519933
 21
0.477474
 31
0.0
  0
LINE
  8
0
  6
CONTINUOUS
 62
     7
  5
16F
 10
-0.519933
 20
0.477474
 30
0.0
 11
-0.537639
 21
0.460601
 31
0.0
  0
LINE
  8
0
  6
CONTINUOUS
 62
     7
  5
170
 10
-0.537639
 20
0.460601
 30
0.0
 11
-0.558696
 21
0.446696
 31
0.0
  0
LINE
  8
0
  6
CONTINUOUS
 62
     7
  5
171
 10
-0.558696
 20
0.446696
 30
0.0
 11
-0.582175
 21
0.436711
 31
0.0
  0
LINE
  8
0
  6
CONTINUOUS
 62
     7
  5
172
 10
-0.582175
 20
0.436711
 30
0.0
 11
-0.606809
 21
0.431187
 31
0.0
  0
LINE
  8
0
  6
CONTINUOUS
 62
     7
  5
173
 10
-0.606809
 20
0.431187
 30
0.0
 11
-0.63119
 21
0.430137
 31
0.0
  0
LINE
  8
0
  6
CONTINUOUS
 62
     7
  5
174
 10
-0.63119
 20
0.430137
 30
0.0
 11
-0.655827
 21
0.433436
 31
0.0
  0
LINE
  8
0
  6
CONTINUOUS
 62
     7
  5
175
 10
-0.655827
 20
0.433436
 30
0.0
 11
-0.680006
 21
0.441259
 31
0.0
  0
LINE
  8
0
  6
CONTINUOUS
 62
     7
  5
176
 10
-0.680006
 20
0.441259
 30
0.0
 11
-0.702357
 21
0.453313
 31
0.0
  0
LINE
  8
0
  6
CONTINUOUS
 62
     7
  5
177
 10
-0.702357
 20
0.453313
 30
0.0
 11
-0.721722
 21
0.468783
 31
0.0
  0
LINE
  8
0
  6
CONTINUOUS
 62
     7
  5
178
 10
-0.721722
 20
0.468783
 30
0.0
 11
-0.737912
 21
0.48723
 31
0.0
  0
LINE
  8
0
  6
CONTINUOUS
 62
     7
  5
179
 10
-0.737912
 20
0.48723
 30
0.0
 11
-0.751002
 21
0.508979
 31
0.0
  0
LINE
  8
0
  6
CONTINUOUS
 62
     7
  5
17A
 10
-0.751002
 20
0.508979
 30
0.0
 11
-0.760003
 21
0.532931
 31
0.0
  0
LINE
  8
0
  6
CONTINUOUS
 62
     7
  5
17B
 10
-0.760003
 20
0.532931
 30
0.0
 11
-0.764463
 21
0.557752
 31
0.0
  0
LINE
  8
0
  6
CONTINUOUS
 62
     7
  5
17C
 10
-0.764463
 20
0.557752
 30
0.0
 11
-0.764463
 21
0.582248
 31
0.0
  0
LINE
  8
0
  6
CONTINUOUS
 62
     7
  5
17D
 10
-0.764463
 20
0.582248
 30
0.0
 11
-0.760003
 21
0.607069
 31
0.0
  0
LINE
  8
0
  6
CONTINUOUS
 62
     7
  5
17E
 10
-0.760003
 20
0.607069
 30
0.0
 11
-0.751002
 21
0.631021
 31
0.0
  0
LINE
  8
0
  6
CONTINUOUS
 62
     7
  5
17F
 10
-0.751002
 20
0.631021
 30
0.0
 11
-0.737912
 21
0.65277
 31
0.0
  0
LINE
  8
0
  6
CONTINUOUS
 62
     7
  5
180
 10
-0.737912
 20
0.65277
 30
0.0
 11
-0.721722
 21
0.671217
 31
0.0
  0
LINE
  8
0
  6
CONTINUOUS
 62
     7
  5
181
 10
-0.721722
 20
0.671217
 30
0.0
 11
-0.702357
 21
0.686687
 31
0.0
  0
LINE
  8
0
  6
CONTINUOUS
 62
     7
  5
182
 10
-0.702357
 20
0.686687
 30
0.0
 11
-0.680006
 21
0.698741
 31
0.0
  0
LINE
  8
0
  6
CONTINUOUS
 62
     7
  5
183
 10
-0.680006
 20
0.698741
 30
0.0
 11
-0.655827
 21
0.706564
 31
0.0
  0
LINE
  8
0
  6
CONTINUOUS
 62
     7
  5
184
 10
-0.655827
 20
0.706564
 30
0.0
 11
-0.63119
 21
0.709863
 31
0.0
  0
LINE
  8
0
  6
CONTINUOUS
 62
     7
  5
185
 10
-0.63119
 20
0.709863
 30
0.0
 11
-0.606809
 21
0.708813
 31
0.0
  0
LINE
  8
0
  6
CONTINUOUS
 62
     7
  5
186
 10
-0.606809
 20
0.708813
 30
0.0
 11
-0.582175
 21
0.703289
 31
0.0
  0
LINE
  8
0
  6
CONTINUOUS
 62
     7
  5
187
 10
-0.582175
 20
0.703289
 30
0.0
 11
-0.558696
 21
0.693304
 31
0.0
  0
LINE
  8
0
  6
CONTINUOUS
 62
     7
  5
188
 10
-0.558696
 20
0.693304
 30
0.0
 11
-0.537639
 21
0.679399
 31
0.0
  0
LINE
  8
0
  6
CONTINUOUS
 62
     7
  5
189
 10
-0.537639
 20
0.679399
 30
0.0
 11
-0.519933
 21
0.662526
 31
0.0
  0
LINE
  8
0
  6
CONTINUOUS
 62
     7
  5
18A
 10
-0.519933
 20
0.662526
 30
0.0
 11
-0.505108
 21
0.642291
 31
0.0
  0
LINE
  8
0
  6
CONTINUOUS
 62
     7
  5
18B
 10
-0.505108
 20
0.642291
 30
0.0
 11
-0.493954
 21
0.619265
 31
0.0
  0
LINE
  8
0
  6
CONTINUOUS
 62
     7
  5
18C
 10
-0.493954
 20
0.619265
 30
0.0
 11
-0.487192
 21
0.594677
 31
0.0
  0
LINE
  8
0
  6
CONTINUOUS
 62
     7
  5
18D
 10
-0.487192
 20
0.594677
 30
0.0
 11
-0.485
 21
0.57
 31
0.0
  0
LINE
  8
0
  6
CONTINUOUS
 62
     7
  5
18E
 10
-0.3447
 20
-0.78
 30
0.0
 11
0.3447
 21
-0.78
 31
0.0
  0
LINE
  8
0
  6
CONTINUOUS
 62
     7
  5
18F
 10
0.3447
 20
-0.867
 30
0.0
 11
-0.3447
 21
-0.867
 31
0.0
  0
LINE
  8
0
  6
CONTINUOUS
 62
     7
  5
190
 10
-0.3447
 20
-0.78
 30
0.0
 11
-0.3447
 21
-0.867
 31
0.0
  0
LINE
  8
0
  6
CONTINUOUS
 62
     7
  5
191
 10
0.3447
 20
-0.78
 30
0.0
 11
0.3447
 21
-0.867
 31
0.0
  0
LINE
  8
0
  6
CONTINUOUS
 62
     7
  5
192
 10
-0.383
 20
-0.78
 30
0.0
 11
-0.3447
 21
-0.78
 31
0.0
  0
LINE
  8
0
  6
CONTINUOUS
 62
     7
  5
193
 10
0.3447
 20
-0.78
 30
0.0
 11
0.383
 21
-0.78
 31
0.0
  0
LINE
  8
0
  6
CONTINUOUS
 62
     7
  5
194
 10
0.383
 20
-0.78
 30
0.0
 11
0.383
 21
-0.925
 31
0.0
  0
LINE
  8
0
  6
CONTINUOUS
 62
     7
  5
195
 10
-0.383
 20
-0.925
 30
0.0
 11
-0.383
 21
-0.78
 31
0.0
  0
LINE
  8
0
  6
CONTINUOUS
 62
     7
  5
196
 10
-0.45
 20
-0.925
 30
0.0
 11
-0.383
 21
-0.925
 31
0.0
  0
LINE
  8
0
  6
CONTINUOUS
 62
     7
  5
197
 10
0.383
 20
-0.925
 30
0.0
 11
0.448
 21
-0.925
 31
0.0
  0
LINE
  8
0
  6
CONTINUOUS
 62
     7
  5
198
 10
0.448
 20
-0.925
 30
0.0
 11
0.448
 21
-0.78
 31
0.0
  0
LINE
  8
0
  6
CONTINUOUS
 62
     7
  5
199
 10
0.798
 20
-0.78
 30
0.0
 11
0.798
 21
-0.925
 31
0.0
  0
LINE
  8
0
  6
CONTINUOUS
 62
     7
  5
19A
 10
0.448
 20
-0.78
 30
0.0
 11
0.798
 21
-0.78
 31
0.0
  0
LINE
  8
0
  6
CONTINUOUS
 62
     7
  5
19B
 10
0.798
 20
-0.925
 30
0.0
 11
0.866
 21
-0.925
 31
0.0
  0
LINE
  8
0
  6
CONTINUOUS
 62
     7
  5
19C
 10
0.866
 20
-0.925
 30
0.0
 11
0.866
 21
0.925
 31
0.0
  0
LINE
  8
0
  6
CONTINUOUS
 62
     7
  5
19D
 10
0.866
 20
0.925
 30
0.0
 11
0.798
 21
0.925
 31
0.0
  0
LINE
  8
0
  6
CONTINUOUS
 62
     7
  5
19E
 10
0.798
 20
0.925
 30
0.0
 11
0.798
 21
0.78
 31
0.0
  0
LINE
  8
0
  6
CONTINUOUS
 62
     7
  5
19F
 10
0.798
 20
0.78
 30
0.0
 11
0.448
 21
0.78
 31
0.0
  0
LINE
  8
0
  6
CONTINUOUS
 62
     7
  5
1A0
 10
0.448
 20
0.78
 30
0.0
 11
0.448
 21
0.925
 31
0.0
  0
LINE
  8
0
  6
CONTINUOUS
 62
     7
  5
1A1
 10
0.448
 20
0.925
 30
0.0
 11
0.383
 21
0.925
 31
0.0
  0
LINE
  8
0
  6
CONTINUOUS
 62
     7
  5
1A2
 10
0.383
 20
0.925
 30
0.0
 11
0.383
 21
0.78
 31
0.0
  0
LINE
  8
0
  6
CONTINUOUS
 62
     7
  5
1A3
 10
0.383
 20
0.78
 30
0.0
 11
0.105
 21
0.78
 31
0.0
  0
LINE
  8
0
  6
CONTINUOUS
 62
     7
  5
1A4
 10
0.105
 20
0.925
 30
0.0
 11
0.105
 21
0.78
 31
0.0
  0
LINE
  8
0
  6
CONTINUOUS
 62
     7
  5
1A5
 10
-0.105
 20
0.925
 30
0.0
 11
0.105
 21
0.925
 31
0.0
  0
LINE
  8
0
  6
CONTINUOUS
 62
     7
  5
1A6
 10
-0.105
 20
0.925
 30
0.0
 11
-0.105
 21
0.78
 31
0.0
  0
LINE
  8
0
  6
CONTINUOUS
 62
     7
  5
1A7
 10
-0.105
 20
0.78
 30
0.0
 11
-0.383
 21
0.78
 31
0.0
  0
LINE
  8
0
  6
CONTINUOUS
 62
     7
  5
1A8
 10
-0.383
 20
0.78
 30
0.0
 11
-0.383
 21
0.925
 31
0.0
  0
LINE
  8
0
  6
CONTINUOUS
 62
     7
  5
1A9
 10
-0.383
 20
0.925
 30
0.0
 11
-0.45
 21
0.925
 31
0.0
  0
LINE
  8
0
  6
CONTINUOUS
 62
     7
  5
1AA
 10
-0.45
 20
0.925
 30
0.0
 11
-0.45
 21
0.78
 31
0.0
  0
LINE
  8
0
  6
CONTINUOUS
 62
     7
  5
1AB
 10
-0.45
 20
0.78
 30
0.0
 11
-0.8
 21
0.78
 31
0.0
  0
LINE
  8
0
  6
CONTINUOUS
 62
     7
  5
1AC
 10
-0.8
 20
0.78
 30
0.0
 11
-0.8
 21
0.925
 31
0.0
  0
LINE
  8
0
  6
CONTINUOUS
 62
     7
  5
1AD
 10
-0.8
 20
0.925
 30
0.0
 11
-0.866
 21
0.925
 31
0.0
  0
LINE
  8
0
  6
CONTINUOUS
 62
     7
  5
1AE
 10
-0.866
 20
-0.925
 30
0.0
 11
-0.866
 21
0.925
 31
0.0
  0
LINE
  8
0
  6
CONTINUOUS
 62
     7
  5
1AF
 10
-0.866
 20
-0.925
 30
0.0
 11
-0.8
 21
-0.925
 31
0.0
  0
LINE
  8
0
  6
CONTINUOUS
 62
     7
  5
1B0
 10
-0.8
 20
-0.925
 30
0.0
 11
-0.8
 21
-0.78
 31
0.0
  0
LINE
  8
0
  6
CONTINUOUS
 62
     7
  5
1B1
 10
-0.8
 20
-0.78
 30
0.0
 11
-0.45
 21
-0.78
 31
0.0
  0
LINE
  8
0
  6
CONTINUOUS
 62
     7
  5
1B2
 10
-0.45
 20
-0.78
 30
0.0
 11
-0.45
 21
-0.925
 31
0.0
  0
CIRCLE
  8
0
  6
CONTINUOUS
 62
     7
  5
1B3
 10
0.0
 20
0.838
 30
0.0
 40
0.04725
  0
LINE
  8
0
  6
CONTINUOUS
 62
     7
  5
1B4
 10
-0.84868
 20
-0.7644
 30
0.0
 11
-0.84868
 21
0.7644
 31
0.0
  0
LINE
  8
0
  6
CONTINUOUS
 62
     7
  5
1B5
 10
0.84868
 20
0.7644
 30
0.0
 11
0.84868
 21
-0.7644
 31
0.0
  0
LINE
  8
0
  6
CONTINUOUS
 62
     7
  5
1B6
 10
0.751965
 20
0.01092
 30
0.0
 11
0.751965
 21
0.1638
 31
0.0
  0
LINE
  8
0
  6
CONTINUOUS
 62
     7
  5
1B7
 10
0.751965
 20
-0.01092
 30
0.0
 11
0.751965
 21
0.01092
 31
0.0
  0
LINE
  8
0
  6
CONTINUOUS
 62
     7
  5
1B8
 10
0.751965
 20
-0.1638
 30
0.0
 11
0.751965
 21
-0.01092
 31
0.0
  0
LINE
  8
0
  6
CONTINUOUS
 62
     7
  5
1B9
 10
0.651965
 20
0.1638
 30
0.0
 11
0.751965
 21
0.1638
 31
0.0
  0
LINE
  8
0
  6
CONTINUOUS
 62
     7
  5
1BA
 10
0.651965
 20
-0.1638
 30
0.0
 11
0.751965
 21
-0.1638
 31
0.0
  0
LINE
  8
0
  6
CONTINUOUS
 62
     7
  5
1BB
 10
0.651965
 20
-0.01092
 30
0.0
 11
0.751965
 21
-0.01092
 31
0.0
  0
LINE
  8
0
  6
CONTINUOUS
 62
     7
  5
1BC
 10
0.651965
 20
-0.1638
 30
0.0
 11
0.651965
 21
-0.01092
 31
0.0
  0
LINE
  8
0
  6
CONTINUOUS
 62
     7
  5
1BD
 10
0.651965
 20
-0.01092
 30
0.0
 11
0.651965
 21
0.01092
 31
0.0
  0
LINE
  8
0
  6
CONTINUOUS
 62
     7
  5
1BE
 10
0.651965
 20
0.01092
 30
0.0
 11
0.751965
 21
0.01092
 31
0.0
  0
LINE
  8
0
  6
CONTINUOUS
 62
     7
  5
1BF
 10
0.651965
 20
0.01092
 30
0.0
 11
0.651965
 21
0.1638
 31
0.0
  0
CIRCLE
  8
0
  6
CONTINUOUS
 62
     7
  5
1C0
 10
0.0
 20
0.0
 30
0.0
 40
0.601965
  0
CIRCLE
  8
0
  6
CONTINUOUS
 62
     7
  5
1C1
 10
0.0
 20
0.0
 30
0.0
 40
0.5733
  0
LINE
  8
0
  6
CONTINUOUS
 62
     7
  5
1C2
 10
0.84868
 20
0.7644
 30
0.0
 11
-0.84868
 21
0.7644
 31
0.0
  0
LINE
  8
0
  6
CONTINUOUS
 62
     7
  5
1C3
 10
-0.84868
 20
-0.7644
 30
0.0
 11
0.84868
 21
-0.7644
 31
0.0
  0
ENDSEC
  0
EOF
