  0
SECTION
  2
HEADER
  9
$ACADVER
  1
AC1014
  9
$ACADMAINTVER
 70
     0
  9
$DWGCODEPAGE
  3
ANSI_1252
  9
$INSBASE
 10
146.150783
 20
107.525
 30
0.0
  9
$EXTMIN
 10
139.006258
 20
98.172647
 30
0.0
  9
$EXTMAX
 10
156.906258
 20
116.959222
 30
0.0
  9
$LIMMIN
 10
0.0
 20
0.0
  9
$LIMMAX
 10
210.0
 20
297.0
  9
$ORTHOMODE
 70
     0
  9
$REGENMODE
 70
     1
  9
$FILLMODE
 70
     1
  9
$QTEXTMODE
 70
     0
  9
$MIRRTEXT
 70
     1
  9
$DRAGMODE
 70
     2
  9
$LTSCALE
 40
19.36
  9
$OSMODE
 70
     0
  9
$ATTMODE
 70
     1
  9
$TEXTSIZE
 40
0.2
  9
$TRACEWID
 40
0.05
  9
$TEXTSTYLE
  7
ROMANS
  9
$CLAYER
  8
COTATION1
  9
$CELTYPE
  6
BYLAYER
  9
$CECOLOR
 62
   256
  9
$CELTSCALE
 40
1.0
  9
$DELOBJ
 70
     1
  9
$DISPSILH
 70
     0
  9
$DIMSCALE
 40
1.0
  9
$DIMASZ
 40
3.0
  9
$DIMEXO
 40
0.0625
  9
$DIMDLI
 40
0.38
  9
$DIMRND
 40
0.01
  9
$DIMDLE
 40
0.0
  9
$DIMEXE
 40
0.18
  9
$DIMTP
 40
0.0
  9
$DIMTM
 40
0.0
  9
$DIMTXT
 40
2.5
  9
$DIMCEN
 40
0.09
  9
$DIMTSZ
 40
0.0
  9
$DIMTOL
 70
     0
  9
$DIMLIM
 70
     0
  9
$DIMTIH
 70
     0
  9
$DIMTOH
 70
     0
  9
$DIMSE1
 70
     0
  9
$DIMSE2
 70
     0
  9
$DIMTAD
 70
     1
  9
$DIMZIN
 70
    12
  9
$DIMBLK
  1

  9
$DIMASO
 70
     1
  9
$DIMSHO
 70
     1
  9
$DIMPOST
  1

  9
$DIMAPOST
  1

  9
$DIMALT
 70
     0
  9
$DIMALTD
 70
     2
  9
$DIMALTF
 40
25.4
  9
$DIMLFAC
 40
1.0
  9
$DIMTOFL
 70
     1
  9
$DIMTVP
 40
0.0
  9
$DIMTIX
 70
     0
  9
$DIMSOXD
 70
     0
  9
$DIMSAH
 70
     0
  9
$DIMBLK1
  1

  9
$DIMBLK2
  1

  9
$DIMSTYLE
  2
SC_STAND
  9
$DIMCLRD
 70
     0
  9
$DIMCLRE
 70
     0
  9
$DIMCLRT
 70
     0
  9
$DIMTFAC
 40
1.0
  9
$DIMGAP
 40
1.0
  9
$DIMJUST
 70
     0
  9
$DIMSD1
 70
     0
  9
$DIMSD2
 70
     0
  9
$DIMTOLJ
 70
     1
  9
$DIMTZIN
 70
    12
  9
$DIMALTZ
 70
    12
  9
$DIMALTTZ
 70
    12
  9
$DIMFIT
 70
     5
  9
$DIMUPT
 70
     0
  9
$DIMUNIT
 70
     2
  9
$DIMDEC
 70
     4
  9
$DIMTDEC
 70
     4
  9
$DIMALTU
 70
     2
  9
$DIMALTTD
 70
     2
  9
$DIMTXSTY
  7
ROMANS
  9
$DIMAUNIT
 70
     0
  9
$LUNITS
 70
     2
  9
$LUPREC
 70
     4
  9
$SKETCHINC
 40
0.1
  9
$FILLETRAD
 40
0.0
  9
$AUNITS
 70
     0
  9
$AUPREC
 70
     0
  9
$MENU
  1
acad
  9
$ELEVATION
 40
0.0
  9
$PELEVATION
 40
0.0
  9
$THICKNESS
 40
0.0
  9
$LIMCHECK
 70
     0
  9
$BLIPMODE
 70
     1
  9
$CHAMFERA
 40
0.0
  9
$CHAMFERB
 40
0.0
  9
$CHAMFERC
 40
0.0
  9
$CHAMFERD
 40
0.0
  9
$SKPOLY
 70
     0
  9
$TDCREATE
 40
2450574.661545139
  9
$TDUPDATE
 40
2451387.895423379
  9
$TDINDWG
 40
0.0000493171
  9
$TDUSRTIMER
 40
0.0000493171
  9
$USRTIMER
 70
     1
  9
$ANGBASE
 50
0.0
  9
$ANGDIR
 70
     0
  9
$PDMODE
 70
     0
  9
$PDSIZE
 40
0.0
  9
$PLINEWID
 40
0.0
  9
$COORDS
 70
     1
  9
$SPLFRAME
 70
     0
  9
$SPLINETYPE
 70
     6
  9
$SPLINESEGS
 70
     8
  9
$ATTDIA
 70
     0
  9
$ATTREQ
 70
     1
  9
$HANDLING
 70
     1
  9
$HANDSEED
  5
199
  9
$SURFTAB1
 70
     6
  9
$SURFTAB2
 70
     6
  9
$SURFTYPE
 70
     6
  9
$SURFU
 70
     6
  9
$SURFV
 70
     6
  9
$UCSNAME
  2

  9
$UCSORG
 10
0.0
 20
0.0
 30
0.0
  9
$UCSXDIR
 10
1.0
 20
0.0
 30
0.0
  9
$UCSYDIR
 10
0.0
 20
1.0
 30
0.0
  9
$PUCSNAME
  2

  9
$PUCSORG
 10
0.0
 20
0.0
 30
0.0
  9
$PUCSXDIR
 10
1.0
 20
0.0
 30
0.0
  9
$PUCSYDIR
 10
0.0
 20
1.0
 30
0.0
  9
$USERI1
 70
     0
  9
$USERI2
 70
     0
  9
$USERI3
 70
     0
  9
$USERI4
 70
     0
  9
$USERI5
 70
     0
  9
$USERR1
 40
0.0
  9
$USERR2
 40
0.0
  9
$USERR3
 40
0.0
  9
$USERR4
 40
0.0
  9
$USERR5
 40
0.0
  9
$WORLDVIEW
 70
     1
  9
$SHADEDGE
 70
     3
  9
$SHADEDIF
 70
    70
  9
$TILEMODE
 70
     1
  9
$MAXACTVP
 70
    16
  9
$PINSBASE
 10
0.0
 20
0.0
 30
0.0
  9
$PLIMCHECK
 70
     0
  9
$PEXTMIN
 10
1.000000E+20
 20
1.000000E+20
 30
1.000000E+20
  9
$PEXTMAX
 10
-1.000000E+20
 20
-1.000000E+20
 30
-1.000000E+20
  9
$PLIMMIN
 10
0.0
 20
0.0
  9
$PLIMMAX
 10
12.0
 20
9.0
  9
$UNITMODE
 70
     0
  9
$VISRETAIN
 70
     0
  9
$PLINEGEN
 70
     0
  9
$PSLTSCALE
 70
     1
  9
$TREEDEPTH
 70
  3020
  9
$PICKSTYLE
 70
     1
  9
$CMLSTYLE
  2
STANDARD
  9
$CMLJUST
 70
     0
  9
$CMLSCALE
 40
1.0
  9
$PROXYGRAPHICS
 70
     1
  9
$MEASUREMENT
 70
     0
  0
ENDSEC
  0
SECTION
  2
CLASSES
  0
CLASS
  1
DICTIONARYVAR
  2
AcDbDictionaryVar
  3
"AutoCAD"
 90
        0
280
     0
281
     0
  0
CLASS
  1
LWPOLYLINE
  2
AcDbPolyline
  3
"AutoCAD"
 90
        0
280
     0
281
     1
  0
ENDSEC
  0
SECTION
  2
TABLES
  0
TABLE
  2
VPORT
  5
141
100
AcDbSymbolTable
 70
     1
  0
VPORT
  5
194
100
AcDbSymbolTableRecord
100
AcDbViewportTableRecord
  2
*ACTIVE
 70
     0
 10
0.0
 20
0.0
 11
1.0
 21
1.0
 12
283.244621
 22
169.500718
 13
0.0
 23
0.0
 14
1.0
 24
1.0
 15
0.0
 25
0.0
 16
0.0
 26
0.0
 36
1.0
 17
0.0
 27
0.0
 37
0.0
 40
339.001436
 41
1.671053
 42
50.0
 43
0.0
 44
0.0
 50
0.0
 51
0.0
 71
     0
 72
   100
 73
     1
 74
     1
 75
     0
 76
     0
 77
     0
 78
     0
  0
ENDTAB
  0
TABLE
  2
LTYPE
  5
13E
100
AcDbSymbolTable
 70
    23
  0
LTYPE
  5
14A
100
AcDbSymbolTableRecord
100
AcDbLinetypeTableRecord
  2
BYBLOCK
 70
     0
  3

 72
    65
 73
     0
 40
0.0
  0
LTYPE
  5
14B
100
AcDbSymbolTableRecord
100
AcDbLinetypeTableRecord
  2
BYLAYER
 70
     0
  3

 72
    65
 73
     0
 40
0.0
  0
LTYPE
  5
14C
100
AcDbSymbolTableRecord
100
AcDbLinetypeTableRecord
  2
CONTINUOUS
 70
     0
  3
Solid line
 72
    65
 73
     0
 40
0.0
  0
LTYPE
  5
15B
100
AcDbSymbolTableRecord
100
AcDbLinetypeTableRecord
  2
AXES
 70
     0
  3
____ _ ____ _ ____ _ ____ _ ____ _ ____ _ ____ 
 72
    65
 73
     4
 40
2.0
 49
1.25
 74
     0
 49
-0.25
 74
     0
 49
0.25
 74
     0
 49
-0.25
 74
     0
  0
LTYPE
  5
15C
100
AcDbSymbolTableRecord
100
AcDbLinetypeTableRecord
  2
AXES2
 70
     0
  3
___ _ ___ _ ___ _ ___ _ ___ _ ___ _ ___ _ ___ _
 72
    65
 73
     4
 40
1.125
 49
0.75
 74
     0
 49
-0.125
 74
     0
 49
0.125
 74
     0
 49
-0.125
 74
     0
  0
LTYPE
  5
15D
100
AcDbSymbolTableRecord
100
AcDbLinetypeTableRecord
  2
AXESX2
 70
     0
  3
________  __  ________  __  ________  __  _____
 72
    65
 73
     4
 40
4.0
 49
2.5
 74
     0
 49
-0.5
 74
     0
 49
0.5
 74
     0
 49
-0.5
 74
     0
  0
LTYPE
  5
15E
100
AcDbSymbolTableRecord
100
AcDbLinetypeTableRecord
  2
TIRETPT
 70
     0
  3
__ . __ . __ . __ . __ . __ . __ . __ . __ . __
 72
    65
 73
     4
 40
1.0
 49
0.5
 74
     0
 49
-0.25
 74
     0
 49
0.0
 74
     0
 49
-0.25
 74
     0
  0
LTYPE
  5
15F
100
AcDbSymbolTableRecord
100
AcDbLinetypeTableRecord
  2
TIRETPT2
 70
     0
  3
_._._._._._._._._._._._._._._._._._._._._._._._
 72
    65
 73
     4
 40
0.5
 49
0.25
 74
     0
 49
-0.125
 74
     0
 49
0.0
 74
     0
 49
-0.125
 74
     0
  0
LTYPE
  5
160
100
AcDbSymbolTableRecord
100
AcDbLinetypeTableRecord
  2
TIRETPTX2
 70
     0
  3
____  .  ____  .  ____  .  ____  .  ____  .  __
 72
    65
 73
     4
 40
2.0
 49
1.0
 74
     0
 49
-0.5
 74
     0
 49
0.0
 74
     0
 49
-0.5
 74
     0
  0
LTYPE
  5
161
100
AcDbSymbolTableRecord
100
AcDbLinetypeTableRecord
  2
DISCONTINU
 70
     0
  3
__ __ __ __ __ __ __ __ __ __ __ __ __ __ __ __
 72
    65
 73
     2
 40
0.75
 49
0.5
 74
     0
 49
-0.25
 74
     0
  0
LTYPE
  5
162
100
AcDbSymbolTableRecord
100
AcDbLinetypeTableRecord
  2
DISCONTINU2
 70
     0
  3
_ _ _ _ _ _ _ _ _ _ _ _ _ _ _ _ _ _ _ _ _ _ _ _
 72
    65
 73
     2
 40
0.375
 49
0.25
 74
     0
 49
-0.125
 74
     0
  0
LTYPE
  5
163
100
AcDbSymbolTableRecord
100
AcDbLinetypeTableRecord
  2
DISCONTINUX2
 70
     0
  3
____  ____  ____  ____  ____  ____  ____  ____ 
 72
    65
 73
     2
 40
1.5
 49
1.0
 74
     0
 49
-0.5
 74
     0
  0
LTYPE
  5
164
100
AcDbSymbolTableRecord
100
AcDbLinetypeTableRecord
  2
DIVISE
 70
     0
  3
____ . . ____ . . ____ . . ____ . . ____ . . __
 72
    65
 73
     6
 40
1.25
 49
0.5
 74
     0
 49
-0.25
 74
     0
 49
0.0
 74
     0
 49
-0.25
 74
     0
 49
0.0
 74
     0
 49
-0.25
 74
     0
  0
LTYPE
  5
165
100
AcDbSymbolTableRecord
100
AcDbLinetypeTableRecord
  2
DIVISE2
 70
     0
  3
__..__..__..__..__..__..__..__..__..__..__..__.
 72
    65
 73
     6
 40
0.625
 49
0.25
 74
     0
 49
-0.125
 74
     0
 49
0.0
 74
     0
 49
-0.125
 74
     0
 49
0.0
 74
     0
 49
-0.125
 74
     0
  0
LTYPE
  5
166
100
AcDbSymbolTableRecord
100
AcDbLinetypeTableRecord
  2
DIVISEX2
 70
     0
  3
________  .  .  ________  .  .  ________  .  . 
 72
    65
 73
     6
 40
2.5
 49
1.0
 74
     0
 49
-0.5
 74
     0
 49
0.0
 74
     0
 49
-0.5
 74
     0
 49
0.0
 74
     0
 49
-0.5
 74
     0
  0
LTYPE
  5
167
100
AcDbSymbolTableRecord
100
AcDbLinetypeTableRecord
  2
POINTILLE
 70
     0
  3
. . . . . . . . . . . . . . . . . . . . . . . .
 72
    65
 73
     2
 40
0.25
 49
0.0
 74
     0
 49
-0.25
 74
     0
  0
LTYPE
  5
168
100
AcDbSymbolTableRecord
100
AcDbLinetypeTableRecord
  2
POINTILLE2
 70
     0
  3
...............................................
 72
    65
 73
     2
 40
0.125
 49
0.0
 74
     0
 49
-0.125
 74
     0
  0
LTYPE
  5
169
100
AcDbSymbolTableRecord
100
AcDbLinetypeTableRecord
  2
POINTILLEX2
 70
     0
  3
.  .  .  .  .  .  .  .  .  .  .  .  .  .  .  . 
 72
    65
 73
     2
 40
0.5
 49
0.0
 74
     0
 49
-0.5
 74
     0
  0
LTYPE
  5
16A
100
AcDbSymbolTableRecord
100
AcDbLinetypeTableRecord
  2
CACHE
 70
     0
  3
__ __ __ __ __ __ __ __ __ __ __ __ __ __ __ __
 72
    65
 73
     2
 40
0.375
 49
0.25
 74
     0
 49
-0.125
 74
     0
  0
LTYPE
  5
16B
100
AcDbSymbolTableRecord
100
AcDbLinetypeTableRecord
  2
CACHE2
 70
     0
  3
_ _ _ _ _ _ _ _ _ _ _ _ _ _ _ _ _ _ _ _ _ _ _ _
 72
    65
 73
     2
 40
0.1875
 49
0.125
 74
     0
 49
-0.0625
 74
     0
  0
LTYPE
  5
16C
100
AcDbSymbolTableRecord
100
AcDbLinetypeTableRecord
  2
CACHEX2
 70
     0
  3
____ ____ ____ ____ ____ ____ ____ ____ ____ __
 72
    65
 73
     2
 40
0.75
 49
0.5
 74
     0
 49
-0.25
 74
     0
  0
LTYPE
  5
16D
100
AcDbSymbolTableRecord
100
AcDbLinetypeTableRecord
  2
FANTOME
 70
     0
  3
______  __  __  ______  __  __  ______  __  __ 
 72
    65
 73
     6
 40
2.5
 49
1.25
 74
     0
 49
-0.25
 74
     0
 49
0.25
 74
     0
 49
-0.25
 74
     0
 49
0.25
 74
     0
 49
-0.25
 74
     0
  0
LTYPE
  5
16E
100
AcDbSymbolTableRecord
100
AcDbLinetypeTableRecord
  2
FANTOME2
 70
     0
  3
___ _ _ ___ _ _ ___ _ _ ___ _ _ ___ _ _ ___ _ _
 72
    65
 73
     6
 40
1.25
 49
0.625
 74
     0
 49
-0.125
 74
     0
 49
0.125
 74
     0
 49
-0.125
 74
     0
 49
0.125
 74
     0
 49
-0.125
 74
     0
  0
LTYPE
  5
16F
100
AcDbSymbolTableRecord
100
AcDbLinetypeTableRecord
  2
FANTOMEX2
 70
     0
  3
____________    ____    ____    ____________   
 72
    65
 73
     6
 40
5.0
 49
2.5
 74
     0
 49
-0.5
 74
     0
 49
0.5
 74
     0
 49
-0.5
 74
     0
 49
0.5
 74
     0
 49
-0.5
 74
     0
  0
LTYPE
  5
170
100
AcDbSymbolTableRecord
100
AcDbLinetypeTableRecord
  2
0
 70
     0
  3
MEDUSA PEN 0
 72
    65
 73
     0
 40
0.0
  0
ENDTAB
  0
TABLE
  2
LAYER
  5
13B
100
AcDbSymbolTable
 70
    21
  0
LAYER
  5
147
100
AcDbSymbolTableRecord
100
AcDbLayerTableRecord
  2
0
 70
     0
 62
     7
  6
CONTINUOUS
  0
LAYER
  5
177
100
AcDbSymbolTableRecord
100
AcDbLayerTableRecord
  2
AXE
 70
     0
 62
    80
  6
AXES2
  0
LAYER
  5
178
100
AcDbSymbolTableRecord
100
AcDbLayerTableRecord
  2
CONSTRUCTION
 70
     0
 62
     6
  6
CONTINUOUS
  0
LAYER
  5
179
100
AcDbSymbolTableRecord
100
AcDbLayerTableRecord
  2
COTATION1
 70
     0
 62
     2
  6
CONTINUOUS
  0
LAYER
  5
17A
100
AcDbSymbolTableRecord
100
AcDbLayerTableRecord
  2
HACHURES
 70
     0
 62
     9
  6
CONTINUOUS
  0
LAYER
  5
17B
100
AcDbSymbolTableRecord
100
AcDbLayerTableRecord
  2
FMULT
 70
     0
 62
     6
  6
CONTINUOUS
  0
LAYER
  5
17C
100
AcDbSymbolTableRecord
100
AcDbLayerTableRecord
  2
TEXTE
 70
     0
 62
   131
  6
CONTINUOUS
  0
LAYER
  5
17D
100
AcDbSymbolTableRecord
100
AcDbLayerTableRecord
  2
FDP_CARTOUCHE
 70
     0
 62
     4
  6
CONTINUOUS
  0
LAYER
  5
17E
100
AcDbSymbolTableRecord
100
AcDbLayerTableRecord
  2
FDP_TEXTES
 70
     0
 62
     5
  6
CONTINUOUS
  0
LAYER
  5
17F
100
AcDbSymbolTableRecord
100
AcDbLayerTableRecord
  2
FDP_LOGO_MG
 70
     0
 62
    30
  6
CONTINUOUS
  0
LAYER
  5
180
100
AcDbSymbolTableRecord
100
AcDbLayerTableRecord
  2
FDP_LOGO_SCH
 70
     0
 62
     3
  6
CONTINUOUS
  0
LAYER
  5
181
100
AcDbSymbolTableRecord
100
AcDbLayerTableRecord
  2
FDP_FDP
 70
     0
 62
     5
  6
CONTINUOUS
  0
LAYER
  5
182
100
AcDbSymbolTableRecord
100
AcDbLayerTableRecord
  2
COTATION2
 70
     0
 62
     2
  6
CONTINUOUS
  0
LAYER
  5
183
100
AcDbSymbolTableRecord
100
AcDbLayerTableRecord
  2
COTATION3
 70
     0
 62
     2
  6
CONTINUOUS
  0
LAYER
  5
184
100
AcDbSymbolTableRecord
100
AcDbLayerTableRecord
  2
COTATION4
 70
     0
 62
     2
  6
CONTINUOUS
  0
LAYER
  5
185
100
AcDbSymbolTableRecord
100
AcDbLayerTableRecord
  2
ASHADE
 70
     0
 62
     7
  6
CONTINUOUS
  0
LAYER
  5
186
100
AcDbSymbolTableRecord
100
AcDbLayerTableRecord
  2
POINTILLE_COURT
 70
     0
 62
    40
  6
CACHE2
  0
LAYER
  5
187
100
AcDbSymbolTableRecord
100
AcDbLayerTableRecord
  2
POINTILLE_MOYEN
 70
     0
 62
   140
  6
CACHE
  0
LAYER
  5
188
100
AcDbSymbolTableRecord
100
AcDbLayerTableRecord
  2
POINTILLE_LONG
 70
     0
 62
   240
  6
CACHEX2
  0
LAYER
  5
189
100
AcDbSymbolTableRecord
100
AcDbLayerTableRecord
  2
ALPHA
 70
     0
 62
   255
  6
CONTINUOUS
  0
LAYER
  5
18A
100
AcDbSymbolTableRecord
100
AcDbLayerTableRecord
  2
DEFPOINTS
 70
     0
 62
     7
  6
CONTINUOUS
  0
ENDTAB
  0
TABLE
  2
STYLE
  5
13C
100
AcDbSymbolTable
 70
     4
  0
STYLE
  5
148
100
AcDbSymbolTableRecord
100
AcDbTextStyleTableRecord
  2
STANDARD
 70
     0
 40
0.0
 41
1.0
 50
0.0
 71
     0
 42
0.2
  3
txt
  4

  0
STYLE
  5
158
100
AcDbSymbolTableRecord
100
AcDbTextStyleTableRecord
  2
ROMANS
 70
     0
 40
0.0
 41
1.0
 50
0.0
 71
     0
 42
2.9
  3
romans.shx
  4

  0
STYLE
  5
159
100
AcDbSymbolTableRecord
100
AcDbTextStyleTableRecord
  2
INFOCAR
 70
     0
 40
0.0
 41
1.34
 50
0.0
 71
     0
 42
2.0
  3
ROMANS.SHX
  4

  0
STYLE
  5
15A
100
AcDbSymbolTableRecord
100
AcDbTextStyleTableRecord
  2
CARTOUCHE
 70
     0
 40
0.0
 41
1.0
 50
0.0
 71
     0
 42
0.2
  3
ROMANS.SHX
  4

  0
ENDTAB
  0
TABLE
  2
VIEW
  5
13F
100
AcDbSymbolTable
 70
     0
  0
ENDTAB
  0
TABLE
  2
UCS
  5
140
100
AcDbSymbolTable
 70
     0
  0
ENDTAB
  0
TABLE
  2
APPID
  5
142
100
AcDbSymbolTable
 70
     3
  0
APPID
  5
149
100
AcDbSymbolTableRecord
100
AcDbRegAppTableRecord
  2
ACAD
 70
     0
  0
APPID
  5
173
100
AcDbSymbolTableRecord
100
AcDbRegAppTableRecord
  2
AVE_RENDER
 70
     0
  0
APPID
  5
174
100
AcDbSymbolTableRecord
100
AcDbRegAppTableRecord
  2
AVE_MATERIAL
 70
     0
  0
ENDTAB
  0
TABLE
  2
DIMSTYLE
  5
143
100
AcDbSymbolTable
 70
     2
  0
DIMSTYLE
105
175
100
AcDbSymbolTableRecord
100
AcDbDimStyleTableRecord
  2
STANDARD
 70
     0
  3

  4

  5

  6

  7

 40
1.0
 41
0.18
 42
0.0625
 43
0.38
 44
0.18
 45
0.0
 46
0.0
 47
0.0
 48
0.0
140
0.18
141
0.09
142
0.0
143
25.4
144
1.0
145
0.0
146
1.0
147
0.09
 71
     0
 72
     0
 73
     1
 74
     1
 75
     0
 76
     0
 77
     0
 78
     0
170
     0
171
     2
172
     0
173
     0
174
     0
175
     0
176
     0
177
     0
178
     0
270
     2
271
     4
272
     4
273
     2
274
     2
340
158
275
     0
280
     0
281
     0
282
     0
283
     1
284
    12
285
    12
286
    12
287
     5
288
     0
  0
DIMSTYLE
105
176
100
AcDbSymbolTableRecord
100
AcDbDimStyleTableRecord
  2
SC_STAND
 70
     0
  3

  4

  5

  6

  7

 40
1.0
 41
3.0
 42
0.0625
 43
0.38
 44
0.18
 45
0.01
 46
0.0
 47
0.0
 48
0.0
140
2.5
141
0.09
142
0.0
143
25.4
144
1.0
145
0.0
146
1.0
147
1.0
 71
     0
 72
     0
 73
     0
 74
     0
 75
     0
 76
     0
 77
     1
 78
    12
170
     0
171
     2
172
     1
173
     0
174
     0
175
     0
176
     0
177
     0
178
     0
270
     2
271
     4
272
     4
273
     2
274
     2
340
158
275
     0
280
     0
281
     0
282
     0
283
     1
284
    12
285
    12
286
    12
287
     5
288
     0
  0
ENDTAB
  0
TABLE
  2
BLOCK_RECORD
  5
13A
100
AcDbSymbolTable
 70
     3
  0
BLOCK_RECORD
  5
150
100
AcDbSymbolTableRecord
100
AcDbBlockTableRecord
  2
*MODEL_SPACE
  0
BLOCK_RECORD
  5
14D
100
AcDbSymbolTableRecord
100
AcDbBlockTableRecord
  2
*PAPER_SPACE
  0
BLOCK_RECORD
  5
155
100
AcDbSymbolTableRecord
100
AcDbBlockTableRecord
  2
AVE_RENDER
  0
BLOCK_RECORD
  5
156
100
AcDbSymbolTableRecord
100
AcDbBlockTableRecord
  2
AVE_GLOBAL
  0
BLOCK_RECORD
  5
157
100
AcDbSymbolTableRecord
100
AcDbBlockTableRecord
  2
SCH_ISO
  0
ENDTAB
  0
ENDSEC
  0
SECTION
  2
BLOCKS
  0
BLOCK
  5
18D
100
AcDbEntity
  8
0
100
AcDbBlockBegin
  2
*MODEL_SPACE
 70
     0
 10
0.0
 20
0.0
 30
0.0
  3
*MODEL_SPACE
  1

  0
ENDBLK
  5
18E
100
AcDbEntity
  8
0
100
AcDbBlockEnd
  0
BLOCK
  5
18B
100
AcDbEntity
 67
     1
  8
0
100
AcDbBlockBegin
  2
*PAPER_SPACE
 70
     0
 10
0.0
 20
0.0
 30
0.0
  3
*PAPER_SPACE
  1

  0
ENDBLK
  5
18C
100
AcDbEntity
 67
     1
  8
0
100
AcDbBlockEnd
  0
BLOCK
  5
9D
100
AcDbEntity
  8
0
100
AcDbBlockBegin
  2
AVE_RENDER
 70
     0
 10
0.0
 20
0.0
 30
0.0
  3
AVE_RENDER
  1
AVE_RENDER
  0
ENDBLK
  5
9E
100
AcDbEntity
  8
0
100
AcDbBlockEnd
  0
BLOCK
  5
A0
100
AcDbEntity
  8
0
100
AcDbBlockBegin
  2
AVE_GLOBAL
 70
     0
 10
0.0
 20
0.0
 30
0.0
  3
AVE_GLOBAL
  1
AVE_GLOBAL
  0
ENDBLK
  5
A1
100
AcDbEntity
  8
0
100
AcDbBlockEnd
  0
BLOCK
  5
DC
100
AcDbEntity
  8
0
100
AcDbBlockBegin
  2
SCH_ISO
 70
     0
 10
0.0
 20
0.0
 30
0.0
  3
SCH_ISO
  1

  0
INSERT
  5
D3
100
AcDbEntity
  8
ASHADE
 62
     1
100
AcDbBlockReference
  2
AVE_RENDER
 10
0.0
 20
0.0
 30
0.0
1001
AVE_RENDER
1002
{
1070
     6
1000
Pref
1070
    50
1070
    20
1070
     1
1070
     0
1000

1070
    10
1070
     1
1070
    30
1040
25.4
1070
     1
1040
0.3
1040
0.7
1040
0.0
1040
10.0
1010
-1.0
1020
-1.0
1030
-1.0
1040
0.3
1070
    49
1070
     0
1070
     0
1010
1.0
1020
1.0
1030
1.0
1040
45.0
1070
     1
1070
     0
1000
WCS
1040
0.0
1002
}
  0
INSERT
  5
D4
100
AcDbEntity
  8
ASHADE
 62
     3
100
AcDbBlockReference
  2
AVE_RENDER
 10
0.0
 20
0.0
 30
0.0
1001
AVE_RENDER
1002
{
1070
     0
1000
Full Opt
1070
     0
1070
     1
1070
     1
1070
     1
1070
     0
1070
     0
1070
     0
1070
     1
1070
     1
1040
0.0001
1040
0.0001
1002
}
  0
INSERT
  5
D5
100
AcDbEntity
  8
ASHADE
 62
     4
100
AcDbBlockReference
  2
AVE_RENDER
 10
0.0
 20
0.0
 30
0.0
1001
AVE_RENDER
1002
{
1070
     0
1000
Quick Opt
1070
     0
1070
     1
1070
     1
1070
     1
1070
     0
1070
     0
1070
     1
1002
}
  0
INSERT
  5
D6
100
AcDbEntity
  8
ASHADE
 62
     5
100
AcDbBlockReference
  2
AVE_RENDER
 10
0.0
 20
0.0
 30
0.0
1001
AVE_RENDER
1002
{
1070
     1
1000
Scanl Opt
1070
     2
1070
     0
1070
     2
1040
2.0
1040
4.0
1070
     0
1070
     1
1070
     0
1040
0.03
1002
}
  0
INSERT
  5
D7
100
AcDbEntity
  8
ASHADE
 62
     6
100
AcDbBlockReference
  2
AVE_RENDER
 10
0.0
 20
0.0
 30
0.0
1001
AVE_RENDER
1002
{
1070
     2
1000
Raytr Opt
1070
     2
1070
     0
1070
     2
1040
2.0
1040
4.0
1070
     0
1070
     1
1070
     1
1040
0.03
1070
     3
1040
0.03
1002
}
  0
INSERT
  5
D8
100
AcDbEntity
  8
ASHADE
 62
     7
100
AcDbBlockReference
  2
AVE_RENDER
 10
0.0
 20
0.0
 30
0.0
1001
AVE_RENDER
1002
{
1070
     0
1000
RFile Opt
1070
     5
1070
   640
1070
   480
1070
 10000
1070
     3
1070
    32
1070
    24
1070
     0
1070
     0
1070
     0
1070
     1
1070
     0
1070
     0
1070
     0
1002
}
  0
INSERT
  5
D9
100
AcDbEntity
  8
ASHADE
 62
     8
100
AcDbBlockReference
  2
AVE_RENDER
 10
0.0
 20
0.0
 30
0.0
1001
AVE_RENDER
1002
{
1070
     0
1000
Fog Opt
1070
     0
1070
     0
1040
0.0
1040
1.0
1040
0.0
1040
1.0
1010
0.5
1020
0.5
1030
0.5
1002
}
  0
INSERT
  5
DA
100
AcDbEntity
  8
ASHADE
 62
     9
100
AcDbBlockReference
  2
AVE_RENDER
 10
0.0
 20
0.0
 30
0.0
1001
AVE_RENDER
1002
{
1070
     0
1000
BG Opt
1070
     0
1070
     1
1010
0.0
1020
0.0
1030
0.0
1010
1.0
1020
0.0
1030
0.0
1010
0.0
1020
1.0
1030
0.0
1010
0.0
1020
0.0
1030
1.0
1040
0.5
1040
0.33
1040
0.0
1000

1070
     1
1000

1070
     1
1070
     1
1040
1.0
1040
1.0
1040
0.0
1040
0.0
1070
     0
1002
}
  0
INSERT
  5
DB
100
AcDbEntity
  8
ASHADE
 62
     1
100
AcDbBlockReference
  2
AVE_GLOBAL
 10
0.0
 20
0.0
 30
0.0
1001
AVE_MATERIAL
1002
{
1000
*GLOBAL*
1000
1
1000
Finition globale.
1002
{
1002
}
1002
{
1070
    63
1002
{
1002
{
1010
-1.0
1020
-1.0
1030
-1.0
1002
}
1040
0.1
1000

1040
0.0
1002
{
1002
}
1040
0.0
1002
{
1002
}
1040
0.0
1002
}
1002
{
1002
{
1010
-1.0
1020
-1.0
1030
-1.0
1002
}
1040
0.7
1000

1040
0.0
1002
{
1002
}
1040
0.0
1002
{
1002
}
1040
0.0
1002
}
1002
{
1002
{
1010
-1.0
1020
-1.0
1030
-1.0
1002
}
1040
0.2
1000

1040
0.0
1002
{
1002
}
1040
0.0
1002
{
1002
}
1040
0.0
1002
}
1002
{
1070
     0
1002
{
1070
     1
1002
{
1040
1.0
1040
1.0
1000

1040
0.0
1002
{
1002
}
1040
0.0
1002
{
1002
}
1040
0.0
1002
}
1002
}
1040
1.0
1040
0.0
1040
0.0
1002
}
1002
{
1040
1.0
1040
1.0
1000

1040
0.0
1002
{
1002
}
1040
0.0
1002
{
1002
}
1040
0.0
1002
}
1002
{
1040
0.5
1040
1.0
1000

1040
0.0
1002
{
1002
}
1040
0.0
1002
{
1002
}
1040
0.0
1002
}
1002
{
1070
     0
1040
0.0
1002
{
1002
}
1040
1.0
1002
{
1002
}
1040
0.0
1002
}
1002
{
1040
0.0
1002
{
1002
{
1010
0.0
1020
0.0
1030
0.0
1002
}
1040
1.0
1000

1040
0.0
1002
{
1002
}
1040
0.0
1002
{
1002
}
1040
0.0
1002
}
1002
}
1002
{
1002
{
1070
     1
1002
{
1040
0.0
1040
1.0
1000

1040
0.0
1002
{
1002
}
1040
0.0
1002
{
1002
}
1040
0.0
1002
}
1002
}
1040
0.0
1002
{
1002
}
1010
1.0
1020
0.0
1030
0.0
1010
0.0
1020
1.0
1030
0.0
1010
0.0
1020
0.0
1030
1.0
1070
     0
1002
}
1002
{
1002
{
1040
1.0
1040
1.0
1002
{
1070
     1
1002
{
1040
1.0
1040
1.0
1000

1040
0.0
1002
{
1002
}
1040
0.0
1002
{
1002
}
1040
0.0
1002
}
1002
}
1002
}
1070
     0
1040
0.0
1002
{
1002
}
1002
}
1002
{
1002
}
1002
}
1002
{
1071
        3
1070
     3
1070
     0
1002
{
1070
     2
1070
     0
1070
     0
1040
0.0
1002
}
1070
     0
1070
     2
1002
{
1002
}
1002
}
1002
{
1040
8030.0
1040
190.300003
1040
0.305
1040
228.0
1040
545.0
1040
14.0
1040
17.4
1040
0.456
1002
}
1002
}
  0
ENDBLK
  5
DD
100
AcDbEntity
  8
0
100
AcDbBlockEnd
  0
ENDSEC
  0
SECTION
  2
ENTITIES
  0
CIRCLE
  5
1D
100
AcDbEntity
  8
ALPHA
100
AcDbCircle
 10
147.956258
 20
107.559222
 30
0.0
 40
7.65
  0
CIRCLE
  5
1E
100
AcDbEntity
  8
ALPHA
100
AcDbCircle
 10
147.956258
 20
107.559222
 30
0.0
 40
8.925
  0
ARC
  5
1F
100
AcDbEntity
  8
ALPHA
100
AcDbCircle
 10
147.956258
 20
107.559222
 30
0.0
 40
7.45
100
AcDbArc
 50
256.257044
 51
283.742956
  0
ARC
  5
20
100
AcDbEntity
  8
ALPHA
100
AcDbCircle
 10
149.607345
 20
100.808191
 30
0.0
 40
0.5
100
AcDbArc
 50
283.742956
 51
6.800031
  0
ARC
  5
21
100
AcDbEntity
  8
ALPHA
100
AcDbCircle
 10
206.222924
 20
107.559222
 30
0.0
 40
56.516667
100
AcDbArc
 50
173.199969
 51
186.800031
  0
ARC
  5
22
100
AcDbEntity
  8
ALPHA
100
AcDbCircle
 10
146.305171
 20
100.808191
 30
0.0
 40
0.5
100
AcDbArc
 50
173.199969
 51
256.257044
  0
ARC
  5
23
100
AcDbEntity
  8
ALPHA
100
AcDbCircle
 10
89.689591
 20
107.559222
 30
0.0
 40
56.516667
100
AcDbArc
 50
353.199969
 51
6.800031
  0
ARC
  5
24
100
AcDbEntity
  8
ALPHA
100
AcDbCircle
 10
146.305171
 20
114.310252
 30
0.0
 40
0.5
100
AcDbArc
 50
103.742956
 51
186.800031
  0
ARC
  5
25
100
AcDbEntity
  8
ALPHA
100
AcDbCircle
 10
147.956258
 20
107.559222
 30
0.0
 40
7.45
100
AcDbArc
 50
76.257044
 51
103.742956
  0
ARC
  5
26
100
AcDbEntity
  8
ALPHA
100
AcDbCircle
 10
149.607345
 20
114.310252
 30
0.0
 40
0.5
100
AcDbArc
 50
353.199969
 51
76.257044
  0
CIRCLE
  5
27
100
AcDbEntity
  8
ALPHA
100
AcDbCircle
 10
147.956258
 20
107.559222
 30
0.0
 40
7.575
  0
LINE
  5
28
100
AcDbEntity
  8
ALPHA
100
AcDbLine
 10
153.9055
 20
98.659222
 30
0.0
 11
156.856258
 21
101.609979
 31
0.0
  0
LINE
  5
29
100
AcDbEntity
  8
ALPHA
100
AcDbLine
 10
156.856258
 20
113.508464
 30
0.0
 11
153.9055
 21
116.459222
 31
0.0
  0
LINE
  5
2A
100
AcDbEntity
  8
ALPHA
100
AcDbLine
 10
151.456258
 20
116.959222
 30
0.0
 11
151.956258
 21
116.459222
 31
0.0
  0
LINE
  5
2B
100
AcDbEntity
  8
ALPHA
100
AcDbLine
 10
151.456258
 20
116.959222
 30
0.0
 11
144.456258
 21
116.959222
 31
0.0
  0
LINE
  5
2C
100
AcDbEntity
  8
ALPHA
100
AcDbLine
 10
148.595833
 20
116.459222
 30
0.0
 11
156.856258
 21
116.459222
 31
0.0
  0
LINE
  5
2D
100
AcDbEntity
  8
ALPHA
100
AcDbLine
 10
147.316682
 20
116.459222
 30
0.0
 11
139.056258
 21
116.459222
 31
0.0
  0
LINE
  5
2E
100
AcDbEntity
  8
ALPHA
100
AcDbLine
 10
152.14977
 20
98.172647
 30
0.0
 11
152.636345
 21
98.659222
 31
0.0
  0
LINE
  5
2F
100
AcDbEntity
  8
ALPHA
100
AcDbLine
 10
156.906258
 20
115.259222
 30
0.0
 11
156.906258
 21
99.859222
 31
0.0
  0
LINE
  5
30
100
AcDbEntity
  8
ALPHA
100
AcDbLine
 10
156.856258
 20
107.940648
 30
0.0
 11
156.856258
 21
116.459222
 31
0.0
  0
LINE
  5
31
100
AcDbEntity
  8
ALPHA
100
AcDbLine
 10
156.856258
 20
98.659222
 30
0.0
 11
156.856258
 21
107.177795
 31
0.0
  0
LINE
  5
32
100
AcDbEntity
  8
ALPHA
100
AcDbLine
 10
156.856258
 20
115.259222
 30
0.0
 11
156.906258
 21
115.259222
 31
0.0
  0
LINE
  5
33
100
AcDbEntity
  8
ALPHA
100
AcDbLine
 10
139.056258
 20
115.259222
 30
0.0
 11
139.006258
 21
115.259222
 31
0.0
  0
LINE
  5
34
100
AcDbEntity
  8
ALPHA
100
AcDbLine
 10
139.056258
 20
114.459222
 30
0.0
 11
139.006258
 21
114.459222
 31
0.0
  0
LINE
  5
35
100
AcDbEntity
  8
ALPHA
100
AcDbLine
 10
139.056258
 20
114.384222
 30
0.0
 11
139.006258
 21
114.384222
 31
0.0
  0
LINE
  5
36
100
AcDbEntity
  8
ALPHA
100
AcDbLine
 10
156.906258
 20
114.384222
 30
0.0
 11
156.856258
 21
114.384222
 31
0.0
  0
LINE
  5
37
100
AcDbEntity
  8
ALPHA
100
AcDbLine
 10
156.906258
 20
113.459222
 30
0.0
 11
156.856258
 21
113.459222
 31
0.0
  0
LINE
  5
38
100
AcDbEntity
  8
ALPHA
100
AcDbLine
 10
156.906258
 20
111.259222
 30
0.0
 11
156.856258
 21
111.259222
 31
0.0
  0
LINE
  5
39
100
AcDbEntity
  8
ALPHA
100
AcDbLine
 10
139.056258
 20
110.334222
 30
0.0
 11
139.006258
 21
110.334222
 31
0.0
  0
LINE
  5
3A
100
AcDbEntity
  8
ALPHA
100
AcDbLine
 10
156.906258
 20
110.334222
 30
0.0
 11
156.856258
 21
110.334222
 31
0.0
  0
LINE
  5
3B
100
AcDbEntity
  8
ALPHA
100
AcDbLine
 10
144.010833
 20
98.659222
 30
0.0
 11
143.524258
 21
98.172647
 31
0.0
  0
LINE
  5
3C
100
AcDbEntity
  8
ALPHA
100
AcDbLine
 10
139.056258
 20
110.259222
 30
0.0
 11
139.006258
 21
110.259222
 31
0.0
  0
LINE
  5
3D
100
AcDbEntity
  8
ALPHA
100
AcDbLine
 10
140.461417
 20
109.059222
 30
0.0
 11
140.531258
 21
109.059222
 31
0.0
  0
LINE
  5
3E
100
AcDbEntity
  8
ALPHA
100
AcDbLine
 10
148.706258
 20
103.859222
 30
0.0
 11
148.706258
 21
100.709222
 31
0.0
  0
LWPOLYLINE
  5
3F
100
AcDbEntity
  8
ALPHA
100
AcDbPolyline
 90
       66
 70
     0
 43
0.0
 10
147.206258
 20
103.859222
 10
147.20711
 20
103.895584
 10
147.20968
 20
103.931592
 10
147.21399
 20
103.96731
 10
147.220059
 20
104.002802
 10
147.22791
 20
104.038133
 10
147.237548
 20
104.073322
 10
147.24893
 20
104.108221
 10
147.261995
 20
104.142637
 10
147.276687
 20
104.176376
 10
147.292946
 20
104.209246
 10
147.310711
 20
104.241082
 10
147.329917
 20
104.271829
 10
147.350496
 20
104.30146
 10
147.372379
 20
104.329948
 10
147.395498
 20
104.357266
 10
147.419799
 20
104.38339
 10
147.445288
 20
104.408305
 10
147.471983
 20
104.431998
 10
147.499903
 20
104.454457
 10
147.529068
 20
104.47567
 10
147.559469
 20
104.495609
 10
147.590997
 20
104.514187
 10
147.623515
 20
104.531302
 10
147.656886
 20
104.546853
 10
147.690973
 20
104.560737
 10
147.72564
 20
104.572872
 10
147.76075
 20
104.583249
 10
147.796166
 20
104.591878
 10
147.831749
 20
104.59877
 10
147.867364
 20
104.603935
 10
147.902902
 20
104.607382
 10
147.938382
 20
104.60911
 10
147.973849
 20
104.609117
 10
148.009351
 20
104.607402
 10
148.044934
 20
104.603961
 10
148.080614
 20
104.598792
 10
148.116276
 20
104.591888
 10
148.151771
 20
104.583241
 10
148.186953
 20
104.572843
 10
148.221675
 20
104.560687
 10
148.25579
 20
104.546784
 10
148.289164
 20
104.531221
 10
148.321663
 20
104.514103
 10
148.353154
 20
104.495538
 10
148.383504
 20
104.475631
 10
148.412607
 20
104.45447
 10
148.440464
 20
104.432073
 10
148.467104
 20
104.408439
 10
148.492555
 20
104.383568
 10
148.516845
 20
104.35746
 10
148.539985
 20
104.330121
 10
148.561914
 20
104.30158
 10
148.582552
 20
104.271875
 10
148.601819
 20
104.241043
 10
148.619637
 20
104.20912
 10
148.635928
 20
104.17617
 10
148.650636
 20
104.142363
 10
148.663703
 20
104.107896
 10
148.675074
 20
104.072966
 10
148.684695
 20
104.037769
 10
148.692523
 20
104.00246
 10
148.698568
 20
103.967016
 10
148.702856
 20
103.931372
 10
148.705411
 20
103.895463
 10
148.706258
 20
103.859222
  0
LINE
  5
83
100
AcDbEntity
  8
ALPHA
100
AcDbLine
 10
140.531258
 20
106.059222
 30
0.0
 11
140.461417
 21
106.059222
 31
0.0
  0
LINE
  5
84
100
AcDbEntity
  8
ALPHA
100
AcDbLine
 10
147.206258
 20
100.709222
 30
0.0
 11
147.206258
 21
103.859222
 31
0.0
  0
LINE
  5
85
100
AcDbEntity
  8
ALPHA
100
AcDbLine
 10
139.056258
 20
104.859222
 30
0.0
 11
139.006258
 21
104.859222
 31
0.0
  0
LINE
  5
86
100
AcDbEntity
  8
ALPHA
100
AcDbLine
 10
139.056258
 20
104.784222
 30
0.0
 11
139.006258
 21
104.784222
 31
0.0
  0
LINE
  5
87
100
AcDbEntity
  8
ALPHA
100
AcDbLine
 10
156.906258
 20
104.784222
 30
0.0
 11
156.856258
 21
104.784222
 31
0.0
  0
LINE
  5
88
100
AcDbEntity
  8
ALPHA
100
AcDbLine
 10
151.663196
 20
98.659222
 30
0.0
 11
152.14977
 21
98.172647
 31
0.0
  0
LINE
  5
89
100
AcDbEntity
  8
ALPHA
100
AcDbLine
 10
156.906258
 20
103.859222
 30
0.0
 11
156.856258
 21
103.859222
 31
0.0
  0
LINE
  5
8A
100
AcDbEntity
  8
ALPHA
100
AcDbLine
 10
156.906258
 20
101.659222
 30
0.0
 11
156.856258
 21
101.659222
 31
0.0
  0
LINE
  5
8B
100
AcDbEntity
  8
ALPHA
100
AcDbLine
 10
139.056258
 20
100.734222
 30
0.0
 11
139.006258
 21
100.734222
 31
0.0
  0
LINE
  5
8C
100
AcDbEntity
  8
ALPHA
100
AcDbLine
 10
156.906258
 20
100.734222
 30
0.0
 11
156.856258
 21
100.734222
 31
0.0
  0
LINE
  5
8D
100
AcDbEntity
  8
ALPHA
100
AcDbLine
 10
148.706258
 20
100.709222
 30
0.0
 11
147.206258
 21
100.709222
 31
0.0
  0
LINE
  5
8E
100
AcDbEntity
  8
ALPHA
100
AcDbLine
 10
139.056258
 20
100.659222
 30
0.0
 11
139.006258
 21
100.659222
 31
0.0
  0
LINE
  5
8F
100
AcDbEntity
  8
ALPHA
100
AcDbLine
 10
156.856258
 20
99.859222
 30
0.0
 11
156.906258
 21
99.859222
 31
0.0
  0
LINE
  5
90
100
AcDbEntity
  8
ALPHA
100
AcDbLine
 10
139.056258
 20
99.859222
 30
0.0
 11
139.006258
 21
99.859222
 31
0.0
  0
LINE
  5
91
100
AcDbEntity
  8
ALPHA
100
AcDbLine
 10
148.595833
 20
98.659222
 30
0.0
 11
156.856258
 21
98.659222
 31
0.0
  0
LINE
  5
92
100
AcDbEntity
  8
ALPHA
100
AcDbLine
 10
139.056258
 20
98.659222
 30
0.0
 11
147.316682
 21
98.659222
 31
0.0
  0
LINE
  5
93
100
AcDbEntity
  8
ALPHA
100
AcDbLine
 10
143.956258
 20
116.459222
 30
0.0
 11
144.456258
 21
116.959222
 31
0.0
  0
LINE
  5
94
100
AcDbEntity
  8
ALPHA
100
AcDbLine
 10
139.056258
 20
107.940648
 30
0.0
 11
139.056258
 21
116.459222
 31
0.0
  0
LINE
  5
95
100
AcDbEntity
  8
ALPHA
100
AcDbLine
 10
139.056258
 20
107.177795
 30
0.0
 11
139.056258
 21
98.659222
 31
0.0
  0
LINE
  5
96
100
AcDbEntity
  8
ALPHA
100
AcDbLine
 10
139.006258
 20
99.859222
 30
0.0
 11
139.006258
 21
115.259222
 31
0.0
  0
LINE
  5
97
100
AcDbEntity
  8
ALPHA
100
AcDbLine
 10
143.037683
 20
98.659222
 30
0.0
 11
143.524258
 21
98.172647
 31
0.0
  0
LINE
  5
98
100
AcDbEntity
  8
ALPHA
100
AcDbLine
 10
142.007015
 20
98.659222
 30
0.0
 11
139.056258
 21
101.609979
 31
0.0
  0
LINE
  5
99
100
AcDbEntity
  8
ALPHA
100
AcDbLine
 10
139.056258
 20
113.508464
 30
0.0
 11
142.007015
 21
116.459222
 31
0.0
  0
INSERT
  5
DF
100
AcDbEntity
  8
0
100
AcDbBlockReference
  2
SCH_ISO
 10
0.0
 20
0.0
 30
0.0
  0
ENDSEC
  0
SECTION
  2
OBJECTS
  0
DICTIONARY
  5
145
100
AcDbDictionary
  3
ACAD_GROUP
350
146
  3
ACAD_MLINESTYLE
350
153
  3
ACDBVARIABLEDICTIONARY
350
18F
  0
DICTIONARY
  5
146
102
{ACAD_REACTORS
330
145
102
}
100
AcDbDictionary
  0
DICTIONARY
  5
153
102
{ACAD_REACTORS
330
145
102
}
100
AcDbDictionary
  3
STANDARD
350
154
  0
DICTIONARY
  5
18F
102
{ACAD_REACTORS
330
145
102
}
100
AcDbDictionary
  3
DIMADEC
350
190
  0
MLINESTYLE
  5
154
102
{ACAD_REACTORS
330
153
102
}
100
AcDbMlineStyle
  2
STANDARD
 70
     0
  3

 62
   256
 51
90.0
 52
90.0
 71
     2
 49
0.5
 62
   256
  6
BYLAYER
 49
-0.5
 62
   256
  6
BYLAYER
  0
DICTIONARYVAR
  5
190
102
{ACAD_REACTORS
330
18F
102
}
100
DictionaryVariables
280
     0
  1
0
  0
ENDSEC
  0
EOF
