999
DXF file: C:\Users\sesa63760\Dev\_Creo\CAD\MCADPE0010602_3D-CAD\drw0001_1.dxf
999
Pro/ENGINEER 2019471 by Parametric Technology Corporation
  0
SECTION
  2
HEADER
  9
$ACADVER
  1
AC1024
  9
$DWGCODEPAGE
  3
ANSI_1252
  9
$EXTMAX
 10
60.7879961656
 20
85.9715945771
 30
0.0
  9
$EXTMIN
 10
0.0
 20
0.0
 30
0.0
  9
$LIMMIN
 10
0.0
 20
0.0
  9
$LIMMAX
 10
60.7879961656
 20
85.9715945771
  9
$VIEWCTR
 10
30.3939980828
 20
42.9857972885
  9
$VIEWSIZE
 40
85.9715945771
  9
$CLAYER
  8
0
  9
$LTSCALE
 40
5.6040743132
  9
$CELTYPE
  6
BYLAYER
  9
$DIMSCALE
 40
1.0
  9
$DIMASZ
 40
0.723666621
  9
$DIMEXO
 40
1.0
  9
$DIMDLI
 40
3.8719058891
  9
$DIMEXE
 40
1.0
  9
$DIMCEN
 40
0.9170303422
  9
$DIMLFAC
 40
1.0
  9
$DIMBLK
  1
_FILLED
  9
$DIMALT
 70
0
  9
$DIMALTF
 40
0.0393700787
  9
$DIMTXT
 40
1.0131332694
  9
$DIMTOL
 70
1
  9
$DIMLIM
 70
0
  9
$DIMTFAC
 40
1.0
  9
$DIMTP
 40
0.01
  9
$DIMTM
 40
0.01
  9
$DIMGAP
 40
0.625
  9
$DIMDSEP
 70
46
  9
$AUNITS
 70
0
  9
$PDMODE
 70
3
  9
$PDSIZE
 40
0.3125
  9
$HANDSEED
  5
397
  9
$TILEMODE
 70
1
  9
$MEASUREMENT
 70
1
  9
$INSUNITS
 70
4
  0
ENDSEC
  0
SECTION
  2
CLASSES
  0
CLASS
  1
ACDBDICTIONARYWDFLT
  2
AcDbDictionaryWithDefault
  3
AutoCAD 2000
 90
0
 91
1
280
0
281
0
  0
CLASS
  1
ACDBPLACEHOLDER
  2
AcDbPlaceHolder
  3
AutoCAD 2000
 90
0
 91
1
280
0
281
0
  0
CLASS
  1
LAYOUT
  2
AcDbLayout
  3
AutoCAD 2000
 90
0
 91
0
280
0
281
0
  0
ENDSEC
  0
SECTION
  2
TABLES
  0
TABLE
  2
VPORT
  5
8
100
AcDbSymbolTable
 70
2
  0
VPORT
  5
1F4
100
AcDbSymbolTableRecord
100
AcDbViewportTableRecord
  2
*ACTIVE
 70
0
 10
0.0
 20
0.0
 11
1.0
 21
1.0
 12
30.3939980828
 22
42.9857972885
 13
0.0
 23
0.0
 14
1.0
 24
1.0
 15
0.0
 25
0.0
 16
0.0
 26
0.0
 36
1.0
 17
0.0
 27
0.0
 37
0.0
 40
85.9715945771
 41
0.7070707071
 42
50.0
 43
0.0
 44
0.0
 50
0.0
 51
0.0
 71
0
 72
100
 73
1
 74
1
 75
0
 76
0
 77
0
 78
0
  0
ENDTAB
  0
TABLE
  2
LTYPE
  5
5
100
AcDbSymbolTable
 70
6
  0
LTYPE
  5
14
100
AcDbSymbolTableRecord
100
AcDbLinetypeTableRecord
  2
BYBLOCK
 70
0
  3

 72
65
 73
0
 40
0.0
  0
LTYPE
  5
15
100
AcDbSymbolTableRecord
100
AcDbLinetypeTableRecord
  2
BYLAYER
 70
0
  3

 72
65
 73
0
 40
0.0
  0
LTYPE
  5
16
100
AcDbSymbolTableRecord
100
AcDbLinetypeTableRecord
  2
CONTINUOUS
 70
64
  3
Solid line
 72
65
 73
0
 40
0.0
  0
LTYPE
  5
1F5
100
AcDbSymbolTableRecord
100
AcDbLinetypeTableRecord
  2
CENTER
 70
64
  3
____ _ ____ _ ____ _ ____ _ ____ _ ____ _ ____
 72
65
 73
4
 40
0.6
 49
0.375
 74
0
 49
-0.075
 74
0
 49
0.075
 74
0
 49
-0.075
 74
0
  0
LTYPE
  5
1F6
100
AcDbSymbolTableRecord
100
AcDbLinetypeTableRecord
  2
HIDDEN
 70
64
  3
- - - - - - - - - - - - - - - - - - - -
 72
65
 73
2
 40
0.2
 49
0.1
 74
0
 49
-0.1
 74
0
  0
LTYPE
  5
1F7
100
AcDbSymbolTableRecord
100
AcDbLinetypeTableRecord
  2
PHANTOM
 70
64
  3
_____ _ _ _____ _ _ _____ _ _ _____
 72
65
 73
6
 40
0.8
 49
0.45
 74
0
 49
-0.05
 74
0
 49
0.1
 74
0
 49
-0.05
 74
0
 49
0.1
 74
0
 49
-0.05
 74
0
  0
LTYPE
  5
1F8
100
AcDbSymbolTableRecord
100
AcDbLinetypeTableRecord
  2
DOT
 70
64
  3
. . . . . . . . . . . . . . . . . . . .
 72
65
 73
2
 40
0.2
 49
0.1
 74
0
 49
-0.1
 74
0
  0
LTYPE
  5
1F9
100
AcDbSymbolTableRecord
100
AcDbLinetypeTableRecord
  2
DASHED
 70
64
  3
- - - - - - - - - - - - - - - - - - - -
 72
65
 73
2
 40
0.2
 49
0.1
 74
0
 49
-0.1
 74
0
  0
ENDTAB
  0
TABLE
  2
LAYER
  5
2
100
AcDbSymbolTable
 70
36
  0
LAYER
  5
10
100
AcDbSymbolTableRecord
100
AcDbLayerTableRecord
  2
0
 70
0
 62
7
  6
CONTINUOUS
370
-3
390
F
  0
LAYER
  5
1FA
100
AcDbSymbolTableRecord
100
AcDbLayerTableRecord
  2
DEFAULT_1
 70
0
 62
7
  6
CENTER
370
-3
390
F
  0
LAYER
  5
1FB
100
AcDbSymbolTableRecord
100
AcDbLayerTableRecord
  2
DEFAULT_2
 70
0
 62
7
  6
HIDDEN
370
-3
390
F
  0
LAYER
  5
1FC
100
AcDbSymbolTableRecord
100
AcDbLayerTableRecord
  2
DEFAULT_3
 70
0
 62
7
  6
PHANTOM
370
-3
390
F
  0
LAYER
  5
1FD
100
AcDbSymbolTableRecord
100
AcDbLayerTableRecord
  2
00_COMPONENTS
 70
0
 62
7
  6
CONTINUOUS
370
-3
390
F
  0
LAYER
  5
1FE
100
AcDbSymbolTableRecord
100
AcDbLayerTableRecord
  2
01_1_DEFAULT_DATUMS
 70
0
 62
7
  6
CONTINUOUS
370
-3
390
F
  0
LAYER
  5
1FF
100
AcDbSymbolTableRecord
100
AcDbLayerTableRecord
  2
01_PLANES
 70
0
 62
7
  6
CONTINUOUS
370
-3
390
F
  0
LAYER
  5
200
100
AcDbSymbolTableRecord
100
AcDbLayerTableRecord
  2
02_COORD_SYS
 70
0
 62
7
  6
CONTINUOUS
370
-3
390
F
  0
LAYER
  5
201
100
AcDbSymbolTableRecord
100
AcDbLayerTableRecord
  2
03_AXES
 70
0
 62
7
  6
CONTINUOUS
370
-3
390
F
  0
LAYER
  5
202
100
AcDbSymbolTableRecord
100
AcDbLayerTableRecord
  2
04_POINTS
 70
0
 62
7
  6
CONTINUOUS
370
-3
390
F
  0
LAYER
  5
203
100
AcDbSymbolTableRecord
100
AcDbLayerTableRecord
  2
05_CURVES
 70
0
 62
7
  6
CONTINUOUS
370
-3
390
F
  0
LAYER
  5
204
100
AcDbSymbolTableRecord
100
AcDbLayerTableRecord
  2
06_SURFS
 70
0
 62
7
  6
CONTINUOUS
370
-3
390
F
  0
LAYER
  5
205
100
AcDbSymbolTableRecord
100
AcDbLayerTableRecord
  2
07_COSMETICS
 70
0
 62
7
  6
CONTINUOUS
370
-3
390
F
  0
LAYER
  5
206
100
AcDbSymbolTableRecord
100
AcDbLayerTableRecord
  2
10_NOTES
 70
0
 62
7
  6
CONTINUOUS
370
-3
390
F
  0
LAYER
  5
207
100
AcDbSymbolTableRecord
100
AcDbLayerTableRecord
  2
11_NOTES_PUB
 70
0
 62
7
  6
CONTINUOUS
370
-3
390
F
  0
LAYER
  5
208
100
AcDbSymbolTableRecord
100
AcDbLayerTableRecord
  2
13_REF_GTOL
 70
0
 62
7
  6
CONTINUOUS
370
-3
390
F
  0
LAYER
  5
209
100
AcDbSymbolTableRecord
100
AcDbLayerTableRecord
  2
16_MISC
 70
0
 62
7
  6
CONTINUOUS
370
-3
390
F
  0
LAYER
  5
20A
100
AcDbSymbolTableRecord
100
AcDbLayerTableRecord
  2
17_NO_PRINT
 70
0
 62
7
  6
CONTINUOUS
370
-3
390
F
  0
LAYER
  5
20B
100
AcDbSymbolTableRecord
100
AcDbLayerTableRecord
  2
18_DATUM_CAMS_JOINTS
 70
0
 62
7
  6
CONTINUOUS
370
-3
390
F
  0
LAYER
  5
20C
100
AcDbSymbolTableRecord
100
AcDbLayerTableRecord
  2
19_DATUM_FUNCTIONAL
 70
0
 62
7
  6
CONTINUOUS
370
-3
390
F
  0
LAYER
  5
20D
100
AcDbSymbolTableRecord
100
AcDbLayerTableRecord
  2
20_DATUM_KINEMATIC_SCHEME
 70
0
 62
7
  6
CONTINUOUS
370
-3
390
F
  0
ENDTAB
  0
TABLE
  2
STYLE
  5
3
100
AcDbSymbolTable
 70
1
  0
STYLE
  5
11
100
AcDbSymbolTableRecord
100
AcDbTextStyleTableRecord
  2
STANDARD
 70
0
 40
0.0
 41
1.0
 50
0.0
 71
0
 42
0.2
  3
ARIAL.TTF
  4

  0
STYLE
  5
20E
100
AcDbSymbolTableRecord
100
AcDbTextStyleTableRecord
  2
TEXTSTYLE_1
 70
0
 40
0.0
 41
0.8
 50
0.0
 71
0
 42
0.2
  3
gdt
  4

  0
ENDTAB
  0
TABLE
  2
VIEW
  5
6
100
AcDbSymbolTable
 70
0
  0
ENDTAB
  0
TABLE
  2
UCS
  5
7
100
AcDbSymbolTable
 70
0
  0
ENDTAB
  0
TABLE
  2
APPID
  5
9
100
AcDbSymbolTable
 70
1
  0
APPID
  5
20F
100
AcDbSymbolTableRecord
100
AcDbRegAppTableRecord
  2
ACAD
 70
0
  0
ENDTAB
  0
TABLE
  2
BLOCK_RECORD
  5
1
100
AcDbSymbolTable
 70
0
  0
BLOCK_RECORD
  5
210
100
AcDbSymbolTableRecord
100
AcDbBlockTableRecord
  2
*Model_Space
  0
BLOCK_RECORD
  5
211
100
AcDbSymbolTableRecord
100
AcDbBlockTableRecord
  2
*Paper_Space
  0
BLOCK_RECORD
  5
212
100
AcDbSymbolTableRecord
100
AcDbBlockTableRecord
  2
_FILLED
  0
ENDTAB
  0
TABLE
  2
DIMSTYLE
  5
A
100
AcDbSymbolTable
 70
1
100
AcDbDimStyleTable
 71
0
  0
DIMSTYLE
105
213
100
AcDbSymbolTableRecord
100
AcDbDimStyleTableRecord
  2
STANDARD
 70
0
  3

  4

 40
1.0
 41
0.723666621
 42
1.0
 43
0.38
 44
1.0
 45
0.0
 46
0.0
 47
0.01
 48
0.01
140
1.0131332694
141
0.09
142
0.0
143
25.4
144
1.0
145
0.0
146
1.0
147
0.625
 71
1
 72
0
 73
0
 74
0
 75
0
 76
0
 77
1
 78
8
 79
2
170
0
171
1
172
0
173
0
174
0
175
0
176
0
177
0
178
0
270
2
179
2
271
2
272
2
273
2
274
2
275
0
280
0
281
0
282
0
283
1
284
8
285
0
286
0
287
3
288
0
340
11
278
46
341
212
342
212
343
212
344
212
  0
ENDTAB
  0
ENDSEC
  0
SECTION
  2
BLOCKS
  0
BLOCK
  5
20
100
AcDbEntity
  8
0
100
AcDbBlockBegin
  2
*Model_Space
 70
0
 10
0.0
 20
0.0
 30
0.0
  3
*Model_Space
  1

  0
ENDBLK
  5
21
100
AcDbEntity
  8
0
100
AcDbBlockEnd
  0
BLOCK
  5
1C
100
AcDbEntity
  8
0
100
AcDbBlockBegin
  2
*Paper_Space
 70
0
 10
0.0
 20
0.0
 30
0.0
  3
*Paper_Space
  1

  0
ENDBLK
  5
1D
100
AcDbEntity
  8
0
100
AcDbBlockEnd
  0
BLOCK
  5
214
100
AcDbEntity
  8
0
100
AcDbBlockBegin
  2
_FILLED
 70
64
 10
0.0
 20
0.0
  3
_FILLED
  1

  0
SOLID
  5
215
100
AcDbEntity
  8
0
  6
BYBLOCK
 62
0
100
AcDbTrace
 10
0.0
 20
0.0
 11
-1.0
 21
0.25
 12
-1.0
 22
-0.25
 13
-1.0
 23
-0.25
  0
ENDBLK
  5
216
100
AcDbEntity
  8
0
  6
BYBLOCK
 62
0
100
AcDbBlockEnd
  0
ENDSEC
  0
SECTION
  2
ENTITIES
  0
LINE
  5
217
100
AcDbEntity
  8
0
100
AcDbLine
 62
7
  6
BYLAYER
 10
12.6265322474
 20
9.8972928355
 11
18.2126990761
 21
6.6721908747
  0
LINE
  5
218
100
AcDbEntity
  8
0
100
AcDbLine
 62
7
  6
BYLAYER
 10
18.0055867554
 20
7.1299770226
 11
12.4194199267
 21
10.3550789833
  0
LINE
  5
219
100
AcDbEntity
  8
0
100
AcDbLine
 62
7
  6
BYLAYER
 10
12.4194199267
 20
10.5387920271
 11
18.0055867554
 21
7.3136900664
  0
LINE
  5
21A
100
AcDbEntity
  8
0
100
AcDbLine
 62
7
  6
BYLAYER
 10
18.4282081679
 20
8.3051962237
 11
12.8420413392
 21
11.5302981844
  0
LINE
  5
21B
100
AcDbEntity
  8
0
100
AcDbLine
 62
7
  6
BYLAYER
 10
20.2683190345
 20
8.1528682517
 11
20.5158062607
 21
8.0099846675
  0
LINE
  5
21C
100
AcDbEntity
  8
0
100
AcDbLine
 62
7
  6
BYLAYER
 10
13.7393038395
 20
12.50364094
 11
19.3254706682
 21
9.2785389793
  0
LINE
  5
21D
100
AcDbEntity
  8
0
100
AcDbLine
 62
7
  6
BYLAYER
 10
13.8726644095
 20
12.5517115507
 11
19.4588312382
 21
9.32660959
  0
LINE
  5
21E
100
AcDbEntity
  8
0
100
AcDbLine
 62
7
  6
BYLAYER
 10
15.5041690277
 20
11.9829755079
 11
19.0220399103
 21
9.9519777541
  0
LINE
  5
21F
100
AcDbEntity
  8
0
100
AcDbLine
 62
7
  6
BYLAYER
 10
14.6821522058
 20
12.7025008575
 11
15.5041690277
 21
12.2279199606
  0
LINE
  5
220
100
AcDbEntity
  8
0
100
AcDbLine
 62
7
  6
BYLAYER
 10
19.2341710614
 20
10.0744510003
 11
20.2683190345
 21
9.4773988968
  0
LINE
  5
221
100
AcDbEntity
  8
0
100
AcDbLine
 62
7
  6
BYLAYER
 10
19.9601253743
 20
73.3358427137
 11
20.5146903422
 21
73.656019036
  0
LINE
  5
222
100
AcDbEntity
  8
0
100
AcDbLine
 62
7
  6
BYLAYER
 10
19.4588293943
 20
9.3266063963
 11
19.3738326804
 21
9.3181898496
  0
LINE
  5
223
100
AcDbEntity
  8
0
100
AcDbLine
 62
7
  6
BYLAYER
 10
18.2127197049
 20
13.7349724556
 11
18.4282081682
 21
13.6892150331
  0
LINE
  5
224
100
AcDbEntity
  8
0
100
AcDbLine
 62
7
  6
BYLAYER
 10
15.2304284012
 20
13.4990604092
 11
18.7482992838
 21
11.4680626554
  0
LINE
  5
225
100
AcDbEntity
  8
0
100
AcDbLine
 62
7
  6
BYLAYER
 10
18.8982967388
 20
11.9728224711
 11
15.3804258561
 21
14.0038202248
  0
LINE
  5
226
100
AcDbEntity
  8
0
100
AcDbLine
 62
7
  6
BYLAYER
 10
19.0220399103
 20
12.044265198
 11
15.5041690277
 21
14.0752629517
  0
LINE
  5
227
100
AcDbEntity
  8
0
100
AcDbLine
 62
7
  6
BYLAYER
 10
15.2304284012
 20
14.96876476
 11
18.7482992838
 21
12.9377670063
  0
LINE
  5
228
100
AcDbEntity
  8
0
100
AcDbLine
 62
7
  6
BYLAYER
 10
12.6265322474
 20
16.9600387436
 11
18.2126990761
 21
13.7349367829
  0
LINE
  5
229
100
AcDbEntity
  8
0
100
AcDbLine
 62
7
  6
BYLAYER
 10
18.8982967388
 20
13.4425268219
 11
18.466387881
 21
13.691883876
  0
LINE
  5
22A
100
AcDbEntity
  8
0
100
AcDbLine
 62
7
  6
BYLAYER
 10
19.0220399103
 20
13.5139695488
 11
18.6871474326
 21
13.7073154369
  0
LINE
  5
22B
100
AcDbEntity
  8
0
100
AcDbLine
 62
7
  6
BYLAYER
 10
18.0055867554
 20
14.1927229307
 11
12.4194199267
 21
17.4178248914
  0
LINE
  5
22C
100
AcDbEntity
  8
0
100
AcDbLine
 62
7
  6
BYLAYER
 10
33.6354196014
 20
79.3532748284
 11
22.4339575103
 21
72.8861462784
  0
LINE
  5
22D
100
AcDbEntity
  8
0
100
AcDbLine
 62
7
  6
BYLAYER
 10
34.3926847688
 20
77.851319736
 11
24.1133431075
 21
71.9165744864
  0
LINE
  5
22E
100
AcDbEntity
  8
0
100
AcDbLine
 62
7
  6
BYLAYER
 10
18.7483040061
 20
11.4680708615
 11
18.8982967388
 21
11.4829210208
  0
LINE
  5
22F
100
AcDbEntity
  8
0
100
AcDbLine
 62
7
  6
BYLAYER
 10
18.7483040061
 20
12.9377752123
 11
18.8982967388
 21
12.9526253716
  0
LINE
  5
230
100
AcDbEntity
  8
0
100
AcDbLine
 62
7
  6
BYLAYER
 10
13.7876658517
 20
12.5432918103
 11
13.8726625657
 21
12.551708357
  0
LINE
  5
231
100
AcDbEntity
  8
0
100
AcDbLine
 62
7
  6
BYLAYER
 10
18.4282081682
 20
13.6892150331
 11
19.3254706676
 21
13.751935585
  0
LINE
  5
232
100
AcDbEntity
  8
0
100
AcDbLine
 62
7
  6
BYLAYER
 10
20.1622534589
 20
16.2543700172
 11
19.8086970136
 21
16.4584913082
  0
LINE
  5
233
100
AcDbEntity
  8
0
100
AcDbLine
 62
7
  6
BYLAYER
 10
19.8087015403
 20
16.5809609211
 11
20.2683190345
 21
16.3156066403
  0
LINE
  5
234
100
AcDbEntity
  8
0
100
AcDbLine
 62
7
  6
BYLAYER
 10
36.7968578343
 20
76.4633011706
 11
26.517516173
 21
70.528555921
  0
LINE
  5
235
100
AcDbEntity
  8
0
100
AcDbLine
 62
7
  6
BYLAYER
 10
25.7584251205
 20
69.9882685266
 11
26.3129900884
 21
70.3084448489
  0
LINE
  5
236
100
AcDbEntity
  8
0
100
AcDbLine
 62
7
  6
BYLAYER
 10
20.1622534589
 20
16.2543700172
 11
19.912260133
 21
16.229610288
  0
LINE
  5
237
100
AcDbEntity
  8
0
100
AcDbLine
 62
7
  6
BYLAYER
 10
13.7982838907
 20
23.6436762075
 11
16.6267227913
 21
22.0107131894
  0
LINE
  5
238
100
AcDbEntity
  8
0
100
AcDbLine
 62
7
  6
BYLAYER
 10
12.5229783409
 20
60.9621668779
 11
12.4194199267
 21
60.7332781202
  0
LINE
  5
239
100
AcDbEntity
  8
0
100
AcDbLine
 62
7
  6
BYLAYER
 10
14.9246124334
 20
64.9522364169
 11
15.0861287139
 21
65.231992374
  0
LINE
  5
23A
100
AcDbEntity
  8
0
100
AcDbLine
 62
7
  6
BYLAYER
 10
19.2986111756
 20
72.528266526
 11
19.4601274561
 21
72.8080224831
  0
LINE
  5
23B
100
AcDbEntity
  8
0
100
AcDbLine
 62
7
  6
BYLAYER
 10
17.2798757581
 20
65.6830393092
 11
18.0423664058
 21
67.0037191826
  0
LINE
  5
23C
100
AcDbEntity
  8
0
100
AcDbLine
 62
7
  6
BYLAYER
 10
18.3423651568
 20
67.5233351459
 11
18.9423626587
 21
68.5625670726
  0
LINE
  5
23D
100
AcDbEntity
  8
0
100
AcDbLine
 62
7
  6
BYLAYER
 10
19.2423614097
 20
69.082183036
 11
20.0048644128
 21
70.4028843097
  0
LINE
  5
23E
100
AcDbEntity
  8
0
100
AcDbLine
 62
7
  6
BYLAYER
 10
13.7806061476
 20
58.9723085032
 11
14.0875669755
 21
59.293292936
  0
LINE
  5
23F
100
AcDbEntity
  8
0
100
AcDbLine
 62
7
  6
BYLAYER
 10
12.7397633436
 20
61.0873326279
 11
12.5229759085
 21
60.962171091
  0
LINE
  5
240
100
AcDbEntity
  8
0
100
AcDbLine
 62
7
  6
BYLAYER
 10
12.7729747893
 20
60.9374089515
 11
12.854176123
 21
60.9842902835
  0
LINE
  5
241
100
AcDbEntity
  8
0
100
AcDbLine
 62
7
  6
BYLAYER
 10
39.4337193476
 20
76.0057006414
 11
28.0073783316
 21
69.4087389585
  0
LINE
  5
242
100
AcDbEntity
  8
0
100
AcDbLine
 62
7
  6
BYLAYER
 10
15.2154210399
 20
24.4618558381
 11
16.6267227913
 21
23.6470588252
  0
LINE
  5
243
100
AcDbEntity
  8
0
100
AcDbLine
 62
7
  6
BYLAYER
 10
16.6267227913
 20
25.4495273262
 11
15.6013986756
 21
26.0414850885
  0
LINE
  5
244
100
AcDbEntity
  8
0
100
AcDbLine
 62
7
  6
BYLAYER
 10
19.4940403327
 20
9.2487859449
 11
19.4588293943
 21
9.3266063963
  0
LINE
  5
245
100
AcDbEntity
  8
0
100
AcDbLine
 62
7
  6
BYLAYER
 10
13.7806061476
 20
58.9723085032
 11
14.5173937113
 21
59.3976904623
  0
LINE
  5
246
100
AcDbEntity
  8
0
100
AcDbLine
 62
7
  6
BYLAYER
 10
15.5837209325
 20
58.4117579101
 11
13.7806061476
 21
57.3707353177
  0
LINE
  5
247
100
AcDbEntity
  8
0
100
AcDbLine
 62
7
  6
BYLAYER
 10
19.083914072
 20
59.3758967338
 11
17.2807992871
 21
58.3348741414
  0
LINE
  5
248
100
AcDbEntity
  8
0
100
AcDbLine
 62
7
  6
BYLAYER
 10
19.4551466777
 20
59.1615703377
 11
17.6520318928
 21
58.1205477453
  0
LINE
  5
249
100
AcDbEntity
  8
0
100
AcDbLine
 62
7
  6
BYLAYER
 10
19.912260133
 20
16.229610288
 11
19.8087015403
 21
16.4584991488
  0
LINE
  5
24A
100
AcDbEntity
  8
0
100
AcDbLine
 62
7
  6
BYLAYER
 10
12.4194199267
 20
60.7332781202
 11
12.4194199267
 21
17.4178248914
  0
LINE
  5
24B
100
AcDbEntity
  8
0
100
AcDbLine
 62
7
  6
BYLAYER
 10
12.4194199267
 20
10.3550789833
 11
12.4194199267
 21
10.5387920271
  0
LINE
  5
24C
100
AcDbEntity
  8
0
100
AcDbLine
 62
7
  6
BYLAYER
 10
13.7806061476
 20
58.9723085032
 11
13.7806061476
 21
57.3707353177
  0
LINE
  5
24D
100
AcDbEntity
  8
0
100
AcDbLine
 62
7
  6
BYLAYER
 10
13.7806061476
 20
54.5993238355
 11
13.7806061476
 21
37.4935981967
  0
LINE
  5
24E
100
AcDbEntity
  8
0
100
AcDbLine
 62
7
  6
BYLAYER
 10
13.7806061476
 20
20.9641209858
 11
13.7806061476
 21
19.3625478003
  0
LINE
  5
24F
100
AcDbEntity
  8
0
100
AcDbLine
 62
7
  6
BYLAYER
 10
13.7982838907
 20
23.6436762075
 11
13.7982838907
 21
35.9320375853
  0
LINE
  5
250
100
AcDbEntity
  8
0
100
AcDbLine
 62
7
  6
BYLAYER
 10
25.2584272022
 20
69.4604482959
 11
25.0969109218
 21
69.1806923391
  0
LINE
  5
251
100
AcDbEntity
  8
0
100
AcDbLine
 62
7
  6
BYLAYER
 10
20.88442846
 20
61.8844181867
 11
20.7229121797
 21
61.60466223
  0
LINE
  5
252
100
AcDbEntity
  8
0
100
AcDbLine
 62
7
  6
BYLAYER
 10
22.4619218923
 20
62.1860701202
 11
22.5956713355
 21
62.4177322373
  0
LINE
  5
253
100
AcDbEntity
  8
0
100
AcDbLine
 62
7
  6
BYLAYER
 10
25.4906592824
 20
67.4320262836
 11
25.6244087255
 21
67.6636884006
  0
LINE
  5
254
100
AcDbEntity
  8
0
100
AcDbLine
 62
7
  6
BYLAYER
 10
16.6444005345
 20
55.7173602619
 11
16.3374397066
 21
55.3963758291
  0
LINE
  5
255
100
AcDbEntity
  8
0
100
AcDbLine
 62
7
  6
BYLAYER
 10
18.0055867554
 20
57.5081761595
 11
19.8087015403
 21
58.5491987519
  0
LINE
  5
256
100
AcDbEntity
  8
0
100
AcDbLine
 62
7
  6
BYLAYER
 10
14.7175065145
 20
12.6820894996
 11
14.7175065145
 21
15.7528414981
  0
LINE
  5
257
100
AcDbEntity
  8
0
100
AcDbLine
 62
7
  6
BYLAYER
 10
14.7175065145
 20
64.0783237347
 11
14.7175065145
 21
64.2553100765
  0
LINE
  5
258
100
AcDbEntity
  8
0
100
AcDbLine
 62
7
  6
BYLAYER
 10
15.5041690277
 20
11.9829755079
 11
15.5041690277
 21
13.3410197602
  0
LINE
  5
259
100
AcDbEntity
  8
0
100
AcDbLine
 62
7
  6
BYLAYER
 10
15.5041690277
 20
14.0752629517
 11
15.5041690277
 21
14.810724111
  0
LINE
  5
25A
100
AcDbEntity
  8
0
100
AcDbLine
 62
7
  6
BYLAYER
 10
15.5837209325
 20
20.4035703927
 11
15.5837209325
 21
20.8617790463
  0
LINE
  5
25B
100
AcDbEntity
  8
0
100
AcDbLine
 62
7
  6
BYLAYER
 10
15.5837209324
 20
38.534620789
 11
15.5837209324
 21
53.5583185798
  0
LINE
  5
25C
100
AcDbEntity
  8
0
100
AcDbLine
 62
7
  6
BYLAYER
 10
15.5837209325
 20
58.4117579101
 11
15.5837209325
 21
58.8699665637
  0
LINE
  5
25D
100
AcDbEntity
  8
0
100
AcDbLine
 62
7
  6
BYLAYER
 10
15.6013986756
 20
34.8910323295
 11
15.6013986756
 21
26.0414850885
  0
LINE
  5
25E
100
AcDbEntity
  8
0
100
AcDbLine
 62
7
  6
BYLAYER
 10
16.6267227913
 20
22.0107131894
 11
16.6267227913
 21
34.2990745672
  0
LINE
  5
25F
100
AcDbEntity
  8
0
100
AcDbLine
 62
7
  6
BYLAYER
 10
16.6444005345
 20
57.3189334474
 11
16.6444005345
 21
55.7173602619
  0
LINE
  5
260
100
AcDbEntity
  8
0
100
AcDbLine
 62
7
  6
BYLAYER
 10
16.6444005345
 20
17.7091727445
 11
16.6444005345
 21
19.31074593
  0
LINE
  5
261
100
AcDbEntity
  8
0
100
AcDbLine
 62
7
  6
BYLAYER
 10
16.6444005345
 20
35.8402231409
 11
16.6444005345
 21
52.9459487797
  0
LINE
  5
262
100
AcDbEntity
  8
0
100
AcDbLine
 62
7
  6
BYLAYER
 10
26.0219070706
 20
67.4341860624
 11
25.0406611559
 21
65.7346088489
  0
LINE
  5
263
100
AcDbEntity
  8
0
100
AcDbLine
 62
7
  6
BYLAYER
 10
24.7406624049
 20
65.2149928856
 11
24.140664903
 21
64.1757609589
  0
LINE
  5
264
100
AcDbEntity
  8
0
100
AcDbLine
 62
7
  6
BYLAYER
 10
23.840666152
 20
63.6561449955
 11
22.8594202374
 21
61.956567782
  0
LINE
  5
265
100
AcDbEntity
  8
0
100
AcDbLine
 62
7
  6
BYLAYER
 10
31.9885732666
 20
73.6872533519
 11
34.3926847688
 21
77.851319736
  0
LINE
  5
266
100
AcDbEntity
  8
0
100
AcDbLine
 62
7
  6
BYLAYER
 10
19.8087015403
 20
53.8338870636
 11
19.8970852512
 21
53.8849151183
  0
LINE
  5
267
100
AcDbEntity
  8
0
100
AcDbLine
 62
7
  6
BYLAYER
 10
20.1622534589
 20
53.4460551174
 11
20.2683190345
 21
53.5072917405
  0
LINE
  5
268
100
AcDbEntity
  8
0
100
AcDbLine
 62
7
  6
BYLAYER
 10
16.6267227913
 20
34.2990745672
 11
13.7982838907
 21
35.9320375853
  0
LINE
  5
269
100
AcDbEntity
  8
0
100
AcDbLine
 62
7
  6
BYLAYER
 10
17.2807992871
 20
58.3348741414
 11
17.2807992871
 21
58.1943019771
  0
LINE
  5
26A
100
AcDbEntity
  8
0
100
AcDbLine
 62
7
  6
BYLAYER
 10
18.0055867554
 20
7.3136900664
 11
18.0055867554
 21
7.1299770226
  0
LINE
  5
26B
100
AcDbEntity
  8
0
100
AcDbLine
 62
7
  6
BYLAYER
 10
18.0055867554
 20
14.1927229307
 11
18.0055867554
 21
57.5081761595
  0
LINE
  5
26C
100
AcDbEntity
  8
0
100
AcDbLine
 62
7
  6
BYLAYER
 10
19.0220399103
 20
13.7307251315
 11
19.0220399103
 21
13.5139695488
  0
LINE
  5
26D
100
AcDbEntity
  8
0
100
AcDbLine
 62
7
  6
BYLAYER
 10
19.0220399103
 20
13.0240680986
 11
19.0220399103
 21
12.044265198
  0
LINE
  5
26E
100
AcDbEntity
  8
0
100
AcDbLine
 62
7
  6
BYLAYER
 10
19.0220399103
 20
11.5543637477
 11
19.0220399103
 21
9.9519777541
  0
LINE
  5
26F
100
AcDbEntity
  8
0
100
AcDbLine
 62
7
  6
BYLAYER
 10
19.083914072
 20
59.3758967338
 11
19.083914072
 21
60.632371613
  0
LINE
  5
270
100
AcDbEntity
  8
0
100
AcDbLine
 62
7
  6
BYLAYER
 10
19.3755918289
 20
13.768128023
 11
19.3755918289
 21
9.9928035292
  0
LINE
  5
271
100
AcDbEntity
  8
0
100
AcDbLine
 62
7
  6
BYLAYER
 10
19.4940403327
 20
14.1947493366
 11
19.4940403327
 21
13.9763349401
  0
LINE
  5
272
100
AcDbEntity
  8
0
100
AcDbLine
 62
7
  6
BYLAYER
 10
19.4940403327
 20
9.2487859449
 11
19.4940403327
 21
9.0303715483
  0
LINE
  5
273
100
AcDbEntity
  8
0
100
AcDbLine
 62
7
  6
BYLAYER
 10
19.8087015403
 20
58.5491987519
 11
19.8087015403
 21
53.6501842491
  0
LINE
  5
274
100
AcDbEntity
  8
0
100
AcDbLine
 62
7
  6
BYLAYER
 10
19.8087015403
 20
22.5801524945
 11
19.8087015403
 21
16.4584991488
  0
LINE
  5
275
100
AcDbEntity
  8
0
100
AcDbLine
 62
7
  6
BYLAYER
 10
49.365642819
 20
69.3290283624
 11
48.5171182143
 21
68.8391353778
  0
LINE
  5
276
100
AcDbEntity
  8
0
100
AcDbLine
 62
7
  6
BYLAYER
 10
49.5070635864
 20
68.7574752595
 11
49.8252603132
 21
68.9411851288
  0
LINE
  5
277
100
AcDbEntity
  8
0
100
AcDbLine
 62
7
  6
BYLAYER
 10
16.6444005345
 20
35.8402231409
 11
13.7806061476
 21
37.4935981967
  0
LINE
  5
278
100
AcDbEntity
  8
0
100
AcDbLine
 62
7
  6
BYLAYER
 10
15.5837209324
 20
38.534620789
 11
16.6444005345
 21
37.9222509889
  0
LINE
  5
279
100
AcDbEntity
  8
0
100
AcDbLine
 62
7
  6
BYLAYER
 10
19.8970852512
 20
53.8849151183
 11
19.8970852512
 21
53.7216188165
  0
LINE
  5
27A
100
AcDbEntity
  8
0
100
AcDbLine
 62
7
  6
BYLAYER
 10
20.2683190345
 20
16.3156066403
 11
20.2683190345
 21
14.6417766851
  0
LINE
  5
27B
100
AcDbEntity
  8
0
100
AcDbLine
 62
7
  6
BYLAYER
 10
20.2683190345
 20
9.4773988968
 11
20.2683190345
 21
7.6198558978
  0
LINE
  5
27C
100
AcDbEntity
  8
0
100
AcDbLine
 62
7
  6
BYLAYER
 10
20.2683190345
 20
23.6104866677
 11
20.2683190345
 21
53.5072917405
  0
LINE
  5
27D
100
AcDbEntity
  8
0
100
AcDbLine
 62
7
  6
BYLAYER
 10
20.5158062607
 20
8.0099846675
 11
20.5158062607
 21
60.9077358895
  0
LINE
  5
27E
100
AcDbEntity
  8
0
100
AcDbLine
 62
7
  6
BYLAYER
 10
52.0703149963
 20
67.1550636926
 11
52.6183204702
 21
67.4714529119
  0
LINE
  5
27F
100
AcDbEntity
  8
0
100
AcDbLine
 62
7
  6
BYLAYER
 10
45.9008340167
 20
63.5727208897
 11
46.6877291565
 21
64.0270322986
  0
LINE
  5
280
100
AcDbEntity
  8
0
100
AcDbLine
 62
7
  6
BYLAYER
 10
50.5677193423
 20
66.0425941405
 11
50.9212712609
 21
66.2467162175
  0
LINE
  5
281
100
AcDbEntity
  8
0
100
AcDbLine
 62
7
  6
BYLAYER
 10
50.9212712609
 20
65.5526891629
 11
51.9819270167
 21
66.1650553937
  0
LINE
  5
282
100
AcDbEntity
  8
0
100
AcDbLine
 62
7
  6
BYLAYER
 10
46.5056527804
 20
62.6971574557
 11
45.9008340167
 21
62.347967264
  0
LINE
  5
283
100
AcDbEntity
  8
0
100
AcDbLine
 62
7
  6
BYLAYER
 10
52.6183204702
 20
65.0627707814
 11
52.158702976
 21
64.7974120813
  0
LINE
  5
284
100
AcDbEntity
  8
0
100
AcDbLine
 62
7
  6
BYLAYER
 10
46.9938197193
 20
64.2424614474
 11
47.9630596588
 21
65.050168503
  0
LINE
  5
285
100
AcDbEntity
  8
0
100
AcDbLine
 62
7
  6
BYLAYER
 10
47.5463403006
 20
27.2902384937
 11
50.3298581286
 21
25.6832100823
  0
LINE
  5
286
100
AcDbEntity
  8
0
100
AcDbLine
 62
7
  6
BYLAYER
 10
50.2287175958
 20
25.7770164386
 11
47.5770103044
 21
27.3079457229
  0
LINE
  5
287
100
AcDbEntity
  8
0
100
AcDbLine
 62
7
  6
BYLAYER
 10
19.912260133
 20
53.4212953883
 11
19.8087015403
 21
53.6501842491
  0
LINE
  5
288
100
AcDbEntity
  8
0
100
AcDbLine
 62
7
  6
BYLAYER
 10
50.5677193423
 20
66.0425941405
 11
46.8117433437
 21
62.9125866049
  0
LINE
  5
289
100
AcDbEntity
  8
0
100
AcDbLine
 62
7
  6
BYLAYER
 10
13.7806061476
 20
37.4935981967
 11
15.5837209324
 21
38.534620789
  0
LINE
  5
28A
100
AcDbEntity
  8
0
100
AcDbLine
 62
7
  6
BYLAYER
 10
48.6430932996
 20
27.8140527867
 11
48.9019161759
 21
27.6646247099
  0
LINE
  5
28B
100
AcDbEntity
  8
0
100
AcDbLine
 62
7
  6
BYLAYER
 10
19.4952140159
 20
70.7139512941
 11
19.1397021209
 21
71.5628807581
  0
LINE
  5
28C
100
AcDbEntity
  8
0
100
AcDbLine
 62
7
  6
BYLAYER
 10
13.7806061476
 20
20.9641209858
 11
14.0875669755
 21
21.2851054186
  0
LINE
  5
28D
100
AcDbEntity
  8
0
100
AcDbLine
 62
7
  6
BYLAYER
 10
45.9008340167
 20
48.5899015354
 11
47.5625280341
 21
49.5492752969
  0
LINE
  5
28E
100
AcDbEntity
  8
0
100
AcDbLine
 62
7
  6
BYLAYER
 10
46.6786482376
 20
47.8754541602
 11
45.8093280467
 21
47.6425265554
  0
LINE
  5
28F
100
AcDbEntity
  8
0
100
AcDbLine
 62
7
  6
BYLAYER
 10
13.7806061476
 20
54.5993238355
 11
16.6444005345
 21
52.9459487797
  0
LINE
  5
290
100
AcDbEntity
  8
0
100
AcDbLine
 62
7
  6
BYLAYER
 10
13.0692581902
 20
60.7905832472
 11
8.8732693911
 21
64.5695712657
  0
LINE
  5
291
100
AcDbEntity
  8
0
100
AcDbLine
 62
7
  6
BYLAYER
 10
13.0098612833
 20
62.1813628517
 11
17.2058500824
 21
58.4023748331
  0
LINE
  5
292
100
AcDbEntity
  8
0
100
AcDbLine
 62
7
  6
BYLAYER
 10
50.2287175958
 20
25.7770164388
 11
50.329859215
 21
25.683211964
  0
LINE
  5
293
100
AcDbEntity
  8
0
100
AcDbLine
 62
7
  6
BYLAYER
 10
48.7895365992
 20
27.7688519039
 11
48.9019161759
 21
27.6646247099
  0
LINE
  5
294
100
AcDbEntity
  8
0
100
AcDbLine
 62
7
  6
BYLAYER
 10
49.8252603132
 20
68.9411851288
 11
50.18635008
 21
69.5666144228
  0
LINE
  5
295
100
AcDbEntity
  8
0
100
AcDbLine
 62
7
  6
BYLAYER
 10
47.5625280341
 20
49.5492752969
 11
47.7125222352
 21
49.5641280263
  0
LINE
  5
296
100
AcDbEntity
  8
0
100
AcDbLine
 62
7
  6
BYLAYER
 10
45.8093280467
 20
47.6425265554
 11
45.6508783027
 21
47.6567518711
  0
LINE
  5
297
100
AcDbEntity
  8
0
100
AcDbLine
 62
7
  6
BYLAYER
 10
52.7647630349
 20
42.5158499625
 11
52.5941510936
 21
42.5624890829
  0
LINE
  5
298
100
AcDbEntity
  8
0
100
AcDbLine
 62
7
  6
BYLAYER
 10
20.1622534589
 20
53.4460551174
 11
19.8086970136
 21
53.6501764084
  0
LINE
  5
299
100
AcDbEntity
  8
0
100
AcDbLine
 62
7
  6
BYLAYER
 10
19.8087015403
 20
53.7726460214
 11
20.2683190345
 21
53.5072917405
  0
LINE
  5
29A
100
AcDbEntity
  8
0
100
AcDbLine
 62
7
  6
BYLAYER
 10
19.8087015403
 20
53.9359423232
 11
19.8970852512
 21
53.8849151183
  0
LINE
  5
29B
100
AcDbEntity
  8
0
100
AcDbLine
 62
7
  6
BYLAYER
 10
46.4309811837
 20
39.1591889936
 11
46.0889599237
 21
39.356650593
  0
LINE
  5
29C
100
AcDbEntity
  8
0
100
AcDbLine
 62
7
  6
BYLAYER
 10
46.0782744799
 20
39.905465489
 11
46.900932943
 21
39.4305141488
  0
LINE
  5
29D
100
AcDbEntity
  8
0
100
AcDbLine
 62
7
  6
BYLAYER
 10
48.9019161759
 20
27.6646247099
 11
50.2287175958
 21
25.7770164388
  0
LINE
  5
29E
100
AcDbEntity
  8
0
100
AcDbLine
 62
7
  6
BYLAYER
 10
24.9380018671
 20
68.2153065712
 11
25.2935137613
 21
67.3663771088
  0
LINE
  5
29F
100
AcDbEntity
  8
0
100
AcDbLine
 62
7
  6
BYLAYER
 10
12.8420413395
 20
11.5302981847
 11
13.7393038389
 21
12.5036409394
  0
LINE
  5
2A0
100
AcDbEntity
  8
0
100
AcDbLine
 62
7
  6
BYLAYER
 10
16.6444005345
 20
17.7091727445
 11
16.3374397066
 21
17.3881883117
  0
LINE
  5
2A1
100
AcDbEntity
  8
0
100
AcDbLine
 62
7
  6
BYLAYER
 10
13.7982838907
 20
23.6436762075
 11
15.2154210399
 21
24.4618558381
  0
LINE
  5
2A2
100
AcDbEntity
  8
0
100
AcDbLine
 62
7
  6
BYLAYER
 10
49.9573700211
 20
51.4894697121
 11
49.7573783448
 21
51.4696670843
  0
LINE
  5
2A3
100
AcDbEntity
  8
0
100
AcDbLine
 62
7
  6
BYLAYER
 10
46.7958513474
 20
45.9100632699
 11
46.9664632887
 21
45.8634241496
  0
LINE
  5
2A4
100
AcDbEntity
  8
0
100
AcDbLine
 62
7
  6
BYLAYER
 10
13.144207395
 20
60.5825103911
 11
17.2807992871
 21
58.1943019771
  0
LINE
  5
2A5
100
AcDbEntity
  8
0
100
AcDbLine
 62
7
  6
BYLAYER
 10
46.0779015713
 20
41.6902326825
 11
47.8807247609
 21
40.6493957756
  0
LINE
  5
2A6
100
AcDbEntity
  8
0
100
AcDbLine
 62
7
  6
BYLAYER
 10
17.6520318928
 20
58.1205477453
 11
17.2807992871
 21
58.3348741414
  0
LINE
  5
2A7
100
AcDbEntity
  8
0
100
AcDbLine
 62
7
  6
BYLAYER
 10
13.1030326469
 20
60.7468542695
 11
12.7729747893
 21
60.9374089515
  0
LINE
  5
2A8
100
AcDbEntity
  8
0
100
AcDbLine
 62
7
  6
BYLAYER
 10
17.2058500823
 20
58.4023748332
 11
13.0692581902
 21
60.7905832472
  0
LINE
  5
2A9
100
AcDbEntity
  8
0
100
AcDbLine
 62
7
  6
BYLAYER
 10
46.0777822105
 20
42.2615023398
 11
48.3754061893
 21
40.9349985267
  0
LINE
  5
2AA
100
AcDbEntity
  8
0
100
AcDbLine
 62
7
  6
BYLAYER
 10
46.21910414
 20
42.568057619
 11
49.365642819
 21
40.7514437629
  0
LINE
  5
2AB
100
AcDbEntity
  8
0
100
AcDbLine
 62
7
  6
BYLAYER
 10
8.8732693912
 20
64.5695712656
 11
13.0098612833
 21
62.1813628517
  0
LINE
  5
2AC
100
AcDbEntity
  8
0
100
AcDbLine
 62
7
  6
BYLAYER
 10
46.6786482376
 20
43.3031850674
 11
49.5070635864
 21
41.6702356466
  0
LINE
  5
2AD
100
AcDbEntity
  8
0
100
AcDbLine
 62
7
  6
BYLAYER
 10
19.083914072
 20
59.3758967338
 11
19.4551466777
 21
59.1615703377
  0
LINE
  5
2AE
100
AcDbEntity
  8
0
100
AcDbLine
 62
7
  6
BYLAYER
 10
46.6786482376
 20
43.4664813692
 11
49.6484843539
 21
41.7518844774
  0
LINE
  5
2AF
100
AcDbEntity
  8
0
100
AcDbLine
 62
7
  6
BYLAYER
 10
25.9404051412
 20
11.9519340931
 11
28.0073783315
 21
16.0094808782
  0
LINE
  5
2B0
100
AcDbEntity
  8
0
100
AcDbLine
 62
7
  6
BYLAYER
 10
23.5949917488
 20
9.9238263632
 11
23.6951195876
 21
10.0905018409
  0
LINE
  5
2B1
100
AcDbEntity
  8
0
100
AcDbLine
 62
7
  6
BYLAYER
 10
49.6484843542
 20
41.7518844775
 11
49.5070635864
 21
41.6702356466
  0
LINE
  5
2B2
100
AcDbEntity
  8
0
100
AcDbLine
 62
7
  6
BYLAYER
 10
13.7806061476
 20
20.9641209858
 11
14.5173937112
 21
21.3895029449
  0
LINE
  5
2B3
100
AcDbEntity
  8
0
100
AcDbLine
 62
7
  6
BYLAYER
 10
48.3754061893
 20
40.9349985267
 11
47.8807247609
 21
40.6493957756
  0
LINE
  5
2B4
100
AcDbEntity
  8
0
100
AcDbLine
 62
7
  6
BYLAYER
 10
46.900932943
 20
39.4305141488
 11
46.4309811837
 21
39.1591889936
  0
LINE
  5
2B5
100
AcDbEntity
  8
0
100
AcDbLine
 62
7
  6
BYLAYER
 10
20.1622534589
 20
53.4460551174
 11
19.912260133
 21
53.4212953883
  0
LINE
  5
2B6
100
AcDbEntity
  8
0
100
AcDbLine
 62
7
  6
BYLAYER
 10
18.6696251263
 20
61.5478324657
 11
18.5787415684
 21
61.5916661517
  0
LINE
  5
2B7
100
AcDbEntity
  8
0
100
AcDbLine
 62
7
  6
BYLAYER
 10
13.7732564912
 20
63.473364036
 11
9.6366645991
 21
65.8615724499
  0
LINE
  5
2B8
100
AcDbEntity
  8
0
100
AcDbLine
 62
7
  6
BYLAYER
 10
9.9035347961
 20
65.7570733043
 11
14.0401266882
 21
63.3688648903
  0
LINE
  5
2B9
100
AcDbEntity
  8
0
100
AcDbLine
 62
7
  6
BYLAYER
 10
14.6406085441
 20
63.2586227098
 11
15.3129135952
 21
62.8704759886
  0
LINE
  5
2BA
100
AcDbEntity
  8
0
100
AcDbLine
 62
7
  6
BYLAYER
 10
15.913395451
 20
62.760233808
 11
16.5857005021
 21
62.3720870868
  0
LINE
  5
2BB
100
AcDbEntity
  8
0
100
AcDbLine
 62
7
  6
BYLAYER
 10
10.4243670369
 20
66.0840362194
 11
14.560958929
 21
63.6958278054
  0
LINE
  5
2BC
100
AcDbEntity
  8
0
100
AcDbLine
 62
7
  6
BYLAYER
 10
17.185358257
 20
62.3961181824
 11
18.5787415682
 21
61.5916661518
  0
LINE
  5
2BD
100
AcDbEntity
  8
0
100
AcDbLine
 62
7
  6
BYLAYER
 10
17.1872476965
 20
62.4038126805
 11
18.6696894305
 21
61.5479439086
  0
LINE
  5
2BE
100
AcDbEntity
  8
0
100
AcDbLine
 62
7
  6
BYLAYER
 10
11.6971539439
 20
65.5856473176
 11
15.833745836
 21
63.1974389037
  0
LINE
  5
2BF
100
AcDbEntity
  8
0
100
AcDbLine
 62
7
  6
BYLAYER
 10
12.9699408509
 20
65.0872584159
 11
17.106532743
 21
62.6990500019
  0
LINE
  5
2C0
100
AcDbEntity
  8
0
100
AcDbLine
 62
7
  6
BYLAYER
 10
14.7175065145
 20
64.2553100765
 11
20.5158062607
 21
60.9077358895
  0
LINE
  5
2C1
100
AcDbEntity
  8
0
100
AcDbLine
 62
7
  6
BYLAYER
 10
46.7958513474
 20
45.9100632699
 11
52.5941510936
 21
42.5624890829
  0
LINE
  5
2C2
100
AcDbEntity
  8
0
100
AcDbLine
 62
7
  6
BYLAYER
 10
46.9664603219
 20
45.8634190128
 11
52.7647600681
 21
42.5158448258
  0
LINE
  5
2C3
100
AcDbEntity
  8
0
100
AcDbLine
 62
7
  6
BYLAYER
 10
20.7229121796
 20
61.6046622298
 11
14.9246124334
 21
64.9522364168
  0
LINE
  5
2C4
100
AcDbEntity
  8
0
100
AcDbLine
 62
7
  6
BYLAYER
 10
15.0861287139
 20
65.2319923738
 11
20.8844284601
 21
61.8844181868
  0
LINE
  5
2C5
100
AcDbEntity
  8
0
100
AcDbLine
 62
7
  6
BYLAYER
 10
45.8093280467
 20
47.6425265554
 11
45.5881220876
 21
47.7702369862
  0
LINE
  5
2C6
100
AcDbEntity
  8
0
100
AcDbLine
 62
7
  6
BYLAYER
 10
19.5223616286
 20
70.6814518014
 11
19.4952140159
 21
70.7139512941
  0
LINE
  5
2C7
100
AcDbEntity
  8
0
100
AcDbLine
 62
7
  6
BYLAYER
 10
25.2935137613
 20
67.3663771088
 11
25.3206614989
 21
67.3338778273
  0
LINE
  5
2C8
100
AcDbEntity
  8
0
100
AcDbLine
 62
7
  6
BYLAYER
 10
46.0777548992
 20
42.3922161908
 11
46.6786482376
 21
43.1397401409
  0
LINE
  5
2C9
100
AcDbEntity
  8
0
100
AcDbLine
 62
7
  6
BYLAYER
 10
19.3254706685
 20
9.2785389797
 11
18.4282081678
 21
8.3051962235
  0
LINE
  5
2CA
100
AcDbEntity
  8
0
100
AcDbLine
 62
7
  6
BYLAYER
 10
49.365642819
 20
40.7514437629
 11
48.5171182143
 21
40.0887850911
  0
LINE
  5
2CB
100
AcDbEntity
  8
0
100
AcDbLine
 62
7
  6
BYLAYER
 10
15.5837209325
 20
20.4035703927
 11
13.7806061476
 21
19.3625478003
  0
LINE
  5
2CC
100
AcDbEntity
  8
0
100
AcDbLine
 62
7
  6
BYLAYER
 10
18.5787415684
 20
61.5916661517
 11
17.1273734674
 21
62.1599826153
  0
LINE
  5
2CD
100
AcDbEntity
  8
0
100
AcDbLine
 62
7
  6
BYLAYER
 10
16.5857005022
 20
62.3720870868
 11
15.8545865604
 21
62.6583715171
  0
LINE
  5
2CE
100
AcDbEntity
  8
0
100
AcDbLine
 62
7
  6
BYLAYER
 10
15.3129135952
 20
62.8704759886
 11
14.5817996534
 21
63.1567604188
  0
LINE
  5
2CF
100
AcDbEntity
  8
0
100
AcDbLine
 62
7
  6
BYLAYER
 10
14.0401266882
 20
63.3688648903
 11
13.7732564912
 21
63.473364036
  0
LINE
  5
2D0
100
AcDbEntity
  8
0
100
AcDbLine
 62
7
  6
BYLAYER
 10
9.6366645989
 20
65.86157245
 11
9.9035347961
 21
65.7570733042
  0
LINE
  5
2D1
100
AcDbEntity
  8
0
100
AcDbLine
 62
7
  6
BYLAYER
 10
45.7383172044
 20
48.4183422536
 11
46.6786482376
 21
47.8754541602
  0
LINE
  5
2D2
100
AcDbEntity
  8
0
100
AcDbLine
 62
7
  6
BYLAYER
 10
21.6410144481
 20
62.5047251498
 11
15.8427147019
 21
65.8522993368
  0
LINE
  5
2D3
100
AcDbEntity
  8
0
100
AcDbLine
 62
7
  6
BYLAYER
 10
22.8594202374
 20
61.956567782
 11
22.4619218923
 21
62.1860701202
  0
LINE
  5
2D4
100
AcDbEntity
  8
0
100
AcDbLine
 62
7
  6
BYLAYER
 10
16.755991915
 20
65.9689105514
 11
22.5542916612
 21
62.6213363643
  0
LINE
  5
2D5
100
AcDbEntity
  8
0
100
AcDbLine
 62
7
  6
BYLAYER
 10
16.7973705009
 20
65.9616075473
 11
22.5956702471
 21
62.6140333602
  0
LINE
  5
2D6
100
AcDbEntity
  8
0
100
AcDbLine
 62
7
  6
BYLAYER
 10
47.3574892397
 20
49.4308968005
 11
47.9196378098
 21
49.1063475145
  0
LINE
  5
2D7
100
AcDbEntity
  8
0
100
AcDbLine
 62
7
  6
BYLAYER
 10
47.5625253181
 20
49.5492705926
 11
47.7746591853
 21
49.426797818
  0
LINE
  5
2D8
100
AcDbEntity
  8
0
100
AcDbLine
 62
7
  6
BYLAYER
 10
17.9548667701
 20
67.0542385652
 11
23.840666152
 21
63.6561449955
  0
LINE
  5
2D9
100
AcDbEntity
  8
0
100
AcDbLine
 62
7
  6
BYLAYER
 10
46.0783804591
 20
39.3982415233
 11
46.0777548992
 21
42.3922161908
  0
LINE
  5
2DA
100
AcDbEntity
  8
0
100
AcDbLine
 62
7
  6
BYLAYER
 10
45.547282098
 20
47.8855755455
 11
45.547282098
 21
47.9775282499
  0
LINE
  5
2DB
100
AcDbEntity
  8
0
100
AcDbLine
 62
7
  6
BYLAYER
 10
45.547282098
 20
62.5520963956
 11
45.547282098
 21
62.9603476042
  0
LINE
  5
2DC
100
AcDbEntity
  8
0
100
AcDbLine
 62
7
  6
BYLAYER
 10
46.6786482376
 20
43.1397401409
 11
46.6786482376
 21
47.8754541602
  0
LINE
  5
2DD
100
AcDbEntity
  8
0
100
AcDbLine
 62
7
  6
BYLAYER
 10
47.8807247609
 20
40.6493957756
 11
46.900932943
 21
39.4305141488
  0
LINE
  5
2DE
100
AcDbEntity
  8
0
100
AcDbLine
 62
7
  6
BYLAYER
 10
12.7729747893
 20
60.9374089515
 11
12.5229783409
 21
60.9621668779
  0
LINE
  5
2DF
100
AcDbEntity
  8
0
100
AcDbLine
 62
7
  6
BYLAYER
 10
24.140664903
 20
64.1757609589
 11
18.2548655211
 21
67.5738545285
  0
LINE
  5
2E0
100
AcDbEntity
  8
0
100
AcDbLine
 62
7
  6
BYLAYER
 10
18.854863023
 20
68.6130864552
 11
24.7406624049
 21
65.2149928856
  0
LINE
  5
2E1
100
AcDbEntity
  8
0
100
AcDbLine
 62
7
  6
BYLAYER
 10
48.7528363031
 20
52.0078748189
 11
49.7232824096
 21
51.4476001732
  0
LINE
  5
2E2
100
AcDbEntity
  8
0
100
AcDbLine
 62
7
  6
BYLAYER
 10
25.0406611559
 20
65.7346088489
 11
19.154861774
 21
69.1327024186
  0
LINE
  5
2E3
100
AcDbEntity
  8
0
100
AcDbLine
 62
7
  6
BYLAYER
 10
48.731848467
 20
52.197020277
 11
49.9573749514
 21
51.4894782381
  0
LINE
  5
2E4
100
AcDbEntity
  8
0
100
AcDbLine
 62
7
  6
BYLAYER
 10
48.5171182143
 20
40.0887850911
 11
48.3754061893
 21
40.9349985267
  0
LINE
  5
2E5
100
AcDbEntity
  8
0
100
AcDbLine
 62
7
  6
BYLAYER
 10
48.5171182143
 20
68.8391353778
 11
48.5171182143
 21
66.1672004993
  0
LINE
  5
2E6
100
AcDbEntity
  8
0
100
AcDbLine
 62
7
  6
BYLAYER
 10
50.4970089585
 20
70.6120039339
 11
50.4970089585
 21
71.4109596741
  0
LINE
  5
2E7
100
AcDbEntity
  8
0
100
AcDbLine
 62
7
  6
BYLAYER
 10
50.9212712609
 20
66.2467162175
 11
50.9212712609
 21
65.5526891629
  0
LINE
  5
2E8
100
AcDbEntity
  8
0
100
AcDbLine
 62
7
  6
BYLAYER
 10
52.0703149963
 20
67.1550636926
 11
51.9819270167
 21
66.1650553937
  0
LINE
  5
2E9
100
AcDbEntity
  8
0
100
AcDbLine
 62
7
  6
BYLAYER
 10
49.5070635864
 20
41.6702356466
 11
49.365642819
 21
40.7514437629
  0
LINE
  5
2EA
100
AcDbEntity
  8
0
100
AcDbLine
 62
7
  6
BYLAYER
 10
15.3804258561
 20
14.0038202248
 11
15.5041690277
 21
14.0752629517
  0
LINE
  5
2EB
100
AcDbEntity
  8
0
100
AcDbLine
 62
7
  6
BYLAYER
 10
20.1622534589
 20
16.2543700172
 11
20.2683190345
 21
16.3156066403
  0
LINE
  5
2EC
100
AcDbEntity
  8
0
100
AcDbLine
 62
7
  6
BYLAYER
 10
14.1468224407
 20
12.3934299184
 11
14.6821522058
 21
12.7025008575
  0
LINE
  5
2ED
100
AcDbEntity
  8
0
100
AcDbLine
 62
7
  6
BYLAYER
 10
19.4940403327
 20
14.1947493366
 11
20.2683190345
 21
14.6417766851
  0
LINE
  5
2EE
100
AcDbEntity
  8
0
100
AcDbLine
 62
7
  6
BYLAYER
 10
19.0220399103
 20
13.5139695488
 11
18.8982967388
 21
13.4425268219
  0
LINE
  5
2EF
100
AcDbEntity
  8
0
100
AcDbLine
 62
7
  6
BYLAYER
 10
18.8982967388
 20
12.9526253716
 11
19.0220399103
 21
13.0240680986
  0
LINE
  5
2F0
100
AcDbEntity
  8
0
100
AcDbLine
 62
7
  6
BYLAYER
 10
45.9008340167
 20
62.347967264
 11
45.6508406908
 21
62.3232075348
  0
LINE
  5
2F1
100
AcDbEntity
  8
0
100
AcDbLine
 62
7
  6
BYLAYER
 10
22.5956015633
 20
62.6139126527
 11
22.5542916612
 21
62.6213363643
  0
LINE
  5
2F2
100
AcDbEntity
  8
0
100
AcDbLine
 62
7
  6
BYLAYER
 10
16.755991915
 20
65.9689105514
 11
16.7973018171
 21
65.9614868398
  0
LINE
  5
2F3
100
AcDbEntity
  8
0
100
AcDbLine
 62
7
  6
BYLAYER
 10
19.5223613323
 20
70.6814512911
 11
25.3206610785
 21
67.333877104
  0
LINE
  5
2F4
100
AcDbEntity
  8
0
100
AcDbLine
 62
7
  6
BYLAYER
 10
19.4952140159
 20
70.7139512942
 11
25.2935137614
 21
67.3663771088
  0
LINE
  5
2F5
100
AcDbEntity
  8
0
100
AcDbLine
 62
7
  6
BYLAYER
 10
25.6244087255
 20
67.6636884006
 11
26.0219070706
 21
67.4341860624
  0
LINE
  5
2F6
100
AcDbEntity
  8
0
100
AcDbLine
 62
7
  6
BYLAYER
 10
19.1397021208
 20
71.5628807584
 11
24.9380018671
 21
68.2153065714
  0
LINE
  5
2F7
100
AcDbEntity
  8
0
100
AcDbLine
 62
7
  6
BYLAYER
 10
25.0969109217
 20
69.1806923389
 11
19.2986111755
 21
72.5282665259
  0
LINE
  5
2F8
100
AcDbEntity
  8
0
100
AcDbLine
 62
7
  6
BYLAYER
 10
19.460127456
 20
72.808022483
 11
25.2584272022
 21
69.4604482959
  0
LINE
  5
2F9
100
AcDbEntity
  8
0
100
AcDbLine
 62
7
  6
BYLAYER
 10
28.0073783316
 20
69.4087389585
 11
26.8546630537
 21
70.3295132343
  0
LINE
  5
2FA
100
AcDbEntity
  8
0
100
AcDbLine
 62
7
  6
BYLAYER
 10
47.7125222352
 20
49.5641280263
 11
47.7746591853
 21
49.426797818
  0
LINE
  5
2FB
100
AcDbEntity
  8
0
100
AcDbLine
 62
7
  6
BYLAYER
 10
51.8051510574
 20
64.0707284574
 11
51.8051510574
 21
64.1850387958
  0
LINE
  5
2FC
100
AcDbEntity
  8
0
100
AcDbLine
 62
7
  6
BYLAYER
 10
52.9718723888
 20
67.2673237803
 11
52.9718723888
 21
65.6751440669
  0
LINE
  5
2FD
100
AcDbEntity
  8
0
100
AcDbLine
 62
7
  6
BYLAYER
 10
52.9718723888
 20
42.0580586779
 11
52.9718723888
 21
27.8098444725
  0
LINE
  5
2FE
100
AcDbEntity
  8
0
100
AcDbLine
 62
7
  6
BYLAYER
 10
19.0220399103
 20
12.044265198
 11
18.8982967388
 21
11.9728224711
  0
LINE
  5
2FF
100
AcDbEntity
  8
0
100
AcDbLine
 62
7
  6
BYLAYER
 10
18.8982967388
 20
11.4829210208
 11
19.0220399103
 21
11.5543637477
  0
LINE
  5
300
100
AcDbEntity
  8
0
100
AcDbLine
 62
7
  6
BYLAYER
 10
28.0073783315
 20
16.0094808782
 11
48.2895462898
 21
27.7193261103
  0
LINE
  5
301
100
AcDbEntity
  8
0
100
AcDbLine
 62
7
  6
BYLAYER
 10
19.0220399103
 20
9.9519777541
 11
19.2341710614
 21
10.0744510003
  0
LINE
  5
302
100
AcDbEntity
  8
0
100
AcDbLine
 62
7
  6
BYLAYER
 10
22.5542916612
 20
62.6213363643
 11
21.6410144479
 21
62.5047251497
  0
LINE
  5
303
100
AcDbEntity
  8
0
100
AcDbLine
 62
7
  6
BYLAYER
 10
17.1065238896
 20
62.6990347031
 11
16.8565369848
 21
62.6742860597
  0
LINE
  5
304
100
AcDbEntity
  8
0
100
AcDbLine
 62
7
  6
BYLAYER
 10
15.8337369826
 20
63.1974236048
 11
15.5837500778
 21
63.1726749614
  0
LINE
  5
305
100
AcDbEntity
  8
0
100
AcDbLine
 62
7
  6
BYLAYER
 10
14.5609500756
 20
63.6958125066
 11
14.3109631708
 21
63.6710638632
  0
LINE
  5
306
100
AcDbEntity
  8
0
100
AcDbLine
 62
7
  6
BYLAYER
 10
52.8683137961
 20
67.4962126412
 11
52.6183204702
 21
67.4714529119
  0
LINE
  5
307
100
AcDbEntity
  8
0
100
AcDbLine
 62
7
  6
BYLAYER
 10
25.7584251205
 20
69.9882685266
 11
19.9601253743
 21
73.3358427137
  0
LINE
  5
308
100
AcDbEntity
  8
0
100
AcDbLine
 62
7
  6
BYLAYER
 10
20.5146903422
 20
73.656019036
 11
26.3129900884
 21
70.3084448489
  0
LINE
  5
309
100
AcDbEntity
  8
0
100
AcDbLine
 62
7
  6
BYLAYER
 10
21.0146818587
 20
73.7055469206
 11
26.8129816049
 21
70.3579727335
  0
LINE
  5
30A
100
AcDbEntity
  8
0
100
AcDbLine
 62
7
  6
BYLAYER
 10
26.8546630537
 20
70.3295132343
 11
26.8128722048
 21
70.3577832492
  0
LINE
  5
30B
100
AcDbEntity
  8
0
100
AcDbLine
 62
7
  6
BYLAYER
 10
45.6508406908
 20
62.3232075348
 11
45.547282098
 21
62.5520963956
  0
LINE
  5
30C
100
AcDbEntity
  8
0
100
AcDbLine
 62
7
  6
BYLAYER
 10
19.4940403327
 20
9.0303715483
 11
20.2683190345
 21
9.4773988968
  0
LINE
  5
30D
100
AcDbEntity
  8
0
100
AcDbLine
 62
7
  6
BYLAYER
 10
23.6951195876
 20
10.0905018409
 11
25.0683660309
 21
10.8834506165
  0
LINE
  5
30E
100
AcDbEntity
  8
0
100
AcDbLine
 62
7
  6
BYLAYER
 10
52.2647685516
 20
26.5850979015
 11
50.7798504934
 21
25.7277851783
  0
LINE
  5
30F
100
AcDbEntity
  8
0
100
AcDbLine
 62
7
  6
BYLAYER
 10
20.5158062607
 20
8.0099846675
 11
23.3314697069
 21
9.6355990125
  0
LINE
  5
310
100
AcDbEntity
  8
0
100
AcDbLine
 62
7
  6
BYLAYER
 10
18.7126905926
 20
6.7217187593
 11
20.2683190345
 21
7.6198558978
  0
LINE
  5
311
100
AcDbEntity
  8
0
100
AcDbLine
 62
7
  6
BYLAYER
 10
15.8427147019
 20
65.8522993368
 11
16.755991915
 21
65.9689105514
  0
LINE
  5
312
100
AcDbEntity
  8
0
100
AcDbLine
 62
7
  6
BYLAYER
 10
12.7199450927
 20
65.0624944736
 11
12.9699319017
 21
65.0872429518
  0
LINE
  5
313
100
AcDbEntity
  8
0
100
AcDbLine
 62
7
  6
BYLAYER
 10
11.4471581857
 20
65.5608833754
 11
11.6971449947
 21
65.5856318535
  0
LINE
  5
314
100
AcDbEntity
  8
0
100
AcDbLine
 62
7
  6
BYLAYER
 10
10.1743712787
 20
66.0592722771
 11
10.4243580877
 21
66.0840207553
  0
LINE
  5
315
100
AcDbEntity
  8
0
100
AcDbLine
 62
7
  6
BYLAYER
 10
45.9008340167
 20
62.347967264
 11
45.5472775714
 21
62.552088555
  0
LINE
  5
316
100
AcDbEntity
  8
0
100
AcDbLine
 62
7
  6
BYLAYER
 10
45.6208737796
 20
63.2079732937
 11
46.5056527804
 21
62.6971574557
  0
LINE
  5
317
100
AcDbEntity
  8
0
100
AcDbLine
 62
7
  6
BYLAYER
 10
46.8117433435
 20
62.9125866047
 11
45.8186329795
 21
63.4859461696
  0
LINE
  5
318
100
AcDbEntity
  8
0
100
AcDbLine
 62
7
  6
BYLAYER
 10
49.365642819
 20
69.3290283624
 11
49.5070635864
 21
68.7574752595
  0
LINE
  5
319
100
AcDbEntity
  8
0
100
AcDbLine
 62
7
  6
BYLAYER
 10
48.5171182143
 20
67.2264824706
 11
50.5677193423
 21
66.0425941405
  0
LINE
  5
31A
100
AcDbEntity
  8
0
100
AcDbLine
 62
7
  6
BYLAYER
 10
48.5171182143
 20
67.6347232251
 11
50.9212712609
 21
66.2467162175
  0
LINE
  5
31B
100
AcDbEntity
  8
0
100
AcDbLine
 62
7
  6
BYLAYER
 10
48.5171182143
 20
68.1654184342
 11
51.9819270167
 21
66.1650553937
  0
LINE
  5
31C
100
AcDbEntity
  8
0
100
AcDbLine
 62
7
  6
BYLAYER
 10
48.8352321008
 20
69.0227974195
 11
52.0703149963
 21
67.1550636926
  0
LINE
  5
31D
100
AcDbEntity
  8
0
100
AcDbLine
 62
7
  6
BYLAYER
 10
48.9413660309
 20
69.0840735068
 11
49.5070635864
 21
68.7574752595
  0
LINE
  5
31E
100
AcDbEntity
  8
0
100
AcDbLine
 62
7
  6
BYLAYER
 10
52.9718723888
 20
67.2673237803
 11
52.8683137961
 21
67.4962126412
  0
LINE
  5
31F
100
AcDbEntity
  8
0
100
AcDbLine
 62
7
  6
BYLAYER
 10
49.9918364401
 20
72.3702542186
 11
40.3383208803
 21
76.1501969551
  0
LINE
  5
320
100
AcDbEntity
  8
0
100
AcDbLine
 62
7
  6
BYLAYER
 10
34.3926847688
 20
77.851319736
 11
36.7968578343
 21
76.4633011706
  0
LINE
  5
321
100
AcDbEntity
  8
0
100
AcDbLine
 62
7
  6
BYLAYER
 10
49.8870961382
 20
69.0482903424
 11
52.6183204702
 21
67.4714529119
  0
LINE
  5
322
100
AcDbEntity
  8
0
100
AcDbLine
 62
7
  6
BYLAYER
 10
49.9603159372
 20
69.1751136234
 11
52.8683162284
 21
67.4962168542
  0
LINE
  5
323
100
AcDbEntity
  8
0
100
AcDbLine
 62
7
  6
BYLAYER
 10
33.6354196014
 20
79.3532748284
 11
39.4337193476
 21
76.0057006414
  0
LINE
  5
324
100
AcDbEntity
  8
0
100
AcDbLine
 62
7
  6
BYLAYER
 10
40.3383208802
 20
76.1501969552
 11
34.540021134
 21
79.4977711422
  0
LINE
  5
325
100
AcDbEntity
  8
0
100
AcDbLine
 62
7
  6
BYLAYER
 10
34.5400211341
 20
79.4977711422
 11
44.193536694
 21
75.7178284056
  0
LINE
  5
326
100
AcDbEntity
  8
0
100
AcDbLine
 62
7
  6
BYLAYER
 10
50.0827200129
 20
72.3264205268
 11
49.9918364401
 21
72.3702542186
  0
LINE
  5
327
100
AcDbEntity
  8
0
100
AcDbLine
 62
7
  6
BYLAYER
 10
44.193536694
 20
75.7178284056
 11
44.2844202667
 21
75.6739947138
  0
LINE
  5
328
100
AcDbEntity
  8
0
100
AcDbLine
 62
7
  6
BYLAYER
 10
44.1935366939
 20
75.7178284057
 11
49.9918364401
 21
72.3702542186
  0
LINE
  5
329
100
AcDbEntity
  8
0
100
AcDbLine
 62
7
  6
BYLAYER
 10
44.2844845709
 20
75.6741061568
 11
50.0827843171
 21
72.3265319697
  0
ARC
  5
32A
100
AcDbEntity
  8
0
100
AcDbCircle
 62
7
  6
BYLAYER
 10
46.6714859514
 20
41.8207238244
 40
4.0912301149
100
AcDbArc
 50
88.2580519897
 51
89.8461970624
  0
ARC
  5
32B
100
AcDbEntity
  8
0
100
AcDbCircle
 62
7
  6
BYLAYER
 10
47.9290942486
 20
49.7305960673
 40
0.6808592434
100
AcDbArc
 50
300.0104950687
 51
302.0589947057
  0
ARC
  5
32C
100
AcDbEntity
  8
0
100
AcDbCircle
 62
7
  6
BYLAYER
 10
19.5038239165
 20
9.1144160137
 40
0.2423762138
100
AcDbArc
 50
132.1820398554
 51
137.3793370914
  0
SPLINE
  5
32D
100
AcDbEntity
  8
0
100
AcDbSpline
 62
7
  6
BYLAYER
 70
0
 71
3
 72
11
 73
7
 74
0
 42
0.0000001
 43
0.0000001
 44
0.0000000001
 40
0.0
 40
0.0
 40
0.0
 40
0.0
 40
0.2862733447
 40
0.5460137477
 40
0.7816676201
 40
1.0
 40
1.0
 40
1.0
 40
1.0
 10
33.6354196014
 20
79.3532748284
 30
0.0
 10
33.7134848312
 20
79.3983455408
 30
0.0
 10
33.8688878577
 20
79.4738976
 30
0.0
 10
34.1073775826
 20
79.5409110021
 30
0.0
 10
34.3338759239
 20
79.5530998604
 30
0.0
 10
34.4758323212
 20
79.5223914726
 30
0.0
 10
34.5400211341
 20
79.4977711422
 30
0.0
  0
SPLINE
  5
32E
100
AcDbEntity
  8
0
100
AcDbSpline
 62
7
  6
BYLAYER
 70
0
 71
3
 72
11
 73
7
 74
0
 42
0.0000001
 43
0.0000001
 44
0.0000000001
 40
0.0
 40
0.0
 40
0.0
 40
0.0
 40
0.2895642471
 40
0.5489693045
 40
0.782098225
 40
1.0
 40
1.0
 40
1.0
 40
1.0
 10
20.5146903422
 20
73.656019036
 30
0.0
 10
20.5585472723
 20
73.6813396953
 30
0.0
 10
20.645829447
 20
73.7228217607
 30
0.0
 10
20.7799458503
 20
73.755286681
 30
0.0
 10
20.9058745427
 20
73.7521318757
 30
0.0
 10
20.9816478216
 20
73.7245475322
 30
0.0
 10
21.0146659984
 20
73.705519554
 30
0.0
  0
SPLINE
  5
32F
100
AcDbEntity
  8
0
100
AcDbSpline
 62
7
  6
BYLAYER
 70
0
 71
3
 72
10
 73
6
 74
0
 42
0.0000001
 43
0.0000001
 44
0.0000000001
 40
0.0
 40
0.0
 40
0.0
 40
0.0
 40
0.5249298085
 40
0.7715437808
 40
1.0
 40
1.0
 40
1.0
 40
1.0
 10
19.4601274561
 20
72.8080224831
 30
0.0
 10
19.5243272688
 20
72.9192204378
 30
0.0
 10
19.6371255323
 20
73.0734321407
 30
0.0
 10
19.8161162483
 20
73.2408433664
 30
0.0
 10
19.911730586
 20
73.3079021364
 30
0.0
 10
19.9601253743
 20
73.3358427137
 30
0.0
  0
SPLINE
  5
330
100
AcDbEntity
  8
0
100
AcDbSpline
 62
7
  6
BYLAYER
 70
0
 71
3
 72
12
 73
8
 74
0
 42
0.0000001
 43
0.0000001
 44
0.0000000001
 40
0.0
 40
0.0
 40
0.0
 40
0.0
 40
0.2063481782
 40
0.3228633628
 40
0.4474155569
 40
0.7160101384
 40
1.0
 40
1.0
 40
1.0
 40
1.0
 10
19.1397021209
 20
71.5628807581
 30
0.0
 10
19.1129278207
 20
71.6268153063
 30
0.0
 10
19.0912288967
 20
71.7355607361
 30
0.0
 10
19.0906797959
 20
71.8859099033
 30
0.0
 10
19.1100077266
 20
72.056433819
 30
0.0
 10
19.1710965429
 20
72.2770003251
 30
0.0
 10
19.2509138507
 20
72.4456518774
 30
0.0
 10
19.2986111756
 20
72.528266526
 30
0.0
  0
SPLINE
  5
331
100
AcDbEntity
  8
0
100
AcDbSpline
 62
7
  6
BYLAYER
 70
0
 71
3
 72
11
 73
7
 74
0
 42
0.0000001
 43
0.0000001
 44
0.0000000001
 40
0.0
 40
0.0
 40
0.0
 40
0.0
 40
0.2897043218
 40
0.5490567864
 40
0.7822817783
 40
1.0
 40
1.0
 40
1.0
 40
1.0
 10
19.0048623985
 20
69.1178451621
 30
0.0
 10
19.0180261007
 20
69.1254451837
 30
0.0
 10
19.0442122814
 20
69.1378980287
 30
0.0
 10
19.0844635501
 20
69.147630579
 30
0.0
 10
19.122228967
 20
69.1466589217
 30
0.0
 10
19.1449690907
 20
69.1384141252
 30
0.0
 10
19.1548617739
 20
69.1327024187
 30
0.0
  0
SPLINE
  5
332
100
AcDbEntity
  8
0
100
AcDbSpline
 62
7
  6
BYLAYER
 70
0
 71
3
 72
15
 73
11
 74
0
 42
0.0000001
 43
0.0000001
 44
0.0000000001
 40
0.0
 40
0.0
 40
0.0
 40
0.0
 40
0.0868885748
 40
0.1864388449
 40
0.3037966849
 40
0.4376076501
 40
0.5821178928
 40
0.7293722791
 40
0.8712447032
 40
1.0
 40
1.0
 40
1.0
 40
1.0
 10
18.8548630231
 20
68.6130864552
 30
0.0
 10
18.8398860097
 20
68.6217336851
 30
0.0
 10
18.8127158347
 20
68.6495355377
 30
0.0
 10
18.7928705261
 20
68.7080579605
 30
0.0
 10
18.7912475029
 20
68.7785966387
 30
0.0
 10
18.8070556346
 20
68.8562864161
 30
0.0
 10
18.8389784827
 20
68.935196567
 30
0.0
 10
18.8843697133
 20
69.0090953203
 30
0.0
 10
18.9395764567
 20
69.0718287207
 30
0.0
 10
18.9826686122
 20
69.10503165
 30
0.0
 10
19.0048623985
 20
69.1178451621
 30
0.0
  0
SPLINE
  5
333
100
AcDbEntity
  8
0
100
AcDbSpline
 62
7
  6
BYLAYER
 70
0
 71
3
 72
15
 73
11
 74
0
 42
0.0000001
 43
0.0000001
 44
0.0000000001
 40
0.0
 40
0.0
 40
0.0
 40
0.0
 40
0.0869275784
 40
0.1863938711
 40
0.3037721736
 40
0.4375804988
 40
0.5820892159
 40
0.7293516965
 40
0.8712394989
 40
1.0
 40
1.0
 40
1.0
 40
1.0
 10
15.2304307062
 20
13.4990644063
 30
0.0
 10
15.2154516791
 20
13.5077237693
 30
0.0
 10
15.1882558635
 20
13.5354893274
 30
0.0
 10
15.1684713966
 20
13.5940338624
 30
0.0
 10
15.1667931782
 20
13.6645492544
 30
0.0
 10
15.1826190343
 20
13.7422457361
 30
0.0
 10
15.2145327384
 20
13.8211574271
 30
0.0
 10
15.2599259156
 20
13.8950618727
 30
0.0
 10
15.3151360514
 20
13.9577998303
 30
0.0
 10
15.3582311086
 20
13.9910061578
 30
0.0
 10
15.3804258561
 20
14.0038202248
 30
0.0
  0
SPLINE
  5
334
100
AcDbEntity
  8
0
100
AcDbSpline
 62
7
  6
BYLAYER
 70
0
 71
3
 72
11
 73
7
 74
0
 42
0.0000001
 43
0.0000001
 44
0.0000000001
 40
0.0
 40
0.0
 40
0.0
 40
0.0
 40
0.2897043219
 40
0.5490567864
 40
0.7822817783
 40
1.0
 40
1.0
 40
1.0
 40
1.0
 10
18.1048661456
 20
67.558997272
 30
0.0
 10
18.1180298477
 20
67.5665972936
 30
0.0
 10
18.1442160285
 20
67.5790501387
 30
0.0
 10
18.1844672973
 20
67.588782689
 30
0.0
 10
18.2222327143
 20
67.5878110316
 30
0.0
 10
18.244972838
 20
67.5795662351
 30
0.0
 10
18.2548655212
 20
67.5738545285
 30
0.0
  0
SPLINE
  5
335
100
AcDbEntity
  8
0
100
AcDbSpline
 62
7
  6
BYLAYER
 70
0
 71
3
 72
15
 73
11
 74
0
 42
0.0000001
 43
0.0000001
 44
0.0000000001
 40
0.0
 40
0.0
 40
0.0
 40
0.0
 40
0.0868885748
 40
0.1864388449
 40
0.303796685
 40
0.4376076502
 40
0.5821178929
 40
0.7293722792
 40
0.8712447033
 40
1.0
 40
1.0
 40
1.0
 40
1.0
 10
17.95486677
 20
67.0542385652
 30
0.0
 10
17.9398897566
 20
67.0628857952
 30
0.0
 10
17.9127195816
 20
67.0906876478
 30
0.0
 10
17.8928742731
 20
67.1492100705
 30
0.0
 10
17.8912512499
 20
67.2197487488
 30
0.0
 10
17.9070593816
 20
67.2974385261
 30
0.0
 10
17.9389822298
 20
67.376348677
 30
0.0
 10
17.9843734603
 20
67.4502474303
 30
0.0
 10
18.0395802038
 20
67.5129808307
 30
0.0
 10
18.0826723592
 20
67.54618376
 30
0.0
 10
18.1048661456
 20
67.558997272
 30
0.0
  0
SPLINE
  5
336
100
AcDbEntity
  8
0
100
AcDbSpline
 62
7
  6
BYLAYER
 70
0
 71
3
 72
14
 73
10
 74
0
 42
0.0000001
 43
0.0000001
 44
0.0000000001
 40
0.0
 40
0.0
 40
0.0
 40
0.0
 40
0.0870703437
 40
0.1838668393
 40
0.2956743079
 40
0.4228991185
 40
0.5624948989
 40
0.7094313726
 40
1.0
 40
1.0
 40
1.0
 40
1.0
 10
15.2304307062
 20
14.9687687571
 30
0.0
 10
15.2175923621
 20
14.9761905931
 30
0.0
 10
15.1939569365
 20
14.9984270571
 30
0.0
 10
15.1732313418
 20
15.0453615545
 30
0.0
 10
15.1660665958
 20
15.1027107777
 30
0.0
 10
15.1722564242
 20
15.167295934
 30
0.0
 10
15.1911822539
 20
15.2355258228
 30
0.0
 10
15.2316475996
 20
15.3253057286
 30
0.0
 10
15.2766040771
 20
15.3866263481
 30
0.0
 10
15.3121527239
 20
15.4210549881
 30
0.0
  0
SPLINE
  5
337
100
AcDbEntity
  8
0
100
AcDbSpline
 62
7
  6
BYLAYER
 70
0
 71
3
 72
9
 73
5
 74
0
 42
0.0000001
 43
0.0000001
 44
0.0000000001
 40
0.0
 40
0.0
 40
0.0
 40
0.0
 40
0.2703477507
 40
1.0
 40
1.0
 40
1.0
 40
1.0
 10
15.5861266322
 20
65.7598126046
 30
0.0
 10
15.6074861162
 20
65.7721444348
 30
0.0
 10
15.688143796
 20
65.8146078635
 30
0.0
 10
15.7766847507
 20
65.8438683449
 30
0.0
 10
15.8427147019
 20
65.8522993368
 30
0.0
  0
SPLINE
  5
338
100
AcDbEntity
  8
0
100
AcDbSpline
 62
7
  6
BYLAYER
 70
0
 71
3
 72
10
 73
6
 74
0
 42
0.0000001
 43
0.0000001
 44
0.0000000001
 40
0.0
 40
0.0
 40
0.0
 40
0.0
 40
0.5249298085
 40
0.7715437808
 40
1.0
 40
1.0
 40
1.0
 40
1.0
 10
15.0861287139
 20
65.231992374
 30
0.0
 10
15.1503285266
 20
65.3431903286
 30
0.0
 10
15.2631267902
 20
65.4974020316
 30
0.0
 10
15.4421175061
 20
65.6648132573
 30
0.0
 10
15.5377318439
 20
65.7318720273
 30
0.0
 10
15.5861266322
 20
65.7598126046
 30
0.0
  0
SPLINE
  5
339
100
AcDbEntity
  8
0
100
AcDbSpline
 62
7
  6
BYLAYER
 70
0
 71
3
 72
10
 73
6
 74
0
 42
0.0000001
 43
0.0000001
 44
0.0000000001
 40
0.0
 40
0.0
 40
0.0
 40
0.0
 40
0.2284573642
 40
0.4750718066
 40
1.0
 40
1.0
 40
1.0
 40
1.0
 10
14.7175065145
 20
64.2553100765
 30
0.0
 10
14.7175065145
 20
64.3111921205
 30
0.0
 10
14.7277740705
 20
64.4275270664
 30
0.0
 10
14.783260835
 20
64.6662448407
 30
0.0
 10
14.8604124056
 20
64.8410380895
 30
0.0
 10
14.9246124334
 20
64.9522364169
 30
0.0
  0
SPLINE
  5
33A
100
AcDbEntity
  8
0
100
AcDbSpline
 62
7
  6
BYLAYER
 70
0
 71
3
 72
12
 73
8
 74
0
 42
0.0000001
 43
0.0000001
 44
0.0000000001
 40
0.0
 40
0.0
 40
0.0
 40
0.0
 40
0.1081489026
 40
0.2183524868
 40
0.4513425659
 40
0.7104405749
 40
1.0
 40
1.0
 40
1.0
 40
1.0
 10
14.0875092977
 20
21.2852053225
 30
0.0
 10
14.1243940479
 20
21.3064990697
 30
0.0
 10
14.2027176549
 20
21.3431781693
 30
0.0
 10
14.3747144834
 20
21.3907356982
 30
0.0
 10
14.6156222502
 20
21.3972138864
 30
0.0
 10
14.9173142853
 20
21.3242226088
 30
0.0
 10
15.1137489625
 20
21.2307918809
 30
0.0
 10
15.212503341
 20
21.1737773037
 30
0.0
  0
SPLINE
  5
33B
100
AcDbEntity
  8
0
100
AcDbSpline
 62
7
  6
BYLAYER
 70
0
 71
3
 72
11
 73
7
 74
0
 42
0.0000001
 43
0.0000001
 44
0.0000000001
 40
0.0
 40
0.0
 40
0.0
 40
0.0
 40
0.217727726
 40
0.4508670227
 40
0.7104594228
 40
1.0
 40
1.0
 40
1.0
 40
1.0
 10
17.2590180995
 20
59.113633013
 30
0.0
 10
17.2202688688
 20
59.136003812
 30
0.0
 10
17.1477049163
 20
59.1968915878
 30
0.0
 10
17.0704898353
 20
59.3231740017
 30
0.0
 10
17.0247226762
 20
59.4787641339
 30
0.0
 10
17.0156353481
 20
59.5919861199
 30
0.0
 10
17.0156353481
 20
59.6514869345
 30
0.0
  0
SPLINE
  5
33C
100
AcDbEntity
  8
0
100
AcDbSpline
 62
7
  6
BYLAYER
 70
0
 71
3
 72
12
 73
8
 74
0
 42
0.0000001
 43
0.0000001
 44
0.0000000001
 40
0.0
 40
0.0
 40
0.0
 40
0.0
 40
0.1081489026
 40
0.2183524868
 40
0.4513425659
 40
0.7104405749
 40
1.0
 40
1.0
 40
1.0
 40
1.0
 10
14.0875092977
 20
59.2933928398
 30
0.0
 10
14.1243940479
 20
59.3146865871
 30
0.0
 10
14.2027176549
 20
59.3513656867
 30
0.0
 10
14.3747144834
 20
59.3989232156
 30
0.0
 10
14.6156222502
 20
59.4054014038
 30
0.0
 10
14.9173142853
 20
59.3324101262
 30
0.0
 10
15.1137489625
 20
59.2389793983
 30
0.0
 10
15.212503341
 20
59.1819648211
 30
0.0
  0
SPLINE
  5
33D
100
AcDbEntity
  8
0
100
AcDbSpline
 62
7
  6
BYLAYER
 70
0
 71
3
 72
11
 73
7
 74
0
 42
0.0000001
 43
0.0000001
 44
0.0000000001
 40
0.0
 40
0.0
 40
0.0
 40
0.0
 40
0.2177382977
 40
0.4508602761
 40
0.7103539614
 40
1.0
 40
1.0
 40
1.0
 40
1.0
 10
12.6265350881
 20
16.9600436115
 30
0.0
 10
12.5935598715
 20
16.9790921521
 30
0.0
 10
12.5318307655
 20
17.0309442784
 30
0.0
 10
12.4661338069
 20
17.1383984945
 30
0.0
 10
12.4271204548
 20
17.2707995356
 30
0.0
 10
12.4194199267
 20
17.3671668391
 30
0.0
 10
12.4194199267
 20
17.4178248914
 30
0.0
  0
SPLINE
  5
33E
100
AcDbEntity
  8
0
100
AcDbSpline
 62
7
  6
BYLAYER
 70
0
 71
3
 72
11
 73
7
 74
0
 42
0.0000001
 43
0.0000001
 44
0.0000000001
 40
0.0
 40
0.0
 40
0.0
 40
0.0
 40
0.2177456295
 40
0.4508837762
 40
0.7104602913
 40
1.0
 40
1.0
 40
1.0
 40
1.0
 10
18.2127270518
 20
6.6722393319
 30
0.0
 10
18.2457061603
 20
6.6531992712
 30
0.0
 10
18.3214559059
 20
6.6256127734
 30
0.0
 10
18.4473857892
 20
6.6224504932
 30
0.0
 10
18.5815281884
 20
6.6549202447
 30
0.0
 10
18.6688379513
 20
6.6964005762
 30
0.0
 10
18.7126905926
 20
6.7217187593
 30
0.0
  0
SPLINE
  5
33F
100
AcDbEntity
  8
0
100
AcDbSpline
 62
7
  6
BYLAYER
 70
0
 71
3
 72
11
 73
7
 74
0
 42
0.0000001
 43
0.0000001
 44
0.0000000001
 40
0.0
 40
0.0
 40
0.0
 40
0.0
 40
0.2177442246
 40
0.4508817658
 40
0.7104588047
 40
1.0
 40
1.0
 40
1.0
 40
1.0
 10
12.6265602238
 20
9.8973412922
 30
0.0
 10
12.5935800318
 20
9.9163820019
 30
0.0
 10
12.5318115876
 20
9.968191004
 30
0.0
 10
12.4661050777
 20
10.0756721715
 30
0.0
 10
12.4271519078
 20
10.2080832889
 30
0.0
 10
12.4194199267
 20
10.3044401243
 30
0.0
 10
12.4194199267
 20
10.3550789833
 30
0.0
  0
SPLINE
  5
340
100
AcDbEntity
  8
0
100
AcDbSpline
 62
7
  6
BYLAYER
 70
0
 71
3
 72
11
 73
7
 74
0
 42
0.0000001
 43
0.0000001
 44
0.0000000001
 40
0.0
 40
0.0
 40
0.0
 40
0.0
 40
0.217802362
 40
0.4509148349
 40
0.7103018536
 40
1.0
 40
1.0
 40
1.0
 40
1.0
 10
50.3298592119
 20
25.6832119588
 30
0.0
 10
50.3595444128
 20
25.6660634693
 30
0.0
 10
50.427760942
 20
25.6413131455
 30
0.0
 10
50.5410559361
 20
25.6384636271
 30
0.0
 10
50.6618030641
 20
25.6676085758
 30
0.0
 10
50.7403606488
 20
25.7049858421
 30
0.0
 10
50.7798504934
 20
25.7277851783
 30
0.0
  0
SPLINE
  5
341
100
AcDbEntity
  8
0
100
AcDbSpline
 62
7
  6
BYLAYER
 70
0
 71
3
 72
11
 73
7
 74
0
 42
0.0000001
 43
0.0000001
 44
0.0000000001
 40
0.0
 40
0.0
 40
0.0
 40
0.0
 40
0.265182292
 40
0.5238014422
 40
0.7702651649
 40
1.0
 40
1.0
 40
1.0
 40
1.0
 10
50.18635008
 20
69.5666144228
 30
0.0
 10
50.2337822784
 20
69.6515261573
 30
0.0
 10
50.3186870006
 20
69.8243356651
 30
0.0
 10
50.4154249196
 20
70.0903865318
 30
0.0
 10
50.4774914719
 20
70.3532961471
 30
0.0
 10
50.4952400194
 20
70.5277620725
 30
0.0
 10
50.4970089585
 20
70.6120039339
 30
0.0
  0
SPLINE
  5
342
100
AcDbEntity
  8
0
100
AcDbSpline
 62
7
  6
BYLAYER
 70
0
 71
3
 72
11
 73
7
 74
0
 42
0.0000001
 43
0.0000001
 44
0.0000000001
 40
0.0
 40
0.0
 40
0.0
 40
0.0
 40
0.2494167041
 40
0.5119870524
 40
0.7681852206
 40
1.0
 40
1.0
 40
1.0
 40
1.0
 10
47.9630596588
 20
65.050168503
 30
0.0
 10
48.0448163286
 20
65.1182996606
 30
0.0
 10
48.1955248754
 20
65.2792482526
 30
0.0
 10
48.3696833801
 20
65.559132703
 30
0.0
 10
48.4852286926
 20
65.8598452113
 30
0.0
 10
48.5171182143
 20
66.0682873542
 30
0.0
 10
48.5171182143
 20
66.1672004993
 30
0.0
  0
SPLINE
  5
343
100
AcDbEntity
  8
0
100
AcDbSpline
 62
7
  6
BYLAYER
 70
0
 71
3
 72
9
 73
5
 74
0
 42
0.0000001
 43
0.0000001
 44
0.0000000001
 40
0.0
 40
0.0
 40
0.0
 40
0.0
 40
0.2409691721
 40
1.0
 40
1.0
 40
1.0
 40
1.0
 10
46.6877291565
 20
64.0270322986
 30
0.0
 10
46.7137844535
 20
64.0420752416
 30
0.0
 10
46.8204109749
 20
64.1070882834
 30
0.0
 10
46.9210170263
 20
64.1817920029
 30
0.0
 10
46.9938197193
 20
64.2424614474
 30
0.0
  0
SPLINE
  5
344
100
AcDbEntity
  8
0
100
AcDbSpline
 62
7
  6
BYLAYER
 70
0
 71
3
 72
13
 73
9
 74
0
 42
0.0000001
 43
0.0000001
 44
0.0000000001
 40
0.0
 40
0.0
 40
0.0
 40
0.0
 40
0.1140568852
 40
0.2375430152
 40
0.5000018864
 40
0.7624596537
 40
0.8859445256
 40
1.0
 40
1.0
 40
1.0
 40
1.0
 10
45.547282098
 20
62.9603476042
 30
0.0
 10
45.547282098
 20
62.9882460387
 30
0.0
 10
45.5524694847
 20
63.0463993497
 30
0.0
 10
45.5801325899
 20
63.1658291835
 30
0.0
 10
45.6447964771
 20
63.3122970536
 30
0.0
 10
45.7393086448
 20
63.4415317708
 30
0.0
 10
45.8289054694
 20
63.5252032587
 30
0.0
 10
45.8766735264
 20
63.5587719074
 30
0.0
 10
45.9008340167
 20
63.5727208897
 30
0.0
  0
SPLINE
  5
345
100
AcDbEntity
  8
0
100
AcDbSpline
 62
7
  6
BYLAYER
 70
0
 71
3
 72
13
 73
9
 74
0
 42
0.0000001
 43
0.0000001
 44
0.0000000001
 40
0.0
 40
0.0
 40
0.0
 40
0.0
 40
0.1140555811
 40
0.2375406805
 40
0.4999986721
 40
0.762457319
 40
0.8859432215
 40
1.0
 40
1.0
 40
1.0
 40
1.0
 10
52.6183204702
 20
65.0627707814
 30
0.0
 10
52.642480983
 20
65.0767197767
 30
0.0
 10
52.6902490828
 20
65.1102885077
 30
0.0
 10
52.7798460208
 20
65.193960071
 30
0.0
 10
52.8743581664
 20
65.3231948889
 30
0.0
 10
52.9390219554
 20
65.4696627277
 30
0.0
 10
52.9666850521
 20
65.5890924255
 30
0.0
 10
52.9718723888
 20
65.6472456584
 30
0.0
 10
52.9718723888
 20
65.6751440669
 30
0.0
  0
SPLINE
  5
346
100
AcDbEntity
  8
0
100
AcDbSpline
 62
7
  6
BYLAYER
 70
0
 71
3
 72
13
 73
9
 74
0
 42
0.0000001
 43
0.0000001
 44
0.0000000001
 40
0.0
 40
0.0
 40
0.0
 40
0.0
 40
0.1140568852
 40
0.2375430152
 40
0.5000018864
 40
0.7624596537
 40
0.8859445256
 40
1.0
 40
1.0
 40
1.0
 40
1.0
 10
51.8051510574
 20
64.1850387958
 30
0.0
 10
51.8051510574
 20
64.2129372304
 30
0.0
 10
51.810338444
 20
64.2710905414
 30
0.0
 10
51.8380015493
 20
64.3905203752
 30
0.0
 10
51.9026654365
 20
64.5369882452
 30
0.0
 10
51.9971776042
 20
64.6662229625
 30
0.0
 10
52.0867744287
 20
64.7498944503
 30
0.0
 10
52.1345424858
 20
64.7834630991
 30
0.0
 10
52.158702976
 20
64.7974120813
 30
0.0
  0
SPLINE
  5
347
100
AcDbEntity
  8
0
100
AcDbSpline
 62
7
  6
BYLAYER
 70
0
 71
3
 72
11
 73
7
 74
0
 42
0.0000001
 43
0.0000001
 44
0.0000000001
 40
0.0
 40
0.0
 40
0.0
 40
0.0
 40
0.2631374365
 40
0.5238722611
 40
0.7722755344
 40
1.0
 40
1.0
 40
1.0
 40
1.0
 10
51.1884577965
 20
62.3661104967
 30
0.0
 10
51.2837545619
 20
62.4962732265
 30
0.0
 10
51.4551068497
 20
62.7693632923
 30
0.0
 10
51.6496490387
 20
63.2026877571
 30
0.0
 10
51.7731907101
 20
63.6389078577
 30
0.0
 10
51.8051510574
 20
63.9311197554
 30
0.0
 10
51.8051510574
 20
64.0707284574
 30
0.0
  0
SPLINE
  5
348
100
AcDbEntity
  8
0
100
AcDbSpline
 62
7
  6
BYLAYER
 70
0
 71
3
 72
11
 73
7
 74
0
 42
0.0000001
 43
0.0000001
 44
0.0000000001
 40
0.0
 40
0.0
 40
0.0
 40
0.0
 40
0.238153128
 40
0.4879941794
 40
0.7439515949
 40
1.0
 40
1.0
 40
1.0
 40
1.0
 10
48.8522761162
 20
57.0184779512
 30
0.0
 10
48.9308617225
 20
57.4788119555
 30
0.0
 10
49.1574824129
 20
58.4116442957
 30
0.0
 10
49.6686394779
 20
59.7811464931
 30
0.0
 10
50.3436923197
 20
61.1170387095
 30
0.0
 10
50.8918589167
 20
61.9609958039
 30
0.0
 10
51.1884577965
 20
62.3661104967
 30
0.0
  0
SPLINE
  5
349
100
AcDbEntity
  8
0
100
AcDbSpline
 62
7
  6
BYLAYER
 70
0
 71
3
 72
11
 73
7
 74
0
 42
0.0000001
 43
0.0000001
 44
0.0000000001
 40
0.0
 40
0.0
 40
0.0
 40
0.0
 40
0.2312648129
 40
0.4754193883
 40
0.7319716051
 40
1.0
 40
1.0
 40
1.0
 40
1.0
 10
48.7872413115
 20
51.6978118352
 30
0.0
 10
48.7139096953
 20
52.1033365519
 30
0.0
 10
48.6086768055
 20
52.9456690046
 30
0.0
 10
48.5701586328
 20
54.251081012
 30
0.0
 10
48.647017376
 20
55.6202637979
 30
0.0
 10
48.7719035796
 20
56.5476765751
 30
0.0
 10
48.8522761162
 20
57.0184779512
 30
0.0
  0
SPLINE
  5
34A
100
AcDbEntity
  8
0
100
AcDbSpline
 62
7
  6
BYLAYER
 70
0
 71
3
 72
13
 73
9
 74
0
 42
0.0000001
 43
0.0000001
 44
0.0000000001
 40
0.0
 40
0.0
 40
0.0
 40
0.0
 40
0.3070789312
 40
0.5821660858
 40
0.7024324137
 40
0.8105102971
 40
0.9082537985
 40
1.0
 40
1.0
 40
1.0
 40
1.0
 10
49.9698130076
 20
51.0500864065
 30
0.0
 10
49.9926600576
 20
51.0932893272
 30
0.0
 10
50.027544677
 20
51.1799481207
 30
0.0
 10
50.0442219795
 20
51.2921825558
 30
0.0
 10
50.0355836363
 20
51.372265818
 30
0.0
 10
50.019558768
 20
51.4221162856
 30
0.0
 10
49.9937006452
 20
51.4625159766
 30
0.0
 10
49.9700095255
 20
51.4821588901
 30
0.0
 10
49.9573698032
 20
51.489469335
 30
0.0
  0
SPLINE
  5
34B
100
AcDbEntity
  8
0
100
AcDbSpline
 62
7
  6
BYLAYER
 70
0
 71
3
 72
11
 73
7
 74
0
 42
0.0000001
 43
0.0000001
 44
0.0000000001
 40
0.0
 40
0.0
 40
0.0
 40
0.0
 40
0.230109424
 40
0.4774315166
 40
0.7362964852
 40
1.0
 40
1.0
 40
1.0
 40
1.0
 10
48.290489009
 20
49.153566487
 30
0.0
 10
48.456869066
 20
49.2577282809
 30
0.0
 10
48.7836373985
 20
49.5040071444
 30
0.0
 10
49.2289117855
 20
49.9493342751
 30
0.0
 10
49.6331506741
 20
50.4688980201
 30
0.0
 10
49.864650332
 20
50.8512277034
 30
0.0
 10
49.9698130076
 20
51.0500864065
 30
0.0
  0
SPLINE
  5
34C
100
AcDbEntity
  8
0
100
AcDbSpline
 62
7
  6
BYLAYER
 70
0
 71
3
 72
13
 73
9
 74
0
 42
0.0000001
 43
0.0000001
 44
0.0000000001
 40
0.0
 40
0.0
 40
0.0
 40
0.0
 40
0.1140568852
 40
0.2375430152
 40
0.5000018864
 40
0.7624596537
 40
0.8859445256
 40
1.0
 40
1.0
 40
1.0
 40
1.0
 10
45.547282098
 20
47.9775282499
 30
0.0
 10
45.547282098
 20
48.0054266844
 30
0.0
 10
45.5524694847
 20
48.0635799954
 30
0.0
 10
45.5801325899
 20
48.1830098292
 30
0.0
 10
45.6447964771
 20
48.3294776993
 30
0.0
 10
45.7393086448
 20
48.4587124165
 30
0.0
 10
45.8289054694
 20
48.5423839044
 30
0.0
 10
45.8766735264
 20
48.5759525531
 30
0.0
 10
45.9008340167
 20
48.5899015354
 30
0.0
  0
SPLINE
  5
34D
100
AcDbEntity
  8
0
100
AcDbSpline
 62
7
  6
BYLAYER
 70
0
 71
3
 72
11
 73
7
 74
0
 42
0.0000001
 43
0.0000001
 44
0.0000000001
 40
0.0
 40
0.0
 40
0.0
 40
0.0
 40
0.2896878189
 40
0.549113487
 40
0.7822233161
 40
1.0
 40
1.0
 40
1.0
 40
1.0
 10
52.9718723888
 20
42.0580586779
 30
0.0
 10
52.9718723888
 20
42.1087242511
 30
0.0
 10
52.9641869464
 20
42.2050892968
 30
0.0
 10
52.9251558262
 20
42.3374806529
 30
0.0
 10
52.8594657425
 20
42.4449241465
 30
0.0
 10
52.7977454038
 20
42.4968000594
 30
0.0
 10
52.7647596896
 20
42.5158441682
 30
0.0
  0
SPLINE
  5
34E
100
AcDbEntity
  8
0
100
AcDbSpline
 62
7
  6
BYLAYER
 70
0
 71
3
 72
13
 73
9
 74
0
 42
0.0000001
 43
0.0000001
 44
0.0000000001
 40
0.0
 40
0.0
 40
0.0
 40
0.0
 40
0.114175582
 40
0.23756922
 40
0.49999856
 40
0.7624286893
 40
0.8858231943
 40
1.0
 40
1.0
 40
1.0
 40
1.0
 10
52.2647685516
 20
26.5850979015
 30
0.0
 10
52.3131407745
 20
26.6130254507
 30
0.0
 10
52.4087382973
 20
26.680105892
 30
0.0
 10
52.5878306966
 20
26.8475676294
 30
0.0
 10
52.7768287009
 20
27.1059547961
 30
0.0
 10
52.9060980615
 20
27.3988264928
 30
0.0
 10
52.9615777225
 20
27.6376574209
 30
0.0
 10
52.9718723888
 20
27.7539885254
 30
0.0
 10
52.9718723888
 20
27.8098444725
 30
0.0
  0
SPLINE
  5
34F
100
AcDbEntity
  8
0
100
AcDbSpline
 62
7
  6
BYLAYER
 70
0
 71
3
 72
11
 73
7
 74
0
 42
0.0000001
 43
0.0000001
 44
0.0000000001
 40
0.0
 40
0.0
 40
0.0
 40
0.0
 40
0.2896981464
 40
0.5490851651
 40
0.782197638
 40
1.0
 40
1.0
 40
1.0
 40
1.0
 10
48.2895462898
 20
27.7193261103
 30
0.0
 10
48.3334238948
 20
27.7446587061
 30
0.0
 10
48.4207101
 20
27.786189002
 30
0.0
 10
48.5548735756
 20
27.8185722783
 30
0.0
 10
48.6807569024
 20
27.8154061468
 30
0.0
 10
48.756553046
 20
27.787905787
 30
0.0
 10
48.7895366026
 20
27.7688519098
 30
0.0
  0
SPLINE
  5
350
100
AcDbEntity
  8
0
100
AcDbSpline
 62
7
  6
BYLAYER
 70
0
 71
3
 72
11
 73
7
 74
0
 42
0.0000001
 43
0.0000001
 44
0.0000000001
 40
0.0
 40
0.0
 40
0.0
 40
0.0
 40
0.2351796283
 40
0.4836265034
 40
0.740425443
 40
1.0
 40
1.0
 40
1.0
 40
1.0
 10
25.0683660309
 20
10.8834506165
 30
0.0
 10
25.15543776
 20
10.9489426355
 30
0.0
 10
25.325204703
 20
11.0962493696
 30
0.0
 10
25.5564824329
 20
11.3504966834
 30
0.0
 10
25.7653484256
 20
11.6375103529
 30
0.0
 10
25.8856085903
 20
11.8448900773
 30
0.0
 10
25.9404051412
 20
11.9519340931
 30
0.0
  0
SPLINE
  5
351
100
AcDbEntity
  8
0
100
AcDbSpline
 62
7
  6
BYLAYER
 70
0
 71
3
 72
9
 73
5
 74
0
 42
0.0000001
 43
0.0000001
 44
0.0000000001
 40
0.0
 40
0.0
 40
0.0
 40
0.0
 40
0.4745460606
 40
1.0
 40
1.0
 40
1.0
 40
1.0
 10
23.3314697069
 20
9.6355990125
 30
0.0
 10
23.3854534504
 20
9.6667663553
 30
0.0
 10
23.486721104
 20
9.7540895772
 30
0.0
 10
23.5624209522
 20
9.862972524
 30
0.0
 10
23.5949917488
 20
9.9238263632
 30
0.0
  0
SPLINE
  5
352
100
AcDbEntity
  8
0
100
AcDbSpline
 62
7
  6
BYLAYER
 70
0
 71
3
 72
13
 73
9
 74
0
 42
0.0000001
 43
0.0000001
 44
0.0000000001
 40
0.0
 40
0.0
 40
0.0
 40
0.0
 40
0.3060856287
 40
0.5828829574
 40
0.7036678648
 40
0.8116871348
 40
0.9089886522
 40
1.0
 40
1.0
 40
1.0
 40
1.0
 10
22.5956713355
 20
62.4177322373
 30
0.0
 10
22.6065767394
 20
62.4366210559
 30
0.0
 10
22.6234479768
 20
62.4749754262
 30
0.0
 10
22.6324111544
 20
62.5250709519
 30
0.0
 10
22.6295810988
 20
62.5611902121
 30
0.0
 10
22.6229214391
 20
62.5836726895
 30
0.0
 10
22.6117988879
 20
62.6019564426
 30
0.0
 10
22.6012822355
 20
62.6107817354
 30
0.0
 10
22.5956537532
 20
62.6140033107
 30
0.0
  0
SPLINE
  5
353
100
AcDbEntity
  8
0
100
AcDbSpline
 62
7
  6
BYLAYER
 70
0
 71
3
 72
9
 73
5
 74
0
 42
0.0000001
 43
0.0000001
 44
0.0000000001
 40
0.0
 40
0.0
 40
0.0
 40
0.0
 40
0.4744336386
 40
1.0
 40
1.0
 40
1.0
 40
1.0
 10
25.4056596363
 20
67.3422968444
 30
0.0
 10
25.4227241407
 20
67.3521489818
 30
0.0
 10
25.455013717
 20
67.3793149025
 30
0.0
 10
25.4797453142
 20
67.4131226313
 30
0.0
 10
25.4906592824
 20
67.4320262836
 30
0.0
  0
SPLINE
  5
354
100
AcDbEntity
  8
0
100
AcDbSpline
 62
7
  6
BYLAYER
 70
0
 71
3
 72
12
 73
8
 74
0
 42
0.0000001
 43
0.0000001
 44
0.0000000001
 40
0.0
 40
0.0
 40
0.0
 40
0.0
 40
0.2895344687
 40
0.5486012059
 40
0.781552131
 40
0.8917903001
 40
1.0
 40
1.0
 40
1.0
 40
1.0
 10
50.4970089585
 20
71.4109596741
 30
0.0
 10
50.4970089585
 20
71.5123149138
 30
0.0
 10
50.4816449133
 20
71.7050464201
 30
0.0
 10
50.4037316846
 20
71.9696883209
 30
0.0
 10
50.2917558018
 20
72.1523061973
 30
0.0
 10
50.1786553966
 20
72.2635652881
 30
0.0
 10
50.1155746441
 20
72.3075660317
 30
0.0
 10
50.0827727523
 20
72.3265118632
 30
0.0
  0
SPLINE
  5
355
100
AcDbEntity
  8
0
100
AcDbSpline
 62
7
  6
BYLAYER
 70
0
 71
3
 72
11
 73
7
 74
0
 42
0.0000001
 43
0.0000001
 44
0.0000000001
 40
0.0
 40
0.0
 40
0.0
 40
0.0
 40
0.2132820134
 40
0.4446625966
 40
0.7060420108
 40
1.0
 40
1.0
 40
1.0
 40
1.0
 10
46.1810102604
 20
39.1344678621
 30
0.0
 10
46.1627234184
 20
39.1450366883
 30
0.0
 10
46.1286515927
 20
39.1747926384
 30
0.0
 10
46.0947398152
 20
39.237195335
 30
0.0
 10
46.0771335999
 20
39.3138208686
 30
0.0
 10
46.07634329
 20
39.3692022772
 30
0.0
 10
46.0783804591
 20
39.3982415233
 30
0.0
  0
SPLINE
  5
356
100
AcDbEntity
  8
0
100
AcDbSpline
 62
7
  6
BYLAYER
 70
0
 71
3
 72
11
 73
7
 74
0
 42
0.0000001
 43
0.0000001
 44
0.0000000001
 40
0.0
 40
0.0
 40
0.0
 40
0.0
 40
0.2176732262
 40
0.4508319884
 40
0.7104838574
 40
1.0
 40
1.0
 40
1.0
 40
1.0
 10
45.6508439865
 20
47.6566924323
 30
0.0
 10
45.6343593073
 20
47.6662096433
 30
0.0
 10
45.603500212
 20
47.692135541
 30
0.0
 10
45.5706253666
 20
47.7458605014
 30
0.0
 10
45.5511551576
 20
47.8120776586
 30
0.0
 10
45.547282098
 20
47.8602583791
 30
0.0
 10
45.547282098
 20
47.8855755455
 30
0.0
  0
SPLINE
  5
357
100
AcDbEntity
  8
0
100
AcDbSpline
 62
7
  6
BYLAYER
 70
0
 71
3
 72
11
 73
7
 74
0
 42
0.0000001
 43
0.0000001
 44
0.0000000001
 40
0.0
 40
0.0
 40
0.0
 40
0.0
 40
0.2177456295
 40
0.4508837762
 40
0.7104602913
 40
1.0
 40
1.0
 40
1.0
 40
1.0
 10
47.9196573928
 20
49.1063814345
 30
0.0
 10
47.9427427687
 20
49.093053392
 30
0.0
 10
47.9957675906
 20
49.0737428435
 30
0.0
 10
48.083918509
 20
49.0715292474
 30
0.0
 10
48.1778181884
 20
49.0942580734
 30
0.0
 10
48.2389350224
 20
49.1232943055
 30
0.0
 10
48.2696318713
 20
49.1410170337
 30
0.0
  0
SPLINE
  5
358
100
AcDbEntity
  8
0
100
AcDbSpline
 62
7
  6
BYLAYER
 70
0
 71
3
 72
11
 73
7
 74
0
 42
0.0000001
 43
0.0000001
 44
0.0000000001
 40
0.0
 40
0.0
 40
0.0
 40
0.0
 40
0.2282597165
 40
0.4663057206
 40
0.7221714343
 40
1.0
 40
1.0
 40
1.0
 40
1.0
 10
49.02101481
 20
51.3219834031
 30
0.0
 10
48.9909469333
 20
51.3393223163
 30
0.0
 10
48.9339963352
 20
51.3831123214
 30
0.0
 10
48.8657546295
 20
51.4704125685
 30
0.0
 10
48.8153313852
 20
51.5772675453
 30
0.0
 10
48.7947588669
 20
51.6562396633
 30
0.0
 10
48.7872413115
 20
51.6978118352
 30
0.0
  0
SPLINE
  5
359
100
AcDbEntity
  8
0
100
AcDbSpline
 62
7
  6
BYLAYER
 70
0
 71
3
 72
11
 73
7
 74
0
 42
0.0000001
 43
0.0000001
 44
0.0000000001
 40
0.0
 40
0.0
 40
0.0
 40
0.0
 40
0.2177319434
 40
0.4509263959
 40
0.7108589337
 40
1.0
 40
1.0
 40
1.0
 40
1.0
 10
25.3206658207
 20
67.3338853033
 30
0.0
 10
25.3262663017
 20
67.3306392714
 30
0.0
 10
25.3391492387
 20
67.3259537936
 30
0.0
 10
25.3605692438
 20
67.3254196749
 30
0.0
 10
25.3833648071
 20
67.3309711253
 30
0.0
 10
25.3982151136
 20
67.3379987729
 30
0.0
 10
25.4056596363
 20
67.3422968444
 30
0.0
  0
SPLINE
  5
35A
100
AcDbEntity
  8
0
100
AcDbSpline
 62
7
  6
BYLAYER
 70
0
 71
3
 72
9
 73
5
 74
0
 42
0.0000001
 43
0.0000001
 44
0.0000000001
 40
0.0
 40
0.0
 40
0.0
 40
0.0
 40
0.2644203965
 40
1.0
 40
1.0
 40
1.0
 40
1.0
 10
13.7393038389
 20
12.5036409394
 30
0.0
 10
13.7430474732
 20
12.5077020021
 30
0.0
 10
13.7576908007
 20
12.5225894687
 30
0.0
 10
13.7743592867
 20
12.5356093073
 30
0.0
 10
13.7876658517
 20
12.5432918103
 30
0.0
  0
SPLINE
  5
35B
100
AcDbEntity
  8
0
100
AcDbSpline
 62
7
  6
BYLAYER
 70
0
 71
3
 72
11
 73
7
 74
0
 42
0.0000001
 43
0.0000001
 44
0.0000000001
 40
0.0
 40
0.0
 40
0.0
 40
0.0
 40
0.2288337186
 40
0.4804303557
 40
0.7422653267
 40
1.0
 40
1.0
 40
1.0
 40
1.0
 10
12.4194199267
 20
10.5387920271
 30
0.0
 10
12.4194199267
 20
10.62263318
 30
0.0
 10
12.4424382692
 20
10.798852882
 30
0.0
 10
12.5286559284
 20
11.0581175063
 30
0.0
 10
12.6617974286
 20
11.3087167474
 30
0.0
 10
12.7780378672
 20
11.4608677604
 30
0.0
 10
12.8420413395
 20
11.5302981847
 30
0.0
  0
SPLINE
  5
35C
100
AcDbEntity
  8
0
100
AcDbSpline
 62
7
  6
BYLAYER
 70
0
 71
3
 72
11
 73
7
 74
0
 42
0.0000001
 43
0.0000001
 44
0.0000000001
 40
0.0
 40
0.0
 40
0.0
 40
0.0
 40
0.2516652724
 40
0.5075997676
 40
0.7596361664
 40
1.0
 40
1.0
 40
1.0
 40
1.0
 10
15.5837209325
 20
20.4035703927
 30
0.0
 10
15.6354154284
 20
20.2504770105
 30
0.0
 10
15.7611209484
 20
19.9485918751
 30
0.0
 10
16.0043991724
 20
19.524445403
 30
0.0
 10
16.2946578821
 20
19.1399783754
 30
0.0
 10
16.5180404098
 20
18.9144270492
 30
0.0
 10
16.6349454907
 20
18.8136761463
 30
0.0
  0
SPLINE
  5
35D
100
AcDbEntity
  8
0
100
AcDbSpline
 62
7
  6
BYLAYER
 70
0
 71
3
 72
11
 73
7
 74
0
 42
0.0000001
 43
0.0000001
 44
0.0000000001
 40
0.0
 40
0.0
 40
0.0
 40
0.0
 40
0.2372423294
 40
0.4999983821
 40
0.7627553152
 40
1.0
 40
1.0
 40
1.0
 40
1.0
 10
19.3738326804
 20
13.768128023
 30
0.0
 10
19.390898959
 20
13.7779811847
 30
0.0
 10
19.4231930841
 20
13.8051634098
 30
0.0
 10
19.4608855654
 20
13.856672116
 30
0.0
 10
19.4866469472
 20
13.91506943
 30
0.0
 10
19.4940403327
 20
13.9566283327
 30
0.0
 10
19.4940403327
 20
13.9763349401
 30
0.0
  0
SPLINE
  5
35E
100
AcDbEntity
  8
0
100
AcDbSpline
 62
7
  6
BYLAYER
 70
0
 71
3
 72
9
 73
5
 74
0
 42
0.0000001
 43
0.0000001
 44
0.0000000001
 40
0.0
 40
0.0
 40
0.0
 40
0.0
 40
0.229078353
 40
1.0
 40
1.0
 40
1.0
 40
1.0
 10
19.3254706676
 20
13.751935585
 30
0.0
 10
19.3293751895
 20
13.7522085194
 30
0.0
 10
19.3463352039
 20
13.7546486888
 30
0.0
 10
19.3624253559
 20
13.7615420404
 30
0.0
 10
19.3738326804
 20
13.768128023
 30
0.0
  0
SPLINE
  5
35F
100
AcDbEntity
  8
0
100
AcDbSpline
 62
7
  6
BYLAYER
 70
0
 71
3
 72
12
 73
8
 74
0
 42
0.0000001
 43
0.0000001
 44
0.0000000001
 40
0.0
 40
0.0
 40
0.0
 40
0.0
 40
0.1109442754
 40
0.228738363
 40
0.4795149856
 40
0.7410601115
 40
1.0
 40
1.0
 40
1.0
 40
1.0
 10
15.212503341
 20
21.1737773037
 30
0.0
 10
15.2891881227
 20
21.129504326
 30
0.0
 10
15.4416905903
 20
21.028281011
 30
0.0
 10
15.7369103338
 20
20.7839090554
 30
0.0
 10
16.0760987665
 20
20.4085899531
 30
0.0
 10
16.4105222633
 20
19.8890745601
 30
0.0
 10
16.5782837357
 20
19.5065509994
 30
0.0
 10
16.6444005345
 20
19.31074593
 30
0.0
  0
SPLINE
  5
360
100
AcDbEntity
  8
0
100
AcDbSpline
 62
7
  6
BYLAYER
 70
0
 71
3
 72
12
 73
8
 74
0
 42
0.0000001
 43
0.0000001
 44
0.0000000001
 40
0.0
 40
0.0
 40
0.0
 40
0.0
 40
0.1109442754
 40
0.228738363
 40
0.4795149856
 40
0.7410601115
 40
1.0
 40
1.0
 40
1.0
 40
1.0
 10
15.212503341
 20
59.1819648211
 30
0.0
 10
15.2891881227
 20
59.1376918434
 30
0.0
 10
15.4416905903
 20
59.0364685283
 30
0.0
 10
15.7369103338
 20
58.7920965728
 30
0.0
 10
16.0760987665
 20
58.4167774705
 30
0.0
 10
16.4105222633
 20
57.8972620775
 30
0.0
 10
16.5782837357
 20
57.5147385168
 30
0.0
 10
16.6444005345
 20
57.3189334474
 30
0.0
  0
SPLINE
  5
361
100
AcDbEntity
  8
0
100
AcDbSpline
 62
7
  6
BYLAYER
 70
0
 71
3
 72
13
 73
9
 74
0
 42
0.0000001
 43
0.0000001
 44
0.0000000001
 40
0.0
 40
0.0
 40
0.0
 40
0.0
 40
0.3072578402
 40
0.5818344637
 40
0.7019079297
 40
0.8099714855
 40
0.9079109707
 40
1.0
 40
1.0
 40
1.0
 40
1.0
 10
14.5817996534
 20
63.1567604188
 30
0.0
 10
14.6091203932
 20
63.2101309623
 30
0.0
 10
14.6506093782
 20
63.3168016907
 30
0.0
 10
14.6695550791
 20
63.4545102603
 30
0.0
 10
14.657986928
 20
63.552445463
 30
0.0
 10
14.6377802534
 20
63.6133740908
 30
0.0
 10
14.605689076
 20
63.6627634055
 30
0.0
 10
14.5765068155
 20
63.686817871
 30
0.0
 10
14.5609518363
 20
63.6958155542
 30
0.0
  0
SPLINE
  5
362
100
AcDbEntity
  8
0
100
AcDbSpline
 62
7
  6
BYLAYER
 70
0
 71
3
 72
13
 73
9
 74
0
 42
0.0000001
 43
0.0000001
 44
0.0000000001
 40
0.0
 40
0.0
 40
0.0
 40
0.0
 40
0.3072578402
 40
0.5818344637
 40
0.7019079297
 40
0.8099714855
 40
0.9079109707
 40
1.0
 40
1.0
 40
1.0
 40
1.0
 10
15.8545865604
 20
62.6583715171
 30
0.0
 10
15.8819073002
 20
62.7117420606
 30
0.0
 10
15.9233962852
 20
62.818412789
 30
0.0
 10
15.9423419861
 20
62.9561213585
 30
0.0
 10
15.930773835
 20
63.0540565612
 30
0.0
 10
15.9105671604
 20
63.114985189
 30
0.0
 10
15.8784759829
 20
63.1643745038
 30
0.0
 10
15.8492937225
 20
63.1884289692
 30
0.0
 10
15.8337387433
 20
63.1974266524
 30
0.0
  0
SPLINE
  5
363
100
AcDbEntity
  8
0
100
AcDbSpline
 62
7
  6
BYLAYER
 70
0
 71
3
 72
13
 73
9
 74
0
 42
0.0000001
 43
0.0000001
 44
0.0000000001
 40
0.0
 40
0.0
 40
0.0
 40
0.0
 40
0.3072578402
 40
0.5818344637
 40
0.7019079297
 40
0.8099714855
 40
0.9079109707
 40
1.0
 40
1.0
 40
1.0
 40
1.0
 10
17.1273734674
 20
62.1599826153
 30
0.0
 10
17.1546942072
 20
62.2133531588
 30
0.0
 10
17.1961831922
 20
62.3200238872
 30
0.0
 10
17.2151288931
 20
62.4577324567
 30
0.0
 10
17.203560742
 20
62.5556676595
 30
0.0
 10
17.1833540674
 20
62.6165962873
 30
0.0
 10
17.1512628899
 20
62.665985602
 30
0.0
 10
17.1220806294
 20
62.6900400675
 30
0.0
 10
17.1065256502
 20
62.6990377507
 30
0.0
  0
SPLINE
  5
364
100
AcDbEntity
  8
0
100
AcDbSpline
 62
7
  6
BYLAYER
 70
0
 71
3
 72
12
 73
8
 74
0
 42
0.0000001
 43
0.0000001
 44
0.0000000001
 40
0.0
 40
0.0
 40
0.0
 40
0.0
 40
0.2895344687
 40
0.5486012059
 40
0.781552131
 40
0.8917903001
 40
1.0
 40
1.0
 40
1.0
 40
1.0
 10
19.083914072
 20
60.632371613
 30
0.0
 10
19.083914072
 20
60.7337268527
 30
0.0
 10
19.0685500268
 20
60.926458359
 30
0.0
 10
18.990636798
 20
61.1911002598
 30
0.0
 10
18.8786609152
 20
61.3737181363
 30
0.0
 10
18.76556051
 20
61.484977227
 30
0.0
 10
18.7024797575
 20
61.5289779707
 30
0.0
 10
18.6696778657
 20
61.5479238021
 30
0.0
  0
SPLINE
  5
365
100
AcDbEntity
  8
0
100
AcDbSpline
 62
7
  6
BYLAYER
 70
0
 71
3
 72
17
 73
13
 74
0
 42
0.0000001
 43
0.0000001
 44
0.0000000001
 40
0.0
 40
0.0
 40
0.0
 40
0.0
 40
0.1286861902
 40
0.2703070477
 40
0.4174560759
 40
0.5617988252
 40
0.6954588227
 40
0.812714254
 40
0.8646789572
 40
0.912508223
 40
0.9571391073
 40
1.0
 40
1.0
 40
1.0
 40
1.0
 10
17.0156353481
 20
59.6514869345
 30
0.0
 10
17.0156353481
 20
59.7519167706
 30
0.0
 10
17.0437543057
 20
59.9631076973
 30
0.0
 10
17.148596592
 20
60.2731967969
 30
0.0
 10
17.3102392255
 20
60.5718832142
 30
0.0
 10
17.5155536608
 20
60.8346947079
 30
0.0
 10
17.7478400016
 20
61.0404138957
 30
0.0
 10
17.9580857968
 20
61.1553287531
 30
0.0
 10
18.1225342922
 20
61.1991462911
 30
0.0
 10
18.2357267498
 20
61.2074151077
 30
0.0
 10
18.3411444279
 20
61.1920424868
 30
0.0
 10
18.4049779884
 20
61.1654388544
 30
0.0
 10
18.4339466143
 20
61.1487146176
 30
0.0
  0
SPLINE
  5
366
100
AcDbEntity
  8
0
100
AcDbSpline
 62
7
  6
BYLAYER
 70
0
 71
3
 72
9
 73
5
 74
0
 42
0.0000001
 43
0.0000001
 44
0.0000000001
 40
0.0
 40
0.0
 40
0.0
 40
0.0
 40
0.2566593217
 40
1.0
 40
1.0
 40
1.0
 40
1.0
 10
12.6685348408
 20
65.0284533031
 30
0.0
 10
12.6727619485
 20
65.0316117976
 30
0.0
 10
12.6893979991
 20
65.0436924222
 30
0.0
 10
12.7067098454
 20
65.0548531456
 30
0.0
 10
12.7199450927
 20
65.0624944736
 30
0.0
  0
SPLINE
  5
367
100
AcDbEntity
  8
0
100
AcDbSpline
 62
7
  6
BYLAYER
 70
0
 71
3
 72
9
 73
5
 74
0
 42
0.0000001
 43
0.0000001
 44
0.0000000001
 40
0.0
 40
0.0
 40
0.0
 40
0.0
 40
0.2566593217
 40
1.0
 40
1.0
 40
1.0
 40
1.0
 10
11.3957479338
 20
65.5268422048
 30
0.0
 10
11.3999750415
 20
65.5300006993
 30
0.0
 10
11.4166110921
 20
65.5420813239
 30
0.0
 10
11.4339229384
 20
65.5532420474
 30
0.0
 10
11.4471581857
 20
65.5608833754
 30
0.0
  0
SPLINE
  5
368
100
AcDbEntity
  8
0
100
AcDbSpline
 62
7
  6
BYLAYER
 70
0
 71
3
 72
10
 73
6
 74
0
 42
0.0000001
 43
0.0000001
 44
0.0000000001
 40
0.0
 40
0.0
 40
0.0
 40
0.0
 40
0.5245140333
 40
0.7720032582
 40
1.0
 40
1.0
 40
1.0
 40
1.0
 10
9.9035347961
 20
65.7570733042
 30
0.0
 10
9.9362229719
 20
65.8209290316
 30
0.0
 10
9.9961990208
 20
65.909727234
 30
0.0
 10
10.0941799051
 20
66.0055796773
 30
0.0
 10
10.1473664961
 20
66.0436811517
 30
0.0
 10
10.1743712787
 20
66.0592722771
 30
0.0
  0
SPLINE
  5
369
100
AcDbEntity
  8
0
100
AcDbSpline
 62
7
  6
BYLAYER
 70
0
 71
3
 72
11
 73
7
 74
0
 42
0.0000001
 43
0.0000001
 44
0.0000000001
 40
0.0
 40
0.0
 40
0.0
 40
0.0
 40
0.2864445686
 40
0.5461838901
 40
0.7817307243
 40
1.0
 40
1.0
 40
1.0
 40
1.0
 10
9.293708531
 20
65.807705903
 30
0.0
 10
9.3233252525
 20
65.824805023
 30
0.0
 10
9.3822806975
 20
65.8534389084
 30
0.0
 10
9.4727630664
 20
65.8787053813
 30
0.0
 10
9.558650833
 20
65.8830305091
 30
0.0
 10
9.6123995572
 20
65.8710739835
 30
0.0
 10
9.6366645989
 20
65.86157245
 30
0.0
  0
SPLINE
  5
36A
100
AcDbEntity
  8
0
100
AcDbSpline
 62
7
  6
BYLAYER
 70
0
 71
3
 72
16
 73
12
 74
0
 42
0.0000001
 43
0.0000001
 44
0.0000000001
 40
0.0
 40
0.0
 40
0.0
 40
0.0
 40
0.0890564717
 40
0.1389081809
 40
0.1928811798
 40
0.3131945187
 40
0.447726652
 40
0.5908117603
 40
0.7352816847
 40
0.8738436591
 40
1.0
 40
1.0
 40
1.0
 40
1.0
 10
8.8732693911
 20
64.5695712657
 30
0.0
 10
8.8412888969
 20
64.5983735124
 30
0.0
 10
8.8026414977
 20
64.6564173629
 30
0.0
 10
8.7736353643
 20
64.7451625715
 30
0.0
 10
8.7562835351
 20
64.852533865
 30
0.0
 10
8.7631791033
 20
65.0031211589
 30
0.0
 10
8.8101219342
 20
65.1906093999
 30
0.0
 10
8.8926962711
 20
65.3781281673
 30
0.0
 10
9.0047638362
 20
65.5519563899
 30
0.0
 10
9.1380766554
 20
65.6991851966
 30
0.0
 10
9.2409086366
 20
65.7772220517
 30
0.0
 10
9.293708531
 20
65.807705903
 30
0.0
  0
SPLINE
  5
36B
100
AcDbEntity
  8
0
100
AcDbSpline
 62
7
  6
BYLAYER
 70
0
 71
3
 72
11
 73
7
 74
0
 42
0.0000001
 43
0.0000001
 44
0.0000000001
 40
0.0
 40
0.0
 40
0.0
 40
0.0
 40
0.2849346131
 40
0.544638552
 40
0.7810935402
 40
1.0
 40
1.0
 40
1.0
 40
1.0
 10
13.144207395
 20
60.5825103911
 30
0.0
 10
13.144207395
 20
60.6040929843
 30
0.0
 10
13.1413864166
 20
60.6454397342
 30
0.0
 10
13.1273869422
 20
60.7032754045
 30
0.0
 10
13.1039264602
 20
60.7525795883
 30
0.0
 10
13.0815791344
 20
60.7794867685
 30
0.0
 10
13.0692581902
 20
60.7905832472
 30
0.0
  0
SPLINE
  5
36C
100
AcDbEntity
  8
0
100
AcDbSpline
 62
7
  6
BYLAYER
 70
0
 71
3
 72
13
 73
9
 74
0
 42
0.0000001
 43
0.0000001
 44
0.0000000001
 40
0.0
 40
0.0
 40
0.0
 40
0.0
 40
0.1140559004
 40
0.2375411849
 40
0.4999991947
 40
0.7624575738
 40
0.8859433264
 40
1.0
 40
1.0
 40
1.0
 40
1.0
 10
19.4551466777
 20
59.1615703377
 30
0.0
 10
19.4793073729
 20
59.1476214694
 30
0.0
 10
19.5270758458
 20
59.114052993
 30
0.0
 10
19.6166735008
 20
59.030381901
 30
0.0
 10
19.7111864574
 20
58.9011475558
 30
0.0
 10
19.7758508305
 20
58.7546799478
 30
0.0
 10
19.8035141629
 20
58.6352503566
 30
0.0
 10
19.8087015403
 20
58.5770971509
 30
0.0
 10
19.8087015403
 20
58.5491987519
 30
0.0
  0
SPLINE
  5
36D
100
AcDbEntity
  8
0
100
AcDbSpline
 62
7
  6
BYLAYER
 70
0
 71
3
 72
11
 73
7
 74
0
 42
0.0000001
 43
0.0000001
 44
0.0000000001
 40
0.0
 40
0.0
 40
0.0
 40
0.0
 40
0.2516652724
 40
0.5075997676
 40
0.7596361664
 40
1.0
 40
1.0
 40
1.0
 40
1.0
 10
15.5837209325
 20
58.4117579101
 30
0.0
 10
15.6354154284
 20
58.2586645279
 30
0.0
 10
15.7611209484
 20
57.9567793925
 30
0.0
 10
16.0043991724
 20
57.5326329204
 30
0.0
 10
16.2946578821
 20
57.1481658927
 30
0.0
 10
16.5180404098
 20
56.9226145666
 30
0.0
 10
16.6349454907
 20
56.8218636637
 30
0.0
  0
SPLINE
  5
36E
100
AcDbEntity
  8
0
100
AcDbSpline
 62
7
  6
BYLAYER
 70
0
 71
3
 72
10
 73
6
 74
0
 42
0.0000001
 43
0.0000001
 44
0.0000000001
 40
0.0
 40
0.0
 40
0.0
 40
0.0
 40
0.5249281934
 40
0.7715426358
 40
1.0
 40
1.0
 40
1.0
 40
1.0
 10
20.7229121797
 20
61.60466223
 30
0.0
 10
20.6587121519
 20
61.4934639026
 30
0.0
 10
20.5815605813
 20
61.3186706538
 30
0.0
 10
20.5260738167
 20
61.0799528794
 30
0.0
 10
20.5158062607
 20
60.9636179335
 30
0.0
 10
20.5158062607
 20
60.9077358895
 30
0.0
  0
SPLINE
  5
36F
100
AcDbEntity
  8
0
100
AcDbSpline
 62
7
  6
BYLAYER
 70
0
 71
3
 72
10
 73
6
 74
0
 42
0.0000001
 43
0.0000001
 44
0.0000000001
 40
0.0
 40
0.0
 40
0.0
 40
0.0
 40
0.2284562192
 40
0.4750701915
 40
1.0
 40
1.0
 40
1.0
 40
1.0
 10
21.3844263784
 20
62.4122384175
 30
0.0
 10
21.33603159
 20
62.3842978402
 30
0.0
 10
21.2404172523
 20
62.3172390702
 30
0.0
 10
21.0614265363
 20
62.1498278444
 30
0.0
 10
20.9486282727
 20
61.9956161414
 30
0.0
 10
20.88442846
 20
61.8844181867
 30
0.0
  0
SPLINE
  5
370
100
AcDbEntity
  8
0
100
AcDbSpline
 62
7
  6
BYLAYER
 70
0
 71
3
 72
9
 73
5
 74
0
 42
0.0000001
 43
0.0000001
 44
0.0000000001
 40
0.0
 40
0.0
 40
0.0
 40
0.0
 40
0.2311150115
 40
1.0
 40
1.0
 40
1.0
 40
1.0
 10
21.6410144479
 20
62.5047251497
 30
0.0
 10
21.6200916635
 20
62.5020536375
 30
0.0
 10
21.5302787588
 20
62.4848364614
 30
0.0
 10
21.4451972763
 20
62.4473243023
 30
0.0
 10
21.3844263784
 20
62.4122384175
 30
0.0
  0
SPLINE
  5
371
100
AcDbEntity
  8
0
100
AcDbSpline
 62
7
  6
BYLAYER
 70
0
 71
3
 72
15
 73
11
 74
0
 42
0.0000001
 43
0.0000001
 44
0.0000000001
 40
0.0
 40
0.0
 40
0.0
 40
0.0
 40
0.12875508
 40
0.2706271576
 40
0.4178814204
 40
0.5623916513
 40
0.6962027403
 40
0.8135607516
 40
0.9131112831
 40
1.0
 40
1.0
 40
1.0
 40
1.0
 10
23.9031658918
 20
64.2114230849
 30
0.0
 10
23.8809721433
 20
64.1986095947
 30
0.0
 10
23.8378800445
 20
64.1654067808
 30
0.0
 10
23.7826733973
 20
64.1026734777
 30
0.0
 10
23.7372821639
 20
64.028774847
 30
0.0
 10
23.7053592464
 20
63.9498647272
 30
0.0
 10
23.6895510248
 20
63.8721749172
 30
0.0
 10
23.691173959
 20
63.8016361162
 30
0.0
 10
23.7110193044
 20
63.7431135954
 30
0.0
 10
23.7381894787
 20
63.7153116221
 30
0.0
 10
23.7531665162
 20
63.7066643782
 30
0.0
  0
SPLINE
  5
372
100
AcDbEntity
  8
0
100
AcDbSpline
 62
7
  6
BYLAYER
 70
0
 71
3
 72
11
 73
7
 74
0
 42
0.0000001
 43
0.0000001
 44
0.0000000001
 40
0.0
 40
0.0
 40
0.0
 40
0.0
 40
0.2177182217
 40
0.4509432136
 40
0.7102956781
 40
1.0
 40
1.0
 40
1.0
 40
1.0
 10
24.0531652673
 20
64.2262803414
 30
0.0
 10
24.0432725842
 20
64.231992048
 30
0.0
 10
24.0205324604
 20
64.2402368446
 30
0.0
 10
23.9827670435
 20
64.2412085019
 30
0.0
 10
23.9425157747
 20
64.2314759516
 30
0.0
 10
23.9163295939
 20
64.2190231066
 30
0.0
 10
23.9031658918
 20
64.2114230849
 30
0.0
  0
SPLINE
  5
373
100
AcDbEntity
  8
0
100
AcDbSpline
 62
7
  6
BYLAYER
 70
0
 71
3
 72
12
 73
8
 74
0
 42
0.0000001
 43
0.0000001
 44
0.0000000001
 40
0.0
 40
0.0
 40
0.0
 40
0.0
 40
0.1081489026
 40
0.2183524868
 40
0.4513425659
 40
0.7104405749
 40
1.0
 40
1.0
 40
1.0
 40
1.0
 10
16.3374973844
 20
55.3962759253
 30
0.0
 10
16.3006126342
 20
55.3749821781
 30
0.0
 10
16.2222890272
 20
55.3383030784
 30
0.0
 10
16.0502921986
 20
55.2907455495
 30
0.0
 10
15.8093844319
 20
55.2842673614
 30
0.0
 10
15.5076923968
 20
55.3572586389
 30
0.0
 10
15.3112577196
 20
55.4506893668
 30
0.0
 10
15.212503341
 20
55.507703944
 30
0.0
  0
SPLINE
  5
374
100
AcDbEntity
  8
0
100
AcDbSpline
 62
7
  6
BYLAYER
 70
0
 71
3
 72
15
 73
11
 74
0
 42
0.0000001
 43
0.0000001
 44
0.0000000001
 40
0.0
 40
0.0
 40
0.0
 40
0.0
 40
0.12875508
 40
0.2706271576
 40
0.4178814205
 40
0.5623916514
 40
0.6962027404
 40
0.8135607516
 40
0.9131112831
 40
1.0
 40
1.0
 40
1.0
 40
1.0
 10
24.8031621448
 20
65.770270975
 30
0.0
 10
24.7809683963
 20
65.7574574848
 30
0.0
 10
24.7378762975
 20
65.7242546708
 30
0.0
 10
24.6826696502
 20
65.6615213677
 30
0.0
 10
24.6372784168
 20
65.587622737
 30
0.0
 10
24.6053554993
 20
65.5087126171
 30
0.0
 10
24.5895472777
 20
65.4310228072
 30
0.0
 10
24.591170212
 20
65.3604840061
 30
0.0
 10
24.6110155575
 20
65.3019614853
 30
0.0
 10
24.6381857318
 20
65.274159512
 30
0.0
 10
24.6531627693
 20
65.2655122681
 30
0.0
  0
SPLINE
  5
375
100
AcDbEntity
  8
0
100
AcDbSpline
 62
7
  6
BYLAYER
 70
0
 71
3
 72
11
 73
7
 74
0
 42
0.0000001
 43
0.0000001
 44
0.0000000001
 40
0.0
 40
0.0
 40
0.0
 40
0.0
 40
0.2177182217
 40
0.4509432136
 40
0.7102956782
 40
1.0
 40
1.0
 40
1.0
 40
1.0
 10
24.9531615201
 20
65.7851282316
 30
0.0
 10
24.9432688369
 20
65.7908399382
 30
0.0
 10
24.9205287132
 20
65.7990847347
 30
0.0
 10
24.8827632963
 20
65.800056392
 30
0.0
 10
24.8425120276
 20
65.7903238416
 30
0.0
 10
24.8163258469
 20
65.7778709966
 30
0.0
 10
24.8031621448
 20
65.770270975
 30
0.0
  0
SPLINE
  5
376
100
AcDbEntity
  8
0
100
AcDbSpline
 62
7
  6
BYLAYER
 70
0
 71
3
 72
15
 73
11
 74
0
 42
0.0000001
 43
0.0000001
 44
0.0000000001
 40
0.0
 40
0.0
 40
0.0
 40
0.0
 40
0.1287594946
 40
0.2706314204
 40
0.417882011
 40
0.5623894944
 40
0.6962075843
 40
0.8135924465
 40
0.9130628059
 40
1.0
 40
1.0
 40
1.0
 40
1.0
 10
18.8982967388
 20
11.9728224711
 30
0.0
 10
18.8761021894
 20
11.9600085185
 30
0.0
 10
18.8330094388
 20
11.9268049556
 30
0.0
 10
18.7778020404
 20
11.864072282
 30
0.0
 10
18.7324115222
 20
11.7901733273
 30
0.0
 10
18.7004938629
 20
11.711263993
 30
0.0
 10
18.6846649393
 20
11.6335655464
 30
0.0
 10
18.6863389478
 20
11.5630448459
 30
0.0
 10
18.7061274368
 20
11.5044994221
 30
0.0
 10
18.7333200072
 20
11.4767254055
 30
0.0
 10
18.7483017042
 20
11.4680668756
 30
0.0
  0
SPLINE
  5
377
100
AcDbEntity
  8
0
100
AcDbSpline
 62
7
  6
BYLAYER
 70
0
 71
3
 72
15
 73
11
 74
0
 42
0.0000001
 43
0.0000001
 44
0.0000000001
 40
0.0
 40
0.0
 40
0.0
 40
0.0
 40
0.1287594946
 40
0.2706314204
 40
0.417882011
 40
0.5623894944
 40
0.6962075843
 40
0.8135924465
 40
0.9130628059
 40
1.0
 40
1.0
 40
1.0
 40
1.0
 10
18.8982967388
 20
13.4425268219
 30
0.0
 10
18.8761021894
 20
13.4297128694
 30
0.0
 10
18.8330094388
 20
13.3965093064
 30
0.0
 10
18.7778020404
 20
13.3337766328
 30
0.0
 10
18.7324115222
 20
13.2598776781
 30
0.0
 10
18.7004938629
 20
13.1809683438
 30
0.0
 10
18.6846649393
 20
13.1032698972
 30
0.0
 10
18.6863389478
 20
13.0327491967
 30
0.0
 10
18.7061274368
 20
12.9742037729
 30
0.0
 10
18.7333200072
 20
12.9464297564
 30
0.0
 10
18.7483017042
 20
12.9377712264
 30
0.0
  0
SPLINE
  5
378
100
AcDbEntity
  8
0
100
AcDbSpline
 62
7
  6
BYLAYER
 70
0
 71
3
 72
9
 73
5
 74
0
 42
0.0000001
 43
0.0000001
 44
0.0000000001
 40
0.0
 40
0.0
 40
0.0
 40
0.0
 40
0.258959238
 40
1.0
 40
1.0
 40
1.0
 40
1.0
 10
46.8117433437
 20
62.9125866049
 30
0.0
 10
46.7869059981
 20
62.8918886348
 30
0.0
 10
46.6894699097
 20
62.813828417
 30
0.0
 10
46.585776736
 20
62.7434167669
 30
0.0
 10
46.5056527804
 20
62.6971574557
 30
0.0
  0
SPLINE
  5
379
100
AcDbEntity
  8
0
100
AcDbSpline
 62
7
  6
BYLAYER
 70
0
 71
3
 72
12
 73
8
 74
0
 42
0.0000001
 43
0.0000001
 44
0.0000000001
 40
0.0
 40
0.0
 40
0.0
 40
0.0
 40
0.2839898616
 40
0.5525844431
 40
0.6771366372
 40
0.7936518218
 40
1.0
 40
1.0
 40
1.0
 40
1.0
 10
25.0969109218
 20
69.1806923391
 30
0.0
 10
25.049213597
 20
69.0980776904
 30
0.0
 10
24.9693962891
 20
68.9294261381
 30
0.0
 10
24.9083074729
 20
68.708859632
 30
0.0
 10
24.8889795421
 20
68.5383357164
 30
0.0
 10
24.8895286429
 20
68.3879865491
 30
0.0
 10
24.9112275668
 20
68.2792411193
 30
0.0
 10
24.9380018671
 20
68.2153065712
 30
0.0
  0
SPLINE
  5
37A
100
AcDbEntity
  8
0
100
AcDbSpline
 62
7
  6
BYLAYER
 70
0
 71
3
 72
10
 73
6
 74
0
 42
0.0000001
 43
0.0000001
 44
0.0000000001
 40
0.0
 40
0.0
 40
0.0
 40
0.0
 40
0.2284562192
 40
0.4750701915
 40
1.0
 40
1.0
 40
1.0
 40
1.0
 10
25.7584251205
 20
69.9882685266
 30
0.0
 10
25.7100303322
 20
69.9603279493
 30
0.0
 10
25.6144159944
 20
69.8932691793
 30
0.0
 10
25.4354252784
 20
69.7258579536
 30
0.0
 10
25.3226270149
 20
69.5716462506
 30
0.0
 10
25.2584272022
 20
69.4604482959
 30
0.0
  0
SPLINE
  5
37B
100
AcDbEntity
  8
0
100
AcDbSpline
 62
7
  6
BYLAYER
 70
0
 71
3
 72
11
 73
7
 74
0
 42
0.0000001
 43
0.0000001
 44
0.0000000001
 40
0.0
 40
0.0
 40
0.0
 40
0.0
 40
0.2895411595
 40
0.5491183966
 40
0.7822559144
 40
1.0
 40
1.0
 40
1.0
 40
1.0
 10
18.0055867554
 20
7.1299770226
 30
0.0
 10
18.0055867554
 20
7.0793381706
 30
0.0
 10
18.0133187968
 20
6.9829813183
 30
0.0
 10
18.052271905
 20
6.8505701551
 30
0.0
 10
18.1179784695
 20
6.7430890182
 30
0.0
 10
18.1797468712
 20
6.6912800115
 30
0.0
 10
18.2127270518
 20
6.6722393319
 30
0.0
  0
SPLINE
  5
37C
100
AcDbEntity
  8
0
100
AcDbSpline
 62
7
  6
BYLAYER
 70
0
 71
3
 72
11
 73
7
 74
0
 42
0.0000001
 43
0.0000001
 44
0.0000000001
 40
0.0
 40
0.0
 40
0.0
 40
0.0
 40
0.2577346733
 40
0.5195696443
 40
0.7711662814
 40
1.0
 40
1.0
 40
1.0
 40
1.0
 10
18.4282081678
 20
8.3051962235
 30
0.0
 10
18.3642046955
 20
8.2357657992
 30
0.0
 10
18.247964257
 20
8.0836147862
 30
0.0
 10
18.114822757
 20
7.8330155453
 30
0.0
 10
18.0286050979
 20
7.5737509211
 30
0.0
 10
18.0055867554
 20
7.3975312193
 30
0.0
 10
18.0055867554
 20
7.3136900664
 30
0.0
  0
SPLINE
  5
37D
100
AcDbEntity
  8
0
100
AcDbSpline
 62
7
  6
BYLAYER
 70
0
 71
3
 72
9
 73
5
 74
0
 42
0.0000001
 43
0.0000001
 44
0.0000000001
 40
0.0
 40
0.0
 40
0.0
 40
0.0
 40
0.2389404513
 40
1.0
 40
1.0
 40
1.0
 40
1.0
 10
19.3738326804
 20
9.3181898496
 30
0.0
 10
19.3710214988
 20
9.3165668229
 30
0.0
 10
19.3594639824
 20
9.3094163224
 30
0.0
 10
19.3487390302
 20
9.3009560099
 30
0.0
 10
19.3410711148
 20
9.2940204528
 30
0.0
  0
SPLINE
  5
37E
100
AcDbEntity
  8
0
100
AcDbSpline
 62
7
  6
BYLAYER
 70
0
 71
3
 72
11
 73
7
 74
0
 42
0.0000001
 43
0.0000001
 44
0.0000000001
 40
0.0
 40
0.0
 40
0.0
 40
0.0
 40
0.2183323799
 40
0.4539862523
 40
0.7137266553
 40
1.0
 40
1.0
 40
1.0
 40
1.0
 10
40.3383208803
 20
76.1501969551
 30
0.0
 10
40.2741320675
 20
76.1748172855
 30
0.0
 10
40.1321756702
 20
76.2055256733
 30
0.0
 10
39.9056773289
 20
76.1933368151
 30
0.0
 10
39.667187604
 20
76.1263234129
 30
0.0
 10
39.5117845774
 20
76.0507713538
 30
0.0
 10
39.4337193476
 20
76.0057006414
 30
0.0
  0
SPLINE
  5
37F
100
AcDbEntity
  8
0
100
AcDbSpline
 62
7
  6
BYLAYER
 70
0
 71
3
 72
11
 73
7
 74
0
 42
0.0000001
 43
0.0000001
 44
0.0000000001
 40
0.0
 40
0.0
 40
0.0
 40
0.0
 40
0.2896620542
 40
0.5490949068
 40
0.7822190571
 40
1.0
 40
1.0
 40
1.0
 40
1.0
 10
49.620994604
 20
51.3813994399
 30
0.0
 10
49.5683484471
 20
51.3510043485
 30
0.0
 10
49.4635959483
 20
51.301187556
 30
0.0
 10
49.302610113
 20
51.262287648
 30
0.0
 10
49.1515285179
 20
51.2660980771
 30
0.0
 10
49.0606083416
 20
51.2991514346
 30
0.0
 10
49.02101481
 20
51.3219834031
 30
0.0
  0
SPLINE
  5
380
100
AcDbEntity
  8
0
100
AcDbSpline
 62
7
  6
BYLAYER
 70
0
 71
3
 72
9
 73
5
 74
0
 42
0.0000001
 43
0.0000001
 44
0.0000000001
 40
0.0
 40
0.0
 40
0.0
 40
0.0
 40
0.2552991338
 40
1.0
 40
1.0
 40
1.0
 40
1.0
 10
49.7232824096
 20
51.4476001732
 30
0.0
 10
49.7148562743
 20
51.4415538514
 30
0.0
 10
49.6815781854
 20
51.41825496
 30
0.0
 10
49.6471936018
 20
51.396525348
 30
0.0
 10
49.620994604
 20
51.3813994399
 30
0.0
  0
SPLINE
  5
381
100
AcDbEntity
  8
0
100
AcDbSpline
 62
7
  6
BYLAYER
 70
0
 71
3
 72
9
 73
5
 74
0
 42
0.0000001
 43
0.0000001
 44
0.0000000001
 40
0.0
 40
0.0
 40
0.0
 40
0.0
 40
0.2446978588
 40
1.0
 40
1.0
 40
1.0
 40
1.0
 10
49.7573783448
 20
51.4696670843
 30
0.0
 10
49.7545087899
 20
51.4680103559
 30
0.0
 10
49.7428713975
 20
51.4610854338
 30
0.0
 10
49.7315920333
 20
51.4535628899
 30
0.0
 10
49.7232824096
 20
51.4476001732
 30
0.0
  0
SPLINE
  5
382
100
AcDbEntity
  8
0
100
AcDbSpline
 62
7
  6
BYLAYER
 70
0
 71
3
 72
12
 73
8
 74
0
 42
0.0000001
 43
0.0000001
 44
0.0000000001
 40
0.0
 40
0.0
 40
0.0
 40
0.0
 40
0.1081489026
 40
0.2183524868
 40
0.4513425659
 40
0.7104405749
 40
1.0
 40
1.0
 40
1.0
 40
1.0
 10
16.3374973844
 20
17.3880884079
 30
0.0
 10
16.3006126342
 20
17.3667946607
 30
0.0
 10
16.2222890272
 20
17.330115561
 30
0.0
 10
16.0502921986
 20
17.2825580321
 30
0.0
 10
15.8093844319
 20
17.276079844
 30
0.0
 10
15.5076923968
 20
17.3490711216
 30
0.0
 10
15.3112577196
 20
17.4425018494
 30
0.0
 10
15.212503341
 20
17.4995164266
 30
0.0
  0
SPLINE
  5
383
100
AcDbEntity
  8
0
100
AcDbSpline
 62
7
  6
BYLAYER
 70
0
 71
3
 72
13
 73
9
 74
0
 42
0.0000001
 43
0.0000001
 44
0.0000000001
 40
0.0
 40
0.0
 40
0.0
 40
0.0
 40
0.1020464163
 40
0.2127216305
 40
0.3313624119
 40
0.4570101497
 40
0.7238193827
 40
1.0
 40
1.0
 40
1.0
 40
1.0
 10
15.2154210399
 20
24.4618558381
 30
0.0
 10
15.2007884105
 20
24.5166963611
 30
0.0
 10
15.1802310596
 20
24.6337786745
 30
0.0
 10
15.1738225277
 20
24.8184410776
 30
0.0
 10
15.1909870538
 20
25.0155726413
 30
0.0
 10
15.2455558355
 20
25.2950037146
 30
0.0
 10
15.3695691178
 20
25.6478593079
 30
0.0
 10
15.5162619205
 20
25.9136218052
 30
0.0
 10
15.6013986756
 20
26.0414850885
 30
0.0
  0
SPLINE
  5
384
100
AcDbEntity
  8
0
100
AcDbSpline
 62
7
  6
BYLAYER
 70
0
 71
3
 72
11
 73
7
 74
0
 42
0.0000001
 43
0.0000001
 44
0.0000000001
 40
0.0
 40
0.0
 40
0.0
 40
0.0
 40
0.2895411595
 40
0.5491183966
 40
0.7822559144
 40
1.0
 40
1.0
 40
1.0
 40
1.0
 10
47.7746591853
 20
49.426797818
 30
0.0
 10
47.7746591853
 20
49.3913506216
 30
0.0
 10
47.7800716143
 20
49.323900825
 30
0.0
 10
47.80733879
 20
49.2312130107
 30
0.0
 10
47.8533333852
 20
49.1559762149
 30
0.0
 10
47.8965712663
 20
49.1197099102
 30
0.0
 10
47.9196573928
 20
49.1063814345
 30
0.0
  0
SPLINE
  5
385
100
AcDbEntity
  8
0
100
AcDbSpline
 62
7
  6
BYLAYER
 70
0
 71
3
 72
11
 73
7
 74
0
 42
0.0000001
 43
0.0000001
 44
0.0000000001
 40
0.0
 40
0.0
 40
0.0
 40
0.0
 40
0.2896460386
 40
0.5491397239
 40
0.7822617023
 40
1.0
 40
1.0
 40
1.0
 40
1.0
 10
18.0055867554
 20
14.1927229307
 30
0.0
 10
18.0055867554
 20
14.1420648784
 30
0.0
 10
18.0132872835
 20
14.0456975749
 30
0.0
 10
18.0523006355
 20
13.9132965338
 30
0.0
 10
18.1179975942
 20
13.8058423177
 30
0.0
 10
18.1797267002
 20
13.7539901914
 30
0.0
 10
18.2127019168
 20
13.7349416508
 30
0.0
  0
SPLINE
  5
386
100
AcDbEntity
  8
0
100
AcDbSpline
 62
7
  6
BYLAYER
 70
0
 71
3
 72
13
 73
9
 74
0
 42
0.0000001
 43
0.0000001
 44
0.0000000001
 40
0.0
 40
0.0
 40
0.0
 40
0.0
 40
0.1140567804
 40
0.2375427604
 40
0.5000013638
 40
0.7624591493
 40
0.8859442064
 40
1.0
 40
1.0
 40
1.0
 40
1.0
 10
18.0055867554
 20
57.5081761595
 30
0.0
 10
18.0055867554
 20
57.5360745847
 30
0.0
 10
18.000399328
 20
57.5942278685
 30
0.0
 10
17.9727359871
 20
57.7136575956
 30
0.0
 10
17.9080715158
 20
57.8601252348
 30
0.0
 10
17.8135585371
 20
57.9893594794
 30
0.0
 10
17.7239609956
 20
58.073030496
 30
0.0
 10
17.6761925653
 20
58.1065988901
 30
0.0
 10
17.6520318928
 20
58.1205477453
 30
0.0
  0
SPLINE
  5
387
100
AcDbEntity
  8
0
100
AcDbSpline
 62
7
  6
BYLAYER
 70
0
 71
3
 72
11
 73
7
 74
0
 42
0.0000001
 43
0.0000001
 44
0.0000000001
 40
0.0
 40
0.0
 40
0.0
 40
0.0
 40
0.217727726
 40
0.4508670227
 40
0.7104594228
 40
1.0
 40
1.0
 40
1.0
 40
1.0
 10
18.4339466143
 20
61.1487146176
 30
0.0
 10
18.4726958449
 20
61.1263438186
 30
0.0
 10
18.5452597974
 20
61.0654560429
 30
0.0
 10
18.6224748784
 20
60.939173629
 30
0.0
 10
18.6682420376
 20
60.7835834968
 30
0.0
 10
18.6773293656
 20
60.6703615108
 30
0.0
 10
18.6773293656
 20
60.6108606961
 30
0.0
  0
SPLINE
  5
388
100
AcDbEntity
  8
0
100
AcDbSpline
 62
7
  6
BYLAYER
 70
0
 71
3
 72
11
 73
7
 74
0
 42
0.0000001
 43
0.0000001
 44
0.0000000001
 40
0.0
 40
0.0
 40
0.0
 40
0.0
 40
0.2894979661
 40
0.5491492312
 40
0.7822719779
 40
1.0
 40
1.0
 40
1.0
 40
1.0
 10
46.4309811837
 20
39.1591889936
 30
0.0
 10
46.4090585437
 20
39.1465320271
 30
0.0
 10
46.3653998308
 20
39.1258004757
 30
0.0
 10
46.2983321605
 20
39.1095407088
 30
0.0
 10
46.2353655678
 20
39.1111509114
 30
0.0
 10
46.1974937349
 20
39.1249412868
 30
0.0
 10
46.1810102604
 20
39.1344678621
 30
0.0
  0
SPLINE
  5
389
100
AcDbEntity
  8
0
100
AcDbSpline
 62
7
  6
BYLAYER
 70
0
 71
3
 72
12
 73
8
 74
0
 42
0.0000001
 43
0.0000001
 44
0.0000000001
 40
0.0
 40
0.0
 40
0.0
 40
0.0
 40
0.1109442754
 40
0.228738363
 40
0.4795149856
 40
0.7410601115
 40
1.0
 40
1.0
 40
1.0
 40
1.0
 10
15.212503341
 20
17.4995164266
 30
0.0
 10
15.1358185594
 20
17.5437894044
 30
0.0
 10
14.9833160917
 20
17.6450127194
 30
0.0
 10
14.6880963483
 20
17.8893846749
 30
0.0
 10
14.3489079156
 20
18.2647037772
 30
0.0
 10
14.0144844188
 20
18.7842191703
 30
0.0
 10
13.8467229464
 20
19.166742731
 30
0.0
 10
13.7806061476
 20
19.3625478003
 30
0.0
  0
SPLINE
  5
38A
100
AcDbEntity
  8
0
100
AcDbSpline
 62
7
  6
BYLAYER
 70
0
 71
3
 72
12
 73
8
 74
0
 42
0.0000001
 43
0.0000001
 44
0.0000000001
 40
0.0
 40
0.0
 40
0.0
 40
0.0
 40
0.1109442754
 40
0.228738363
 40
0.4795149856
 40
0.7410601115
 40
1.0
 40
1.0
 40
1.0
 40
1.0
 10
15.212503341
 20
55.507703944
 30
0.0
 10
15.1358185594
 20
55.5519769218
 30
0.0
 10
14.9833160917
 20
55.6532002368
 30
0.0
 10
14.6880963483
 20
55.8975721923
 30
0.0
 10
14.3489079156
 20
56.2728912946
 30
0.0
 10
14.0144844188
 20
56.7924066877
 30
0.0
 10
13.8467229464
 20
57.1749302483
 30
0.0
 10
13.7806061476
 20
57.3707353177
 30
0.0
  0
SPLINE
  5
38B
100
AcDbEntity
  8
0
100
AcDbSpline
 62
7
  6
BYLAYER
 70
0
 71
3
 72
11
 73
7
 74
0
 42
0.0000001
 43
0.0000001
 44
0.0000000001
 40
0.0
 40
0.0
 40
0.0
 40
0.0
 40
0.2189064598
 40
0.455361448
 40
0.7150653869
 40
1.0
 40
1.0
 40
1.0
 40
1.0
 10
17.2058500824
 20
58.4023748331
 30
0.0
 10
17.2181710265
 20
58.3912783544
 30
0.0
 10
17.2405183523
 20
58.3643711742
 30
0.0
 10
17.2639788343
 20
58.3150669905
 30
0.0
 10
17.2779783087
 20
58.2572313202
 30
0.0
 10
17.2807992871
 20
58.2158845703
 30
0.0
 10
17.2807992871
 20
58.1943019771
 30
0.0
  0
SPLINE
  5
38C
100
AcDbEntity
  8
0
100
AcDbSpline
 62
7
  6
BYLAYER
 70
0
 71
3
 72
16
 73
12
 74
0
 42
0.0000001
 43
0.0000001
 44
0.0000000001
 40
0.0
 40
0.0
 40
0.0
 40
0.0
 40
0.1261563409
 40
0.2647183153
 40
0.4091882397
 40
0.552273348
 40
0.6868054813
 40
0.8071188202
 40
0.8610918191
 40
0.9109435283
 40
1.0
 40
1.0
 40
1.0
 40
1.0
 10
13.4303004231
 20
63.419497489
 30
0.0
 10
13.3775005287
 20
63.3890136378
 30
0.0
 10
13.2746685475
 20
63.3109767826
 30
0.0
 10
13.1413557283
 20
63.163747976
 30
0.0
 10
13.0292881632
 20
62.9899197533
 30
0.0
 10
12.9467138262
 20
62.8024009859
 30
0.0
 10
12.8997709954
 20
62.6149127449
 30
0.0
 10
12.8928754272
 20
62.464325451
 30
0.0
 10
12.9102272564
 20
62.3569541575
 30
0.0
 10
12.9392333898
 20
62.2682089489
 30
0.0
 10
12.9778807891
 20
62.2101650984
 30
0.0
 10
13.0098612833
 20
62.1813628517
 30
0.0
  0
SPLINE
  5
38D
100
AcDbEntity
  8
0
100
AcDbSpline
 62
7
  6
BYLAYER
 70
0
 71
3
 72
11
 73
7
 74
0
 42
0.0000001
 43
0.0000001
 44
0.0000000001
 40
0.0
 40
0.0
 40
0.0
 40
0.0
 40
0.2182692757
 40
0.4538161099
 40
0.7135554313
 40
1.0
 40
1.0
 40
1.0
 40
1.0
 10
13.7732564912
 20
63.473364036
 30
0.0
 10
13.7489914495
 20
63.4828655695
 30
0.0
 10
13.6952427252
 20
63.4948220952
 30
0.0
 10
13.6093549586
 20
63.4904969674
 30
0.0
 10
13.5188725896
 20
63.4652304945
 30
0.0
 10
13.4599171446
 20
63.4365966091
 30
0.0
 10
13.4303004231
 20
63.419497489
 30
0.0
  0
SPLINE
  5
38E
100
AcDbEntity
  8
0
100
AcDbSpline
 62
7
  6
BYLAYER
 70
0
 71
3
 72
10
 73
6
 74
0
 42
0.0000001
 43
0.0000001
 44
0.0000000001
 40
0.0
 40
0.0
 40
0.0
 40
0.0
 40
0.2279967418
 40
0.4754859667
 40
1.0
 40
1.0
 40
1.0
 40
1.0
 10
14.3109631708
 20
63.6710638632
 30
0.0
 10
14.2839583882
 20
63.6554727377
 30
0.0
 10
14.2307717972
 20
63.6173712633
 30
0.0
 10
14.1327909129
 20
63.52151882
 30
0.0
 10
14.0728148641
 20
63.4327206177
 30
0.0
 10
14.0401266882
 20
63.3688648903
 30
0.0
  0
SPLINE
  5
38F
100
AcDbEntity
  8
0
100
AcDbSpline
 62
7
  6
BYLAYER
 70
0
 71
3
 72
10
 73
6
 74
0
 42
0.0000001
 43
0.0000001
 44
0.0000000001
 40
0.0
 40
0.0
 40
0.0
 40
0.0
 40
0.2279967418
 40
0.4754859667
 40
1.0
 40
1.0
 40
1.0
 40
1.0
 10
15.5837500778
 20
63.1726749614
 30
0.0
 10
15.5567452952
 20
63.157083836
 30
0.0
 10
15.5035587042
 20
63.1189823616
 30
0.0
 10
15.4055778199
 20
63.0231299183
 30
0.0
 10
15.3456017711
 20
62.9343317159
 30
0.0
 10
15.3129135952
 20
62.8704759886
 30
0.0
  0
SPLINE
  5
390
100
AcDbEntity
  8
0
100
AcDbSpline
 62
7
  6
BYLAYER
 70
0
 71
3
 72
10
 73
6
 74
0
 42
0.0000001
 43
0.0000001
 44
0.0000000001
 40
0.0
 40
0.0
 40
0.0
 40
0.0
 40
0.2279967418
 40
0.4754859667
 40
1.0
 40
1.0
 40
1.0
 40
1.0
 10
16.8565369848
 20
62.6742860597
 30
0.0
 10
16.8295322022
 20
62.6586949342
 30
0.0
 10
16.7763456111
 20
62.6205934598
 30
0.0
 10
16.6783647269
 20
62.5247410165
 30
0.0
 10
16.618388678
 20
62.4359428142
 30
0.0
 10
16.5857005022
 20
62.3720870868
 30
0.0
  0
SPLINE
  5
391
100
AcDbEntity
  8
0
100
AcDbSpline
 62
7
  6
BYLAYER
 70
0
 71
3
 72
11
 73
7
 74
0
 42
0.0000001
 43
0.0000001
 44
0.0000000001
 40
0.0
 40
0.0
 40
0.0
 40
0.0
 40
0.217901775
 40
0.4510306955
 40
0.7104357529
 40
1.0
 40
1.0
 40
1.0
 40
1.0
 10
26.8129657446
 20
70.3579453669
 30
0.0
 10
26.7799475678
 20
70.3769733451
 30
0.0
 10
26.7041742889
 20
70.4045576886
 30
0.0
 10
26.5782455965
 20
70.4077124939
 30
0.0
 10
26.4441291932
 20
70.3752475736
 30
0.0
 10
26.3568470185
 20
70.3337655082
 30
0.0
 10
26.3129900884
 20
70.3084448489
 30
0.0
  0
SPLINE
  5
392
100
AcDbEntity
  8
0
100
AcDbSpline
 62
7
  6
BYLAYER
 70
0
 71
3
 72
17
 73
13
 74
0
 42
0.0000001
 43
0.0000001
 44
0.0000000001
 40
0.0
 40
0.0
 40
0.0
 40
0.0
 40
0.1286861902
 40
0.2703070477
 40
0.4174560759
 40
0.5617988252
 40
0.6954588227
 40
0.812714254
 40
0.8646789572
 40
0.912508223
 40
0.9571391073
 40
1.0
 40
1.0
 40
1.0
 40
1.0
 10
18.6773293656
 20
60.6108606961
 30
0.0
 10
18.6773293656
 20
60.5104308601
 30
0.0
 10
18.649210408
 20
60.2992399334
 30
0.0
 10
18.5443681218
 20
59.9891508338
 30
0.0
 10
18.3827254883
 20
59.6904644165
 30
0.0
 10
18.177411053
 20
59.4276529228
 30
0.0
 10
17.9451247122
 20
59.221933735
 30
0.0
 10
17.7348789169
 20
59.1070188776
 30
0.0
 10
17.5704304215
 20
59.0632013396
 30
0.0
 10
17.4572379639
 20
59.054932523
 30
0.0
 10
17.3518202858
 20
59.0703051439
 30
0.0
 10
17.2879867253
 20
59.0969087763
 30
0.0
 10
17.2590180995
 20
59.113633013
 30
0.0
  0
SPLINE
  5
393
100
AcDbEntity
  8
0
100
AcDbSpline
 62
7
  6
BYLAYER
 70
0
 71
3
 72
11
 73
7
 74
0
 42
0.0000001
 43
0.0000001
 44
0.0000000001
 40
0.0
 40
0.0
 40
0.0
 40
0.0
 40
0.226424707
 40
0.4677077846
 40
0.7254136763
 40
1.0
 40
1.0
 40
1.0
 40
1.0
 10
52.5941510936
 20
42.5624890829
 30
0.0
 10
52.3611631151
 20
42.5695995116
 30
0.0
 10
51.8780094416
 20
42.5424265226
 30
0.0
 10
51.144693515
 20
42.3896853478
 30
0.0
 10
50.3910244085
 20
42.1264122374
 30
0.0
 10
49.8966096071
 20
41.887310649
 30
0.0
 10
49.6484843542
 20
41.7518844775
 30
0.0
  0
ELLIPSE
  5
394
100
AcDbEntity
  8
0
100
AcDbEllipse
 62
7
  6
BYLAYER
 10
20.5158053775
 20
22.9883966484
 30
0.0
 11
0.4999149791
 21
0.866162868
 31
0.0
 40
0.5773519765
 41
1.1428034016
 42
2.3560286248
  0
ENDSEC
  0
SECTION
  2
OBJECTS
  0
DICTIONARY
  5
C
100
AcDbDictionary
280
0
281
1
  3
ACAD_GROUP
350
D
  3
ACAD_MLINESTYLE
350
17
  3
ACAD_LAYOUT
350
1A
  3
ACAD_PLOTSETTINGS
350
19
  3
ACAD_PLOTSTYLENAME
350
E
  0
DICTIONARY
  5
D
102
{ACAD_REACTORS
330
C
102
}
100
AcDbDictionary
280
0
281
1
  0
ACDBDICTIONARYWDFLT
  5
E
102
{ACAD_REACTORS
330
C
102
}
100
AcDbDictionary
281
1
  3
Normal
350
F
100
AcDbDictionaryWithDefault
340
F
  0
DICTIONARY
  5
17
102
{ACAD_REACTORS
330
C
102
}
100
AcDbDictionary
280
0
281
1
  3
Standard
350
18
  0
DICTIONARY
  5
19
102
{ACAD_REACTORS
330
C
102
}
100
AcDbDictionary
281
1
  0
DICTIONARY
  5
1A
102
{ACAD_REACTORS
330
C
102
}
100
AcDbDictionary
281
1
  3
Model
350
395
  3
Layout1
350
396
  0
ACDBPLACEHOLDER
  5
F
102
{ACAD_REACTORS
330
E
102
}
  0
MLINESTYLE
  5
18
102
{ACAD_REACTORS
330
17
102
}
100
AcDbMlineStyle
  2
STANDARD
 70
0
  3

 62
256
 51
90.0
 52
90.0
 71
2
 49
0.5
 62
256
  6
BYLAYER
 49
-0.5
 62
256
  6
BYLAYER
  0
LAYOUT
  5
395
102
{ACAD_REACTORS
330
1A
102
}
100
AcDbPlotSettings
  1

  2
none_device
  4

  6

 40
0.0
 41
0.0
 42
0.0
 43
0.0
 44
210.0
 45
297.0
 46
0.0
 47
0.0
 48
0.0
 49
0.0
140
0.0
141
0.0
142
1.0
143
1.0
 70
1024
 72
1
 73
0
 74
0
  7

 75
0
147
1.0
148
0.0
149
0.0
100
AcDbLayout
  1
Model
 70
0
 71
0
 10
0.0
 20
0.0
 11
210.0
 21
297.0
 12
0.0
 22
0.0
 32
0.0
 14
0.0
 24
0.0
 34
0.0
 15
0.0
 25
0.0
 35
0.0
146
0.0
 13
0.0
 23
0.0
 33
0.0
 16
1.0
 26
0.0
 36
0.0
 17
0.0
 27
1.0
 37
0.0
 76
0
330
210
345
0
346
0
  0
LAYOUT
  5
396
102
{ACAD_REACTORS
330
1A
102
}
100
AcDbPlotSettings
  1

  2
none_device
  4

  6

 40
0.0
 41
0.0
 42
0.0
 43
0.0
 44
210.0
 45
297.0
 46
0.0
 47
0.0
 48
0.0
 49
0.0
140
0.0
141
0.0
142
1.0
143
1.0
 70
0
 72
1
 73
0
 74
0
  7

 75
0
147
1.0
148
0.0
149
0.0
100
AcDbLayout
  1
Layout1
 70
0
 71
1
 10
0.0
 20
0.0
 11
210.0
 21
297.0
 12
0.0
 22
0.0
 32
0.0
 14
0.0
 24
0.0
 34
0.0
 15
0.0
 25
0.0
 35
0.0
146
0.0
 13
0.0
 23
0.0
 33
0.0
 16
1.0
 26
0.0
 36
0.0
 17
0.0
 27
1.0
 37
0.0
 76
0
330
211
345
0
346
0
  0
ENDSEC
  0
EOF
