999
DXF file: C:\Users\sesa63760\Dev\_Creo\CAD\MCADID0001527_3D-CAD\drw0001_1.dxf
999
Pro/ENGINEER 2019471 by Parametric Technology Corporation
  0
SECTION
  2
HEADER
  9
$ACADVER
  1
AC1024
  9
$DWGCODEPAGE
  3
ANSI_1252
  9
$EXTMAX
 10
305.8186364641
 20
432.5149287136
 30
0.0
  9
$EXTMIN
 10
0.0
 20
0.0
 30
0.0
  9
$LIMMIN
 10
0.0
 20
0.0
  9
$LIMMAX
 10
305.8186364641
 20
432.5149287136
  9
$VIEWCTR
 10
152.9093182321
 20
216.2574643568
  9
$VIEWSIZE
 40
432.5149287136
  9
$CLAYER
  8
0
  9
$LTSCALE
 40
28.1935657236
  9
$CELTYPE
  6
BYLAYER
  9
$DIMSCALE
 40
1.0
  9
$DIMASZ
 40
3.6406980531
  9
$DIMEXO
 40
1.0
  9
$DIMDLI
 40
19.4791908635
  9
$DIMEXE
 40
1.0
  9
$DIMCEN
 40
4.6134925729
  9
$DIMLFAC
 40
1.0
  9
$DIMBLK
  1
_FILLED
  9
$DIMALT
 70
0
  9
$DIMALTF
 40
0.0393700787
  9
$DIMTXT
 40
5.0969772744
  9
$DIMTOL
 70
1
  9
$DIMLIM
 70
0
  9
$DIMTFAC
 40
1.0
  9
$DIMTP
 40
0.01
  9
$DIMTM
 40
0.01
  9
$DIMGAP
 40
0.625
  9
$DIMDSEP
 70
46
  9
$AUNITS
 70
0
  9
$PDMODE
 70
3
  9
$PDSIZE
 40
0.3125
  9
$HANDSEED
  5
406
  9
$TILEMODE
 70
1
  9
$MEASUREMENT
 70
1
  9
$INSUNITS
 70
4
  0
ENDSEC
  0
SECTION
  2
CLASSES
  0
CLASS
  1
ACDBDICTIONARYWDFLT
  2
AcDbDictionaryWithDefault
  3
AutoCAD 2000
 90
0
 91
1
280
0
281
0
  0
CLASS
  1
ACDBPLACEHOLDER
  2
AcDbPlaceHolder
  3
AutoCAD 2000
 90
0
 91
1
280
0
281
0
  0
CLASS
  1
LAYOUT
  2
AcDbLayout
  3
AutoCAD 2000
 90
0
 91
0
280
0
281
0
  0
ENDSEC
  0
SECTION
  2
TABLES
  0
TABLE
  2
VPORT
  5
8
100
AcDbSymbolTable
 70
2
  0
VPORT
  5
1F4
100
AcDbSymbolTableRecord
100
AcDbViewportTableRecord
  2
*ACTIVE
 70
0
 10
0.0
 20
0.0
 11
1.0
 21
1.0
 12
152.9093182321
 22
216.2574643568
 13
0.0
 23
0.0
 14
1.0
 24
1.0
 15
0.0
 25
0.0
 16
0.0
 26
0.0
 36
1.0
 17
0.0
 27
0.0
 37
0.0
 40
432.5149287136
 41
0.7070707071
 42
50.0
 43
0.0
 44
0.0
 50
0.0
 51
0.0
 71
0
 72
100
 73
1
 74
1
 75
0
 76
0
 77
0
 78
0
  0
ENDTAB
  0
TABLE
  2
LTYPE
  5
5
100
AcDbSymbolTable
 70
6
  0
LTYPE
  5
14
100
AcDbSymbolTableRecord
100
AcDbLinetypeTableRecord
  2
BYBLOCK
 70
0
  3

 72
65
 73
0
 40
0.0
  0
LTYPE
  5
15
100
AcDbSymbolTableRecord
100
AcDbLinetypeTableRecord
  2
BYLAYER
 70
0
  3

 72
65
 73
0
 40
0.0
  0
LTYPE
  5
16
100
AcDbSymbolTableRecord
100
AcDbLinetypeTableRecord
  2
CONTINUOUS
 70
64
  3
Solid line
 72
65
 73
0
 40
0.0
  0
LTYPE
  5
1F5
100
AcDbSymbolTableRecord
100
AcDbLinetypeTableRecord
  2
CENTER
 70
64
  3
____ _ ____ _ ____ _ ____ _ ____ _ ____ _ ____
 72
65
 73
4
 40
0.6
 49
0.375
 74
0
 49
-0.075
 74
0
 49
0.075
 74
0
 49
-0.075
 74
0
  0
LTYPE
  5
1F6
100
AcDbSymbolTableRecord
100
AcDbLinetypeTableRecord
  2
HIDDEN
 70
64
  3
- - - - - - - - - - - - - - - - - - - -
 72
65
 73
2
 40
0.2
 49
0.1
 74
0
 49
-0.1
 74
0
  0
LTYPE
  5
1F7
100
AcDbSymbolTableRecord
100
AcDbLinetypeTableRecord
  2
PHANTOM
 70
64
  3
_____ _ _ _____ _ _ _____ _ _ _____
 72
65
 73
6
 40
0.8
 49
0.45
 74
0
 49
-0.05
 74
0
 49
0.1
 74
0
 49
-0.05
 74
0
 49
0.1
 74
0
 49
-0.05
 74
0
  0
LTYPE
  5
1F8
100
AcDbSymbolTableRecord
100
AcDbLinetypeTableRecord
  2
DOT
 70
64
  3
. . . . . . . . . . . . . . . . . . . .
 72
65
 73
2
 40
0.2
 49
0.1
 74
0
 49
-0.1
 74
0
  0
LTYPE
  5
1F9
100
AcDbSymbolTableRecord
100
AcDbLinetypeTableRecord
  2
DASHED
 70
64
  3
- - - - - - - - - - - - - - - - - - - -
 72
65
 73
2
 40
0.2
 49
0.1
 74
0
 49
-0.1
 74
0
  0
ENDTAB
  0
TABLE
  2
LAYER
  5
2
100
AcDbSymbolTable
 70
36
  0
LAYER
  5
10
100
AcDbSymbolTableRecord
100
AcDbLayerTableRecord
  2
0
 70
0
 62
7
  6
CONTINUOUS
370
-3
390
F
  0
LAYER
  5
1FA
100
AcDbSymbolTableRecord
100
AcDbLayerTableRecord
  2
DEFAULT_1
 70
0
 62
7
  6
CENTER
370
-3
390
F
  0
LAYER
  5
1FB
100
AcDbSymbolTableRecord
100
AcDbLayerTableRecord
  2
DEFAULT_2
 70
0
 62
8
  6
HIDDEN
370
-3
390
F
  0
LAYER
  5
1FC
100
AcDbSymbolTableRecord
100
AcDbLayerTableRecord
  2
DEFAULT_3
 70
0
 62
7
  6
PHANTOM
370
-3
390
F
  0
LAYER
  5
1FD
100
AcDbSymbolTableRecord
100
AcDbLayerTableRecord
  2
00_COMPONENTS
 70
0
 62
7
  6
CONTINUOUS
370
-3
390
F
  0
LAYER
  5
1FE
100
AcDbSymbolTableRecord
100
AcDbLayerTableRecord
  2
01_1_DEFAULT_DATUMS
 70
0
 62
7
  6
CONTINUOUS
370
-3
390
F
  0
LAYER
  5
1FF
100
AcDbSymbolTableRecord
100
AcDbLayerTableRecord
  2
01_PLANES
 70
0
 62
7
  6
CONTINUOUS
370
-3
390
F
  0
LAYER
  5
200
100
AcDbSymbolTableRecord
100
AcDbLayerTableRecord
  2
02_COORD_SYS
 70
0
 62
7
  6
CONTINUOUS
370
-3
390
F
  0
LAYER
  5
201
100
AcDbSymbolTableRecord
100
AcDbLayerTableRecord
  2
03_AXES
 70
0
 62
7
  6
CONTINUOUS
370
-3
390
F
  0
LAYER
  5
202
100
AcDbSymbolTableRecord
100
AcDbLayerTableRecord
  2
04_POINTS
 70
0
 62
7
  6
CONTINUOUS
370
-3
390
F
  0
LAYER
  5
203
100
AcDbSymbolTableRecord
100
AcDbLayerTableRecord
  2
05_CURVES
 70
0
 62
7
  6
CONTINUOUS
370
-3
390
F
  0
LAYER
  5
204
100
AcDbSymbolTableRecord
100
AcDbLayerTableRecord
  2
06_SURFS
 70
0
 62
7
  6
CONTINUOUS
370
-3
390
F
  0
LAYER
  5
205
100
AcDbSymbolTableRecord
100
AcDbLayerTableRecord
  2
07_COSMETICS
 70
0
 62
7
  6
CONTINUOUS
370
-3
390
F
  0
LAYER
  5
206
100
AcDbSymbolTableRecord
100
AcDbLayerTableRecord
  2
10_NOTES
 70
0
 62
7
  6
CONTINUOUS
370
-3
390
F
  0
LAYER
  5
207
100
AcDbSymbolTableRecord
100
AcDbLayerTableRecord
  2
11_NOTES_PUB
 70
0
 62
7
  6
CONTINUOUS
370
-3
390
F
  0
LAYER
  5
208
100
AcDbSymbolTableRecord
100
AcDbLayerTableRecord
  2
13_REF_GTOL
 70
0
 62
7
  6
CONTINUOUS
370
-3
390
F
  0
LAYER
  5
209
100
AcDbSymbolTableRecord
100
AcDbLayerTableRecord
  2
16_MISC
 70
0
 62
7
  6
CONTINUOUS
370
-3
390
F
  0
LAYER
  5
20A
100
AcDbSymbolTableRecord
100
AcDbLayerTableRecord
  2
17_NO_PRINT
 70
0
 62
7
  6
CONTINUOUS
370
-3
390
F
  0
LAYER
  5
20B
100
AcDbSymbolTableRecord
100
AcDbLayerTableRecord
  2
18_DATUM_CAMS_JOINTS
 70
0
 62
7
  6
CONTINUOUS
370
-3
390
F
  0
LAYER
  5
20C
100
AcDbSymbolTableRecord
100
AcDbLayerTableRecord
  2
19_DATUM_FUNCTIONAL
 70
0
 62
7
  6
CONTINUOUS
370
-3
390
F
  0
LAYER
  5
20D
100
AcDbSymbolTableRecord
100
AcDbLayerTableRecord
  2
20_DATUM_KINEMATIC_SCHEME
 70
0
 62
7
  6
CONTINUOUS
370
-3
390
F
  0
LAYER
  5
20E
100
AcDbSymbolTableRecord
100
AcDbLayerTableRecord
  2
_1
 70
0
 62
7
  6
CONTINUOUS
370
-3
390
F
  0
ENDTAB
  0
TABLE
  2
STYLE
  5
3
100
AcDbSymbolTable
 70
1
  0
STYLE
  5
11
100
AcDbSymbolTableRecord
100
AcDbTextStyleTableRecord
  2
STANDARD
 70
0
 40
0.0
 41
0.8
 50
0.0
 71
0
 42
0.2
  3
txt
  4

  0
STYLE
  5
20F
100
AcDbSymbolTableRecord
100
AcDbTextStyleTableRecord
  2
TEXTSTYLE_1
 70
0
 40
0.0
 41
0.8
 50
0.0
 71
0
 42
0.2
  3
gdt
  4

  0
ENDTAB
  0
TABLE
  2
VIEW
  5
6
100
AcDbSymbolTable
 70
0
  0
ENDTAB
  0
TABLE
  2
UCS
  5
7
100
AcDbSymbolTable
 70
0
  0
ENDTAB
  0
TABLE
  2
APPID
  5
9
100
AcDbSymbolTable
 70
1
  0
APPID
  5
210
100
AcDbSymbolTableRecord
100
AcDbRegAppTableRecord
  2
ACAD
 70
0
  0
ENDTAB
  0
TABLE
  2
BLOCK_RECORD
  5
1
100
AcDbSymbolTable
 70
0
  0
BLOCK_RECORD
  5
211
100
AcDbSymbolTableRecord
100
AcDbBlockTableRecord
  2
*Model_Space
  0
BLOCK_RECORD
  5
212
100
AcDbSymbolTableRecord
100
AcDbBlockTableRecord
  2
*Paper_Space
  0
BLOCK_RECORD
  5
213
100
AcDbSymbolTableRecord
100
AcDbBlockTableRecord
  2
_FILLED
  0
ENDTAB
  0
TABLE
  2
DIMSTYLE
  5
A
100
AcDbSymbolTable
 70
1
100
AcDbDimStyleTable
 71
0
  0
DIMSTYLE
105
214
100
AcDbSymbolTableRecord
100
AcDbDimStyleTableRecord
  2
STANDARD
 70
0
  3

  4

 40
1.0
 41
3.6406980531
 42
1.0
 43
0.38
 44
1.0
 45
0.0
 46
0.0
 47
0.01
 48
0.01
140
5.0969772744
141
0.09
142
0.0
143
25.4
144
1.0
145
0.0
146
1.0
147
0.625
 71
1
 72
0
 73
0
 74
0
 75
0
 76
0
 77
1
 78
8
 79
2
170
0
171
1
172
0
173
0
174
0
175
0
176
0
177
0
178
0
270
2
179
2
271
2
272
2
273
2
274
2
275
0
280
0
281
0
282
0
283
1
284
8
285
0
286
0
287
3
288
0
340
11
278
46
341
213
342
213
343
213
344
213
  0
ENDTAB
  0
ENDSEC
  0
SECTION
  2
BLOCKS
  0
BLOCK
  5
20
100
AcDbEntity
  8
0
100
AcDbBlockBegin
  2
*Model_Space
 70
0
 10
0.0
 20
0.0
 30
0.0
  3
*Model_Space
  1

  0
ENDBLK
  5
21
100
AcDbEntity
  8
0
100
AcDbBlockEnd
  0
BLOCK
  5
1C
100
AcDbEntity
  8
0
100
AcDbBlockBegin
  2
*Paper_Space
 70
0
 10
0.0
 20
0.0
 30
0.0
  3
*Paper_Space
  1

  0
ENDBLK
  5
1D
100
AcDbEntity
  8
0
100
AcDbBlockEnd
  0
BLOCK
  5
215
100
AcDbEntity
  8
0
100
AcDbBlockBegin
  2
_FILLED
 70
64
 10
0.0
 20
0.0
  3
_FILLED
  1

  0
SOLID
  5
216
100
AcDbEntity
  8
0
  6
BYBLOCK
 62
0
100
AcDbTrace
 10
0.0
 20
0.0
 11
-1.0
 21
0.25
 12
-1.0
 22
-0.25
 13
-1.0
 23
-0.25
  0
ENDBLK
  5
217
100
AcDbEntity
  8
0
  6
BYBLOCK
 62
0
100
AcDbBlockEnd
  0
ENDSEC
  0
SECTION
  2
ENTITIES
  0
LINE
  5
218
100
AcDbEntity
  8
_1
100
AcDbLine
 62
7
  6
CONTINUOUS
 10
36.2919600317
 20
173.3690609159
 11
36.5540076821
 21
150.1031117068
  0
LINE
  5
219
100
AcDbEntity
  8
_1
100
AcDbLine
 62
7
  6
CONTINUOUS
 10
36.5581647148
 20
149.7340287948
 11
36.5707471694
 21
148.6168932244
  0
LINE
  5
21A
100
AcDbEntity
  8
_1
100
AcDbLine
 62
7
  6
CONTINUOUS
 10
100.5014465582
 20
104.8578965179
 11
75.0889834695
 21
119.529457008
  0
LINE
  5
21B
100
AcDbEntity
  8
_1
100
AcDbLine
 62
7
  6
CONTINUOUS
 10
63.0420816679
 20
126.48458166
 11
42.5806649048
 21
138.2977188873
  0
LINE
  5
21C
100
AcDbEntity
  8
_1
100
AcDbLine
 62
7
  6
CONTINUOUS
 10
45.9137329407
 20
159.1371446408
 11
45.9137329407
 21
156.9000321754
  0
LINE
  5
21D
100
AcDbEntity
  8
_1
100
AcDbLine
 62
7
  6
CONTINUOUS
 10
36.5707471694
 20
216.5682845154
 11
36.2205086817
 21
185.8767068887
  0
LINE
  5
21E
100
AcDbEntity
  8
_1
100
AcDbLine
 62
7
  6
CONTINUOUS
 10
51.0350621161
 20
155.4742467004
 11
51.0350621161
 21
157.9124223772
  0
LINE
  5
21F
100
AcDbEntity
  8
_1
100
AcDbLine
 62
7
  6
CONTINUOUS
 10
68.0055542093
 20
167.7102820701
 11
68.0055542093
 21
165.2721063933
  0
LINE
  5
220
100
AcDbEntity
  8
_1
100
AcDbLine
 62
7
  6
CONTINUOUS
 10
68.8842250338
 20
168.9350043337
 11
68.8842250338
 21
166.6978918683
  0
LINE
  5
221
100
AcDbEntity
  8
_1
100
AcDbLine
 62
7
  6
CONTINUOUS
 10
73.0514383479
 20
209.8008339086
 11
73.0514383479
 21
210.4540358423
  0
LINE
  5
222
100
AcDbEntity
  8
_1
100
AcDbLine
 62
7
  6
CONTINUOUS
 10
73.5514383479
 20
207.1880261738
 11
73.5514383479
 21
206.7797749652
  0
LINE
  5
223
100
AcDbEntity
  8
_1
100
AcDbLine
 62
7
  6
CONTINUOUS
 10
73.6476912422
 20
207.7919192621
 11
73.6476912422
 21
208.5371155211
  0
LINE
  5
224
100
AcDbEntity
  8
_1
100
AcDbLine
 62
7
  6
CONTINUOUS
 10
73.6476912422
 20
211.7927811061
 11
73.6476912422
 21
214.4055888409
  0
LINE
  5
225
100
AcDbEntity
  8
_1
100
AcDbLine
 62
7
  6
CONTINUOUS
 10
73.7514383479
 20
210.4540358423
 11
73.7514383479
 21
211.1888880177
  0
LINE
  5
226
100
AcDbEntity
  8
_1
100
AcDbLine
 62
7
  6
CONTINUOUS
 10
74.6937122125
 20
205.5381270688
 11
74.6937122125
 21
207.8278826066
  0
LINE
  5
227
100
AcDbEntity
  8
_1
100
AcDbLine
 62
7
  6
CONTINUOUS
 10
74.6937122125
 20
209.5389889128
 11
74.6937122125
 21
212.1517966476
  0
LINE
  5
228
100
AcDbEntity
  8
_1
100
AcDbLine
 62
7
  6
CONTINUOUS
 10
75.5514383479
 20
213.8016957525
 11
75.5514383479
 21
216.9860551793
  0
LINE
  5
229
100
AcDbEntity
  8
_1
100
AcDbLine
 62
7
  6
CONTINUOUS
 10
78.5974593182
 20
204.9342339805
 11
78.5974593182
 21
207.2989749835
  0
LINE
  5
22A
100
AcDbEntity
  8
_1
100
AcDbLine
 62
7
  6
CONTINUOUS
 10
78.5974593182
 20
208.9350958244
 11
78.5974593182
 21
211.5479035592
  0
LINE
  5
22B
100
AcDbEntity
  8
_1
100
AcDbLine
 62
7
  6
CONTINUOUS
 10
79.5514383479
 20
213.8016957525
 11
79.5514383479
 21
216.9860551793
  0
LINE
  5
22C
100
AcDbEntity
  8
_1
100
AcDbLine
 62
7
  6
CONTINUOUS
 10
73.7876785664
 20
211.4911596783
 11
73.7514445271
 21
211.1888880172
  0
LINE
  5
22D
100
AcDbEntity
  8
_1
100
AcDbLine
 62
7
  6
CONTINUOUS
 10
74.6937122125
 20
205.5381270688
 11
73.6476912422
 21
207.7919192621
  0
LINE
  5
22E
100
AcDbEntity
  8
_1
100
AcDbLine
 62
7
  6
CONTINUOUS
 10
74.6937122125
 20
209.5389889128
 11
73.6476912422
 21
211.7927811061
  0
LINE
  5
22F
100
AcDbEntity
  8
_1
100
AcDbLine
 62
7
  6
CONTINUOUS
 10
81.3514383479
 20
210.4540358423
 11
81.3514383479
 21
210.5250968675
  0
LINE
  5
230
100
AcDbEntity
  8
_1
100
AcDbLine
 62
7
  6
CONTINUOUS
 10
81.4551854535
 20
206.5841330854
 11
81.4551854535
 21
208.5360762043
  0
LINE
  5
231
100
AcDbEntity
  8
_1
100
AcDbLine
 62
7
  6
CONTINUOUS
 10
81.4551854535
 20
210.5849949293
 11
81.4551854535
 21
213.1978026642
  0
LINE
  5
232
100
AcDbEntity
  8
_1
100
AcDbLine
 62
7
  6
CONTINUOUS
 10
81.5514383479
 20
207.1880261738
 11
81.5514383479
 21
206.7797749652
  0
LINE
  5
233
100
AcDbEntity
  8
_1
100
AcDbLine
 62
7
  6
CONTINUOUS
 10
82.0514383479
 20
209.8008339086
 11
82.0514383479
 21
210.4540358423
  0
LINE
  5
234
100
AcDbEntity
  8
_1
100
AcDbLine
 62
7
  6
CONTINUOUS
 10
82.1476545053
 20
203.6363173649
 11
82.1476545053
 21
203.7179676066
  0
LINE
  5
235
100
AcDbEntity
  8
_1
100
AcDbLine
 62
7
  6
CONTINUOUS
 10
73.6476912422
 20
214.4055888409
 11
74.6937122125
 21
212.1517966476
  0
LINE
  5
236
100
AcDbEntity
  8
_1
100
AcDbLine
 62
7
  6
CONTINUOUS
 10
81.4551854535
 20
213.1978026642
 11
80.4091644832
 21
215.4515948574
  0
LINE
  5
237
100
AcDbEntity
  8
_1
100
AcDbLine
 62
7
  6
CONTINUOUS
 10
95.2290754937
 20
211.2704844532
 11
95.2290754937
 21
211.1888342115
  0
LINE
  5
238
100
AcDbEntity
  8
_1
100
AcDbLine
 62
7
  6
CONTINUOUS
 10
46.8159299782
 20
225.2678468184
 11
38.3306839316
 21
220.3689169719
  0
LINE
  5
239
100
AcDbEntity
  8
_1
100
AcDbLine
 62
7
  6
CONTINUOUS
 10
42.5806649048
 20
219.9479606003
 11
51.0659109514
 21
224.8468904467
  0
LINE
  5
23A
100
AcDbEntity
  8
_1
100
AcDbLine
 62
7
  6
CONTINUOUS
 10
237.4863141569
 20
323.7666190347
 11
214.6047723934
 21
312.8676264686
  0
LINE
  5
23B
100
AcDbEntity
  8
_1
100
AcDbLine
 62
7
  6
CONTINUOUS
 10
42.5806649048
 20
219.9479606003
 11
100.5014465582
 21
186.5081382309
  0
LINE
  5
23C
100
AcDbEntity
  8
_1
100
AcDbLine
 62
7
  6
CONTINUOUS
 10
106.8965419889
 20
141.9908908331
 11
106.5113642937
 21
176.1889638937
  0
LINE
  5
23D
100
AcDbEntity
  8
_1
100
AcDbLine
 62
7
  6
CONTINUOUS
 10
106.5113642937
 20
108.2375726028
 11
106.8965419889
 21
141.9908908331
  0
LINE
  5
23E
100
AcDbEntity
  8
_1
100
AcDbLine
 62
7
  6
CONTINUOUS
 10
212.1907444963
 20
309.7464525623
 11
211.1300887405
 21
309.1340863315
  0
LINE
  5
23F
100
AcDbEntity
  8
_1
100
AcDbLine
 62
7
  6
CONTINUOUS
 10
58.1898338029
 20
220.7339847171
 11
167.7724908905
 21
284.0011836309
  0
LINE
  5
240
100
AcDbEntity
  8
_1
100
AcDbLine
 62
7
  6
CONTINUOUS
 10
198.8897201722
 20
301.966617094
 11
211.2171526739
 21
309.0838210832
  0
LINE
  5
241
100
AcDbEntity
  8
_1
100
AcDbLine
 62
7
  6
CONTINUOUS
 10
212.5113424822
 20
309.8310174573
 11
214.5888980526
 21
311.0304875653
  0
LINE
  5
242
100
AcDbEntity
  8
_1
100
AcDbLine
 62
7
  6
CONTINUOUS
 10
212.1300842636
 20
309.0350377734
 11
213.1907400194
 21
309.6474040042
  0
LINE
  5
243
100
AcDbEntity
  8
_1
100
AcDbLine
 62
7
  6
CONTINUOUS
 10
58.7756155216
 20
220.3957911351
 11
167.7475845486
 21
283.3104112373
  0
LINE
  5
244
100
AcDbEntity
  8
_1
100
AcDbLine
 62
7
  6
CONTINUOUS
 10
198.8897201722
 20
301.2902242978
 11
212.217148197
 21
308.9847725252
  0
LINE
  5
245
100
AcDbEntity
  8
_1
100
AcDbLine
 62
7
  6
CONTINUOUS
 10
213.2778039528
 20
309.597138756
 11
214.5888980526
 21
310.3540947691
  0
LINE
  5
246
100
AcDbEntity
  8
_1
100
AcDbLine
 62
7
  6
CONTINUOUS
 10
248.9664105797
 20
328.9862223312
 11
240.5087169578
 21
324.1031997896
  0
LINE
  5
247
100
AcDbEntity
  8
_1
100
AcDbLine
 62
7
  6
CONTINUOUS
 10
121.1446292566
 20
184.1016971378
 11
124.773193017
 21
182.006792267
  0
LINE
  5
248
100
AcDbEntity
  8
_1
100
AcDbLine
 62
7
  6
CONTINUOUS
 10
51.0659109514
 20
224.8468904467
 11
58.7756155216
 21
220.3957911351
  0
LINE
  5
249
100
AcDbEntity
  8
_1
100
AcDbLine
 62
7
  6
CONTINUOUS
 10
101.2769880346
 20
195.858167389
 11
108.9866926048
 21
191.4070680773
  0
LINE
  5
24A
100
AcDbEntity
  8
_1
100
AcDbLine
 62
7
  6
CONTINUOUS
 10
114.9966103402
 20
181.0878937402
 11
115.2438650924
 21
159.1353347416
  0
LINE
  5
24B
100
AcDbEntity
  8
_1
100
AcDbLine
 62
7
  6
CONTINUOUS
 10
115.0654034766
 20
200.5743990612
 11
115.1347115212
 21
194.4208714749
  0
LINE
  5
24C
100
AcDbEntity
  8
_1
100
AcDbLine
 62
7
  6
CONTINUOUS
 10
115.2438650924
 20
134.8035627112
 11
114.9966103402
 21
113.1365024492
  0
LINE
  5
24D
100
AcDbEntity
  8
_1
100
AcDbLine
 62
7
  6
CONTINUOUS
 10
47.7911620574
 20
203.539196626
 11
45.3162986272
 21
202.1103420874
  0
LINE
  5
24E
100
AcDbEntity
  8
_1
100
AcDbLine
 62
7
  6
CONTINUOUS
 10
73.6476912422
 20
214.4055888409
 11
75.5514383479
 21
215.5047111839
  0
LINE
  5
24F
100
AcDbEntity
  8
_1
100
AcDbLine
 62
7
  6
CONTINUOUS
 10
72.2481183532
 20
209.4333381699
 11
73.0514383479
 21
209.8971324166
  0
LINE
  5
250
100
AcDbEntity
  8
_1
100
AcDbLine
 62
7
  6
CONTINUOUS
 10
80.887389913
 20
214.4211941571
 11
85.3295393417
 21
216.9858550165
  0
LINE
  5
251
100
AcDbEntity
  8
_1
100
AcDbLine
 62
7
  6
CONTINUOUS
 10
201.1531849713
 20
282.3866533749
 11
187.011108227
 21
274.2217702975
  0
LINE
  5
252
100
AcDbEntity
  8
_1
100
AcDbLine
 62
7
  6
CONTINUOUS
 10
81.4551854535
 20
213.1978026642
 11
78.5974593182
 21
211.5479035592
  0
LINE
  5
253
100
AcDbEntity
  8
_1
100
AcDbLine
 62
7
  6
CONTINUOUS
 10
81.4551854535
 20
210.5849949293
 11
78.5974593182
 21
208.9350958244
  0
LINE
  5
254
100
AcDbEntity
  8
_1
100
AcDbLine
 62
7
  6
CONTINUOUS
 10
88.1579664664
 20
216.9858618152
 11
95.2290637179
 21
212.90345427
  0
LINE
  5
255
100
AcDbEntity
  8
_1
100
AcDbLine
 62
7
  6
CONTINUOUS
 10
71.1499326728
 20
227.5400638278
 11
113.6513051859
 21
203.0024400817
  0
LINE
  5
256
100
AcDbEntity
  8
_1
100
AcDbLine
 62
7
  6
CONTINUOUS
 10
127.6181822436
 20
166.2796074344
 11
127.7561051867
 21
154.0340933723
  0
LINE
  5
257
100
AcDbEntity
  8
_1
100
AcDbLine
 62
7
  6
CONTINUOUS
 10
127.7561051867
 20
154.0340933723
 11
127.6181822436
 21
141.9478354039
  0
LINE
  5
258
100
AcDbEntity
  8
_1
100
AcDbLine
 62
7
  6
CONTINUOUS
 10
201.1531849713
 20
278.6307422561
 11
187.011108227
 21
270.4658591787
  0
LINE
  5
259
100
AcDbEntity
  8
_1
100
AcDbLine
 62
7
  6
CONTINUOUS
 10
78.5974593182
 20
204.9342339805
 11
81.4551854535
 21
206.5841330854
  0
LINE
  5
25A
100
AcDbEntity
  8
_1
100
AcDbLine
 62
7
  6
CONTINUOUS
 10
260.4663590956
 20
309.0676083199
 11
253.5014766776
 21
305.046455584
  0
LINE
  5
25B
100
AcDbEntity
  8
_1
100
AcDbLine
 62
7
  6
CONTINUOUS
 10
95.2290754937
 20
211.2704844532
 11
82.1476545053
 21
203.7179676066
  0
LINE
  5
25C
100
AcDbEntity
  8
_1
100
AcDbLine
 62
7
  6
CONTINUOUS
 10
95.2290754937
 20
211.1888342115
 11
82.1476545053
 21
203.6363173649
  0
LINE
  5
25D
100
AcDbEntity
  8
_1
100
AcDbLine
 62
7
  6
CONTINUOUS
 10
57.248226722
 20
188.7919735973
 11
59.3695382336
 21
190.0167060589
  0
LINE
  5
25E
100
AcDbEntity
  8
_1
100
AcDbLine
 62
7
  6
CONTINUOUS
 10
78.5974593182
 20
204.9342339805
 11
74.6937122125
 21
205.5381270688
  0
LINE
  5
25F
100
AcDbEntity
  8
_1
100
AcDbLine
 62
7
  6
CONTINUOUS
 10
250.0894215701
 20
291.3655856997
 11
238.4884342047
 21
284.183081702
  0
LINE
  5
260
100
AcDbEntity
  8
_1
100
AcDbLine
 62
7
  6
CONTINUOUS
 10
252.9170464238
 20
292.3478455998
 11
251.5716490378
 21
291.5710846935
  0
LINE
  5
261
100
AcDbEntity
  8
_1
100
AcDbLine
 62
7
  6
CONTINUOUS
 10
244.8523628517
 20
285.7343552936
 11
230.7102861074
 21
277.5694722162
  0
LINE
  5
262
100
AcDbEntity
  8
_1
100
AcDbLine
 62
7
  6
CONTINUOUS
 10
254.3814793367
 20
289.9488651135
 11
254.4319853288
 21
289.9780245876
  0
LINE
  5
263
100
AcDbEntity
  8
_1
100
AcDbLine
 62
7
  6
CONTINUOUS
 10
244.8523628517
 20
281.9784441748
 11
230.7102861074
 21
273.8135610974
  0
LINE
  5
264
100
AcDbEntity
  8
_1
100
AcDbLine
 62
7
  6
CONTINUOUS
 10
245.5594696329
 20
281.9784458745
 11
230.7102890514
 21
273.4053186432
  0
LINE
  5
265
100
AcDbEntity
  8
_1
100
AcDbLine
 62
7
  6
CONTINUOUS
 10
245.5594696329
 20
281.5701946659
 11
230.7102890514
 21
272.9970674346
  0
LINE
  5
266
100
AcDbEntity
  8
_1
100
AcDbLine
 62
7
  6
CONTINUOUS
 10
78.5974593182
 20
208.9350958244
 11
74.6937122125
 21
209.5389889128
  0
LINE
  5
267
100
AcDbEntity
  8
_1
100
AcDbLine
 62
7
  6
CONTINUOUS
 10
74.6937122125
 20
212.1517966476
 11
78.5974593182
 21
211.5479035592
  0
LINE
  5
268
100
AcDbEntity
  8
_1
100
AcDbLine
 62
7
  6
CONTINUOUS
 10
80.4091644832
 20
215.4515948574
 11
79.5514383479
 21
215.5842814457
  0
LINE
  5
269
100
AcDbEntity
  8
_1
100
AcDbLine
 62
7
  6
CONTINUOUS
 10
214.6048348923
 20
312.8654157946
 11
214.5888981086
 21
312.8404287519
  0
LINE
  5
26A
100
AcDbEntity
  8
_1
100
AcDbLine
 62
7
  6
CONTINUOUS
 10
259.3146956519
 20
287.1007357792
 11
255.7791764659
 21
285.0595150099
  0
LINE
  5
26B
100
AcDbEntity
  8
_1
100
AcDbLine
 62
7
  6
CONTINUOUS
 10
254.71852071
 20
284.4471487791
 11
101.2769880346
 21
195.858167389
  0
LINE
  5
26C
100
AcDbEntity
  8
_1
100
AcDbLine
 62
7
  6
CONTINUOUS
 10
255.8662403993
 20
285.0092497617
 11
254.8055846434
 21
284.3968835309
  0
LINE
  5
26D
100
AcDbEntity
  8
_1
100
AcDbLine
 62
7
  6
CONTINUOUS
 10
104.0868183336
 20
194.235947809
 11
256.1326190007
 21
282.0191077586
  0
LINE
  5
26E
100
AcDbEntity
  8
_1
100
AcDbLine
 62
7
  6
CONTINUOUS
 10
257.2612936039
 20
282.6707444548
 11
260.7287939426
 21
284.6726947587
  0
LINE
  5
26F
100
AcDbEntity
  8
_1
100
AcDbLine
 62
7
  6
CONTINUOUS
 10
256.2196829341
 20
281.9688425104
 11
257.2803386899
 21
282.5812087412
  0
LINE
  5
270
100
AcDbEntity
  8
_1
100
AcDbLine
 62
7
  6
CONTINUOUS
 10
46.7924037653
 20
160.3618669043
 11
63.7628958584
 21
170.1597265972
  0
LINE
  5
271
100
AcDbEntity
  8
_1
100
AcDbLine
 62
7
  6
CONTINUOUS
 10
67.4981808339
 20
171.0384263263
 11
66.7186830374
 21
170.5883857501
  0
LINE
  5
272
100
AcDbEntity
  8
_1
100
AcDbLine
 62
7
  6
CONTINUOUS
 10
45.9137329407
 20
158.5767139113
 11
38.5069235082
 21
154.3004160176
  0
LINE
  5
273
100
AcDbEntity
  8
_1
100
AcDbLine
 62
7
  6
CONTINUOUS
 10
108.9866926048
 20
191.4070680773
 11
100.5014465582
 21
186.5081382309
  0
LINE
  5
274
100
AcDbEntity
  8
_1
100
AcDbLine
 62
7
  6
CONTINUOUS
 10
68.0055542093
 20
167.7102820701
 11
51.0350621161
 21
157.9124223772
  0
LINE
  5
275
100
AcDbEntity
  8
_1
100
AcDbLine
 62
7
  6
CONTINUOUS
 10
260.7981019872
 20
278.5191671724
 11
257.3485217515
 21
276.527562983
  0
LINE
  5
276
100
AcDbEntity
  8
_1
100
AcDbLine
 62
7
  6
CONTINUOUS
 10
256.2019270453
 20
275.8655801723
 11
109.3741597118
 21
191.0950351897
  0
LINE
  5
277
100
AcDbEntity
  8
_1
100
AcDbLine
 62
7
  6
CONTINUOUS
 10
257.3496467345
 20
276.4276811548
 11
256.2889909787
 21
275.815314924
  0
LINE
  5
278
100
AcDbEntity
  8
_1
100
AcDbLine
 62
7
  6
CONTINUOUS
 10
68.0055542093
 20
165.2721063933
 11
51.0350621161
 21
155.4742467004
  0
LINE
  5
279
100
AcDbEntity
  8
_1
100
AcDbLine
 62
7
  6
CONTINUOUS
 10
158.6122556903
 20
295.0577711864
 11
158.6122556903
 21
307.2944651178
  0
LINE
  5
27A
100
AcDbEntity
  8
_1
100
AcDbLine
 62
7
  6
CONTINUOUS
 10
106.5113642937
 20
176.1889638937
 11
114.9966103402
 21
181.0878937402
  0
LINE
  5
27B
100
AcDbEntity
  8
_1
100
AcDbLine
 62
7
  6
CONTINUOUS
 10
115.0026054231
 20
180.5556191914
 11
262.2118447807
 21
265.5464058351
  0
LINE
  5
27C
100
AcDbEntity
  8
_1
100
AcDbLine
 62
7
  6
CONTINUOUS
 10
263.2725005366
 20
266.1587720659
 11
266.8080197226
 21
268.1999928353
  0
LINE
  5
27D
100
AcDbEntity
  8
_1
100
AcDbLine
 62
7
  6
CONTINUOUS
 10
262.2989087141
 20
265.4961405869
 11
263.3595644699
 21
266.1085068177
  0
LINE
  5
27E
100
AcDbEntity
  8
_1
100
AcDbLine
 62
7
  6
CONTINUOUS
 10
167.7475845486
 20
279.8553965326
 11
167.7475845486
 21
283.6113076514
  0
LINE
  5
27F
100
AcDbEntity
  8
_1
100
AcDbLine
 62
7
  6
CONTINUOUS
 10
167.9975845486
 20
283.6113076514
 11
167.9975845486
 21
285.1646298355
  0
LINE
  5
280
100
AcDbEntity
  8
_1
100
AcDbLine
 62
7
  6
CONTINUOUS
 10
168.626273037
 20
278.630664071
 11
168.626273037
 21
282.3865751898
  0
LINE
  5
281
100
AcDbEntity
  8
_1
100
AcDbLine
 62
7
  6
CONTINUOUS
 10
174.9902664513
 20
294.9583939943
 11
174.9902664513
 21
280.8353321924
  0
LINE
  5
282
100
AcDbEntity
  8
_1
100
AcDbLine
 62
7
  6
CONTINUOUS
 10
125.7730294565
 20
129.4069133538
 11
126.1562405676
 21
129.9992344414
  0
LINE
  5
283
100
AcDbEntity
  8
_1
100
AcDbLine
 62
7
  6
CONTINUOUS
 10
76.9981383036
 20
154.5839190996
 11
48.0068809778
 21
137.8459087909
  0
LINE
  5
284
100
AcDbEntity
  8
_1
100
AcDbLine
 62
7
  6
CONTINUOUS
 10
271.5458286331
 20
266.7455071277
 11
115.0494913442
 21
176.3928439994
  0
LINE
  5
285
100
AcDbEntity
  8
_1
100
AcDbLine
 62
7
  6
CONTINUOUS
 10
115.0818205012
 20
173.5224938075
 11
272.8541769641
 21
264.6118625519
  0
LINE
  5
286
100
AcDbEntity
  8
_1
100
AcDbLine
 62
7
  6
CONTINUOUS
 10
182.1397790516
 20
275.446492561
 11
182.1397790516
 21
277.0794973953
  0
LINE
  5
287
100
AcDbEntity
  8
_1
100
AcDbLine
 62
7
  6
CONTINUOUS
 10
182.7684675399
 20
274.2217600994
 11
182.7684675399
 21
270.4658489806
  0
LINE
  5
288
100
AcDbEntity
  8
_1
100
AcDbLine
 62
7
  6
CONTINUOUS
 10
182.9613634061
 20
278.5680583435
 11
182.9613634061
 21
278.318440553
  0
LINE
  5
289
100
AcDbEntity
  8
_1
100
AcDbLine
 62
7
  6
CONTINUOUS
 10
186.8181755612
 20
278.3513135811
 11
186.8181755612
 21
278.5667879849
  0
LINE
  5
28A
100
AcDbEntity
  8
_1
100
AcDbLine
 62
7
  6
CONTINUOUS
 10
187.011108227
 20
270.4658591787
 11
187.011108227
 21
274.2217702975
  0
LINE
  5
28B
100
AcDbEntity
  8
_1
100
AcDbLine
 62
7
  6
CONTINUOUS
 10
187.6397790516
 20
275.446492561
 11
187.6397790516
 21
277.0794973953
  0
LINE
  5
28C
100
AcDbEntity
  8
_1
100
AcDbLine
 62
7
  6
CONTINUOUS
 10
115.2438650924
 20
159.1353347416
 11
268.6853977678
 21
247.7243161318
  0
LINE
  5
28D
100
AcDbEntity
  8
_1
100
AcDbLine
 62
7
  6
CONTINUOUS
 10
269.7460535236
 20
248.3366823626
 11
274.7717477515
 21
251.2382509579
  0
LINE
  5
28E
100
AcDbEntity
  8
_1
100
AcDbLine
 62
7
  6
CONTINUOUS
 10
268.6854161174
 20
247.7226869564
 11
269.7460718733
 21
248.3350531872
  0
LINE
  5
28F
100
AcDbEntity
  8
_1
100
AcDbLine
 62
7
  6
CONTINUOUS
 10
198.8897201722
 20
286.5507503466
 11
198.8897201722
 21
309.4948535207
  0
LINE
  5
290
100
AcDbEntity
  8
_1
100
AcDbLine
 62
7
  6
CONTINUOUS
 10
87.2480924156
 20
136.8303718286
 11
89.3694039272
 21
138.0551042902
  0
LINE
  5
291
100
AcDbEntity
  8
_1
100
AcDbLine
 62
7
  6
CONTINUOUS
 10
106.8965419889
 20
141.9908908331
 11
275.090167527
 21
239.0969461685
  0
LINE
  5
292
100
AcDbEntity
  8
_1
100
AcDbLine
 62
7
  6
CONTINUOUS
 10
201.1531849713
 20
282.3866533749
 11
201.1531849713
 21
278.6307422561
  0
LINE
  5
293
100
AcDbEntity
  8
_1
100
AcDbLine
 62
7
  6
CONTINUOUS
 10
201.7818557959
 20
283.6113756384
 11
201.7818557959
 21
285.2443804727
  0
LINE
  5
294
100
AcDbEntity
  8
_1
100
AcDbLine
 62
7
  6
CONTINUOUS
 10
202.0318557959
 20
279.8554645197
 11
202.0318557959
 21
283.6113756384
  0
LINE
  5
295
100
AcDbEntity
  8
_1
100
AcDbLine
 62
7
  6
CONTINUOUS
 10
210.7396556478
 20
282.7948455431
 11
210.7396556478
 21
283.2030967517
  0
LINE
  5
296
100
AcDbEntity
  8
_1
100
AcDbLine
 62
7
  6
CONTINUOUS
 10
211.446762429
 20
283.2030984514
 11
211.446762429
 21
286.9590095702
  0
LINE
  5
297
100
AcDbEntity
  8
_1
100
AcDbLine
 62
7
  6
CONTINUOUS
 10
269.7460718733
 20
224.0065183196
 11
268.6854161174
 21
223.3941520888
  0
LINE
  5
298
100
AcDbEntity
  8
_1
100
AcDbLine
 62
7
  6
CONTINUOUS
 10
274.7717477515
 20
226.9064789274
 11
269.7460535236
 21
224.0049103321
  0
LINE
  5
299
100
AcDbEntity
  8
_1
100
AcDbLine
 62
7
  6
CONTINUOUS
 10
268.6853977678
 20
223.3925441013
 11
115.2438650924
 21
134.8035627112
  0
LINE
  5
29A
100
AcDbEntity
  8
_1
100
AcDbLine
 62
7
  6
CONTINUOUS
 10
95.2909494057
 20
121.2666604922
 11
92.8160859754
 21
119.8378059537
  0
LINE
  5
29B
100
AcDbEntity
  8
_1
100
AcDbLine
 62
7
  6
CONTINUOUS
 10
274.4265130598
 20
223.3117081572
 11
273.0440319297
 21
222.513537069
  0
LINE
  5
29C
100
AcDbEntity
  8
_1
100
AcDbLine
 62
7
  6
CONTINUOUS
 10
272.9839718967
 20
221.9531451881
 11
274.0259788031
 21
222.5547445649
  0
LINE
  5
29D
100
AcDbEntity
  8
_1
100
AcDbLine
 62
7
  6
CONTINUOUS
 10
231.3664888964
 20
280.2820376497
 11
231.338956932
 21
280.2768158229
  0
LINE
  5
29E
100
AcDbEntity
  8
_1
100
AcDbLine
 62
7
  6
CONTINUOUS
 10
187.6673099811
 20
276.9343926284
 11
187.6397790516
 21
276.9291691468
  0
LINE
  5
29F
100
AcDbEntity
  8
_1
100
AcDbLine
 62
7
  6
CONTINUOUS
 10
231.3912470259
 20
280.222526688
 11
231.3629104733
 21
280.2186181754
  0
LINE
  5
2A0
100
AcDbEntity
  8
_1
100
AcDbLine
 62
7
  6
CONTINUOUS
 10
187.6920904876
 20
276.8748286865
 11
187.6637540796
 21
276.8709201392
  0
LINE
  5
2A1
100
AcDbEntity
  8
_1
100
AcDbLine
 62
7
  6
CONTINUOUS
 10
211.6183441362
 20
281.5701130815
 11
211.6183441362
 21
281.9783642901
  0
LINE
  5
2A2
100
AcDbEntity
  8
_1
100
AcDbLine
 62
7
  6
CONTINUOUS
 10
211.696762429
 20
286.9590095702
 11
211.696762429
 21
288.5920144044
  0
LINE
  5
2A3
100
AcDbEntity
  8
_1
100
AcDbLine
 62
7
  6
CONTINUOUS
 10
212.3254509174
 20
281.9783659897
 11
212.3254509174
 21
285.7342771085
  0
LINE
  5
2A4
100
AcDbEntity
  8
_1
100
AcDbLine
 62
7
  6
CONTINUOUS
 10
214.5888980526
 20
289.8984522653
 11
214.5888980526
 21
312.8424819887
  0
LINE
  5
2A5
100
AcDbEntity
  8
_1
100
AcDbLine
 62
7
  6
CONTINUOUS
 10
115.1163044954
 20
123.6253624252
 11
271.8196310336
 21
214.0975301389
  0
LINE
  5
2A6
100
AcDbEntity
  8
_1
100
AcDbLine
 62
7
  6
CONTINUOUS
 10
115.1120376513
 20
123.2514566935
 11
271.4365790062
 21
213.5049339851
  0
LINE
  5
2A7
100
AcDbEntity
  8
_1
100
AcDbLine
 62
7
  6
CONTINUOUS
 10
115.1108382486
 20
123.1463524228
 11
255.7372161861
 21
204.3365449401
  0
LINE
  5
2A8
100
AcDbEntity
  8
_1
100
AcDbLine
 62
7
  6
CONTINUOUS
 10
257.0952525552
 20
205.1206029232
 11
261.3457972157
 21
207.5746413785
  0
LINE
  5
2A9
100
AcDbEntity
  8
_1
100
AcDbLine
 62
7
  6
CONTINUOUS
 10
256.8851817213
 20
204.9201895263
 11
255.8245259654
 21
204.3078232955
  0
LINE
  5
2AA
100
AcDbEntity
  8
_1
100
AcDbLine
 62
7
  6
CONTINUOUS
 10
182.1158269764
 20
276.8708999017
 11
182.0874879265
 21
276.8748085838
  0
LINE
  5
2AB
100
AcDbEntity
  8
_1
100
AcDbLine
 62
7
  6
CONTINUOUS
 10
182.1397790516
 20
276.9290966282
 11
182.1122446439
 21
276.9343187718
  0
LINE
  5
2AC
100
AcDbEntity
  8
_1
100
AcDbLine
 62
7
  6
CONTINUOUS
 10
182.7684675399
 20
270.4658489806
 11
168.626273037
 21
278.630664071
  0
LINE
  5
2AD
100
AcDbEntity
  8
_1
100
AcDbLine
 62
7
  6
CONTINUOUS
 10
182.7684675399
 20
274.2217600994
 11
168.626273037
 21
282.3865751898
  0
LINE
  5
2AE
100
AcDbEntity
  8
_1
100
AcDbLine
 62
7
  6
CONTINUOUS
 10
174.9902664513
 20
280.8353321924
 11
162.0243412655
 21
288.8627743282
  0
LINE
  5
2AF
100
AcDbEntity
  8
_1
100
AcDbLine
 62
7
  6
CONTINUOUS
 10
229.2626731866
 20
266.5058299115
 11
229.3319812312
 21
260.3523023251
  0
LINE
  5
2B0
100
AcDbEntity
  8
_1
100
AcDbLine
 62
7
  6
CONTINUOUS
 10
225.838956932
 20
278.7941944797
 11
225.838956932
 21
280.427199314
  0
LINE
  5
2B1
100
AcDbEntity
  8
_1
100
AcDbLine
 62
7
  6
CONTINUOUS
 10
226.4676454203
 20
277.5694620181
 11
226.4676454203
 21
273.8135508993
  0
LINE
  5
2B2
100
AcDbEntity
  8
_1
100
AcDbLine
 62
7
  6
CONTINUOUS
 10
226.4676483643
 20
273.4053084451
 11
226.4676483643
 21
272.9970572366
  0
LINE
  5
2B3
100
AcDbEntity
  8
_1
100
AcDbLine
 62
7
  6
CONTINUOUS
 10
226.6605412865
 20
281.9167694877
 11
226.6605412865
 21
281.6990351014
  0
LINE
  5
2B4
100
AcDbEntity
  8
_1
100
AcDbLine
 62
7
  6
CONTINUOUS
 10
230.5173534416
 20
281.661783348
 11
230.5173534416
 21
281.9163922548
  0
LINE
  5
2B5
100
AcDbEntity
  8
_1
100
AcDbLine
 62
7
  6
CONTINUOUS
 10
230.7102890514
 20
272.9970674346
 11
230.7102890514
 21
273.4053186432
  0
LINE
  5
2B6
100
AcDbEntity
  8
_1
100
AcDbLine
 62
7
  6
CONTINUOUS
 10
230.7102861074
 20
273.8135610974
 11
230.7102861074
 21
277.5694722162
  0
LINE
  5
2B7
100
AcDbEntity
  8
_1
100
AcDbLine
 62
7
  6
CONTINUOUS
 10
231.338956932
 20
278.7941944797
 11
231.338956932
 21
280.427199314
  0
LINE
  5
2B8
100
AcDbEntity
  8
_1
100
AcDbLine
 62
7
  6
CONTINUOUS
 10
114.9966103402
 20
113.1365024492
 11
106.5113642937
 21
108.2375726028
  0
LINE
  5
2B9
100
AcDbEntity
  8
_1
100
AcDbLine
 62
7
  6
CONTINUOUS
 10
113.2366735781
 20
109.3358699927
 11
104.7514275315
 21
104.4369401463
  0
LINE
  5
2BA
100
AcDbEntity
  8
_1
100
AcDbLine
 62
7
  6
CONTINUOUS
 10
225.8149827372
 20
280.2186057918
 11
225.7866438338
 21
280.2225145096
  0
LINE
  5
2BB
100
AcDbEntity
  8
_1
100
AcDbLine
 62
7
  6
CONTINUOUS
 10
225.838956932
 20
280.2768554033
 11
225.8114235879
 21
280.2820792504
  0
LINE
  5
2BC
100
AcDbEntity
  8
_1
100
AcDbLine
 62
7
  6
CONTINUOUS
 10
235.3418989666
 20
250.033127988
 11
238.9704627271
 21
247.9382231172
  0
LINE
  5
2BD
100
AcDbEntity
  8
_1
100
AcDbLine
 62
7
  6
CONTINUOUS
 10
150.890784213
 20
306.9444615949
 11
158.6122556903
 21
302.48656881
  0
LINE
  5
2BE
100
AcDbEntity
  8
_1
100
AcDbLine
 62
7
  6
CONTINUOUS
 10
241.8154519537
 20
232.2110382846
 11
241.9533748967
 21
219.9655242225
  0
LINE
  5
2BF
100
AcDbEntity
  8
_1
100
AcDbLine
 62
7
  6
CONTINUOUS
 10
238.4884342047
 20
284.183081702
 11
238.4884342047
 21
298.306143504
  0
LINE
  5
2C0
100
AcDbEntity
  8
_1
100
AcDbLine
 62
7
  6
CONTINUOUS
 10
241.9533748967
 20
219.9655242225
 11
241.8154519537
 21
207.8792662542
  0
LINE
  5
2C1
100
AcDbEntity
  8
_1
100
AcDbLine
 62
7
  6
CONTINUOUS
 10
240.3535102776
 20
195.9306652916
 11
239.9702991665
 21
195.3383442041
  0
LINE
  5
2C2
100
AcDbEntity
  8
_1
100
AcDbLine
 62
7
  6
CONTINUOUS
 10
201.9712563773
 20
283.873809758
 11
227.8485748959
 21
268.933870932
  0
LINE
  5
2C3
100
AcDbEntity
  8
_1
100
AcDbLine
 62
7
  6
CONTINUOUS
 10
226.4676483643
 20
272.9970572366
 11
211.6183441362
 21
281.5701130815
  0
LINE
  5
2C4
100
AcDbEntity
  8
_1
100
AcDbLine
 62
7
  6
CONTINUOUS
 10
226.4676483643
 20
273.4053084451
 11
211.6183441362
 21
281.9783642901
  0
LINE
  5
2C5
100
AcDbEntity
  8
_1
100
AcDbLine
 62
7
  6
CONTINUOUS
 10
226.4676454203
 20
273.8135508993
 11
212.3254509174
 21
281.9783659897
  0
LINE
  5
2C6
100
AcDbEntity
  8
_1
100
AcDbLine
 62
7
  6
CONTINUOUS
 10
226.4676454203
 20
277.5694620181
 11
212.3254509174
 21
285.7342771085
  0
LINE
  5
2C7
100
AcDbEntity
  8
_1
100
AcDbLine
 62
7
  6
CONTINUOUS
 10
198.8718687997
 20
309.520936041
 11
198.8878875428
 21
309.4957925496
  0
LINE
  5
2C8
100
AcDbEntity
  8
_1
100
AcDbLine
 62
7
  6
CONTINUOUS
 10
244.8523628517
 20
285.7343552936
 11
244.8523628517
 21
281.9784441748
  0
LINE
  5
2C9
100
AcDbEntity
  8
_1
100
AcDbLine
 62
7
  6
CONTINUOUS
 10
245.4810336762
 20
286.9590775572
 11
245.4810336762
 21
288.5124005847
  0
LINE
  5
2CA
100
AcDbEntity
  8
_1
100
AcDbLine
 62
7
  6
CONTINUOUS
 10
245.5594696329
 20
281.9784458745
 11
245.5594696329
 21
281.5701946659
  0
LINE
  5
2CB
100
AcDbEntity
  8
_1
100
AcDbLine
 62
7
  6
CONTINUOUS
 10
245.7310336762
 20
283.2031664384
 11
245.7310336762
 21
286.9590775572
  0
LINE
  5
2CC
100
AcDbEntity
  8
_1
100
AcDbLine
 62
7
  6
CONTINUOUS
 10
246.4381404574
 20
282.7949169295
 11
246.4381404574
 21
283.2031681381
  0
LINE
  5
2CD
100
AcDbEntity
  8
_1
100
AcDbLine
 62
7
  6
CONTINUOUS
 10
253.5014766776
 20
309.7784882359
 11
253.5014766776
 21
297.5605989612
  0
LINE
  5
2CE
100
AcDbEntity
  8
_1
100
AcDbLine
 62
7
  6
CONTINUOUS
 10
262.2118447807
 20
265.5464058351
 11
265.8404085412
 21
263.4515009643
  0
LINE
  5
2CF
100
AcDbEntity
  8
_1
100
AcDbLine
 62
7
  6
CONTINUOUS
 10
266.901064297
 20
264.0638671952
 11
263.2725005366
 21
266.1587720659
  0
LINE
  5
2D0
100
AcDbEntity
  8
_1
100
AcDbLine
 62
7
  6
CONTINUOUS
 10
162.3905890922
 20
326.8631585337
 11
171.8276152757
 21
321.4148121844
  0
LINE
  5
2D1
100
AcDbEntity
  8
_1
100
AcDbLine
 62
7
  6
CONTINUOUS
 10
256.1326190007
 20
282.0191077586
 11
256.2019270453
 21
275.8655801723
  0
LINE
  5
2D2
100
AcDbEntity
  8
_1
100
AcDbLine
 62
7
  6
CONTINUOUS
 10
256.2889909787
 20
275.815314924
 11
256.2196829341
 21
281.9688425104
  0
LINE
  5
2D3
100
AcDbEntity
  8
_1
100
AcDbLine
 62
7
  6
CONTINUOUS
 10
257.2803386899
 20
282.5812087412
 11
257.3496467345
 21
276.4276811548
  0
LINE
  5
2D4
100
AcDbEntity
  8
_1
100
AcDbLine
 62
7
  6
CONTINUOUS
 10
260.7287939426
 20
284.6726947587
 11
260.7981019872
 21
278.5191671724
  0
LINE
  5
2D5
100
AcDbEntity
  8
_1
100
AcDbLine
 62
7
  6
CONTINUOUS
 10
174.5778721875
 20
321.0924995149
 11
198.8738488837
 21
309.5199929669
  0
LINE
  5
2D6
100
AcDbEntity
  8
_1
100
AcDbLine
 62
7
  6
CONTINUOUS
 10
212.1300842636
 20
309.0350377734
 11
214.5888980526
 21
307.6154730853
  0
LINE
  5
2D7
100
AcDbEntity
  8
_1
100
AcDbLine
 62
7
  6
CONTINUOUS
 10
246.5407322272
 20
289.16849035
 11
254.8055846434
 21
284.3968835309
  0
LINE
  5
2D8
100
AcDbEntity
  8
_1
100
AcDbLine
 62
7
  6
CONTINUOUS
 10
213.1907400194
 20
309.6474040042
 11
214.5888980526
 21
308.8401953489
  0
LINE
  5
2D9
100
AcDbEntity
  8
_1
100
AcDbLine
 62
7
  6
CONTINUOUS
 10
247.5643487594
 20
289.8022407028
 11
255.8662403993
 21
285.0092497617
  0
LINE
  5
2DA
100
AcDbEntity
  8
_1
100
AcDbLine
 62
7
  6
CONTINUOUS
 10
254.4319853288
 20
289.9780245876
 11
254.4396138108
 21
289.9155332564
  0
LINE
  5
2DB
100
AcDbEntity
  8
_1
100
AcDbLine
 62
7
  6
CONTINUOUS
 10
268.6853977678
 20
247.7243161318
 11
268.8233207109
 21
235.4788020697
  0
LINE
  5
2DC
100
AcDbEntity
  8
_1
100
AcDbLine
 62
7
  6
CONTINUOUS
 10
269.8839764667
 20
236.0911683005
 11
269.7460535236
 21
248.3366823626
  0
LINE
  5
2DD
100
AcDbEntity
  8
_1
100
AcDbLine
 62
7
  6
CONTINUOUS
 10
268.8233207109
 20
235.4788020697
 11
268.6853977678
 21
223.3925441013
  0
LINE
  5
2DE
100
AcDbEntity
  8
_1
100
AcDbLine
 62
7
  6
CONTINUOUS
 10
269.7460535236
 20
224.0049103321
 11
269.8839764667
 21
236.0911683005
  0
LINE
  5
2DF
100
AcDbEntity
  8
_1
100
AcDbLine
 62
7
  6
CONTINUOUS
 10
251.5716490378
 20
291.5710846935
 11
259.3146956519
 21
287.1007357792
  0
ARC
  5
2E0
100
AcDbEntity
  8
_1
100
AcDbCircle
 62
7
  6
CONTINUOUS
 10
65.7435772335
 20
-2.0447921384
 40
348.8566076817
100
AcDbArc
 50
57.5519891583
 51
57.7689160002
  0
ARC
  5
2E1
100
AcDbEntity
  8
_1
100
AcDbCircle
 62
7
  6
CONTINUOUS
 10
193.1361333561
 20
229.6024853612
 40
80.2217267474
100
AcDbArc
 50
354.3546022498
 51
354.9303348626
  0
ARC
  5
2E2
100
AcDbEntity
  8
_1
100
AcDbCircle
 62
7
  6
CONTINUOUS
 10
197.2265887213
 20
232.5397997773
 40
77.7495079908
100
AcDbArc
 50
353.1834933388
 51
355.8450080255
  0
ARC
  5
2E3
100
AcDbEntity
  8
_1
100
AcDbCircle
 62
7
  6
CONTINUOUS
 10
129.6608928958
 20
195.9589108712
 40
14.7412707763
100
AcDbArc
 50
209.181823727
 51
211.2519252007
  0
ARC
  5
2E4
100
AcDbEntity
  8
_1
100
AcDbCircle
 62
7
  6
CONTINUOUS
 10
243.8168865357
 20
261.8663023949
 40
14.6935302304
100
AcDbArc
 50
209.177985441
 51
211.2548595117
  0
ARC
  5
2E5
100
AcDbEntity
  8
_1
100
AcDbCircle
 62
7
  6
CONTINUOUS
 10
243.6896022531
 20
261.7976329651
 40
14.5489192599
100
AcDbArc
 50
202.854896397
 51
209.1862486267
  0
ARC
  5
2E6
100
AcDbEntity
  8
_1
100
AcDbCircle
 62
7
  6
CONTINUOUS
 10
129.4673885297
 20
195.8537498849
 40
14.521052146
100
AcDbArc
 50
202.8479275807
 51
209.1918291113
  0
ARC
  5
2E7
100
AcDbEntity
  8
_1
100
AcDbCircle
 62
7
  6
CONTINUOUS
 10
243.5471205864
 20
261.6911041627
 40
14.3720184718
100
AcDbArc
 50
211.2157730142
 51
217.6185180159
  0
ARC
  5
2E8
100
AcDbEntity
  8
_1
100
AcDbCircle
 62
7
  6
CONTINUOUS
 10
129.3473788568
 20
195.7582763554
 40
14.3691625205
100
AcDbArc
 50
211.2165583386
 51
217.6200319379
  0
ARC
  5
2E9
100
AcDbEntity
  8
_1
100
AcDbCircle
 62
7
  6
CONTINUOUS
 10
269.3812507871
 20
278.6191455
 40
8.5837310644
100
AcDbArc
 50
180.6673631431
 51
184.6494947408
  0
ARC
  5
2EA
100
AcDbEntity
  8
_1
100
AcDbCircle
 62
7
  6
CONTINUOUS
 10
266.323703086
 20
272.4671234118
 40
8.049445402
100
AcDbArc
 50
239.3598616046
 51
239.9994109262
  0
ARC
  5
2EB
100
AcDbEntity
  8
_1
100
AcDbCircle
 62
7
  6
CONTINUOUS
 10
225.8624844463
 20
266.1541513898
 40
3.4480814632
100
AcDbArc
 50
25.0681791602
 51
35.3634953416
  0
ARC
  5
2EC
100
AcDbEntity
  8
_1
100
AcDbCircle
 62
7
  6
CONTINUOUS
 10
111.6667190723
 20
200.2227518399
 40
3.446697906
100
AcDbArc
 50
25.08038974
 51
30.2305232188
  0
ARC
  5
2ED
100
AcDbEntity
  8
_1
100
AcDbCircle
 62
7
  6
CONTINUOUS
 10
236.9904269811
 20
245.1627352681
 40
3.4406749223
100
AcDbArc
 50
32.6185823634
 51
34.3572856871
  0
ARC
  5
2EE
100
AcDbEntity
  8
_1
100
AcDbCircle
 62
7
  6
CONTINUOUS
 10
111.6718584595
 20
200.2277964066
 40
3.439718057
100
AcDbArc
 50
30.2010241445
 51
35.3581262176
  0
ARC
  5
2EF
100
AcDbEntity
  8
_1
100
AcDbCircle
 62
7
  6
CONTINUOUS
 10
122.8187419396
 20
179.248233658
 40
3.4100188118
100
AcDbArc
 50
32.610585015
 51
34.3650897165
  0
ARC
  5
2F0
100
AcDbEntity
  8
_1
100
AcDbCircle
 62
7
  6
CONTINUOUS
 10
75.6009559048
 20
209.8062996444
 40
2.7530333486
100
AcDbArc
 50
134.9209345664
 51
135.2047915934
  0
ARC
  5
2F1
100
AcDbEntity
  8
_1
100
AcDbCircle
 62
7
  6
CONTINUOUS
 10
215.1764524515
 20
287.9441763171
 40
2.4328648431
100
AcDbArc
 50
299.9572954797
 51
303.5458790014
  0
ARC
  5
2F2
100
AcDbEntity
  8
_1
100
AcDbCircle
 62
7
  6
CONTINUOUS
 10
254.2601556971
 20
281.9464737099
 40
1.9596549073
100
AcDbArc
 50
0.65402622
 51
2.3897071838
  0
ARC
  5
2F3
100
AcDbEntity
  8
_1
100
AcDbCircle
 62
7
  6
CONTINUOUS
 10
254.8037436359
 20
283.3712722235
 40
1.949777657
100
AcDbArc
 50
57.4110005413
 51
59.9815393311
  0
ARC
  5
2F4
100
AcDbEntity
  8
_1
100
AcDbCircle
 62
7
  6
CONTINUOUS
 10
212.3859553524
 20
308.0540182661
 40
1.7823060266
100
AcDbArc
 50
59.9741763405
 51
63.4526613467
  0
ARC
  5
2F5
100
AcDbEntity
  8
_1
100
AcDbCircle
 62
7
  6
CONTINUOUS
 10
80.0189955295
 20
207.2401036507
 40
1.5399252072
100
AcDbArc
 50
336.704648935
 51
339.5857281836
  0
ARC
  5
2F6
100
AcDbEntity
  8
_1
100
AcDbCircle
 62
7
  6
CONTINUOUS
 10
80.0691983581
 20
207.2213746532
 40
1.4863425836
100
AcDbArc
 50
339.5873357344
 51
343.4886108231
  0
ARC
  5
2F7
100
AcDbEntity
  8
_1
100
AcDbCircle
 62
7
  6
CONTINUOUS
 10
260.186888183
 20
279.034481053
 40
1.3334733555
100
AcDbArc
 50
299.990085332
 51
302.5373728157
  0
ARC
  5
2F8
100
AcDbEntity
  8
_1
100
AcDbCircle
 62
7
  6
CONTINUOUS
 10
212.5561812978
 20
309.0250718723
 40
0.8150196866
100
AcDbArc
 50
93.3559196354
 51
94.7805499597
  0
ARC
  5
2F9
100
AcDbEntity
  8
_1
100
AcDbCircle
 62
7
  6
CONTINUOUS
 10
211.5637997176
 20
308.4626616422
 40
0.8049259111
100
AcDbArc
 50
144.0751677373
 51
146.1292236753
  0
ARC
  5
2FA
100
AcDbEntity
  8
_1
100
AcDbCircle
 62
7
  6
CONTINUOUS
 10
255.314547579
 20
205.0001484064
 40
0.791397352
100
AcDbArc
 50
322.3426067224
 51
325.5989268495
  0
ARC
  5
2FB
100
AcDbEntity
  8
_1
100
AcDbCircle
 62
7
  6
CONTINUOUS
 10
255.4812162712
 20
204.9087927195
 40
0.6923173352
100
AcDbArc
 50
285.6745641096
 51
292.6322555663
  0
ARC
  5
2FC
100
AcDbEntity
  8
_1
100
AcDbCircle
 62
7
  6
CONTINUOUS
 10
228.5264756601
 20
189.4114840698
 40
0.6797829444
100
AcDbArc
 50
300.0866759176
 51
311.6872009742
  0
ARC
  5
2FD
100
AcDbEntity
  8
_1
100
AcDbCircle
 62
7
  6
CONTINUOUS
 10
255.4900039722
 20
204.8869295975
 40
0.6687562399
100
AcDbArc
 50
292.6581521055
 51
300.0129683709
  0
ARC
  5
2FE
100
AcDbEntity
  8
_1
100
AcDbCircle
 62
7
  6
CONTINUOUS
 10
255.4026058599
 20
204.915413786
 40
0.6685943289
100
AcDbArc
 50
300.0297015023
 51
303.9475470974
  0
ARC
  5
2FF
100
AcDbEntity
  8
_1
100
AcDbCircle
 62
7
  6
CONTINUOUS
 10
212.5241849529
 20
309.1687752977
 40
0.6669935049
100
AcDbArc
 50
114.20819202
 51
119.9939243522
  0
ARC
  5
300
100
AcDbEntity
  8
_1
100
AcDbCircle
 62
7
  6
CONTINUOUS
 10
211.4635283669
 20
308.5564110828
 40
0.6669913407
100
AcDbArc
 50
114.2082916101
 51
119.9939491547
  0
SPLINE
  5
301
100
AcDbEntity
  8
_1
100
AcDbSpline
 62
7
  6
CONTINUOUS
 70
0
 71
3
 72
13
 73
9
 74
0
 42
0.0000001
 43
0.0000001
 44
0.0000000001
 40
0.0
 40
0.0
 40
0.0
 40
0.0
 40
0.2894119289
 40
0.5482925507
 40
0.6677464828
 40
0.7817702989
 40
0.8919027319
 40
1.0
 40
1.0
 40
1.0
 40
1.0
 10
74.723022999
 20
205.1467983497
 30
0.0
 10
74.5474389619
 20
205.2481695475
 30
0.0
 10
74.2290462279
 20
205.4672259512
 30
0.0
 10
73.9035110229
 20
205.8097998743
 30
0.0
 10
73.7201763606
 20
206.1032012534
 30
0.0
 10
73.623298663
 20
206.3246040426
 30
0.0
 10
73.5645902132
 20
206.5508598659
 30
0.0
 10
73.5514506329
 20
206.7040481039
 30
0.0
 10
73.5514456517
 20
206.7797750131
 30
0.0
  0
SPLINE
  5
302
100
AcDbEntity
  8
_1
100
AcDbSpline
 62
7
  6
CONTINUOUS
 70
0
 71
3
 72
11
 73
7
 74
0
 42
0.0000001
 43
0.0000001
 44
0.0000000001
 40
0.0
 40
0.0
 40
0.0
 40
0.0
 40
0.2177657973
 40
0.4509436549
 40
0.7101971727
 40
1.0
 40
1.0
 40
1.0
 40
1.0
 10
79.5514360136
 20
216.9860551795
 30
0.0
 10
79.551436768
 20
217.0622277498
 30
0.0
 10
79.5233207179
 20
217.2210297592
 30
0.0
 10
79.4029077869
 20
217.4422003009
 30
0.0
 10
79.2126815247
 20
217.6422433301
 30
0.0
 10
79.0534359409
 20
217.7518591006
 30
0.0
 10
78.9656460223
 20
217.8025434871
 30
0.0
  0
SPLINE
  5
303
100
AcDbEntity
  8
_1
100
AcDbSpline
 62
7
  6
CONTINUOUS
 70
0
 71
3
 72
9
 73
5
 74
0
 42
0.0000001
 43
0.0000001
 44
0.0000000001
 40
0.0
 40
0.0
 40
0.0
 40
0.0
 40
0.5070326609
 40
1.0
 40
1.0
 40
1.0
 40
1.0
 10
73.669493014
 20
207.7449444265
 30
0.0
 10
73.6312551022
 20
207.6561023996
 30
0.0
 10
73.5719118886
 20
207.4733400985
 30
0.0
 10
73.5514396984
 20
207.2820645465
 30
0.0
 10
73.5514392146
 20
207.1880261706
 30
0.0
  0
SPLINE
  5
304
100
AcDbEntity
  8
_1
100
AcDbSpline
 62
7
  6
CONTINUOUS
 70
0
 71
3
 72
11
 73
7
 74
0
 42
0.0000001
 43
0.0000001
 44
0.0000000001
 40
0.0
 40
0.0
 40
0.0
 40
0.0
 40
0.2331968035
 40
0.4737140674
 40
0.7278153233
 40
1.0
 40
1.0
 40
1.0
 40
1.0
 10
82.0514363718
 20
210.4540358422
 30
0.0
 10
82.0514363172
 20
210.564990309
 30
0.0
 10
82.0260068832
 20
210.7911217668
 30
0.0
 10
81.9133816096
 20
211.1211119042
 30
0.0
 10
81.7292065685
 20
211.4384249914
 30
0.0
 10
81.5673381517
 20
211.6311062785
 30
0.0
 10
81.4771421499
 20
211.7240373001
 30
0.0
  0
SPLINE
  5
305
100
AcDbEntity
  8
_1
100
AcDbSpline
 62
7
  6
CONTINUOUS
 70
0
 71
3
 72
22
 73
18
 74
0
 42
0.0000001
 43
0.0000001
 44
0.0000000001
 40
0.0
 40
0.0
 40
0.0
 40
0.0
 40
0.0428200985
 40
0.0874080093
 40
0.1351973361
 40
0.1871135926
 40
0.2435678058
 40
0.3045334559
 40
0.3696401116
 40
0.4382573098
 40
0.509564562
 40
0.5826102521
 40
0.7296286768
 40
0.801625795
 40
0.871238125
 40
0.937598747
 40
1.0
 40
1.0
 40
1.0
 40
1.0
 10
82.0514362924
 20
209.8008339086
 30
0.0
 10
82.0514365468
 20
209.6727288759
 30
0.0
 10
82.0171845876
 20
209.4101163345
 30
0.0
 10
81.8665702399
 20
209.0309298965
 30
0.0
 10
81.6221777678
 20
208.6714681744
 30
0.0
 10
81.2909374875
 20
208.3388418239
 30
0.0
 10
80.8804896509
 20
208.0389263097
 30
0.0
 10
80.3995745418
 20
207.7773632947
 30
0.0
 10
79.858258592
 20
207.559288285
 30
0.0
 10
79.2679355687
 20
207.389158994
 30
0.0
 10
78.6409977424
 20
207.2704957782
 30
0.0
 10
77.7727892763
 20
207.1842182472
 30
0.0
 10
76.8942497579
 20
207.2084137361
 30
0.0
 10
76.0405565128
 20
207.3437166871
 30
0.0
 10
75.4365250986
 20
207.4970569768
 30
0.0
 10
74.8776287567
 20
207.6995647696
 30
0.0
 10
74.5311468466
 20
207.8703937807
 30
0.0
 10
74.3694710804
 20
207.9637352162
 30
0.0
  0
SPLINE
  5
306
100
AcDbEntity
  8
_1
100
AcDbSpline
 62
7
  6
CONTINUOUS
 70
0
 71
3
 72
21
 73
17
 74
0
 42
0.0000001
 43
0.0000001
 44
0.0000000001
 40
0.0
 40
0.0
 40
0.0
 40
0.0
 40
0.042826221
 40
0.0874203489
 40
0.1352162821
 40
0.1871396656
 40
0.2436016556
 40
0.3045758107
 40
0.3696916965
 40
0.43831871
 40
0.5825504812
 40
0.7295893988
 40
0.8015971888
 40
0.8712184933
 40
0.9375910892
 40
1.0
 40
1.0
 40
1.0
 40
1.0
 10
81.5514310441
 20
206.7797749173
 30
0.0
 10
81.5514385343
 20
206.6659036961
 30
0.0
 10
81.5209798581
 20
206.4324707141
 30
0.0
 10
81.387104941
 20
206.0954172741
 30
0.0
 10
81.1698684055
 20
205.7758958764
 30
0.0
 10
80.8754363574
 20
205.480227786
 30
0.0
 10
80.510596172
 20
205.213633769
 30
0.0
 10
80.0831213413
 20
204.9811365813
 30
0.0
 10
79.6019394867
 20
204.7872718932
 30
0.0
 10
78.8906955795
 20
204.5823811891
 30
0.0
 10
77.9377528899
 20
204.4487222848
 30
0.0
 10
76.9673651675
 20
204.475393285
 30
0.0
 10
76.2084242382
 20
204.5956758625
 30
0.0
 10
75.6715203327
 20
204.7319703556
 30
0.0
 10
75.1747193838
 20
204.9119835752
 30
0.0
 10
74.8667319822
 20
205.0638298066
 30
0.0
 10
74.723022999
 20
205.1467983497
 30
0.0
  0
SPLINE
  5
307
100
AcDbEntity
  8
_1
100
AcDbSpline
 62
7
  6
CONTINUOUS
 70
0
 71
3
 72
9
 73
5
 74
0
 42
0.0000001
 43
0.0000001
 44
0.0000000001
 40
0.0
 40
0.0
 40
0.0
 40
0.0
 40
0.4945065743
 40
1.0
 40
1.0
 40
1.0
 40
1.0
 10
81.5514374811
 20
207.1880261769
 30
0.0
 10
81.5514379045
 20
207.2703190621
 30
0.0
 10
81.5358518644
 20
207.437080678
 30
0.0
 10
81.4903303282
 20
207.5981470663
 30
0.0
 10
81.4607792616
 20
207.676906952
 30
0.0
  0
SPLINE
  5
308
100
AcDbEntity
  8
_1
100
AcDbSpline
 62
7
  6
CONTINUOUS
 70
0
 71
3
 72
14
 73
10
 74
0
 42
0.0000001
 43
0.0000001
 44
0.0000000001
 40
0.0
 40
0.0
 40
0.0
 40
0.0
 40
0.2892813038
 40
0.4225408191
 40
0.548495483
 40
0.6678950441
 40
0.7818677054
 40
0.8919510845
 40
1.0
 40
1.0
 40
1.0
 40
1.0
 10
74.3694710804
 20
207.9637352162
 30
0.0
 10
74.1719394173
 20
208.077777595
 30
0.0
 10
73.8953103495
 20
208.2682353005
 30
0.0
 10
73.5823380113
 20
208.5677665851
 30
0.0
 10
73.391866506
 20
208.7986608391
 30
0.0
 10
73.2412698953
 20
209.0396951065
 30
0.0
 10
73.1322723428
 20
209.2887612688
 30
0.0
 10
73.0662480124
 20
209.5433061867
 30
0.0
 10
73.0514405726
 20
209.7156409544
 30
0.0
 10
73.0514404034
 20
209.8008339086
 30
0.0
  0
SPLINE
  5
309
100
AcDbEntity
  8
_1
100
AcDbSpline
 62
7
  6
CONTINUOUS
 70
0
 71
3
 72
11
 73
7
 74
0
 42
0.0000001
 43
0.0000001
 44
0.0000000001
 40
0.0
 40
0.0
 40
0.0
 40
0.0
 40
0.2728477547
 40
0.5270968933
 40
0.7673378612
 40
1.0
 40
1.0
 40
1.0
 40
1.0
 10
73.6473217803
 20
211.7460177492
 30
0.0
 10
73.5538871372
 20
211.6519121967
 30
0.0
 10
73.3861276667
 20
211.4565850352
 30
0.0
 10
73.194925134
 20
211.1338824754
 30
0.0
 10
73.0778841736
 20
210.7977419938
 30
0.0
 10
73.0514402682
 20
210.5671162791
 30
0.0
 10
73.0514403239
 20
210.4540358424
 30
0.0
  0
SPLINE
  5
30A
100
AcDbEntity
  8
_1
100
AcDbSpline
 62
7
  6
CONTINUOUS
 70
0
 71
3
 72
18
 73
14
 74
0
 42
0.0000001
 43
0.0000001
 44
0.0000000001
 40
0.0
 40
0.0
 40
0.0
 40
0.0
 40
0.1286527037
 40
0.2702036702
 40
0.417319971
 40
0.5616308743
 40
0.6952660153
 40
0.7562723759
 40
0.8127643809
 40
0.8647143231
 40
0.9125344095
 40
0.9571516596
 40
1.0
 40
1.0
 40
1.0
 40
1.0
 10
78.9656460223
 20
217.8025434871
 30
0.0
 10
78.8176001967
 20
217.8880158507
 30
0.0
 10
78.4823937274
 20
218.0263101189
 30
0.0
 10
77.9361105885
 20
218.1356381655
 30
0.0
 10
77.3581869178
 20
218.1515846492
 30
0.0
 10
76.7963176715
 20
218.0727134929
 30
0.0
 10
76.3657221846
 20
217.928878172
 30
0.0
 10
76.0718545106
 20
217.7691284902
 30
0.0
 10
75.889429986
 20
217.6358217131
 30
0.0
 10
75.7422203168
 20
217.4879883992
 30
0.0
 10
75.6336085337
 20
217.3282274542
 30
0.0
 10
75.5666693833
 20
217.1597046053
 30
0.0
 10
75.551441246
 20
217.0429900272
 30
0.0
 10
75.5514406821
 20
216.9860551791
 30
0.0
  0
SPLINE
  5
30B
100
AcDbEntity
  8
_1
100
AcDbSpline
 62
7
  6
CONTINUOUS
 70
0
 71
3
 72
11
 73
7
 74
0
 42
0.0000001
 43
0.0000001
 44
0.0000000001
 40
0.0
 40
0.0
 40
0.0
 40
0.0
 40
0.2247303504
 40
0.461016026
 40
0.7177544961
 40
1.0
 40
1.0
 40
1.0
 40
1.0
 10
73.7514446441
 20
211.1888880172
 30
0.0
 10
73.7514292495
 20
211.0672007563
 30
0.0
 10
73.7884345845
 20
210.8162731159
 30
0.0
 10
73.9497764612
 20
210.4581734295
 30
0.0
 10
74.2091624722
 20
210.1240322156
 30
0.0
 10
74.4309378619
 20
209.9316078662
 30
0.0
 10
74.5537248883
 20
209.8406103405
 30
0.0
  0
SPLINE
  5
30C
100
AcDbEntity
  8
_1
100
AcDbSpline
 62
7
  6
CONTINUOUS
 70
0
 71
3
 72
9
 73
5
 74
0
 42
0.0000001
 43
0.0000001
 44
0.0000000001
 40
0.0
 40
0.0
 40
0.0
 40
0.0
 40
0.5035635153
 40
1.0
 40
1.0
 40
1.0
 40
1.0
 10
81.4942490187
 20
206.798947274
 30
0.0
 10
81.5130358653
 20
206.8624077212
 30
0.0
 10
81.5417347513
 20
206.991173984
 30
0.0
 10
81.5514371455
 20
207.1227799932
 30
0.0
 10
81.5514374811
 20
207.1880261769
 30
0.0
  0
SPLINE
  5
30D
100
AcDbEntity
  8
_1
100
AcDbSpline
 62
7
  6
CONTINUOUS
 70
0
 71
3
 72
13
 73
9
 74
0
 42
0.0000001
 43
0.0000001
 44
0.0000000001
 40
0.0
 40
0.0
 40
0.0
 40
0.0
 40
0.1086270023
 40
0.2192165978
 40
0.3335483467
 40
0.4531151387
 40
0.7116281951
 40
1.0
 40
1.0
 40
1.0
 40
1.0
 10
73.5514392146
 20
207.1880261706
 30
0.0
 10
73.5514388341
 20
207.1140692041
 30
0.0
 10
73.5639857112
 20
206.9645332336
 30
0.0
 10
73.6199374578
 20
206.7434896896
 30
0.0
 10
73.7123839908
 20
206.5269608448
 30
0.0
 10
73.8872531784
 20
206.2397712716
 30
0.0
 10
74.1982044716
 20
205.9031066205
 30
0.0
 10
74.5034661319
 20
205.6859646899
 30
0.0
 10
74.6719104407
 20
205.5851019045
 30
0.0
  0
SPLINE
  5
30E
100
AcDbEntity
  8
_1
100
AcDbSpline
 62
7
  6
CONTINUOUS
 70
0
 71
3
 72
16
 73
12
 74
0
 42
0.0000001
 43
0.0000001
 44
0.0000000001
 40
0.0
 40
0.0
 40
0.0
 40
0.0
 40
0.1183342752
 40
0.2470780132
 40
0.3823913695
 40
0.5196565693
 40
0.6540396526
 40
0.7810277744
 40
0.8406205321
 40
0.8971182514
 40
1.0
 40
1.0
 40
1.0
 40
1.0
 10
74.3694710804
 20
208.6169371499
 30
0.0
 10
74.62734473
 20
208.4680570969
 30
0.0
 10
75.1986578411
 20
208.2128288835
 30
0.0
 10
76.1316856889
 20
207.9648826942
 30
0.0
 10
77.1374984529
 20
207.8442849008
 30
0.0
 10
78.1644272144
 20
207.8573761652
 30
0.0
 10
79.1598623659
 20
208.003433102
 30
0.0
 10
79.9374305228
 20
208.2345694264
 30
0.0
 10
80.4975253429
 20
208.4825958937
 30
0.0
 10
80.9787124381
 20
208.7515947569
 30
0.0
 10
81.2994365473
 20
209.0004918065
 30
0.0
 10
81.4795094409
 20
209.1864853089
 30
0.0
  0
SPLINE
  5
30F
100
AcDbEntity
  8
_1
100
AcDbSpline
 62
7
  6
CONTINUOUS
 70
0
 71
3
 72
11
 73
7
 74
0
 42
0.0000001
 43
0.0000001
 44
0.0000000001
 40
0.0
 40
0.0
 40
0.0
 40
0.0
 40
0.2721200954
 40
0.5261981554
 40
0.766747647
 40
1.0
 40
1.0
 40
1.0
 40
1.0
 10
81.4795094409
 20
209.1864853089
 30
0.0
 10
81.5693546719
 20
209.2792845573
 30
0.0
 10
81.7305819309
 20
209.4716656998
 30
0.0
 10
81.9139738836
 20
209.7883860756
 30
0.0
 10
82.0261200823
 20
210.117686014
 30
0.0
 10
82.0514364264
 20
210.3433189808
 30
0.0
 10
82.0514363718
 20
210.4540358422
 30
0.0
  0
SPLINE
  5
310
100
AcDbEntity
  8
_1
100
AcDbSpline
 62
7
  6
CONTINUOUS
 70
0
 71
3
 72
13
 73
9
 74
0
 42
0.0000001
 43
0.0000001
 44
0.0000000001
 40
0.0
 40
0.0
 40
0.0
 40
0.0
 40
0.2894118164
 40
0.548292509
 40
0.6677465593
 40
0.7817704764
 40
0.8919028914
 40
1.0
 40
1.0
 40
1.0
 40
1.0
 10
74.8644437665
 20
208.9027080576
 30
0.0
 10
74.6976389965
 20
208.9990106577
 30
0.0
 10
74.39516591
 20
209.2071142088
 30
0.0
 10
74.0859074373
 20
209.5325594689
 30
0.0
 10
73.9117393647
 20
209.8112909255
 30
0.0
 10
73.8197056206
 20
210.021623751
 30
0.0
 10
73.763932559
 20
210.2365667118
 30
0.0
 10
73.7514499431
 20
210.3820954229
 30
0.0
 10
73.7514452341
 20
210.4540358804
 30
0.0
  0
SPLINE
  5
311
100
AcDbEntity
  8
_1
100
AcDbSpline
 62
7
  6
CONTINUOUS
 70
0
 71
3
 72
11
 73
7
 74
0
 42
0.0000001
 43
0.0000001
 44
0.0000000001
 40
0.0
 40
0.0
 40
0.0
 40
0.0
 40
0.2847422559
 40
0.5483652312
 40
0.7869851736
 40
1.0
 40
1.0
 40
1.0
 40
1.0
 10
78.9799042657
 20
209.1558991998
 30
0.0
 10
79.2076043452
 20
209.209228318
 30
0.0
 10
79.6405027026
 20
209.3389787671
 30
0.0
 10
80.229213751
 20
209.6120219398
 30
0.0
 10
80.7153042221
 20
209.9474455435
 30
0.0
 10
80.9721603581
 20
210.2210427386
 30
0.0
 10
81.072740506
 20
210.364191554
 30
0.0
  0
SPLINE
  5
312
100
AcDbEntity
  8
_1
100
AcDbSpline
 62
7
  6
CONTINUOUS
 70
0
 71
3
 72
11
 73
7
 74
0
 42
0.0000001
 43
0.0000001
 44
0.0000000001
 40
0.0
 40
0.0
 40
0.0
 40
0.0
 40
0.2177657973
 40
0.4509436549
 40
0.7101971727
 40
1.0
 40
1.0
 40
1.0
 40
1.0
 10
75.5514406821
 20
216.9860551791
 30
0.0
 10
75.5514399277
 20
216.9098826089
 30
0.0
 10
75.5795559778
 20
216.7510805994
 30
0.0
 10
75.6999689089
 20
216.5299100577
 30
0.0
 10
75.890195171
 20
216.3298670285
 30
0.0
 10
76.0494407549
 20
216.2202512581
 30
0.0
 10
76.1372306734
 20
216.1695668716
 30
0.0
  0
SPLINE
  5
313
100
AcDbEntity
  8
_1
100
AcDbSpline
 62
7
  6
CONTINUOUS
 70
0
 71
3
 72
11
 73
7
 74
0
 42
0.0000001
 43
0.0000001
 44
0.0000000001
 40
0.0
 40
0.0
 40
0.0
 40
0.0
 40
0.2339751685
 40
0.482714959
 40
0.7402831502
 40
1.0
 40
1.0
 40
1.0
 40
1.0
 10
75.2161444843
 20
209.4581708604
 30
0.0
 10
75.4238557599
 20
209.3647504352
 30
0.0
 10
75.868086482
 20
209.2059056996
 30
0.0
 10
76.5742322528
 20
209.0538852168
 30
0.0
 10
77.3183104148
 20
208.9846602278
 30
0.0
 10
77.8230285855
 20
208.9956743701
 30
0.0
 10
78.0750270465
 20
209.0159138768
 30
0.0
  0
SPLINE
  5
314
100
AcDbEntity
  8
_1
100
AcDbSpline
 62
7
  6
CONTINUOUS
 70
0
 71
3
 72
12
 73
8
 74
0
 42
0.0000001
 43
0.0000001
 44
0.0000000001
 40
0.0
 40
0.0
 40
0.0
 40
0.0
 40
0.1493797379
 40
0.2937617012
 40
0.4318484109
 40
0.5626393423
 40
1.0
 40
1.0
 40
1.0
 40
1.0
 10
78.6570216931
 20
204.9686221284
 30
0.0
 10
78.8166914075
 20
204.9951342199
 30
0.0
 10
79.1289173624
 20
205.0592060521
 30
0.0
 10
79.5784938836
 20
205.190016054
 30
0.0
 10
79.9970719772
 20
205.3530104595
 30
0.0
 10
80.6772637195
 20
205.695597697
 30
0.0
 10
81.1843288772
 20
206.1255689509
 30
0.0
 10
81.3956230787
 20
206.5497449375
 30
0.0
  0
SPLINE
  5
315
100
AcDbEntity
  8
_1
100
AcDbSpline
 62
7
  6
CONTINUOUS
 70
0
 71
3
 72
18
 73
14
 74
0
 42
0.0000001
 43
0.0000001
 44
0.0000000001
 40
0.0
 40
0.0
 40
0.0
 40
0.0
 40
0.1286527037
 40
0.2702036702
 40
0.417319971
 40
0.5616308743
 40
0.6952660153
 40
0.7562723759
 40
0.8127643809
 40
0.8647143231
 40
0.9125344095
 40
0.9571516596
 40
1.0
 40
1.0
 40
1.0
 40
1.0
 10
76.1372306734
 20
216.1695668716
 30
0.0
 10
76.285276499
 20
216.0840945079
 30
0.0
 10
76.6204829683
 20
215.9458002397
 30
0.0
 10
77.1667661073
 20
215.8364721931
 30
0.0
 10
77.744689778
 20
215.8205257094
 30
0.0
 10
78.3065590242
 20
215.8993968657
 30
0.0
 10
78.7371545111
 20
216.0432321866
 30
0.0
 10
79.0310221852
 20
216.2029818685
 30
0.0
 10
79.2134467098
 20
216.3362886456
 30
0.0
 10
79.360656379
 20
216.4841219594
 30
0.0
 10
79.469268162
 20
216.6438829044
 30
0.0
 10
79.5362073124
 20
216.8124057533
 30
0.0
 10
79.5514354497
 20
216.9291203314
 30
0.0
 10
79.5514360136
 20
216.9860551795
 30
0.0
  0
SPLINE
  5
316
100
AcDbEntity
  8
_1
100
AcDbSpline
 62
7
  6
CONTINUOUS
 70
0
 71
3
 72
21
 73
17
 74
0
 42
0.0000001
 43
0.0000001
 44
0.0000000001
 40
0.0
 40
0.0
 40
0.0
 40
0.0
 40
0.0428262072
 40
0.0874203487
 40
0.1352162762
 40
0.1871396346
 40
0.2436015761
 40
0.3045756719
 40
0.369691505
 40
0.4383184967
 40
0.5825503365
 40
0.7295892305
 40
0.8015971468
 40
0.8712185377
 40
0.9375911279
 40
1.0
 40
1.0
 40
1.0
 40
1.0
 10
81.3514314616
 20
210.4540358042
 30
0.0
 10
81.3514385425
 20
210.3458581787
 30
0.0
 10
81.3225027486
 20
210.1240968651
 30
0.0
 10
81.1953216733
 20
209.803896074
 30
0.0
 10
80.9889469528
 20
209.5003508017
 30
0.0
 10
80.7092366903
 20
209.2194662248
 30
0.0
 10
80.3626388102
 20
208.9662020732
 30
0.0
 10
79.95653813
 20
208.7453298506
 30
0.0
 10
79.4994157392
 20
208.5611583836
 30
0.0
 10
78.8237341009
 20
208.3665120114
 30
0.0
 10
77.9184384981
 20
208.2395358815
 30
0.0
 10
76.9965697331
 20
208.2648732172
 30
0.0
 10
76.2755753521
 20
208.379141599
 30
0.0
 10
75.7655161298
 20
208.5086214856
 30
0.0
 10
75.2935551276
 20
208.6796340836
 30
0.0
 10
75.0009672159
 20
208.8238879904
 30
0.0
 10
74.8644437665
 20
208.9027080576
 30
0.0
  0
SPLINE
  5
317
100
AcDbEntity
  8
_1
100
AcDbSpline
 62
7
  6
CONTINUOUS
 70
0
 71
3
 72
11
 73
7
 74
0
 42
0.0000001
 43
0.0000001
 44
0.0000000001
 40
0.0
 40
0.0
 40
0.0
 40
0.0
 40
0.2898015624
 40
0.5490532197
 40
0.7822320533
 40
1.0
 40
1.0
 40
1.0
 40
1.0
 10
76.1372306734
 20
212.9852074448
 30
0.0
 10
76.049441121
 20
213.0358916199
 30
0.0
 10
75.8901961755
 20
213.1455064356
 30
0.0
 10
75.6999703416
 20
213.3455489421
 30
0.0
 10
75.5795563905
 20
213.5667191471
 30
0.0
 10
75.5514386531
 20
213.7255224142
 30
0.0
 10
75.5514404423
 20
213.801695751
 30
0.0
  0
SPLINE
  5
318
100
AcDbEntity
  8
_1
100
AcDbSpline
 62
7
  6
CONTINUOUS
 70
0
 71
3
 72
14
 73
10
 74
0
 42
0.0000001
 43
0.0000001
 44
0.0000000001
 40
0.0
 40
0.0
 40
0.0
 40
0.0
 40
0.1080475483
 40
0.2181297703
 40
0.3321015138
 40
0.4515005468
 40
0.5774548005
 40
0.7107149345
 40
1.0
 40
1.0
 40
1.0
 40
1.0
 10
73.0514403239
 20
210.4540358424
 30
0.0
 10
73.0514403659
 20
210.3688439672
 30
0.0
 10
73.0662473844
 20
210.1965111627
 30
0.0
 10
73.1322707604
 20
209.9419688565
 30
0.0
 10
73.2412661687
 20
209.6929040313
 30
0.0
 10
73.3918612277
 20
209.4518705061
 30
0.0
 10
73.5823315138
 20
209.220975606
 30
0.0
 10
73.8953049199
 20
208.9214408651
 30
0.0
 10
74.1719368512
 20
208.7309810103
 30
0.0
 10
74.3694710804
 20
208.6169371499
 30
0.0
  0
SPLINE
  5
319
100
AcDbEntity
  8
_1
100
AcDbSpline
 62
7
  6
CONTINUOUS
 70
0
 71
3
 72
11
 73
7
 74
0
 42
0.0000001
 43
0.0000001
 44
0.0000000001
 40
0.0
 40
0.0
 40
0.0
 40
0.0
 40
0.228884809
 40
0.4782972487
 40
0.7389453917
 40
1.0
 40
1.0
 40
1.0
 40
1.0
 10
74.7750763593
 20
205.5255403811
 30
0.0
 10
75.0313135672
 20
205.3829051965
 30
0.0
 10
75.6006911589
 20
205.1443802748
 30
0.0
 10
76.526770275
 20
204.9309290044
 30
0.0
 10
77.5152345939
 20
204.8547061741
 30
0.0
 10
78.1850058259
 20
204.8993196747
 30
0.0
 10
78.5160951715
 20
204.9468206682
 30
0.0
  0
SPLINE
  5
31A
100
AcDbEntity
  8
_1
100
AcDbSpline
 62
7
  6
CONTINUOUS
 70
0
 71
3
 72
18
 73
14
 74
0
 42
0.0000001
 43
0.0000001
 44
0.0000000001
 40
0.0
 40
0.0
 40
0.0
 40
0.0
 40
0.0428486301
 40
0.0874664382
 40
0.1352871767
 40
0.1872376839
 40
0.2437299832
 40
0.3047362326
 40
0.4383697246
 40
0.5826780692
 40
0.729793452
 40
0.8713453769
 40
1.0
 40
1.0
 40
1.0
 40
1.0
 10
79.5514362535
 20
213.801695754
 30
0.0
 10
79.5514349162
 20
213.7447605206
 30
0.0
 10
79.5362080308
 20
213.628044723
 30
0.0
 10
79.4692663392
 20
213.4595204538
 30
0.0
 10
79.3606527263
 20
213.2997580372
 30
0.0
 10
79.2134407782
 20
213.1519240488
 30
0.0
 10
79.0310146551
 20
213.0186178087
 30
0.0
 10
78.7371480582
 20
212.8588702584
 30
0.0
 10
78.3065578251
 20
212.7150377906
 30
0.0
 10
77.7446955266
 20
212.6361669547
 30
0.0
 10
77.1667752171
 20
212.6521121366
 30
0.0
 10
76.6204891243
 20
212.7614386757
 30
0.0
 10
76.2852787089
 20
212.8997338053
 30
0.0
 10
76.1372306734
 20
212.9852074448
 30
0.0
  0
SPLINE
  5
31B
100
AcDbEntity
  8
_1
100
AcDbSpline
 62
7
  6
CONTINUOUS
 70
0
 71
3
 72
16
 73
12
 74
0
 42
0.0000001
 43
0.0000001
 44
0.0000000001
 40
0.0
 40
0.0
 40
0.0
 40
0.0
 40
0.1177924577
 40
0.2458368837
 40
0.380459786
 40
0.5172316403
 40
0.6514925293
 40
0.7788527188
 40
0.8388274144
 40
0.8958297154
 40
1.0
 40
1.0
 40
1.0
 40
1.0
 10
238.4884342047
 20
284.183081702
 30
0.0
 10
237.7001886139
 20
283.7279906145
 30
0.0
 10
235.9563310658
 20
282.9452565593
 30
0.0
 10
233.1088816599
 20
282.1766697662
 30
0.0
 10
230.0371577223
 20
281.7905424074
 30
0.0
 10
226.8938914118
 20
281.8065297756
 30
0.0
 10
223.8349597314
 20
282.223615124
 30
0.0
 10
221.4336048343
 20
282.9017207306
 30
0.0
 10
219.6913397215
 20
283.6356558908
 30
0.0
 10
218.1812723003
 20
284.4372343491
 30
0.0
 10
217.16509948
 20
285.1809502213
 30
0.0
 10
216.5849937035
 20
285.738969207
 30
0.0
  0
SPLINE
  5
31C
100
AcDbEntity
  8
_1
100
AcDbSpline
 62
7
  6
CONTINUOUS
 70
0
 71
3
 72
11
 73
7
 74
0
 42
0.0000001
 43
0.0000001
 44
0.0000000001
 40
0.0
 40
0.0
 40
0.0
 40
0.0
 40
0.274201297
 40
0.5287762501
 40
0.7684440553
 40
1.0
 40
1.0
 40
1.0
 40
1.0
 10
216.5849937035
 20
285.738969207
 30
0.0
 10
216.2730866885
 20
286.0390007584
 30
0.0
 10
215.7125122109
 20
286.6631905511
 30
0.0
 10
215.0712365466
 20
287.7013074013
 30
0.0
 10
214.6779188881
 20
288.7865061918
 30
0.0
 10
214.5889038953
 20
289.5329744493
 30
0.0
 10
214.5889041931
 20
289.8984522649
 30
0.0
  0
SPLINE
  5
31D
100
AcDbEntity
  8
_1
100
AcDbSpline
 62
7
  6
CONTINUOUS
 70
0
 71
3
 72
9
 73
5
 74
0
 42
0.0000001
 43
0.0000001
 44
0.0000000001
 40
0.0
 40
0.0
 40
0.0
 40
0.0
 40
0.5137302264
 40
1.0
 40
1.0
 40
1.0
 40
1.0
 10
211.6264563019
 20
287.549438804
 30
0.0
 10
211.5696830218
 20
287.4590349038
 30
0.0
 10
211.4792278721
 20
287.2689152879
 30
0.0
 10
211.4467844801
 20
287.0600557082
 30
0.0
 10
211.4467844814
 20
286.9590095702
 30
0.0
  0
SPLINE
  5
31E
100
AcDbEntity
  8
_1
100
AcDbSpline
 62
7
  6
CONTINUOUS
 70
0
 71
3
 72
11
 73
7
 74
0
 42
0.0000001
 43
0.0000001
 44
0.0000000001
 40
0.0
 40
0.0
 40
0.0
 40
0.0
 40
0.2897781767
 40
0.5490726313
 40
0.7822276909
 40
1.0
 40
1.0
 40
1.0
 40
1.0
 10
212.3254509174
 20
281.9783659897
 30
0.0
 10
212.1937785564
 20
282.054385343
 30
0.0
 10
211.9549230397
 20
282.2188304429
 30
0.0
 10
211.6695516816
 20
282.5188620216
 30
0.0
 10
211.4889821677
 20
282.8506532145
 30
0.0
 10
211.4467844828
 20
283.0888373212
 30
0.0
 10
211.4467844814
 20
283.2030984514
 30
0.0
  0
SPLINE
  5
31F
100
AcDbEntity
  8
_1
100
AcDbSpline
 62
7
  6
CONTINUOUS
 70
0
 71
3
 72
11
 73
7
 74
0
 42
0.0000001
 43
0.0000001
 44
0.0000000001
 40
0.0
 40
0.0
 40
0.0
 40
0.0
 40
0.2372279391
 40
0.4999994739
 40
0.762771295
 40
1.0
 40
1.0
 40
1.0
 40
1.0
 10
230.7102861074
 20
273.8135610974
 30
0.0
 10
230.4091338222
 20
273.6396917823
 30
0.0
 10
229.7087786174
 20
273.3859471698
 30
0.0
 10
228.588969099
 20
273.2643976063
 30
0.0
 10
227.4691578911
 20
273.3859420596
 30
0.0
 10
226.7687999317
 20
273.6396831945
 30
0.0
 10
226.4676454203
 20
273.8135508993
 30
0.0
  0
SPLINE
  5
320
100
AcDbEntity
  8
_1
100
AcDbSpline
 62
7
  6
CONTINUOUS
 70
0
 71
3
 72
21
 73
17
 74
0
 42
0.0000001
 43
0.0000001
 44
0.0000000001
 40
0.0
 40
0.0
 40
0.0
 40
0.0
 40
0.0428270496
 40
0.0874219182
 40
0.1352184058
 40
0.187142128
 40
0.2436042406
 40
0.3045783304
 40
0.3696940038
 40
0.4383207073
 40
0.5825517211
 40
0.7295898157
 40
0.8015973654
 40
0.8712185099
 40
0.9375910255
 40
1.0
 40
1.0
 40
1.0
 40
1.0
 10
248.9664211401
 20
328.9862042887
 30
0.0
 10
249.2499365699
 20
329.1499158165
 30
0.0
 10
249.8749405958
 20
329.4096451068
 30
0.0
 10
250.9066077875
 20
329.5608452737
 30
0.0
 10
252.0144544887
 20
329.4792874279
 30
0.0
 10
253.1738773251
 20
329.1712371671
 30
0.0
 10
254.3621202042
 20
328.6460886077
 30
0.0
 10
255.5555028153
 20
327.9159761064
 30
0.0
 10
256.7298987478
 20
326.9966074813
 30
0.0
 10
258.2624609488
 20
325.5202765657
 30
0.0
 10
259.9651068028
 20
323.3397597506
 30
0.0
 10
261.2936280078
 20
320.8853269552
 30
0.0
 10
262.0851139248
 20
318.8227895566
 30
0.0
 10
262.5175550892
 20
317.2900654522
 30
0.0
 10
262.7834941721
 20
315.7943434837
 30
0.0
 10
262.8481466769
 20
314.8092261495
 30
0.0
 10
262.8481466769
 20
314.3321466485
 30
0.0
  0
SPLINE
  5
321
100
AcDbEntity
  8
_1
100
AcDbSpline
 62
7
  6
CONTINUOUS
 70
0
 71
3
 72
11
 73
7
 74
0
 42
0.0000001
 43
0.0000001
 44
0.0000000001
 40
0.0
 40
0.0
 40
0.0
 40
0.0
 40
0.2355178527
 40
0.4761203092
 40
0.7289002047
 40
1.0
 40
1.0
 40
1.0
 40
1.0
 10
231.338956932
 20
280.427199314
 30
0.0
 10
231.338956932
 20
280.5884025693
 30
0.0
 10
231.2731476872
 20
280.9172571934
 30
0.0
 10
231.0027537759
 20
281.3468119998
 30
0.0
 10
230.6035279483
 20
281.693830747
 30
0.0
 10
230.2843631965
 20
281.8633040313
 30
0.0
 10
230.1134641384
 20
281.9355895836
 30
0.0
  0
SPLINE
  5
322
100
AcDbEntity
  8
_1
100
AcDbSpline
 62
7
  6
CONTINUOUS
 70
0
 71
3
 72
9
 73
5
 74
0
 42
0.0000001
 43
0.0000001
 44
0.0000000001
 40
0.0
 40
0.0
 40
0.0
 40
0.0
 40
0.2552683965
 40
1.0
 40
1.0
 40
1.0
 40
1.0
 10
227.1098835889
 20
281.9543601073
 30
0.0
 10
227.0781417339
 20
281.9415094528
 30
0.0
 10
226.9546180591
 20
281.8891752505
 30
0.0
 10
226.8344827891
 20
281.8287073419
 30
0.0
 10
226.7479611696
 20
281.7787543597
 30
0.0
  0
SPLINE
  5
323
100
AcDbEntity
  8
_1
100
AcDbSpline
 62
7
  6
CONTINUOUS
 70
0
 71
3
 72
11
 73
7
 74
0
 42
0.0000001
 43
0.0000001
 44
0.0000000001
 40
0.0
 40
0.0
 40
0.0
 40
0.0
 40
0.2652883108
 40
0.5168487599
 40
0.7600871689
 40
1.0
 40
1.0
 40
1.0
 40
1.0
 10
226.7479611696
 20
281.7787543597
 30
0.0
 10
226.6175772189
 20
281.7034776001
 30
0.0
 10
226.3752464066
 20
281.5344868494
 30
0.0
 10
226.079879964
 20
281.2145117006
 30
0.0
 10
225.8851337753
 20
280.8394439391
 30
0.0
 10
225.838956932
 20
280.5633526283
 30
0.0
 10
225.838956932
 20
280.427199314
 30
0.0
  0
SPLINE
  5
324
100
AcDbEntity
  8
_1
100
AcDbSpline
 62
7
  6
CONTINUOUS
 70
0
 71
3
 72
13
 73
9
 74
0
 42
0.0000001
 43
0.0000001
 44
0.0000000001
 40
0.0
 40
0.0
 40
0.0
 40
0.0
 40
0.2894099011
 40
0.5482900628
 40
0.6677443279
 40
0.7817687558
 40
0.8919019448
 40
1.0
 40
1.0
 40
1.0
 40
1.0
 10
262.8481466769
 20
314.3321466485
 30
0.0
 10
262.8481466769
 20
313.7492430371
 30
0.0
 10
262.760410593
 20
312.6415881989
 30
0.0
 10
262.3753949631
 20
311.3385922233
 30
0.0
 10
261.9083997999
 20
310.4603411677
 30
0.0
 10
261.4963904627
 20
309.9008549988
 30
0.0
 10
261.0174293553
 20
309.4294283227
 30
0.0
 10
260.654893993
 20
309.1764989728
 30
0.0
 10
260.4663485353
 20
309.0676263623
 30
0.0
  0
SPLINE
  5
325
100
AcDbEntity
  8
_1
100
AcDbSpline
 62
7
  6
CONTINUOUS
 70
0
 71
3
 72
9
 73
5
 74
0
 42
0.0000001
 43
0.0000001
 44
0.0000000001
 40
0.0
 40
0.0
 40
0.0
 40
0.0
 40
0.5186694468
 40
1.0
 40
1.0
 40
1.0
 40
1.0
 10
214.5920238834
 20
290.3886273703
 30
0.0
 10
214.2370593254
 20
290.4003792601
 30
0.0
 10
213.547861744
 20
290.3418954009
 30
0.0
 10
212.8912014652
 20
290.1083643242
 30
0.0
 10
212.6057666667
 20
289.9435694502
 30
0.0
  0
SPLINE
  5
326
100
AcDbEntity
  8
_1
100
AcDbSpline
 62
7
  6
CONTINUOUS
 70
0
 71
3
 72
11
 73
7
 74
0
 42
0.0000001
 43
0.0000001
 44
0.0000000001
 40
0.0
 40
0.0
 40
0.0
 40
0.0
 40
0.2652883108
 40
0.5168487599
 40
0.7600871689
 40
1.0
 40
1.0
 40
1.0
 40
1.0
 10
212.6057666667
 20
289.9435694502
 30
0.0
 10
212.475382716
 20
289.8682926905
 30
0.0
 10
212.2330519036
 20
289.6993019398
 30
0.0
 10
211.937685461
 20
289.379326791
 30
0.0
 10
211.7429392724
 20
289.0042590295
 30
0.0
 10
211.696762429
 20
288.7281677187
 30
0.0
 10
211.696762429
 20
288.5920144044
 30
0.0
  0
SPLINE
  5
327
100
AcDbEntity
  8
_1
100
AcDbSpline
 62
7
  6
CONTINUOUS
 70
0
 71
3
 72
9
 73
5
 74
0
 42
0.0000001
 43
0.0000001
 44
0.0000000001
 40
0.0
 40
0.0
 40
0.0
 40
0.0
 40
0.48626979
 40
1.0
 40
1.0
 40
1.0
 40
1.0
 10
245.7310116239
 20
286.9590775572
 30
0.0
 10
245.7310116226
 20
287.0601236103
 30
0.0
 10
245.6985682988
 20
287.2689830079
 30
0.0
 10
245.6081132851
 20
287.4591024814
 30
0.0
 10
245.5513400956
 20
287.5495063242
 30
0.0
  0
SPLINE
  5
328
100
AcDbEntity
  8
_1
100
AcDbSpline
 62
7
  6
CONTINUOUS
 70
0
 71
3
 72
11
 73
7
 74
0
 42
0.0000001
 43
0.0000001
 44
0.0000000001
 40
0.0
 40
0.0
 40
0.0
 40
0.0
 40
0.2177727701
 40
0.4509280213
 40
0.7102223029
 40
1.0
 40
1.0
 40
1.0
 40
1.0
 10
245.7310116239
 20
283.2031664384
 30
0.0
 10
245.7310116253
 20
283.0889065383
 30
0.0
 10
245.6888149041
 20
282.8507251798
 30
0.0
 10
245.5082492965
 20
282.5189371993
 30
0.0
 10
245.2228837341
 20
282.2189078446
 30
0.0
 10
244.9840327503
 20
282.0544633725
 30
0.0
 10
244.8523628517
 20
281.9784441748
 30
0.0
  0
SPLINE
  5
329
100
AcDbEntity
  8
_1
100
AcDbSpline
 62
7
  6
CONTINUOUS
 70
0
 71
3
 72
9
 73
5
 74
0
 42
0.0000001
 43
0.0000001
 44
0.0000000001
 40
0.0
 40
0.0
 40
0.0
 40
0.0
 40
0.2547179658
 40
1.0
 40
1.0
 40
1.0
 40
1.0
 10
212.8557655474
 20
289.9188073106
 30
0.0
 10
212.8424971708
 20
289.9111468555
 30
0.0
 10
212.7907381112
 20
289.8805039619
 30
0.0
 10
212.740332381
 20
289.8475614532
 30
0.0
 10
212.7037375588
 20
289.8216702939
 30
0.0
  0
SPLINE
  5
32A
100
AcDbEntity
  8
_1
100
AcDbSpline
 62
7
  6
CONTINUOUS
 70
0
 71
3
 72
19
 73
15
 74
0
 42
0.0000001
 43
0.0000001
 44
0.0000000001
 40
0.0
 40
0.0
 40
0.0
 40
0.0
 40
0.0587602322
 40
0.1122165376
 40
0.161297994
 40
0.2076810979
 40
0.2536092251
 40
0.3014523915
 40
0.3531299491
 40
0.4098236905
 40
0.5390553386
 40
0.686597076
 40
0.8438688494
 40
1.0
 40
1.0
 40
1.0
 40
1.0
 10
212.7037375588
 20
289.8216702939
 30
0.0
 10
212.6296947495
 20
289.7692843537
 30
0.0
 10
212.4952983854
 20
289.6584695286
 30
0.0
 10
212.3351766957
 20
289.4655620724
 30
0.0
 10
212.2310231603
 20
289.2579953918
 30
0.0
 10
212.1874586779
 20
289.0411985168
 30
0.0
 10
212.2074134759
 20
288.8227720024
 30
0.0
 10
212.2894841661
 20
288.6110372501
 30
0.0
 10
212.4292730029
 20
288.4121256963
 30
0.0
 10
212.6977066982
 20
288.159303848
 30
0.0
 10
213.1563918437
 20
287.9089379519
 30
0.0
 10
213.8069808926
 20
287.7317502794
 30
0.0
 10
214.5205862124
 20
287.679617054
 30
0.0
 10
215.0048892591
 20
287.7334836398
 30
0.0
 10
215.2403764288
 20
287.7847354882
 30
0.0
  0
SPLINE
  5
32B
100
AcDbEntity
  8
_1
100
AcDbSpline
 62
7
  6
CONTINUOUS
 70
0
 71
3
 72
10
 73
6
 74
0
 42
0.0000001
 43
0.0000001
 44
0.0000000001
 40
0.0
 40
0.0
 40
0.0
 40
0.0
 40
0.5246615395
 40
0.7718802283
 40
1.0
 40
1.0
 40
1.0
 40
1.0
 10
214.5921188298
 20
290.2965579537
 30
0.0
 10
214.2782710928
 20
290.3082906921
 30
0.0
 10
213.8111731706
 20
290.2707645205
 30
0.0
 10
213.2343534452
 20
290.1059752143
 30
0.0
 10
212.9740253741
 20
289.9870842458
 30
0.0
 10
212.8557655474
 20
289.9188073106
 30
0.0
  0
SPLINE
  5
32C
100
AcDbEntity
  8
_1
100
AcDbSpline
 62
7
  6
CONTINUOUS
 70
0
 71
3
 72
11
 73
7
 74
0
 42
0.0000001
 43
0.0000001
 44
0.0000000001
 40
0.0
 40
0.0
 40
0.0
 40
0.0
 40
0.2177718384
 40
0.4509299156
 40
0.7102268825
 40
1.0
 40
1.0
 40
1.0
 40
1.0
 10
231.3389367228
 20
278.7941944796
 30
0.0
 10
231.3389393539
 20
278.6894566131
 30
0.0
 10
231.3002569413
 20
278.4711224078
 30
0.0
 10
231.1347386349
 20
278.1669808881
 30
0.0
 10
230.8731505058
 20
277.8919553341
 30
0.0
 10
230.6542042596
 20
277.7412156165
 30
0.0
 10
230.5335086761
 20
277.6715324048
 30
0.0
  0
SPLINE
  5
32D
100
AcDbEntity
  8
_1
100
AcDbSpline
 62
7
  6
CONTINUOUS
 70
0
 71
3
 72
17
 73
13
 74
0
 42
0.0000001
 43
0.0000001
 44
0.0000000001
 40
0.0
 40
0.0
 40
0.0
 40
0.0
 40
0.1286914424
 40
0.270275894
 40
0.4174292768
 40
0.5617752962
 40
0.6954478949
 40
0.8127150858
 40
0.8646785489
 40
0.9125125227
 40
0.9571418263
 40
1.0
 40
1.0
 40
1.0
 40
1.0
 10
230.5335086761
 20
277.6715324048
 30
0.0
 10
230.3299387972
 20
277.554001982
 30
0.0
 10
229.8690365525
 20
277.3638333796
 30
0.0
 10
229.1178604333
 20
277.2135571527
 30
0.0
 10
228.3233555293
 20
277.1915395302
 30
0.0
 10
227.5503491857
 20
277.3001603077
 30
0.0
 10
226.8615244286
 20
277.5302533168
 30
0.0
 10
226.3824336255
 20
277.8218532613
 30
0.0
 10
226.1012900714
 20
278.1040290313
 30
0.0
 10
225.9519409826
 20
278.3237114227
 30
0.0
 10
225.8598927345
 20
278.5554279298
 30
0.0
 10
225.8389791077
 20
278.7159117016
 30
0.0
 10
225.8389771412
 20
278.7941944798
 30
0.0
  0
SPLINE
  5
32E
100
AcDbEntity
  8
_1
100
AcDbSpline
 62
7
  6
CONTINUOUS
 70
0
 71
3
 72
11
 73
7
 74
0
 42
0.0000001
 43
0.0000001
 44
0.0000000001
 40
0.0
 40
0.0
 40
0.0
 40
0.0
 40
0.2344594735
 40
0.4940332579
 40
0.756825234
 40
1.0
 40
1.0
 40
1.0
 40
1.0
 10
244.6755854204
 20
285.8364154822
 30
0.0
 10
244.4182343732
 20
285.6878346728
 30
0.0
 10
243.8233555563
 20
285.4648303906
 30
0.0
 10
242.8659162531
 20
285.3393590524
 30
0.0
 10
241.8918755391
 20
285.4112795903
 30
0.0
 10
241.270007505
 20
285.5980605727
 30
0.0
 10
240.9912450028
 20
285.7295302781
 30
0.0
  0
SPLINE
  5
32F
100
AcDbEntity
  8
_1
100
AcDbSpline
 62
7
  6
CONTINUOUS
 70
0
 71
3
 72
11
 73
7
 74
0
 42
0.0000001
 43
0.0000001
 44
0.0000000001
 40
0.0
 40
0.0
 40
0.0
 40
0.0
 40
0.2897730581
 40
0.5490651526
 40
0.7822233799
 40
1.0
 40
1.0
 40
1.0
 40
1.0
 10
230.5335086761
 20
279.3045372391
 30
0.0
 10
230.6542045296
 20
279.3742206066
 30
0.0
 10
230.8731510712
 20
279.5249575558
 30
0.0
 10
231.1347359164
 20
279.7999828265
 30
0.0
 10
231.3002647768
 20
280.1041206362
 30
0.0
 10
231.338942074
 20
280.322458892
 30
0.0
 10
231.3389413142
 20
280.427199314
 30
0.0
  0
SPLINE
  5
330
100
AcDbEntity
  8
_1
100
AcDbSpline
 62
7
  6
CONTINUOUS
 70
0
 71
3
 72
9
 73
5
 74
0
 42
0.0000001
 43
0.0000001
 44
0.0000000001
 40
0.0
 40
0.0
 40
0.0
 40
0.0
 40
0.2547179658
 40
1.0
 40
1.0
 40
1.0
 40
1.0
 10
226.9979600504
 20
281.7539922202
 30
0.0
 10
226.9846916737
 20
281.7463317651
 30
0.0
 10
226.9329326142
 20
281.7156888715
 30
0.0
 10
226.882526884
 20
281.6827463627
 30
0.0
 10
226.8459320617
 20
281.6568552034
 30
0.0
  0
SPLINE
  5
331
100
AcDbEntity
  8
_1
100
AcDbSpline
 62
7
  6
CONTINUOUS
 70
0
 71
3
 72
19
 73
15
 74
0
 42
0.0000001
 43
0.0000001
 44
0.0000000001
 40
0.0
 40
0.0
 40
0.0
 40
0.0
 40
0.0572555741
 40
0.1085821267
 40
0.1554623587
 40
0.2004568864
 40
0.2467134333
 40
0.2969836742
 40
0.3529421453
 40
0.4151202124
 40
0.5556505822
 40
0.709360443
 40
0.8620921779
 40
1.0
 40
1.0
 40
1.0
 40
1.0
 10
226.8459320617
 20
281.6568552034
 30
0.0
 10
226.7605494226
 20
281.5964462338
 30
0.0
 10
226.6077294825
 20
281.4675859307
 30
0.0
 10
226.435292589
 20
281.2382815491
 30
0.0
 10
226.3406542908
 20
280.9899537681
 30
0.0
 10
226.33171541
 20
280.732959255
 30
0.0
 10
226.4094607451
 20
280.4818373327
 30
0.0
 10
226.5668158587
 20
280.2481158814
 30
0.0
 10
226.7950784695
 20
280.0385057751
 30
0.0
 10
227.1987414238
 20
279.7887599818
 30
0.0
 10
227.82534171
 20
279.5820521716
 30
0.0
 10
228.6443240204
 20
279.5072257217
 30
0.0
 10
229.455902945
 20
279.6045052183
 30
0.0
 10
229.9617813554
 20
279.7909476493
 30
0.0
 10
230.1799538135
 20
279.9169088249
 30
0.0
  0
SPLINE
  5
332
100
AcDbEntity
  8
_1
100
AcDbSpline
 62
7
  6
CONTINUOUS
 70
0
 71
3
 72
16
 73
12
 74
0
 42
0.0000001
 43
0.0000001
 44
0.0000000001
 40
0.0
 40
0.0
 40
0.0
 40
0.0
 40
0.138664611
 40
0.2606529084
 40
0.369626694
 40
0.473657907
 40
0.5828701485
 40
0.7052235704
 40
0.772726479
 40
0.8445133344
 40
1.0
 40
1.0
 40
1.0
 40
1.0
 10
230.1799538135
 20
279.9169088249
 30
0.0
 10
230.2922656167
 20
279.9817516876
 30
0.0
 10
230.4933752802
 20
280.123326582
 30
0.0
 10
230.7222591307
 20
280.3882267617
 30
0.0
 10
230.844126239
 20
280.6843842377
 30
0.0
 10
230.8425827908
 20
280.9939714034
 30
0.0
 10
230.7179187426
 20
281.2894422768
 30
0.0
 10
230.5311408676
 20
281.5026811225
 30
0.0
 10
230.339773352
 20
281.6557084716
 30
0.0
 10
230.1066205084
 20
281.8036983942
 30
0.0
 10
229.9110721131
 20
281.8906348706
 30
0.0
 10
229.7741520964
 20
281.9396210033
 30
0.0
  0
SPLINE
  5
333
100
AcDbEntity
  8
_1
100
AcDbSpline
 62
7
  6
CONTINUOUS
 70
0
 71
3
 72
9
 73
5
 74
0
 42
0.0000001
 43
0.0000001
 44
0.0000000001
 40
0.0
 40
0.0
 40
0.0
 40
0.0
 40
0.2600606229
 40
1.0
 40
1.0
 40
1.0
 40
1.0
 10
227.4319938501
 20
281.9495762641
 30
0.0
 10
227.3929648177
 20
281.9360624681
 30
0.0
 10
227.2440424598
 20
281.8808929728
 30
0.0
 10
227.0997319979
 20
281.8127499308
 30
0.0
 10
226.9979600504
 20
281.7539922202
 30
0.0
  0
SPLINE
  5
334
100
AcDbEntity
  8
_1
100
AcDbSpline
 62
7
  6
CONTINUOUS
 70
0
 71
3
 72
12
 73
8
 74
0
 42
0.0000001
 43
0.0000001
 44
0.0000000001
 40
0.0
 40
0.0
 40
0.0
 40
0.0
 40
0.2105930593
 40
0.3261888478
 40
0.4487372438
 40
0.7132822001
 40
1.0
 40
1.0
 40
1.0
 40
1.0
 10
215.475738092
 20
312.5422885088
 30
0.0
 10
215.8457607437
 20
311.9709991698
 30
0.0
 10
216.5599802343
 20
311.1739294957
 30
0.0
 10
217.6963897248
 20
310.2712347978
 30
0.0
 10
219.0681340842
 20
309.395069077
 30
0.0
 10
221.0596130988
 20
308.4872197511
 30
0.0
 10
222.7796083583
 20
307.9980822221
 30
0.0
 10
223.6854334602
 20
307.8025259058
 30
0.0
  0
SPLINE
  5
335
100
AcDbEntity
  8
_1
100
AcDbSpline
 62
7
  6
CONTINUOUS
 70
0
 71
3
 72
17
 73
13
 74
0
 42
0.0000001
 43
0.0000001
 44
0.0000000001
 40
0.0
 40
0.0
 40
0.0
 40
0.0
 40
0.1286914424
 40
0.270275894
 40
0.4174292768
 40
0.5617752962
 40
0.6954478949
 40
0.8127150858
 40
0.8646785489
 40
0.9125125227
 40
0.9571418263
 40
1.0
 40
1.0
 40
1.0
 40
1.0
 10
216.3913141732
 20
285.8363474952
 30
0.0
 10
216.1877442943
 20
285.7188170724
 30
0.0
 10
215.7268420496
 20
285.52864847
 30
0.0
 10
214.9756659303
 20
285.3783722431
 30
0.0
 10
214.1811610264
 20
285.3563546206
 30
0.0
 10
213.4081546828
 20
285.4649753981
 30
0.0
 10
212.7193299257
 20
285.6950684072
 30
0.0
 10
212.2402391226
 20
285.9866683517
 30
0.0
 10
211.9590955685
 20
286.2688441217
 30
0.0
 10
211.8097464796
 20
286.4885265131
 30
0.0
 10
211.7176982316
 20
286.7202430202
 30
0.0
 10
211.6967846047
 20
286.880726792
 30
0.0
 10
211.6967826382
 20
286.9590095703
 30
0.0
  0
SPLINE
  5
336
100
AcDbEntity
  8
_1
100
AcDbSpline
 62
7
  6
CONTINUOUS
 70
0
 71
3
 72
10
 73
6
 74
0
 42
0.0000001
 43
0.0000001
 44
0.0000000001
 40
0.0
 40
0.0
 40
0.0
 40
0.0
 40
0.2316290797
 40
0.4771628687
 40
1.0
 40
1.0
 40
1.0
 40
1.0
 10
237.0742147544
 20
282.0601545094
 30
0.0
 10
236.6727831061
 20
281.8283892227
 30
0.0
 10
235.8160152757
 20
281.401202722
 30
0.0
 10
233.9398569804
 20
280.6983509165
 30
0.0
 10
232.4276236706
 20
280.3662425843
 30
0.0
 10
231.3912470259
 20
280.222526688
 30
0.0
  0
SPLINE
  5
337
100
AcDbEntity
  8
_1
100
AcDbSpline
 62
7
  6
CONTINUOUS
 70
0
 71
3
 72
11
 73
7
 74
0
 42
0.0000001
 43
0.0000001
 44
0.0000000001
 40
0.0
 40
0.0
 40
0.0
 40
0.0
 40
0.2237396927
 40
0.4637615565
 40
0.7223439804
 40
1.0
 40
1.0
 40
1.0
 40
1.0
 10
240.1570580622
 20
285.1172555351
 30
0.0
 10
240.0155659786
 20
284.8209794588
 30
0.0
 10
239.6594025734
 20
284.235655714
 30
0.0
 10
238.9587904582
 20
283.4346408389
 30
0.0
 10
238.0882564999
 20
282.6944882464
 30
0.0
 10
237.4270758318
 20
282.2638777314
 30
0.0
 10
237.0742147544
 20
282.0601545094
 30
0.0
  0
SPLINE
  5
338
100
AcDbEntity
  8
_1
100
AcDbSpline
 62
7
  6
CONTINUOUS
 70
0
 71
3
 72
11
 73
7
 74
0
 42
0.0000001
 43
0.0000001
 44
0.0000000001
 40
0.0
 40
0.0
 40
0.0
 40
0.0
 40
0.2976699746
 40
0.5686197247
 40
0.8038536187
 40
1.0
 40
1.0
 40
1.0
 40
1.0
 10
223.6854334602
 20
307.8025259058
 30
0.0
 10
225.1750945132
 20
306.8933101795
 30
0.0
 10
228.0083690329
 20
305.1362463715
 30
0.0
 10
231.9854982949
 20
302.6074374802
 30
0.0
 10
235.4361743445
 20
300.3604766097
 30
0.0
 10
237.5387176747
 20
298.9546117975
 30
0.0
 10
238.4884342047
 20
298.306143504
 30
0.0
  0
SPLINE
  5
339
100
AcDbEntity
  8
_1
100
AcDbSpline
 62
7
  6
CONTINUOUS
 70
0
 71
3
 72
13
 73
9
 74
0
 42
0.0000001
 43
0.0000001
 44
0.0000000001
 40
0.0
 40
0.0
 40
0.0
 40
0.0
 40
0.4174324388
 40
0.7161244361
 40
0.8238467821
 40
0.9056202523
 40
0.9632768198
 40
1.0
 40
1.0
 40
1.0
 40
1.0
 10
215.475738092
 20
312.5422885088
 30
0.0
 10
215.3585139881
 20
312.5996171903
 30
0.0
 10
215.1561638959
 20
312.6953406293
 30
0.0
 10
214.9188391843
 20
312.7960802707
 30
0.0
 10
214.7747384067
 20
312.846206728
 30
0.0
 10
214.6999037943
 20
312.8665620334
 30
0.0
 10
214.6457321091
 20
312.8748543048
 30
0.0
 10
214.6150788509
 20
312.8724530831
 30
0.0
 10
214.6047441374
 20
312.8674549836
 30
0.0
  0
SPLINE
  5
33A
100
AcDbEntity
  8
_1
100
AcDbSpline
 62
7
  6
CONTINUOUS
 70
0
 71
3
 72
16
 73
12
 74
0
 42
0.0000001
 43
0.0000001
 44
0.0000000001
 40
0.0
 40
0.0
 40
0.0
 40
0.0
 40
0.0431158799
 40
0.0875378877
 40
0.1841206038
 40
0.295464219
 40
0.4220826351
 40
0.5611494716
 40
0.7078007606
 40
0.8561300753
 40
1.0
 40
1.0
 40
1.0
 40
1.0
 10
211.6967780468
 20
288.5920144044
 30
0.0
 10
211.6967785291
 20
288.5255262962
 30
0.0
 10
211.711687701
 20
288.3901000123
 30
0.0
 10
211.8022818412
 20
288.1190714145
 30
0.0
 10
212.0339408459
 20
287.7956946944
 30
0.0
 10
212.4471439311
 20
287.4785779286
 30
0.0
 10
212.9771961647
 20
287.2308197306
 30
0.0
 10
213.5940256726
 20
287.0655387943
 30
0.0
 10
214.2617040098
 20
286.991664122
 30
0.0
 10
214.9402285633
 20
287.0136115683
 30
0.0
 10
215.3858247938
 20
287.0935456427
 30
0.0
 10
215.6001880952
 20
287.1507271106
 30
0.0
  0
SPLINE
  5
33B
100
AcDbEntity
  8
_1
100
AcDbSpline
 62
7
  6
CONTINUOUS
 70
0
 71
3
 72
11
 73
7
 74
0
 42
0.0000001
 43
0.0000001
 44
0.0000000001
 40
0.0
 40
0.0
 40
0.0
 40
0.0
 40
0.237228705
 40
0.5000005261
 40
0.7627720609
 40
1.0
 40
1.0
 40
1.0
 40
1.0
 10
226.4676454203
 20
277.5694620181
 30
0.0
 10
226.7687999317
 20
277.3955943133
 30
0.0
 10
227.4691578911
 20
277.1418531784
 30
0.0
 10
228.588969099
 20
277.0203087251
 30
0.0
 10
229.7087786174
 20
277.1418582886
 30
0.0
 10
230.4091338222
 20
277.3956029011
 30
0.0
 10
230.7102861074
 20
277.5694722162
 30
0.0
  0
SPLINE
  5
33C
100
AcDbEntity
  8
_1
100
AcDbSpline
 62
7
  6
CONTINUOUS
 70
0
 71
3
 72
9
 73
5
 74
0
 42
0.0000001
 43
0.0000001
 44
0.0000000001
 40
0.0
 40
0.0
 40
0.0
 40
0.0
 40
0.5245221438
 40
1.0
 40
1.0
 40
1.0
 40
1.0
 10
243.1465138539
 20
287.0226224278
 30
0.0
 10
243.4255380057
 20
287.0472633771
 30
0.0
 10
243.9545485507
 20
287.1414912323
 30
0.0
 10
244.4556847888
 20
287.3424613855
 30
0.0
 10
244.6755854204
 20
287.4694203165
 30
0.0
  0
SPLINE
  5
33D
100
AcDbEntity
  8
_1
100
AcDbSpline
 62
7
  6
CONTINUOUS
 70
0
 71
3
 72
11
 73
7
 74
0
 42
0.0000001
 43
0.0000001
 44
0.0000000001
 40
0.0
 40
0.0
 40
0.0
 40
0.0
 40
0.2177718384
 40
0.4509299156
 40
0.7102268825
 40
1.0
 40
1.0
 40
1.0
 40
1.0
 10
245.4810134671
 20
286.9590775571
 30
0.0
 10
245.4810160981
 20
286.8543396906
 30
0.0
 10
245.4423336856
 20
286.6360054852
 30
0.0
 10
245.2768153792
 20
286.3318639656
 30
0.0
 10
245.0152272501
 20
286.0568384115
 30
0.0
 10
244.7962810039
 20
285.9060986939
 30
0.0
 10
244.6755854204
 20
285.8364154822
 30
0.0
  0
SPLINE
  5
33E
100
AcDbEntity
  8
_1
100
AcDbSpline
 62
7
  6
CONTINUOUS
 70
0
 71
3
 72
14
 73
10
 74
0
 42
0.0000001
 43
0.0000001
 44
0.0000000001
 40
0.0
 40
0.0
 40
0.0
 40
0.0
 40
0.2970904155
 40
0.4361007306
 40
0.5667845442
 40
0.6883070779
 40
0.8004582187
 40
0.9038293495
 40
1.0
 40
1.0
 40
1.0
 40
1.0
 10
225.7866438338
 20
280.2225145096
 30
0.0
 10
224.7121257486
 20
280.3715150326
 30
0.0
 10
223.1461983449
 20
280.7199337671
 30
0.0
 10
221.2122655988
 20
281.4649371247
 30
0.0
 10
219.9403557939
 20
282.1225871289
 30
0.0
 10
218.8408002954
 20
282.8785886279
 30
0.0
 10
217.935253224
 20
283.7197640348
 30
0.0
 10
217.2428579999
 20
284.6308574127
 30
0.0
 10
216.9256893727
 20
285.2944646744
 30
0.0
 10
216.8128072312
 20
285.626985445
 30
0.0
  0
SPLINE
  5
33F
100
AcDbEntity
  8
_1
100
AcDbSpline
 62
7
  6
CONTINUOUS
 70
0
 71
3
 72
11
 73
7
 74
0
 42
0.0000001
 43
0.0000001
 44
0.0000000001
 40
0.0
 40
0.0
 40
0.0
 40
0.0
 40
0.2177723091
 40
0.4509273687
 40
0.7102218233
 40
1.0
 40
1.0
 40
1.0
 40
1.0
 10
211.4467844814
 20
286.9590095702
 30
0.0
 10
211.4467844828
 20
286.84474844
 30
0.0
 10
211.4889821677
 20
286.6065643333
 30
0.0
 10
211.6695516816
 20
286.2747731404
 30
0.0
 10
211.9549230397
 20
285.9747415617
 30
0.0
 10
212.1937785564
 20
285.8102964618
 30
0.0
 10
212.3254509174
 20
285.7342771085
 30
0.0
  0
SPLINE
  5
340
100
AcDbEntity
  8
_1
100
AcDbSpline
 62
7
  6
CONTINUOUS
 70
0
 71
3
 72
17
 73
13
 74
0
 42
0.0000001
 43
0.0000001
 44
0.0000000001
 40
0.0
 40
0.0
 40
0.0
 40
0.0
 40
0.0428588705
 40
0.0874882997
 40
0.1353223328
 40
0.1872856408
 40
0.3045518466
 40
0.4382226938
 40
0.5825694618
 40
0.7297273024
 40
0.8713109533
 40
1.0
 40
1.0
 40
1.0
 40
1.0
 10
225.8389725497
 20
280.427199314
 30
0.0
 10
225.8389731176
 20
280.3489151225
 30
0.0
 10
225.8598877989
 20
280.1884295417
 30
0.0
 10
225.9519341677
 20
279.9567101183
 30
0.0
 10
226.1012861232
 20
279.7370287398
 30
0.0
 10
226.3824285055
 20
279.4548539792
 30
0.0
 10
226.8615158228
 20
279.1632565185
 30
0.0
 10
227.5503376421
 20
278.9331623467
 30
0.0
 10
228.3233518321
 20
278.8245415735
 30
0.0
 10
229.1178665242
 20
278.8465588354
 30
0.0
 10
229.8690452383
 20
278.9968413158
 30
0.0
 10
230.3299422217
 20
279.1870087933
 30
0.0
 10
230.5335086761
 20
279.3045372391
 30
0.0
  0
SPLINE
  5
341
100
AcDbEntity
  8
_1
100
AcDbSpline
 62
7
  6
CONTINUOUS
 70
0
 71
3
 72
11
 73
7
 74
0
 42
0.0000001
 43
0.0000001
 44
0.0000000001
 40
0.0
 40
0.0
 40
0.0
 40
0.0
 40
0.2875022507
 40
0.5471892705
 40
0.7819963901
 40
1.0
 40
1.0
 40
1.0
 40
1.0
 10
244.6755854204
 20
287.4694203165
 30
0.0
 10
244.7872491724
 20
287.5338890289
 30
0.0
 10
244.9912874523
 20
287.6726618095
 30
0.0
 10
245.2410913779
 20
287.9224001315
 30
0.0
 10
245.410596895
 20
288.1972421755
 30
0.0
 10
245.4653262818
 20
288.3965995344
 30
0.0
 10
245.4757543926
 20
288.4938113068
 30
0.0
  0
SPLINE
  5
342
100
AcDbEntity
  8
_1
100
AcDbSpline
 62
7
  6
CONTINUOUS
 70
0
 71
3
 72
11
 73
7
 74
0
 42
0.0000001
 43
0.0000001
 44
0.0000000001
 40
0.0
 40
0.0
 40
0.0
 40
0.0
 40
0.2897776971
 40
0.5490719787
 40
0.7822272299
 40
1.0
 40
1.0
 40
1.0
 40
1.0
 10
244.8523628517
 20
285.7343552936
 30
0.0
 10
244.9840327503
 20
285.8103744913
 30
0.0
 10
245.2228837341
 20
285.9748189633
 30
0.0
 10
245.5082492965
 20
286.2748483181
 30
0.0
 10
245.6888149041
 20
286.6066362986
 30
0.0
 10
245.7310116253
 20
286.844817657
 30
0.0
 10
245.7310116239
 20
286.9590775572
 30
0.0
  0
SPLINE
  5
343
100
AcDbEntity
  8
_1
100
AcDbSpline
 62
7
  6
CONTINUOUS
 70
0
 71
3
 72
13
 73
9
 74
0
 42
0.0000001
 43
0.0000001
 44
0.0000000001
 40
0.0
 40
0.0
 40
0.0
 40
0.0
 40
0.1080960523
 40
0.2182276641
 40
0.332251058
 40
0.4517047041
 40
0.7105856575
 40
1.0
 40
1.0
 40
1.0
 40
1.0
 10
150.8907945826
 20
306.9444793517
 30
0.0
 10
150.7022515016
 20
307.0533485251
 30
0.0
 10
150.339719983
 20
307.3062716793
 30
0.0
 10
149.8607619278
 20
307.7776893373
 30
0.0
 10
149.4487533314
 20
308.3371689342
 30
0.0
 10
148.9817523493
 20
309.2154162625
 30
0.0
 10
148.5967302323
 20
310.5184223058
 30
0.0
 10
148.5089925247
 20
311.6260890495
 30
0.0
 10
148.5089925247
 20
312.2090022948
 30
0.0
  0
SPLINE
  5
344
100
AcDbEntity
  8
_1
100
AcDbSpline
 62
7
  6
CONTINUOUS
 70
0
 71
3
 72
9
 73
5
 74
0
 42
0.0000001
 43
0.0000001
 44
0.0000000001
 40
0.0
 40
0.0
 40
0.0
 40
0.0
 40
0.4813403182
 40
1.0
 40
1.0
 40
1.0
 40
1.0
 10
200.8728351878
 20
286.5959449698
 30
0.0
 10
200.5873695062
 20
286.7607549294
 30
0.0
 10
199.9306475985
 20
286.9942914769
 30
0.0
 10
199.2413893929
 20
287.0527585515
 30
0.0
 10
198.8864023969
 20
287.0409876527
 30
0.0
  0
SPLINE
  5
345
100
AcDbEntity
  8
_1
100
AcDbSpline
 62
7
  6
CONTINUOUS
 70
0
 71
3
 72
11
 73
7
 74
0
 42
0.0000001
 43
0.0000001
 44
0.0000000001
 40
0.0
 40
0.0
 40
0.0
 40
0.0
 40
0.2399072589
 40
0.4831494364
 40
0.7347125073
 40
1.0
 40
1.0
 40
1.0
 40
1.0
 10
201.7818557959
 20
285.2443804727
 30
0.0
 10
201.7818557959
 20
285.3805321092
 30
0.0
 10
201.7356762488
 20
285.6566245012
 30
0.0
 10
201.5409322813
 20
286.0316993879
 30
0.0
 10
201.2455553688
 20
286.3516764474
 30
0.0
 10
201.0032207008
 20
286.5206685617
 30
0.0
 10
200.8728351878
 20
286.5959449698
 30
0.0
  0
SPLINE
  5
346
100
AcDbEntity
  8
_1
100
AcDbSpline
 62
7
  6
CONTINUOUS
 70
0
 71
3
 72
9
 73
5
 74
0
 42
0.0000001
 43
0.0000001
 44
0.0000000001
 40
0.0
 40
0.0
 40
0.0
 40
0.0
 40
0.5137302264
 40
1.0
 40
1.0
 40
1.0
 40
1.0
 10
167.9272784215
 20
284.2017368853
 30
0.0
 10
167.8705051414
 20
284.1113329851
 30
0.0
 10
167.7800499917
 20
283.9212133691
 30
0.0
 10
167.7476065997
 20
283.7123537895
 30
0.0
 10
167.747606601
 20
283.6113076514
 30
0.0
  0
SPLINE
  5
347
100
AcDbEntity
  8
_1
100
AcDbSpline
 62
7
  6
CONTINUOUS
 70
0
 71
3
 72
11
 73
7
 74
0
 42
0.0000001
 43
0.0000001
 44
0.0000000001
 40
0.0
 40
0.0
 40
0.0
 40
0.0
 40
0.2372279391
 40
0.4999994739
 40
0.762771295
 40
1.0
 40
1.0
 40
1.0
 40
1.0
 10
187.011108227
 20
270.4658591787
 30
0.0
 10
186.7099559418
 20
270.2919898636
 30
0.0
 10
186.009600737
 20
270.038245251
 30
0.0
 10
184.8897912186
 20
269.9166956876
 30
0.0
 10
183.7699800107
 20
270.0382401408
 30
0.0
 10
183.0696220513
 20
270.2919812758
 30
0.0
 10
182.7684675399
 20
270.4658489806
 30
0.0
  0
SPLINE
  5
348
100
AcDbEntity
  8
_1
100
AcDbSpline
 62
7
  6
CONTINUOUS
 70
0
 71
3
 72
11
 73
7
 74
0
 42
0.0000001
 43
0.0000001
 44
0.0000000001
 40
0.0
 40
0.0
 40
0.0
 40
0.0
 40
0.2712069725
 40
0.5240111467
 40
0.7645504564
 40
1.0
 40
1.0
 40
1.0
 40
1.0
 10
183.3713184845
 20
278.5904380429
 30
0.0
 10
183.1996582484
 20
278.5182538815
 30
0.0
 10
182.8790440282
 20
278.3488647513
 30
0.0
 10
182.477864478
 20
278.001452086
 30
0.0
 10
182.2059753827
 20
277.5709880723
 30
0.0
 10
182.1397790516
 20
277.2411648897
 30
0.0
 10
182.1397790516
 20
277.0794973953
 30
0.0
  0
SPLINE
  5
349
100
AcDbEntity
  8
_1
100
AcDbSpline
 62
7
  6
CONTINUOUS
 70
0
 71
3
 72
11
 73
7
 74
0
 42
0.0000001
 43
0.0000001
 44
0.0000000001
 40
0.0
 40
0.0
 40
0.0
 40
0.0
 40
0.2399072589
 40
0.4831494364
 40
0.7347125073
 40
1.0
 40
1.0
 40
1.0
 40
1.0
 10
187.6397790516
 20
277.0794973953
 30
0.0
 10
187.6397790516
 20
277.2156490318
 30
0.0
 10
187.5935995045
 20
277.4917414238
 30
0.0
 10
187.3988555371
 20
277.8668163104
 30
0.0
 10
187.1034786245
 20
278.18679337
 30
0.0
 10
186.8611439566
 20
278.3557854843
 30
0.0
 10
186.7307584436
 20
278.4310618923
 30
0.0
  0
SPLINE
  5
34A
100
AcDbEntity
  8
_1
100
AcDbSpline
 62
7
  6
CONTINUOUS
 70
0
 71
3
 72
11
 73
7
 74
0
 42
0.0000001
 43
0.0000001
 44
0.0000000001
 40
0.0
 40
0.0
 40
0.0
 40
0.0
 40
0.2897781767
 40
0.5490726313
 40
0.7822276909
 40
1.0
 40
1.0
 40
1.0
 40
1.0
 10
168.626273037
 20
278.630664071
 30
0.0
 10
168.4946006761
 20
278.7066834243
 30
0.0
 10
168.2557451593
 20
278.8711285241
 30
0.0
 10
167.9703738012
 20
279.1711601029
 30
0.0
 10
167.7898042873
 20
279.5029512958
 30
0.0
 10
167.7476066025
 20
279.7411354025
 30
0.0
 10
167.747606601
 20
279.8553965326
 30
0.0
  0
SPLINE
  5
34B
100
AcDbEntity
  8
_1
100
AcDbSpline
 62
7
  6
CONTINUOUS
 70
0
 71
3
 72
21
 73
17
 74
0
 42
0.0000001
 43
0.0000001
 44
0.0000000001
 40
0.0
 40
0.0
 40
0.0
 40
0.0
 40
0.0624083333
 40
0.1287801683
 40
0.198401542
 40
0.2704096534
 40
0.4174498648
 40
0.5616832559
 40
0.6303106211
 40
0.6954264326
 40
0.7564002257
 40
0.8128617087
 40
0.8647845585
 40
0.9125800424
 40
0.9571739011
 40
1.0
 40
1.0
 40
1.0
 40
1.0
 10
148.5089925247
 20
312.2090022948
 30
0.0
 10
148.5089925247
 20
312.6860752243
 30
0.0
 10
148.5736409511
 20
313.6711791214
 30
0.0
 10
148.839574052
 20
315.1668881936
 30
0.0
 10
149.2720047088
 20
316.6996102551
 30
0.0
 10
150.0634859148
 20
318.7621650875
 30
0.0
 10
151.3920073312
 20
321.2166306368
 30
0.0
 10
153.0946604015
 20
323.3971802426
 30
0.0
 10
154.6272298697
 20
324.8735280741
 30
0.0
 10
155.8016227735
 20
325.7928983988
 30
0.0
 10
156.9949944642
 20
326.5230077766
 30
0.0
 10
158.1832193665
 20
327.0481515871
 30
0.0
 10
159.3426187188
 20
327.3561988631
 30
0.0
 10
160.4504390433
 20
327.4377581955
 30
0.0
 10
161.4820806586
 20
327.2865658398
 30
0.0
 10
162.1070692344
 20
327.0268457692
 30
0.0
 10
162.3905787226
 20
326.8631407769
 30
0.0
  0
SPLINE
  5
34C
100
AcDbEntity
  8
_1
100
AcDbSpline
 62
7
  6
CONTINUOUS
 70
0
 71
3
 72
9
 73
5
 74
0
 42
0.0000001
 43
0.0000001
 44
0.0000000001
 40
0.0
 40
0.0
 40
0.0
 40
0.0
 40
0.48626979
 40
1.0
 40
1.0
 40
1.0
 40
1.0
 10
202.0318337435
 20
283.6113756384
 30
0.0
 10
202.0318337422
 20
283.7124216915
 30
0.0
 10
201.9993904184
 20
283.9212810892
 30
0.0
 10
201.9089354047
 20
284.1114005626
 30
0.0
 10
201.8521622152
 20
284.2018044055
 30
0.0
  0
SPLINE
  5
34D
100
AcDbEntity
  8
_1
100
AcDbSpline
 62
7
  6
CONTINUOUS
 70
0
 71
3
 72
11
 73
7
 74
0
 42
0.0000001
 43
0.0000001
 44
0.0000000001
 40
0.0
 40
0.0
 40
0.0
 40
0.0
 40
0.2177727701
 40
0.4509280213
 40
0.7102223029
 40
1.0
 40
1.0
 40
1.0
 40
1.0
 10
202.0318337435
 20
279.8554645196
 30
0.0
 10
202.031833745
 20
279.7412046195
 30
0.0
 10
201.9896370237
 20
279.503023261
 30
0.0
 10
201.8090714161
 20
279.1712352806
 30
0.0
 10
201.5237058537
 20
278.8712059258
 30
0.0
 10
201.2848548699
 20
278.7067614537
 30
0.0
 10
201.1531849713
 20
278.6307422561
 30
0.0
  0
SPLINE
  5
34E
100
AcDbEntity
  8
_1
100
AcDbSpline
 62
7
  6
CONTINUOUS
 70
0
 71
3
 72
11
 73
7
 74
0
 42
0.0000001
 43
0.0000001
 44
0.0000000001
 40
0.0
 40
0.0
 40
0.0
 40
0.0
 40
0.2315428529
 40
0.4712042066
 40
0.7257832453
 40
1.0
 40
1.0
 40
1.0
 40
1.0
 10
198.88971375
 20
286.5507503465
 30
0.0
 10
198.8897146029
 20
286.1851048212
 30
0.0
 10
198.8006127725
 20
285.4382806756
 30
0.0
 10
198.4069300311
 20
284.3526004513
 30
0.0
 10
197.7650763916
 20
283.3140723174
 30
0.0
 10
197.2040273048
 20
282.6896833534
 30
0.0
 10
196.891857241
 20
282.3895682918
 30
0.0
  0
SPLINE
  5
34F
100
AcDbEntity
  8
_1
100
AcDbSpline
 62
7
  6
CONTINUOUS
 70
0
 71
3
 72
16
 73
12
 74
0
 42
0.0000001
 43
0.0000001
 44
0.0000000001
 40
0.0
 40
0.0
 40
0.0
 40
0.0
 40
0.1041815057
 40
0.1611879437
 40
0.2211655572
 40
0.3485278472
 40
0.4827862061
 40
0.6195526553
 40
0.7541696261
 40
0.8822093867
 40
1.0
 40
1.0
 40
1.0
 40
1.0
 10
196.891857241
 20
282.3895682918
 30
0.0
 10
196.3115950045
 20
281.8317139137
 30
0.0
 10
195.2952834042
 20
281.0882367408
 30
0.0
 10
193.7851189339
 20
280.286938724
 30
0.0
 10
192.0428771554
 20
279.5533026972
 30
0.0
 10
189.6416965662
 20
278.8755308848
 30
0.0
 10
186.5831154536
 20
278.4587338815
 30
0.0
 10
183.4403017312
 20
278.4429288416
 30
0.0
 10
180.369054742
 20
278.8291219338
 30
0.0
 10
177.5220297762
 20
279.5976654986
 30
0.0
 10
175.7784167871
 20
280.3803036779
 30
0.0
 10
174.9902664513
 20
280.8353321924
 30
0.0
  0
SPLINE
  5
350
100
AcDbEntity
  8
_1
100
AcDbSpline
 62
7
  6
CONTINUOUS
 70
0
 71
3
 72
17
 73
13
 74
0
 42
0.0000001
 43
0.0000001
 44
0.0000000001
 40
0.0
 40
0.0
 40
0.0
 40
0.0
 40
0.0428568436
 40
0.0874852056
 40
0.1353189506
 40
0.1872821807
 40
0.3045481592
 40
0.4382177907
 40
0.5825620028
 40
0.7297179244
 40
0.8713061778
 40
1.0
 40
1.0
 40
1.0
 40
1.0
 10
187.6397604702
 20
275.44649256
 30
0.0
 10
187.6397598444
 20
275.3682124758
 30
0.0
 10
187.6188417754
 20
275.2077342773
 30
0.0
 10
187.5268054411
 20
274.9760194718
 30
0.0
 10
187.3774560358
 20
274.7563406266
 30
0.0
 10
187.0963193139
 20
274.4741651256
 30
0.0
 10
186.6172395236
 20
274.1825657983
 30
0.0
 10
185.9284307132
 20
273.9524680741
 30
0.0
 10
185.1554317721
 20
273.8438418984
 30
0.0
 10
184.360921181
 20
273.8658512985
 30
0.0
 10
183.6097299926
 20
274.0161213943
 30
0.0
 10
183.1488173022
 20
274.2062904069
 30
0.0
 10
182.9452434992
 20
274.3238211379
 30
0.0
  0
SPLINE
  5
351
100
AcDbEntity
  8
_1
100
AcDbSpline
 62
7
  6
CONTINUOUS
 70
0
 71
3
 72
11
 73
7
 74
0
 42
0.0000001
 43
0.0000001
 44
0.0000000001
 40
0.0
 40
0.0
 40
0.0
 40
0.0
 40
0.2897785432
 40
0.5490732813
 40
0.7822301847
 40
1.0
 40
1.0
 40
1.0
 40
1.0
 10
182.9452434992
 20
274.3238211379
 30
0.0
 10
182.824543497
 20
274.3935057402
 30
0.0
 10
182.605591536
 20
274.5442467894
 30
0.0
 10
182.343999279
 20
274.8192762782
 30
0.0
 10
182.1784757399
 20
275.1234182284
 30
0.0
 10
182.1397967957
 20
275.3417542312
 30
0.0
 10
182.139797633
 20
275.4464925621
 30
0.0
  0
SPLINE
  5
352
100
AcDbEntity
  8
_1
100
AcDbSpline
 62
7
  6
CONTINUOUS
 70
0
 71
3
 72
11
 73
7
 74
0
 42
0.0000001
 43
0.0000001
 44
0.0000000001
 40
0.0
 40
0.0
 40
0.0
 40
0.0
 40
0.2177761591
 40
0.4509341948
 40
0.7102264624
 40
1.0
 40
1.0
 40
1.0
 40
1.0
 10
182.1397946694
 20
277.0794973952
 30
0.0
 10
182.1397939126
 20
276.9747558457
 30
0.0
 10
182.1784720925
 20
276.7564150706
 30
0.0
 10
182.344004534
 20
276.4522743161
 30
0.0
 10
182.605594692
 20
276.1772470069
 30
0.0
 10
182.8245453887
 20
276.0265094823
 30
0.0
 10
182.9452434992
 20
275.9568259721
 30
0.0
  0
SPLINE
  5
353
100
AcDbEntity
  8
_1
100
AcDbSpline
 62
7
  6
CONTINUOUS
 70
0
 71
3
 72
17
 73
13
 74
0
 42
0.0000001
 43
0.0000001
 44
0.0000000001
 40
0.0
 40
0.0
 40
0.0
 40
0.0
 40
0.1286894515
 40
0.2702733052
 40
0.4174311564
 40
0.5617777971
 40
0.695448455
 40
0.8127144874
 40
0.8646777338
 40
0.9125117275
 40
0.9571411369
 40
1.0
 40
1.0
 40
1.0
 40
1.0
 10
182.9452434992
 20
275.9568259721
 30
0.0
 10
183.148810751
 20
275.8392990234
 30
0.0
 10
183.6097081746
 20
275.6491343729
 30
0.0
 10
184.3608860224
 20
275.498855223
 30
0.0
 10
185.155398217
 20
275.4768405861
 30
0.0
 10
185.9284089139
 20
275.5854630402
 30
0.0
 10
186.6172269548
 20
275.8155578875
 30
0.0
 10
187.0963112616
 20
276.1071551
 30
0.0
 10
187.37745172
 20
276.3893291512
 30
0.0
 10
187.526802639
 20
276.6090098676
 30
0.0
 10
187.6188483348
 20
276.8407285016
 30
0.0
 10
187.6397628681
 20
277.0012134829
 30
0.0
 10
187.6397634338
 20
277.0794973953
 30
0.0
  0
SPLINE
  5
354
100
AcDbEntity
  8
_1
100
AcDbSpline
 62
7
  6
CONTINUOUS
 70
0
 71
3
 72
19
 73
15
 74
0
 42
0.0000001
 43
0.0000001
 44
0.0000000001
 40
0.0
 40
0.0
 40
0.0
 40
0.0
 40
0.1379053444
 40
0.2906309588
 40
0.4443371716
 40
0.5848663897
 40
0.6470427481
 40
0.7029991728
 40
0.7532676969
 40
0.7995239583
 40
0.844520597
 40
0.8914047915
 40
0.9427376226
 40
1.0
 40
1.0
 40
1.0
 40
1.0
 10
183.2987954178
 20
276.5691992576
 30
0.0
 10
183.516974822
 20
276.4432361696
 30
0.0
 10
184.0228630281
 20
276.2567942957
 30
0.0
 10
184.8344575883
 20
276.1595231176
 30
0.0
 10
185.6534570002
 20
276.2343574885
 30
0.0
 10
186.2800701558
 20
276.4410897288
 30
0.0
 10
186.6837323388
 20
276.69086101
 30
0.0
 10
186.9119866942
 20
276.9004868714
 30
0.0
 10
187.0693232526
 20
277.1342286719
 30
0.0
 10
187.1470364865
 20
277.3853746955
 30
0.0
 10
187.1380508592
 20
277.6423902414
 30
0.0
 10
187.0433598392
 20
277.8907353198
 30
0.0
 10
186.8708546862
 20
278.1200444103
 30
0.0
 10
186.717989624
 20
278.2489018252
 30
0.0
 10
186.63258418
 20
278.3093083441
 30
0.0
  0
SPLINE
  5
355
100
AcDbEntity
  8
_1
100
AcDbSpline
 62
7
  6
CONTINUOUS
 70
0
 71
3
 72
9
 73
5
 74
0
 42
0.0000001
 43
0.0000001
 44
0.0000000001
 40
0.0
 40
0.0
 40
0.0
 40
0.0
 40
0.2453059442
 40
1.0
 40
1.0
 40
1.0
 40
1.0
 10
186.63258418
 20
278.3093083441
 30
0.0
 10
186.6205548074
 20
278.3178166135
 30
0.0
 10
186.5710961052
 20
278.3519040472
 30
0.0
 10
186.5200201556
 20
278.3836331518
 30
0.0
 10
186.4807626853
 20
278.4062979501
 30
0.0
  0
SPLINE
  5
356
100
AcDbEntity
  8
_1
100
AcDbSpline
 62
7
  6
CONTINUOUS
 70
0
 71
3
 72
16
 73
12
 74
0
 42
0.0000001
 43
0.0000001
 44
0.0000000001
 40
0.0
 40
0.0
 40
0.0
 40
0.0
 40
0.1553450713
 40
0.2270567807
 40
0.294489129
 40
0.4167383547
 40
0.5259269098
 40
0.6300237814
 40
0.7391164592
 40
0.8612323348
 40
1.0
 40
1.0
 40
1.0
 40
1.0
 10
183.6975150527
 20
278.5893801988
 30
0.0
 10
183.56121087
 20
278.5402131626
 30
0.0
 10
183.3665986994
 20
278.4530660878
 30
0.0
 10
183.1347095871
 20
278.3049550902
 30
0.0
 10
182.9444889078
 20
278.1519097137
 30
0.0
 10
182.7590094906
 20
277.938774122
 30
0.0
 10
182.6357086999
 20
277.6437227722
 30
0.0
 10
182.6350792703
 20
277.3348359624
 30
0.0
 10
182.7572448233
 20
277.0394481977
 30
0.0
 10
182.9859298972
 20
276.7752019739
 30
0.0
 10
183.1866982792
 20
276.6339171067
 30
0.0
 10
183.2987954178
 20
276.5691992576
 30
0.0
  0
SPLINE
  5
357
100
AcDbEntity
  8
_1
100
AcDbSpline
 62
7
  6
CONTINUOUS
 70
0
 71
3
 72
11
 73
7
 74
0
 42
0.0000001
 43
0.0000001
 44
0.0000000001
 40
0.0
 40
0.0
 40
0.0
 40
0.0
 40
0.243165747
 40
0.505955822
 40
0.7655357284
 40
1.0
 40
1.0
 40
1.0
 40
1.0
 10
172.4874878536
 20
282.3818148703
 30
0.0
 10
172.2087344643
 20
282.2503323428
 30
0.0
 10
171.5868660103
 20
282.0635340064
 30
0.0
 10
170.6128064369
 20
281.9915832173
 30
0.0
 10
169.6553258415
 20
282.1170428848
 30
0.0
 10
169.0604136117
 20
282.3400500597
 30
0.0
 10
168.8030489963
 20
282.4886362283
 30
0.0
  0
SPLINE
  5
358
100
AcDbEntity
  8
_1
100
AcDbSpline
 62
7
  6
CONTINUOUS
 70
0
 71
3
 72
11
 73
7
 74
0
 42
0.0000001
 43
0.0000001
 44
0.0000000001
 40
0.0
 40
0.0
 40
0.0
 40
0.0
 40
0.2776563166
 40
0.5362388636
 40
0.776260632
 40
1.0
 40
1.0
 40
1.0
 40
1.0
 10
176.4044741257
 20
278.7124117985
 30
0.0
 10
176.0516059233
 20
278.9161357413
 30
0.0
 10
175.3904118046
 20
279.3467483947
 30
0.0
 10
174.5198596416
 20
280.0869067564
 30
0.0
 10
173.8192327856
 20
280.8879293789
 30
0.0
 10
173.4630618419
 20
281.4732599062
 30
0.0
 10
173.3215668946
 20
281.7695395297
 30
0.0
  0
SPLINE
  5
359
100
AcDbEntity
  8
_1
100
AcDbSpline
 62
7
  6
CONTINUOUS
 70
0
 71
3
 72
10
 73
6
 74
0
 42
0.0000001
 43
0.0000001
 44
0.0000000001
 40
0.0
 40
0.0
 40
0.0
 40
0.0
 40
0.5228368037
 40
0.7683706967
 40
1.0
 40
1.0
 40
1.0
 40
1.0
 10
182.0874879265
 20
276.8748085838
 30
0.0
 10
181.0511048116
 20
277.0185190483
 30
0.0
 10
179.5388608814
 20
277.3506203144
 30
0.0
 10
177.6626867661
 20
278.0534643114
 30
0.0
 10
176.8059102569
 20
278.4806477833
 30
0.0
 10
176.4044741257
 20
278.7124117985
 30
0.0
  0
SPLINE
  5
35A
100
AcDbEntity
  8
_1
100
AcDbSpline
 62
7
  6
CONTINUOUS
 70
0
 71
3
 72
9
 73
5
 74
0
 42
0.0000001
 43
0.0000001
 44
0.0000000001
 40
0.0
 40
0.0
 40
0.0
 40
0.0
 40
0.4754781776
 40
1.0
 40
1.0
 40
1.0
 40
1.0
 10
168.8030489963
 20
284.1216410625
 30
0.0
 10
169.022954189
 20
283.9946816125
 30
0.0
 10
169.5240999899
 20
283.7937121204
 30
0.0
 10
170.0531198033
 20
283.6994873031
 30
0.0
 10
170.3321484556
 20
283.6748486308
 30
0.0
  0
SPLINE
  5
35B
100
AcDbEntity
  8
_1
100
AcDbSpline
 62
7
  6
CONTINUOUS
 70
0
 71
3
 72
16
 73
12
 74
0
 42
0.0000001
 43
0.0000001
 44
0.0000000001
 40
0.0
 40
0.0
 40
0.0
 40
0.0
 40
0.14381898
 40
0.292129422
 40
0.4387865968
 40
0.5778740938
 40
0.7045169128
 40
0.8158786662
 40
0.9124669546
 40
0.9568873722
 40
1.0
 40
1.0
 40
1.0
 40
1.0
 10
197.8749338839
 20
283.8040275181
 30
0.0
 10
198.0893357921
 20
283.7466253721
 30
0.0
 10
198.5351151454
 20
283.6662977045
 30
0.0
 10
199.2140582312
 20
283.6438988588
 30
0.0
 10
199.8823123079
 20
283.7174577448
 30
0.0
 10
200.4997848896
 20
283.8825708593
 30
0.0
 10
201.0304606437
 20
284.1303060706
 30
0.0
 10
201.4441927041
 20
284.4475247387
 30
0.0
 10
201.6761828621
 20
284.771097606
 30
0.0
 10
201.7669088597
 20
285.0423207131
 30
0.0
 10
201.7818396973
 20
285.1778455692
 30
0.0
 10
201.781840178
 20
285.2443804727
 30
0.0
  0
SPLINE
  5
35C
100
AcDbEntity
  8
_1
100
AcDbSpline
 62
7
  6
CONTINUOUS
 70
0
 71
3
 72
14
 73
10
 74
0
 42
0.0000001
 43
0.0000001
 44
0.0000000001
 40
0.0
 40
0.0
 40
0.0
 40
0.0
 40
0.0961870964
 40
0.1995783355
 40
0.3117461676
 40
0.4332771221
 40
0.5639590851
 40
0.7029572474
 40
1.0
 40
1.0
 40
1.0
 40
1.0
 10
196.6638296847
 20
282.2734603583
 30
0.0
 10
196.550533435
 20
281.9412281691
 30
0.0
 10
196.2326875352
 20
281.2782823402
 30
0.0
 10
195.5397595614
 20
280.368191687
 30
0.0
 10
194.6340792748
 20
279.5279720231
 30
0.0
 10
193.5347529056
 20
278.7728450881
 30
0.0
 10
192.263397366
 20
278.1159576177
 30
0.0
 10
190.3306440238
 20
277.3718167108
 30
0.0
 10
188.765823935
 20
277.0237269241
 30
0.0
 10
187.6920904876
 20
276.8748286865
 30
0.0
  0
SPLINE
  5
35D
100
AcDbEntity
  8
_1
100
AcDbSpline
 62
7
  6
CONTINUOUS
 70
0
 71
3
 72
19
 73
15
 74
0
 42
0.0000001
 43
0.0000001
 44
0.0000000001
 40
0.0
 40
0.0
 40
0.0
 40
0.0
 40
0.1561191104
 40
0.3133855756
 40
0.4609290557
 40
0.5901610788
 40
0.6468542879
 40
0.6985308558
 40
0.7463733399
 40
0.7923022205
 40
0.8386875495
 40
0.8877723733
 40
0.9412340923
 40
1.0
 40
1.0
 40
1.0
 40
1.0
 10
198.2379391054
 20
284.4371668365
 30
0.0
 10
198.4734327486
 20
284.3858916412
 30
0.0
 10
198.9577657403
 20
284.3319842525
 30
0.0
 10
199.6714384261
 20
284.3840791104
 30
0.0
 10
200.3221150066
 20
284.5612503683
 30
0.0
 10
200.7808653086
 20
284.8116377804
 30
0.0
 10
201.0493400596
 20
285.0644803765
 30
0.0
 10
201.1891430395
 20
285.2634160037
 30
0.0
 10
201.2712125472
 20
285.4751798677
 30
0.0
 10
201.2911597219
 20
285.6936389941
 30
0.0
 10
201.2475585734
 20
285.9104677857
 30
0.0
 10
201.1433561618
 20
286.1180611656
 30
0.0
 10
200.9831709197
 20
286.3109859302
 30
0.0
 10
200.8487276645
 20
286.4218046681
 30
0.0
 10
200.7746609243
 20
286.4741914215
 30
0.0
  0
SPLINE
  5
35E
100
AcDbEntity
  8
_1
100
AcDbSpline
 62
7
  6
CONTINUOUS
 70
0
 71
3
 72
9
 73
5
 74
0
 42
0.0000001
 43
0.0000001
 44
0.0000000001
 40
0.0
 40
0.0
 40
0.0
 40
0.0
 40
0.2453059442
 40
1.0
 40
1.0
 40
1.0
 40
1.0
 10
200.7746609243
 20
286.4741914215
 30
0.0
 10
200.7626315516
 20
286.4826996909
 30
0.0
 10
200.7131728494
 20
286.5167871246
 30
0.0
 10
200.6620968999
 20
286.5485162292
 30
0.0
 10
200.6228394296
 20
286.5711810275
 30
0.0
  0
SPLINE
  5
35F
100
AcDbEntity
  8
_1
100
AcDbSpline
 62
7
  6
CONTINUOUS
 70
0
 71
3
 72
10
 73
6
 74
0
 42
0.0000001
 43
0.0000001
 44
0.0000000001
 40
0.0
 40
0.0
 40
0.0
 40
0.0
 40
0.2281265147
 40
0.4753426092
 40
1.0
 40
1.0
 40
1.0
 40
1.0
 10
200.6228394296
 20
286.5711810275
 30
0.0
 10
200.5045870315
 20
286.6394525368
 30
0.0
 10
200.2442822058
 20
286.7583332426
 30
0.0
 10
199.6675204219
 20
286.9231144515
 30
0.0
 10
199.2004740619
 20
286.9606473076
 30
0.0
 10
198.8866585293
 20
286.9489311664
 30
0.0
  0
SPLINE
  5
360
100
AcDbEntity
  8
_1
100
AcDbSpline
 62
7
  6
CONTINUOUS
 70
0
 71
3
 72
12
 73
8
 74
0
 42
0.0000001
 43
0.0000001
 44
0.0000000001
 40
0.0
 40
0.0
 40
0.0
 40
0.0
 40
0.2867181502
 40
0.551263136
 40
0.6738114606
 40
0.789407145
 40
1.0
 40
1.0
 40
1.0
 40
1.0
 10
189.7932939555
 20
304.4548475603
 30
0.0
 10
190.6991157073
 20
304.6504081169
 30
0.0
 10
192.4191030265
 20
305.1395535084
 30
0.0
 10
194.4105697695
 20
306.0474125721
 30
0.0
 10
195.7823019367
 20
306.92358514
 30
0.0
 10
196.9186985016
 20
307.8262853265
 30
0.0
 10
197.6329066893
 20
308.6233587257
 30
0.0
 10
198.0029209634
 20
309.1946496305
 30
0.0
  0
SPLINE
  5
361
100
AcDbEntity
  8
_1
100
AcDbSpline
 62
7
  6
CONTINUOUS
 70
0
 71
3
 72
11
 73
7
 74
0
 42
0.0000001
 43
0.0000001
 44
0.0000000001
 40
0.0
 40
0.0
 40
0.0
 40
0.0
 40
0.2897785432
 40
0.5490732813
 40
0.7822301847
 40
1.0
 40
1.0
 40
1.0
 40
1.0
 10
168.8030489963
 20
282.4886362283
 30
0.0
 10
168.682348994
 20
282.5583208306
 30
0.0
 10
168.463397033
 20
282.7090618798
 30
0.0
 10
168.2018047761
 20
282.9840913686
 30
0.0
 10
168.0362812369
 20
283.2882333188
 30
0.0
 10
167.9976022927
 20
283.5065693216
 30
0.0
 10
167.99760313
 20
283.6113076525
 30
0.0
  0
SPLINE
  5
362
100
AcDbEntity
  8
_1
100
AcDbSpline
 62
7
  6
CONTINUOUS
 70
0
 71
3
 72
11
 73
7
 74
0
 42
0.0000001
 43
0.0000001
 44
0.0000000001
 40
0.0
 40
0.0
 40
0.0
 40
0.0
 40
0.2177723091
 40
0.4509273687
 40
0.7102218233
 40
1.0
 40
1.0
 40
1.0
 40
1.0
 10
167.747606601
 20
283.6113076514
 30
0.0
 10
167.7476066025
 20
283.4970465213
 30
0.0
 10
167.7898042873
 20
283.2588624146
 30
0.0
 10
167.9703738012
 20
282.9270712217
 30
0.0
 10
168.2557451593
 20
282.6270396429
 30
0.0
 10
168.4946006761
 20
282.4625945431
 30
0.0
 10
168.626273037
 20
282.3865751898
 30
0.0
  0
SPLINE
  5
363
100
AcDbEntity
  8
_1
100
AcDbSpline
 62
7
  6
CONTINUOUS
 70
0
 71
3
 72
11
 73
7
 74
0
 42
0.0000001
 43
0.0000001
 44
0.0000000001
 40
0.0
 40
0.0
 40
0.0
 40
0.0
 40
0.2180031701
 40
0.4528101334
 40
0.7124973213
 40
1.0
 40
1.0
 40
1.0
 40
1.0
 10
168.0028639694
 20
285.1460401402
 30
0.0
 10
168.0132923265
 20
285.0488273246
 30
0.0
 10
168.0680229834
 20
284.8494677604
 30
0.0
 10
168.2375321086
 20
284.5746232268
 30
0.0
 10
168.48734105
 20
284.3248831732
 30
0.0
 10
168.6913831733
 20
284.186109897
 30
0.0
 10
168.8030489963
 20
284.1216410625
 30
0.0
  0
SPLINE
  5
364
100
AcDbEntity
  8
_1
100
AcDbSpline
 62
7
  6
CONTINUOUS
 70
0
 71
3
 72
17
 73
13
 74
0
 42
0.0000001
 43
0.0000001
 44
0.0000000001
 40
0.0
 40
0.0
 40
0.0
 40
0.0
 40
0.0428568436
 40
0.0874852056
 40
0.1353189506
 40
0.1872821807
 40
0.3045481592
 40
0.4382177907
 40
0.5825620028
 40
0.7297179244
 40
0.8713061778
 40
1.0
 40
1.0
 40
1.0
 40
1.0
 10
201.7818372144
 20
283.6113756374
 30
0.0
 10
201.7818365886
 20
283.5330955532
 30
0.0
 10
201.7609185197
 20
283.3726173547
 30
0.0
 10
201.6688821854
 20
283.1409025492
 30
0.0
 10
201.5195327801
 20
282.921223704
 30
0.0
 10
201.2383960581
 20
282.639048203
 30
0.0
 10
200.7593162678
 20
282.3474488757
 30
0.0
 10
200.0705074574
 20
282.1173511515
 30
0.0
 10
199.2975085163
 20
282.0087249758
 30
0.0
 10
198.5029979253
 20
282.0307343759
 30
0.0
 10
197.7518067369
 20
282.1810044718
 30
0.0
 10
197.2908940464
 20
282.3711734843
 30
0.0
 10
197.0873202435
 20
282.4887042153
 30
0.0
  0
SPLINE
  5
365
100
AcDbEntity
  8
_1
100
AcDbSpline
 62
7
  6
CONTINUOUS
 70
0
 71
3
 72
11
 73
7
 74
0
 42
0.0000001
 43
0.0000001
 44
0.0000000001
 40
0.0
 40
0.0
 40
0.0
 40
0.0
 40
0.2897776971
 40
0.5490719787
 40
0.7822272299
 40
1.0
 40
1.0
 40
1.0
 40
1.0
 10
201.1531849713
 20
282.3866533749
 30
0.0
 10
201.2848548699
 20
282.4626725725
 30
0.0
 10
201.5237058537
 20
282.6271170446
 30
0.0
 10
201.8090714161
 20
282.9271463994
 30
0.0
 10
201.9896370237
 20
283.2589343798
 30
0.0
 10
202.031833745
 20
283.4971157383
 30
0.0
 10
202.0318337435
 20
283.6113756384
 30
0.0
  0
SPLINE
  5
366
100
AcDbEntity
  8
_1
100
AcDbSpline
 62
7
  6
CONTINUOUS
 70
0
 71
3
 72
11
 73
7
 74
0
 42
0.0000001
 43
0.0000001
 44
0.0000000001
 40
0.0
 40
0.0
 40
0.0
 40
0.0
 40
0.237228705
 40
0.5000005261
 40
0.7627720609
 40
1.0
 40
1.0
 40
1.0
 40
1.0
 10
182.7684675399
 20
274.2217600994
 30
0.0
 10
183.0696220513
 20
274.0478923946
 30
0.0
 10
183.7699800107
 20
273.7941512596
 30
0.0
 10
184.8897912186
 20
273.6726068064
 30
0.0
 10
186.009600737
 20
273.7941563698
 30
0.0
 10
186.7099559418
 20
274.0479009824
 30
0.0
 10
187.011108227
 20
274.2217702975
 30
0.0
  0
SPLINE
  5
367
100
AcDbEntity
  8
_1
100
AcDbSpline
 62
7
  6
CONTINUOUS
 70
0
 71
3
 72
11
 73
7
 74
0
 42
0.0000001
 43
0.0000001
 44
0.0000000001
 40
0.0
 40
0.0
 40
0.0
 40
0.0
 40
0.2976698654
 40
0.5686195213
 40
0.8038531659
 40
1.0
 40
1.0
 40
1.0
 40
1.0
 10
189.7932939555
 20
304.4548475603
 30
0.0
 10
188.3036336652
 20
303.5456223071
 30
0.0
 10
185.4706930247
 20
301.7880028406
 30
0.0
 10
181.4934749233
 20
299.2593220917
 30
0.0
 10
178.0425495846
 20
297.0127196438
 30
0.0
 10
175.9399882571
 20
295.6068650562
 30
0.0
 10
174.9902664513
 20
294.9583939943
 30
0.0
  0
SPLINE
  5
368
100
AcDbEntity
  8
_1
100
AcDbSpline
 62
7
  6
CONTINUOUS
 70
0
 71
3
 72
13
 73
9
 74
0
 42
0.0000001
 43
0.0000001
 44
0.0000000001
 40
0.0
 40
0.0
 40
0.0
 40
0.0
 40
0.4174408112
 40
0.716162315
 40
0.8239575443
 40
0.9058034248
 40
0.9634516369
 40
1.0
 40
1.0
 40
1.0
 40
1.0
 10
198.0029209634
 20
309.1946496305
 30
0.0
 10
198.1201270091
 20
309.2519713204
 30
0.0
 10
198.3222657967
 20
309.3480546581
 30
0.0
 10
198.5595020701
 20
309.4490455979
 30
0.0
 10
198.7037651341
 20
309.4987986849
 30
0.0
 10
198.7786935511
 20
309.5189374543
 30
0.0
 10
198.8328034408
 20
309.5271934809
 30
0.0
 10
198.8633943384
 20
309.5250041368
 30
0.0
 10
198.873709522
 20
309.5200961107
 30
0.0
  0
SPLINE
  5
369
100
AcDbEntity
  8
_1
100
AcDbSpline
 62
7
  6
CONTINUOUS
 70
0
 71
3
 72
9
 73
5
 74
0
 42
0.0000001
 43
0.0000001
 44
0.0000000001
 40
0.0
 40
0.0
 40
0.0
 40
0.0
 40
0.2459571915
 40
1.0
 40
1.0
 40
1.0
 40
1.0
 10
211.1300937004
 20
309.1340777443
 30
0.0
 10
211.1090347168
 20
309.1219174875
 30
0.0
 10
211.0261317006
 20
309.0678197166
 30
0.0
 10
210.9557283842
 20
308.9952974031
 30
0.0
 10
210.9119808345
 20
308.9349304914
 30
0.0
  0
SPLINE
  5
36A
100
AcDbEntity
  8
_1
100
AcDbSpline
 62
7
  6
CONTINUOUS
 70
0
 71
3
 72
9
 73
5
 74
0
 42
0.0000001
 43
0.0000001
 44
0.0000000001
 40
0.0
 40
0.0
 40
0.0
 40
0.0
 40
0.2452254915
 40
1.0
 40
1.0
 40
1.0
 40
1.0
 10
212.2506819701
 20
309.7771143922
 30
0.0
 10
212.2690023487
 20
309.7853534018
 30
0.0
 10
212.3451910412
 20
309.8156183769
 30
0.0
 10
212.4266455955
 20
309.8321005038
 30
0.0
 10
212.4882579143
 20
309.8372562747
 30
0.0
  0
SPLINE
  5
36B
100
AcDbEntity
  8
_1
100
AcDbSpline
 62
7
  6
CONTINUOUS
 70
0
 71
3
 72
9
 73
5
 74
0
 42
0.0000001
 43
0.0000001
 44
0.0000000001
 40
0.0
 40
0.0
 40
0.0
 40
0.0
 40
0.2252426641
 40
1.0
 40
1.0
 40
1.0
 40
1.0
 10
212.5084713797
 20
309.8386939303
 30
0.0
 10
212.5620269544
 20
309.8418370068
 30
0.0
 10
212.8013006303
 20
309.8324764895
 30
0.0
 10
213.0309316766
 20
309.7396673067
 30
0.0
 10
213.1907400194
 20
309.6474040042
 30
0.0
  0
SPLINE
  5
36C
100
AcDbEntity
  8
_1
100
AcDbSpline
 62
7
  6
CONTINUOUS
 70
0
 71
3
 72
8
 73
4
 74
0
 42
0.0000001
 43
0.0000001
 44
0.0000000001
 40
0.0
 40
0.0
 40
0.0
 40
0.0
 40
1.0
 40
1.0
 40
1.0
 40
1.0
 10
257.1619537856
 20
205.2128606674
 30
0.0
 10
257.1407668129
 20
205.1737326842
 30
0.0
 10
257.1165920783
 20
205.1360357264
 30
0.0
 10
257.0894276163
 20
205.1007940057
 30
0.0
  0
SPLINE
  5
36D
100
AcDbEntity
  8
_1
100
AcDbSpline
 62
7
  6
CONTINUOUS
 70
0
 71
3
 72
9
 73
5
 74
0
 42
0.0000001
 43
0.0000001
 44
0.0000000001
 40
0.0
 40
0.0
 40
0.0
 40
0.0
 40
0.256215386
 40
1.0
 40
1.0
 40
1.0
 40
1.0
 10
257.0894276163
 20
205.1007940057
 30
0.0
 10
257.0751617766
 20
205.082286268
 30
0.0
 10
257.0162844359
 20
205.0125935058
 30
0.0
 10
256.9439007882
 20
204.9541564798
 30
0.0
 10
256.8851689189
 20
204.9202116473
 30
0.0
  0
SPLINE
  5
36E
100
AcDbEntity
  8
_1
100
AcDbSpline
 62
7
  6
CONTINUOUS
 70
0
 71
3
 72
9
 73
5
 74
0
 42
0.0000001
 43
0.0000001
 44
0.0000000001
 40
0.0
 40
0.0
 40
0.0
 40
0.0
 40
0.532423438
 40
1.0
 40
1.0
 40
1.0
 40
1.0
 10
268.2840559726
 20
212.0563413594
 30
0.0
 10
268.2580839839
 20
211.9308722798
 30
0.0
 10
268.1758183503
 20
211.698228822
 30
0.0
 10
267.9984665035
 20
211.5199822839
 30
0.0
 10
267.900992035
 20
211.4637662028
 30
0.0
  0
SPLINE
  5
36F
100
AcDbEntity
  8
_1
100
AcDbSpline
 62
7
  6
CONTINUOUS
 70
0
 71
3
 72
9
 73
5
 74
0
 42
0.0000001
 43
0.0000001
 44
0.0000000001
 40
0.0
 40
0.0
 40
0.0
 40
0.0
 40
0.2583144219
 40
1.0
 40
1.0
 40
1.0
 40
1.0
 10
269.7460718733
 20
224.0065183196
 30
0.0
 10
269.6980892635
 20
222.970398469
 30
0.0
 10
269.4406407919
 20
218.9632802951
 30
0.0
 10
268.8877324117
 20
214.9726650996
 30
0.0
 10
268.2840559726
 20
212.0563413594
 30
0.0
  0
SPLINE
  5
370
100
AcDbEntity
  8
_1
100
AcDbSpline
 62
7
  6
CONTINUOUS
 70
0
 71
3
 72
9
 73
5
 74
0
 42
0.0000001
 43
0.0000001
 44
0.0000000001
 40
0.0
 40
0.0
 40
0.0
 40
0.0
 40
0.2563131705
 40
1.0
 40
1.0
 40
1.0
 40
1.0
 10
268.2840559726
 20
261.9733825039
 30
0.0
 10
268.4772319279
 20
260.8171060143
 30
0.0
 10
269.1671062302
 20
256.295663104
 30
0.0
 10
269.5966927092
 20
251.7331793985
 30
0.0
 10
269.7460718733
 20
248.3350531872
 30
0.0
  0
SPLINE
  5
371
100
AcDbEntity
  8
_1
100
AcDbSpline
 62
7
  6
CONTINUOUS
 70
0
 71
3
 72
13
 73
9
 74
0
 42
0.0000001
 43
0.0000001
 44
0.0000000001
 40
0.0
 40
0.0
 40
0.0
 40
0.0
 40
0.1147598692
 40
0.2383347086
 40
0.5008164557
 40
0.762852046
 40
0.8859052873
 40
1.0
 40
1.0
 40
1.0
 40
1.0
 10
257.3496467345
 20
276.4276811548
 30
0.0
 10
257.3549821925
 20
275.9539715311
 30
0.0
 10
257.4507892954
 20
274.9701347406
 30
0.0
 10
257.9348373241
 20
272.9552355017
 30
0.0
 10
259.0351249651
 20
270.4894479265
 30
0.0
 10
260.6353114993
 20
268.3169389527
 30
0.0
 10
262.1457246501
 20
266.9079778215
 30
0.0
 10
262.9516695322
 20
266.3439997423
 30
0.0
 10
263.3595644699
 20
266.1085068177
 30
0.0
  0
SPLINE
  5
372
100
AcDbEntity
  8
_1
100
AcDbSpline
 62
7
  6
CONTINUOUS
 70
0
 71
3
 72
11
 73
7
 74
0
 42
0.0000001
 43
0.0000001
 44
0.0000000001
 40
0.0
 40
0.0
 40
0.0
 40
0.0
 40
0.2368518177
 40
0.499178029
 40
0.761950876
 40
1.0
 40
1.0
 40
1.0
 40
1.0
 10
255.8662403993
 20
285.0092497617
 30
0.0
 10
256.065241075
 20
284.8943592671
 30
0.0
 10
256.4421900968
 20
284.5780334922
 30
0.0
 10
256.8836447599
 20
283.9783901039
 30
0.0
 10
257.1877076932
 20
283.2974062064
 30
0.0
 10
257.2777376724
 20
282.8121405641
 30
0.0
 10
257.2803386899
 20
282.5812087412
 30
0.0
  0
SPLINE
  5
373
100
AcDbEntity
  8
_1
100
AcDbSpline
 62
7
  6
CONTINUOUS
 70
0
 71
3
 72
9
 73
5
 74
0
 42
0.0000001
 43
0.0000001
 44
0.0000000001
 40
0.0
 40
0.0
 40
0.0
 40
0.0
 40
0.2465107531
 40
1.0
 40
1.0
 40
1.0
 40
1.0
 10
255.8245131711
 20
204.307845403
 30
0.0
 10
255.8439833967
 20
204.3190984659
 30
0.0
 10
255.9206520618
 20
204.368703222
 30
0.0
 10
255.9868381087
 20
204.4340187197
 30
0.0
 10
256.0287990594
 20
204.4884630742
 30
0.0
  0
SPLINE
  5
374
100
AcDbEntity
  8
_1
100
AcDbSpline
 62
7
  6
CONTINUOUS
 70
0
 71
3
 72
8
 73
4
 74
0
 42
0.0000001
 43
0.0000001
 44
0.0000000001
 40
0.0
 40
0.0
 40
0.0
 40
0.0
 40
1.0
 40
1.0
 40
1.0
 40
1.0
 10
256.0287990594
 20
204.4884630742
 30
0.0
 10
256.055956494
 20
204.5236998591
 30
0.0
 10
256.0801252913
 20
204.561390671
 30
0.0
 10
256.1013074965
 20
204.6005119113
 30
0.0
  0
SPLINE
  5
375
100
AcDbEntity
  8
_1
100
AcDbSpline
 62
7
  6
CONTINUOUS
 70
0
 71
3
 72
9
 73
5
 74
0
 42
0.0000001
 43
0.0000001
 44
0.0000000001
 40
0.0
 40
0.0
 40
0.0
 40
0.0
 40
0.467576604
 40
1.0
 40
1.0
 40
1.0
 40
1.0
 10
266.8403362714
 20
210.851399986
 30
0.0
 10
266.9378107556
 20
210.90761606
 30
0.0
 10
267.1151626206
 20
211.0858625926
 30
0.0
 10
267.1974282301
 20
211.3185060588
 30
0.0
 10
267.2234002168
 20
211.4439751286
 30
0.0
  0
SPLINE
  5
376
100
AcDbEntity
  8
_1
100
AcDbSpline
 62
7
  6
CONTINUOUS
 70
0
 71
3
 72
13
 73
9
 74
0
 42
0.0000001
 43
0.0000001
 44
0.0000000001
 40
0.0
 40
0.0
 40
0.0
 40
0.0
 40
0.1146002436
 40
0.2379377994
 40
0.4999935593
 40
0.7620549709
 40
0.8854034144
 40
1.0
 40
1.0
 40
1.0
 40
1.0
 10
262.2213492702
 20
265.5414996528
 30
0.0
 10
261.8172488301
 20
265.7808553362
 30
0.0
 10
261.019789689
 20
266.3498766519
 30
0.0
 10
259.527685994
 20
267.7612238307
 30
0.0
 10
257.9492323099
 20
269.9242498563
 30
0.0
 10
256.8649419173
 20
272.3726759559
 30
0.0
 10
256.3885308072
 20
274.3705490132
 30
0.0
 10
256.2942804143
 20
275.3456914059
 30
0.0
 10
256.2889909787
 20
275.815314924
 30
0.0
  0
SPLINE
  5
377
100
AcDbEntity
  8
_1
100
AcDbSpline
 62
7
  6
CONTINUOUS
 70
0
 71
3
 72
9
 73
5
 74
0
 42
0.0000001
 43
0.0000001
 44
0.0000000001
 40
0.0
 40
0.0
 40
0.0
 40
0.0
 40
0.2436351131
 40
1.0
 40
1.0
 40
1.0
 40
1.0
 10
268.6854161174
 20
247.7226869564
 30
0.0
 10
268.6364782664
 20
248.8359412412
 30
0.0
 10
268.3604673664
 20
253.4018318018
 30
0.0
 10
267.7934576143
 20
257.9488733617
 30
0.0
 10
267.2234002168
 20
261.3610162731
 30
0.0
  0
SPLINE
  5
378
100
AcDbEntity
  8
_1
100
AcDbSpline
 62
7
  6
CONTINUOUS
 70
0
 71
3
 72
9
 73
5
 74
0
 42
0.0000001
 43
0.0000001
 44
0.0000000001
 40
0.0
 40
0.0
 40
0.0
 40
0.0
 40
0.2793566062
 40
1.0
 40
1.0
 40
1.0
 40
1.0
 10
212.1300842636
 20
309.0350377734
 30
0.0
 10
212.0709420977
 20
309.0691827464
 30
0.0
 10
211.8537456072
 20
309.179646065
 30
0.0
 10
211.6031944112
 20
309.2395754761
 30
0.0
 10
211.427639885
 20
309.2248932
 30
0.0
  0
SPLINE
  5
379
100
AcDbEntity
  8
_1
100
AcDbSpline
 62
7
  6
CONTINUOUS
 70
0
 71
3
 72
9
 73
5
 74
0
 42
0.0000001
 43
0.0000001
 44
0.0000000001
 40
0.0
 40
0.0
 40
0.0
 40
0.0
 40
0.2568110236
 40
1.0
 40
1.0
 40
1.0
 40
1.0
 10
211.427639885
 20
309.2248932
 30
0.0
 10
211.406674687
 20
309.2231398027
 30
0.0
 10
211.3253493329
 20
309.2131491649
 30
0.0
 10
211.2455518079
 20
309.189719167
 30
0.0
 10
211.1900252141
 20
309.1647477281
 30
0.0
  0
SPLINE
  5
37A
100
AcDbEntity
  8
_1
100
AcDbSpline
 62
7
  6
CONTINUOUS
 70
0
 71
3
 72
11
 73
7
 74
0
 42
0.0000001
 43
0.0000001
 44
0.0000000001
 40
0.0
 40
0.0
 40
0.0
 40
0.0
 40
0.2402466315
 40
0.5030287405
 40
0.7641796385
 40
1.0
 40
1.0
 40
1.0
 40
1.0
 10
256.2181063644
 20
282.0281838084
 30
0.0
 10
256.2086184268
 20
282.2563596617
 30
0.0
 10
256.1106617911
 20
282.7313796308
 30
0.0
 10
255.8041962125
 20
283.3956096412
 30
0.0
 10
255.3684156477
 20
283.9778764876
 30
0.0
 10
254.9997187746
 20
284.2848026736
 30
0.0
 10
254.8055846434
 20
284.3968835309
 30
0.0
  0
SPLINE
  5
37B
100
AcDbEntity
  8
_1
100
AcDbSpline
 62
7
  6
CONTINUOUS
 70
0
 71
3
 72
9
 73
5
 74
0
 42
0.0000001
 43
0.0000001
 44
0.0000000001
 40
0.0
 40
0.0
 40
0.0
 40
0.0
 40
0.2418707821
 40
1.0
 40
1.0
 40
1.0
 40
1.0
 10
267.2234002168
 20
211.4439751286
 30
0.0
 10
267.4202699271
 20
212.395040588
 30
0.0
 10
268.1485263146
 20
216.344714718
 30
0.0
 10
268.5445879436
 20
220.3531572971
 30
0.0
 10
268.6854161174
 20
223.3941520888
 30
0.0
  0
SPLINE
  5
37C
100
AcDbEntity
  8
_1
100
AcDbSpline
 62
7
  6
CONTINUOUS
 70
0
 71
3
 72
9
 73
5
 74
0
 42
0.0000001
 43
0.0000001
 44
0.0000000001
 40
0.0
 40
0.0
 40
0.0
 40
0.0
 40
0.5255481049
 40
1.0
 40
1.0
 40
1.0
 40
1.0
 10
260.8049209839
 20
282.5810769816
 30
0.0
 10
261.0764052463
 20
282.1255898309
 30
0.0
 10
261.4970663445
 20
281.1985429264
 30
0.0
 10
261.6818750427
 20
280.1893747991
 30
0.0
 10
261.6818746361
 20
279.7106720311
 30
0.0
  0
SPLINE
  5
37D
100
AcDbEntity
  8
_1
100
AcDbSpline
 62
7
  6
CONTINUOUS
 70
0
 71
3
 72
11
 73
7
 74
0
 42
0.0000001
 43
0.0000001
 44
0.0000000001
 40
0.0
 40
0.0
 40
0.0
 40
0.0
 40
0.2131226997
 40
0.4461594469
 40
0.7077314236
 40
1.0
 40
1.0
 40
1.0
 40
1.0
 10
274.0259543335
 20
222.5548031202
 30
0.0
 10
274.0804308584
 20
222.5862221717
 30
0.0
 10
274.1838710555
 20
222.6715973084
 30
0.0
 10
274.3018818782
 20
222.8465086626
 30
0.0
 10
274.3855105785
 20
223.0647645656
 30
0.0
 10
274.4162482245
 20
223.22607951
 30
0.0
 10
274.4265130598
 20
223.3117081572
 30
0.0
  0
SPLINE
  5
37E
100
AcDbEntity
  8
_1
100
AcDbSpline
 62
7
  6
CONTINUOUS
 70
0
 71
3
 72
9
 73
5
 74
0
 42
0.0000001
 43
0.0000001
 44
0.0000000001
 40
0.0
 40
0.0
 40
0.0
 40
0.0
 40
0.2608624741
 40
1.0
 40
1.0
 40
1.0
 40
1.0
 10
261.5935398829
 20
207.8009852453
 30
0.0
 10
261.5761702375
 20
207.7773991726
 30
0.0
 10
261.5056191283
 20
207.6900426183
 30
0.0
 10
261.4176630042
 20
207.6161962954
 30
0.0
 10
261.3458049817
 20
207.5746652944
 30
0.0
  0
SPLINE
  5
37F
100
AcDbEntity
  8
_1
100
AcDbSpline
 62
7
  6
CONTINUOUS
 70
0
 71
3
 72
9
 73
5
 74
0
 42
0.0000001
 43
0.0000001
 44
0.0000000001
 40
0.0
 40
0.0
 40
0.0
 40
0.0
 40
0.2482254522
 40
1.0
 40
1.0
 40
1.0
 40
1.0
 10
275.090167527
 20
239.0969461685
 30
0.0
 10
275.080095765
 20
238.0879667181
 30
0.0
 10
275.0229290756
 20
234.0233762196
 30
0.0
 10
274.899890087
 20
229.9597342109
 30
0.0
 10
274.7717477515
 20
226.9064789274
 30
0.0
  0
SPLINE
  5
380
100
AcDbEntity
  8
_1
100
AcDbSpline
 62
7
  6
CONTINUOUS
 70
0
 71
3
 72
9
 73
5
 74
0
 42
0.0000001
 43
0.0000001
 44
0.0000000001
 40
0.0
 40
0.0
 40
0.0
 40
0.0
 40
0.2561404601
 40
1.0
 40
1.0
 40
1.0
 40
1.0
 10
272.8541769641
 20
264.6118625519
 30
0.0
 10
273.0937988237
 20
263.4829898371
 30
0.0
 10
273.9584215931
 20
259.0612104232
 30
0.0
 10
274.5335988348
 20
254.5811902142
 30
0.0
 10
274.7717477515
 20
251.2382509579
 30
0.0
  0
SPLINE
  5
381
100
AcDbEntity
  8
_1
100
AcDbSpline
 62
7
  6
CONTINUOUS
 70
0
 71
3
 72
11
 73
7
 74
0
 42
0.0000001
 43
0.0000001
 44
0.0000000001
 40
0.0
 40
0.0
 40
0.0
 40
0.0
 40
0.2262421213
 40
0.4833649947
 40
0.7493398593
 40
1.0
 40
1.0
 40
1.0
 40
1.0
 10
271.5458286331
 20
266.7455071277
 30
0.0
 10
271.7011295268
 20
266.6324092947
 30
0.0
 10
271.9994836065
 20
266.3448551938
 30
0.0
 10
272.3738895763
 20
265.8274276302
 30
0.0
 10
272.6737519844
 20
265.2400279399
 30
0.0
 10
272.8099800164
 20
264.8200769792
 30
0.0
 10
272.8541769641
 20
264.6118625519
 30
0.0
  0
SPLINE
  5
382
100
AcDbEntity
  8
_1
100
AcDbSpline
 62
7
  6
CONTINUOUS
 70
0
 71
3
 72
9
 73
5
 74
0
 42
0.0000001
 43
0.0000001
 44
0.0000000001
 40
0.0
 40
0.0
 40
0.0
 40
0.0
 40
0.2518513383
 40
1.0
 40
1.0
 40
1.0
 40
1.0
 10
262.3532561357
 20
273.196030289
 30
0.0
 10
263.1342102571
 20
272.6678617491
 30
0.0
 10
266.2261234625
 20
270.5575342528
 30
0.0
 10
269.2818977917
 20
268.3942141377
 30
0.0
 10
271.5458286331
 20
266.7455071277
 30
0.0
  0
SPLINE
  5
383
100
AcDbEntity
  8
_1
100
AcDbSpline
 62
7
  6
CONTINUOUS
 70
0
 71
3
 72
9
 73
5
 74
0
 42
0.0000001
 43
0.0000001
 44
0.0000000001
 40
0.0
 40
0.0
 40
0.0
 40
0.0
 40
0.2517451301
 40
1.0
 40
1.0
 40
1.0
 40
1.0
 10
275.090167527
 20
239.0969461685
 30
0.0
 10
275.0801429457
 20
240.1161113189
 30
0.0
 10
275.0239294871
 20
244.164331209
 30
0.0
 10
274.901705019
 20
248.2116577155
 30
0.0
 10
274.7717477515
 20
251.2382509579
 30
0.0
  0
SPLINE
  5
384
100
AcDbEntity
  8
_1
100
AcDbSpline
 62
7
  6
CONTINUOUS
 70
0
 71
3
 72
9
 73
5
 74
0
 42
0.0000001
 43
0.0000001
 44
0.0000000001
 40
0.0
 40
0.0
 40
0.0
 40
0.0
 40
0.542669195
 40
1.0
 40
1.0
 40
1.0
 40
1.0
 10
261.6818671347
 20
279.7106677002
 30
0.0
 10
261.6818668757
 20
279.4056966662
 30
0.0
 10
261.6176775151
 20
278.8385640144
 30
0.0
 10
261.3466669453
 20
278.3222117962
 30
0.0
 10
261.1715770073
 20
278.1340660362
 30
0.0
  0
SPLINE
  5
385
100
AcDbEntity
  8
_1
100
AcDbSpline
 62
7
  6
CONTINUOUS
 70
0
 71
3
 72
9
 73
5
 74
0
 42
0.0000001
 43
0.0000001
 44
0.0000000001
 40
0.0
 40
0.0
 40
0.0
 40
0.0
 40
0.2533214549
 40
1.0
 40
1.0
 40
1.0
 40
1.0
 10
261.1715770073
 20
278.1340660362
 30
0.0
 10
261.1514860739
 20
278.1124769947
 30
0.0
 10
261.0696338836
 20
278.0296633914
 30
0.0
 10
260.9773791704
 20
277.9570624433
 30
0.0
 10
260.9040963209
 20
277.9103086121
 30
0.0
  0
SPLINE
  5
386
100
AcDbEntity
  8
_1
100
AcDbSpline
 62
7
  6
CONTINUOUS
 70
0
 71
3
 72
11
 73
7
 74
0
 42
0.0000001
 43
0.0000001
 44
0.0000000001
 40
0.0
 40
0.0
 40
0.0
 40
0.0
 40
0.2368518177
 40
0.499178029
 40
0.761950876
 40
1.0
 40
1.0
 40
1.0
 40
1.0
 10
259.3146956519
 20
287.1007357792
 30
0.0
 10
259.5136963277
 20
286.9858452847
 30
0.0
 10
259.8906453495
 20
286.6695195098
 30
0.0
 10
260.3321000126
 20
286.0698761215
 30
0.0
 10
260.6361629459
 20
285.388892224
 30
0.0
 10
260.7261929251
 20
284.9036265817
 30
0.0
 10
260.7287939426
 20
284.6726947587
 30
0.0
  0
SPLINE
  5
387
100
AcDbEntity
  8
_1
100
AcDbSpline
 62
7
  6
CONTINUOUS
 70
0
 71
3
 72
11
 73
7
 74
0
 42
0.0000001
 43
0.0000001
 44
0.0000000001
 40
0.0
 40
0.0
 40
0.0
 40
0.0
 40
0.2429926052
 40
0.5057851002
 40
0.7654680507
 40
1.0
 40
1.0
 40
1.0
 40
1.0
 10
260.8257668329
 20
277.923348621
 30
0.0
 10
260.9020771935
 20
276.9723539814
 30
0.0
 10
261.3602252922
 20
275.0142936534
 30
0.0
 10
262.6724959297
 20
272.2883224241
 30
0.0
 10
264.4907058796
 20
269.9120216752
 30
0.0
 10
266.0105507083
 20
268.6604013696
 30
0.0
 10
266.8080197226
 20
268.1999928353
 30
0.0
  0
SPLINE
  5
388
100
AcDbEntity
  8
_1
100
AcDbSpline
 62
7
  6
CONTINUOUS
 70
0
 71
3
 72
9
 73
5
 74
0
 42
0.0000001
 43
0.0000001
 44
0.0000000001
 40
0.0
 40
0.0
 40
0.0
 40
0.0
 40
0.5324234529
 40
1.0
 40
1.0
 40
1.0
 40
1.0
 10
271.8196310336
 20
214.0975301389
 30
0.0
 10
271.7936590585
 20
213.9720610091
 30
0.0
 10
271.7113934392
 20
213.739417457
 30
0.0
 10
271.5340415442
 20
213.5611708403
 30
0.0
 10
271.4365670463
 20
213.5049547423
 30
0.0
  0
SPLINE
  5
389
100
AcDbEntity
  8
_1
100
AcDbSpline
 62
7
  6
CONTINUOUS
 70
0
 71
3
 72
9
 73
5
 74
0
 42
0.0000001
 43
0.0000001
 44
0.0000000001
 40
0.0
 40
0.0
 40
0.0
 40
0.0
 40
0.2554700855
 40
1.0
 40
1.0
 40
1.0
 40
1.0
 10
272.968766176
 20
221.7109595656
 30
0.0
 10
272.9042404436
 20
221.0582949345
 30
0.0
 10
272.6200960435
 20
218.5068147682
 30
0.0
 10
272.2070686677
 20
215.9692192415
 30
0.0
 10
271.8196310336
 20
214.0975301389
 30
0.0
  0
SPLINE
  5
38A
100
AcDbEntity
  8
_1
100
AcDbSpline
 62
7
  6
CONTINUOUS
 70
0
 71
3
 72
11
 73
7
 74
0
 42
0.0000001
 43
0.0000001
 44
0.0000000001
 40
0.0
 40
0.0
 40
0.0
 40
0.0
 40
0.2321554998
 40
0.4960429861
 40
0.7621978245
 40
1.0
 40
1.0
 40
1.0
 40
1.0
 10
254.4319853288
 20
289.9780245876
 30
0.0
 10
254.4049329669
 20
290.1994494944
 30
0.0
 10
254.2711687555
 20
290.6630713674
 30
0.0
 10
253.9315618984
 20
291.3159009061
 30
0.0
 10
253.478604869
 20
291.9027979951
 30
0.0
 10
253.109869971
 20
292.2252487631
 30
0.0
 10
252.9170464238
 20
292.3478455998
 30
0.0
  0
SPLINE
  5
38B
100
AcDbEntity
  8
_1
100
AcDbSpline
 62
7
  6
CONTINUOUS
 70
0
 71
3
 72
9
 73
5
 74
0
 42
0.0000001
 43
0.0000001
 44
0.0000000001
 40
0.0
 40
0.0
 40
0.0
 40
0.0
 40
0.241871754
 40
1.0
 40
1.0
 40
1.0
 40
1.0
 10
268.2841118476
 20
212.0563093695
 30
0.0
 10
268.4809564194
 20
213.0072542641
 30
0.0
 10
269.209127773
 20
216.9564095688
 30
0.0
 10
269.6051888985
 20
220.9643198218
 30
0.0
 10
269.7460535236
 20
224.0049103321
 30
0.0
  0
SPLINE
  5
38C
100
AcDbEntity
  8
_1
100
AcDbSpline
 62
7
  6
CONTINUOUS
 70
0
 71
3
 72
9
 73
5
 74
0
 42
0.0000001
 43
0.0000001
 44
0.0000000001
 40
0.0
 40
0.0
 40
0.0
 40
0.0
 40
0.4675765891
 40
1.0
 40
1.0
 40
1.0
 40
1.0
 10
267.9010478524
 20
211.4637339869
 30
0.0
 10
267.9985223661
 20
211.5199500778
 30
0.0
 10
268.1758742792
 20
211.698196689
 30
0.0
 10
268.2581398745
 20
211.9308402496
 30
0.0
 10
268.2841118476
 20
212.0563093695
 30
0.0
  0
SPLINE
  5
38D
100
AcDbEntity
  8
_1
100
AcDbSpline
 62
7
  6
CONTINUOUS
 70
0
 71
3
 72
11
 73
7
 74
0
 42
0.0000001
 43
0.0000001
 44
0.0000000001
 40
0.0
 40
0.0
 40
0.0
 40
0.0
 40
0.249032946
 40
0.5116232336
 40
0.7680302521
 40
1.0
 40
1.0
 40
1.0
 40
1.0
 10
268.2841118476
 20
261.9733499764
 30
0.0
 10
268.2489014971
 20
262.1841056614
 30
0.0
 10
268.1219490899
 20
262.6086846244
 30
0.0
 10
267.8112679949
 20
263.19414296
 30
0.0
 10
267.4044284808
 20
263.6987214646
 30
0.0
 10
267.073435526
 20
263.964350871
 30
0.0
 10
266.901064297
 20
264.0638671952
 30
0.0
  0
SPLINE
  5
38E
100
AcDbEntity
  8
_1
100
AcDbSpline
 62
7
  6
CONTINUOUS
 70
0
 71
3
 72
9
 73
5
 74
0
 42
0.0000001
 43
0.0000001
 44
0.0000000001
 40
0.0
 40
0.0
 40
0.0
 40
0.0
 40
0.2436360024
 40
1.0
 40
1.0
 40
1.0
 40
1.0
 10
269.7460535236
 20
248.3366823626
 30
0.0
 10
269.6971032573
 20
249.4498050647
 30
0.0
 10
269.4210622935
 20
254.0151385736
 30
0.0
 10
268.8540991116
 20
258.561624316
 30
0.0
 10
268.2841118476
 20
261.9733499764
 30
0.0
  0
SPLINE
  5
38F
100
AcDbEntity
  8
_1
100
AcDbSpline
 62
7
  6
CONTINUOUS
 70
0
 71
3
 72
11
 73
7
 74
0
 42
0.0000001
 43
0.0000001
 44
0.0000000001
 40
0.0
 40
0.0
 40
0.0
 40
0.0
 40
0.224112466
 40
0.460026139
 40
0.7169096686
 40
1.0
 40
1.0
 40
1.0
 40
1.0
 10
246.4381254878
 20
283.203168138
 30
0.0
 10
246.4381254697
 20
283.3007090208
 30
0.0
 10
246.4079042833
 20
283.5019786348
 30
0.0
 10
246.276658204
 20
283.7887674804
 30
0.0
 10
246.0657325781
 20
284.0558528985
 30
0.0
 10
245.885572474
 20
284.2089884471
 30
0.0
 10
245.7858687572
 20
284.2813752914
 30
0.0
  0
SPLINE
  5
390
100
AcDbEntity
  8
_1
100
AcDbSpline
 62
7
  6
CONTINUOUS
 70
0
 71
3
 72
13
 73
9
 74
0
 42
0.0000001
 43
0.0000001
 44
0.0000000001
 40
0.0
 40
0.0
 40
0.0
 40
0.0
 40
0.1147598692
 40
0.2383347086
 40
0.5008164557
 40
0.762852046
 40
0.8859052873
 40
1.0
 40
1.0
 40
1.0
 40
1.0
 10
256.2019270453
 20
275.8655801723
 30
0.0
 10
256.2072625033
 20
275.3918705485
 30
0.0
 10
256.3030696062
 20
274.4080337581
 30
0.0
 10
256.7871176349
 20
272.3931345191
 30
0.0
 10
257.8874052759
 20
269.9273469439
 30
0.0
 10
259.4875918101
 20
267.7548379701
 30
0.0
 10
260.9980049609
 20
266.3458768389
 30
0.0
 10
261.803949843
 20
265.7818987597
 30
0.0
 10
262.2118447807
 20
265.5464058351
 30
0.0
  0
SPLINE
  5
391
100
AcDbEntity
  8
_1
100
AcDbSpline
 62
7
  6
CONTINUOUS
 70
0
 71
3
 72
11
 73
7
 74
0
 42
0.0000001
 43
0.0000001
 44
0.0000000001
 40
0.0
 40
0.0
 40
0.0
 40
0.0
 40
0.2368632109
 40
0.4991781243
 40
0.7619393739
 40
1.0
 40
1.0
 40
1.0
 40
1.0
 10
254.71852071
 20
284.4471487791
 30
0.0
 10
254.9175304861
 20
284.3322530306
 30
0.0
 10
255.2945054576
 20
284.0159482019
 30
0.0
 10
255.7358437729
 20
283.416241761
 30
0.0
 10
256.0400190194
 20
282.7353279589
 30
0.0
 10
256.1300178637
 20
282.2500501917
 30
0.0
 10
256.1326190007
 20
282.0191077586
 30
0.0
  0
SPLINE
  5
392
100
AcDbEntity
  8
_1
100
AcDbSpline
 62
7
  6
CONTINUOUS
 70
0
 71
3
 72
8
 73
4
 74
0
 42
0.0000001
 43
0.0000001
 44
0.0000000001
 40
0.0
 40
0.0
 40
0.0
 40
0.0
 40
1.0
 40
1.0
 40
1.0
 40
1.0
 10
211.217198688
 20
309.0837412966
 30
0.0
 10
211.2714678622
 20
309.1150686166
 30
0.0
 10
211.3307226887
 20
309.1388475343
 30
0.0
 10
211.3914643306
 20
309.1542422477
 30
0.0
  0
SPLINE
  5
393
100
AcDbEntity
  8
_1
100
AcDbSpline
 62
7
  6
CONTINUOUS
 70
0
 71
3
 72
9
 73
5
 74
0
 42
0.0000001
 43
0.0000001
 44
0.0000000001
 40
0.0
 40
0.0
 40
0.0
 40
0.0
 40
0.456571289
 40
1.0
 40
1.0
 40
1.0
 40
1.0
 10
211.3914643306
 20
309.1542422477
 30
0.0
 10
211.5181066843
 20
309.1863392189
 30
0.0
 10
211.8156371123
 20
309.1781823988
 30
0.0
 10
212.082480087
 20
309.0625214358
 30
0.0
 10
212.217148197
 20
308.9847725252
 30
0.0
  0
SPLINE
  5
394
100
AcDbEntity
  8
_1
100
AcDbSpline
 62
7
  6
CONTINUOUS
 70
0
 71
3
 72
9
 73
5
 74
0
 42
0.0000001
 43
0.0000001
 44
0.0000000001
 40
0.0
 40
0.0
 40
0.0
 40
0.0
 40
0.2555549405
 40
1.0
 40
1.0
 40
1.0
 40
1.0
 10
255.9410795014
 20
204.5166532989
 30
0.0
 10
255.9292304436
 20
204.5013066196
 30
0.0
 10
255.8806428239
 20
204.4430149306
 30
0.0
 10
255.8228257586
 20
204.3923206756
 30
0.0
 10
255.7759714683
 20
204.360781927
 30
0.0
  0
SPLINE
  5
395
100
AcDbEntity
  8
_1
100
AcDbSpline
 62
7
  6
CONTINUOUS
 70
0
 71
3
 72
11
 73
7
 74
0
 42
0.0000001
 43
0.0000001
 44
0.0000000001
 40
0.0
 40
0.0
 40
0.0
 40
0.0
 40
0.2830905571
 40
0.5399741725
 40
0.7758877587
 40
1.0
 40
1.0
 40
1.0
 40
1.0
 10
211.3919363337
 20
284.2813104544
 30
0.0
 10
211.2922313496
 20
284.2089234105
 30
0.0
 10
211.1120689262
 20
284.0557872793
 30
0.0
 10
210.9011403203
 20
283.788700387
 30
0.0
 10
210.769892308
 20
283.5019095604
 30
0.0
 10
210.7396705994
 20
283.3006383636
 30
0.0
 10
210.7396706174
 20
283.2030967517
 30
0.0
  0
SPLINE
  5
396
100
AcDbEntity
  8
_1
100
AcDbSpline
 62
7
  6
CONTINUOUS
 70
0
 71
3
 72
9
 73
5
 74
0
 42
0.0000001
 43
0.0000001
 44
0.0000000001
 40
0.0
 40
0.0
 40
0.0
 40
0.0
 40
0.5324234529
 40
1.0
 40
1.0
 40
1.0
 40
1.0
 10
267.2234560917
 20
211.4439431387
 30
0.0
 10
267.1974841166
 20
211.3184740089
 30
0.0
 10
267.1152184973
 20
211.0858304568
 30
0.0
 10
266.9378666023
 20
210.9075838401
 30
0.0
 10
266.8403921044
 20
210.8513677421
 30
0.0
  0
SPLINE
  5
397
100
AcDbEntity
  8
_1
100
AcDbSpline
 62
7
  6
CONTINUOUS
 70
0
 71
3
 72
9
 73
5
 74
0
 42
0.0000001
 43
0.0000001
 44
0.0000000001
 40
0.0
 40
0.0
 40
0.0
 40
0.0
 40
0.2583134158
 40
1.0
 40
1.0
 40
1.0
 40
1.0
 10
268.6853977678
 20
223.3925441013
 30
0.0
 10
268.6374028634
 20
222.3565646942
 30
0.0
 10
268.3799229899
 20
218.349974844
 30
0.0
 10
267.8270538459
 20
214.3598894477
 30
0.0
 10
267.2234560917
 20
211.4439431387
 30
0.0
  0
SPLINE
  5
398
100
AcDbEntity
  8
_1
100
AcDbSpline
 62
7
  6
CONTINUOUS
 70
0
 71
3
 72
9
 73
5
 74
0
 42
0.0000001
 43
0.0000001
 44
0.0000000001
 40
0.0
 40
0.0
 40
0.0
 40
0.0
 40
0.2563122883
 40
1.0
 40
1.0
 40
1.0
 40
1.0
 10
267.2234560917
 20
261.3609837456
 30
0.0
 10
267.4166078441
 20
260.2048512646
 30
0.0
 10
268.1064060397
 20
255.6839571338
 30
0.0
 10
268.5359810745
 20
251.1220323413
 30
0.0
 10
268.6853977678
 20
247.7243161318
 30
0.0
  0
SPLINE
  5
399
100
AcDbEntity
  8
_1
100
AcDbSpline
 62
7
  6
CONTINUOUS
 70
0
 71
3
 72
11
 73
7
 74
0
 42
0.0000001
 43
0.0000001
 44
0.0000000001
 40
0.0
 40
0.0
 40
0.0
 40
0.0
 40
0.2319698822
 40
0.4883769512
 40
0.750967195
 40
1.0
 40
1.0
 40
1.0
 40
1.0
 10
265.8404085412
 20
263.4515009643
 30
0.0
 10
266.01277987
 20
263.3519845826
 30
0.0
 10
266.3437729322
 20
263.086355045
 30
0.0
 10
266.7506124587
 20
262.5817763951
 30
0.0
 10
267.0612934296
 20
261.9963181251
 30
0.0
 10
267.1882457612
 20
261.5717393112
 30
0.0
 10
267.2234560917
 20
261.3609837456
 30
0.0
  0
SPLINE
  5
39A
100
AcDbEntity
  8
_1
100
AcDbSpline
 62
7
  6
CONTINUOUS
 70
0
 71
3
 72
9
 73
5
 74
0
 42
0.0000001
 43
0.0000001
 44
0.0000000001
 40
0.0
 40
0.0
 40
0.0
 40
0.0
 40
0.2455808157
 40
1.0
 40
1.0
 40
1.0
 40
1.0
 10
228.9785745185
 20
188.903831163
 30
0.0
 10
228.9896405092
 20
188.9136756623
 30
0.0
 10
229.0334231718
 20
188.9551862309
 30
0.0
 10
229.0718846585
 20
189.002227142
 30
0.0
 10
229.0975988572
 20
189.0397636594
 30
0.0
  0
SPLINE
  5
39B
100
AcDbEntity
  8
_1
100
AcDbSpline
 62
7
  6
CONTINUOUS
 70
0
 71
3
 72
11
 73
7
 74
0
 42
0.0000001
 43
0.0000001
 44
0.0000000001
 40
0.0
 40
0.0
 40
0.0
 40
0.0
 40
0.2372405738
 40
0.5000004574
 40
0.7627600882
 40
1.0
 40
1.0
 40
1.0
 40
1.0
 10
226.4676483643
 20
273.4053084451
 30
0.0
 10
226.768817841
 20
273.2314321003
 30
0.0
 10
227.4691811595
 20
272.97770653
 30
0.0
 10
228.5889717855
 20
272.8561471997
 30
0.0
 10
229.7087608843
 20
272.9777115443
 30
0.0
 10
230.4091216688
 20
273.2314406117
 30
0.0
 10
230.7102890514
 20
273.4053186432
 30
0.0
  0
SPLINE
  5
39C
100
AcDbEntity
  8
_1
100
AcDbSpline
 62
7
  6
CONTINUOUS
 70
0
 71
3
 72
11
 73
7
 74
0
 42
0.0000001
 43
0.0000001
 44
0.0000000001
 40
0.0
 40
0.0
 40
0.0
 40
0.0
 40
0.2177817009
 40
0.4509079353
 40
0.7102947134
 40
1.0
 40
1.0
 40
1.0
 40
1.0
 10
210.7396706174
 20
283.2030967517
 30
0.0
 10
210.7396706386
 20
283.0888315104
 30
0.0
 10
210.7818973044
 20
282.8506665786
 30
0.0
 10
210.9624509959
 20
282.5188266244
 30
0.0
 10
211.2478807102
 20
282.218856922
 30
0.0
 10
211.4867058366
 20
282.0543639784
 30
0.0
 10
211.6183441362
 20
281.9783642901
 30
0.0
  0
SPLINE
  5
39D
100
AcDbEntity
  8
_1
100
AcDbSpline
 62
7
  6
CONTINUOUS
 70
0
 71
3
 72
11
 73
7
 74
0
 42
0.0000001
 43
0.0000001
 44
0.0000000001
 40
0.0
 40
0.0
 40
0.0
 40
0.0
 40
0.2897052857
 40
0.5490919933
 40
0.7822182543
 40
1.0
 40
1.0
 40
1.0
 40
1.0
 10
211.6183441362
 20
281.5701130815
 30
0.0
 10
211.4867058365
 20
281.6461127699
 30
0.0
 10
211.2478807124
 20
281.8106056524
 30
0.0
 10
210.9624510331
 20
282.1105753688
 30
0.0
 10
210.7818973548
 20
282.4424153076
 30
0.0
 10
210.7396705854
 20
282.6805802779
 30
0.0
 10
210.7396706175
 20
282.7948455431
 30
0.0
  0
SPLINE
  5
39E
100
AcDbEntity
  8
_1
100
AcDbSpline
 62
7
  6
CONTINUOUS
 70
0
 71
3
 72
11
 73
7
 74
0
 42
0.0000001
 43
0.0000001
 44
0.0000000001
 40
0.0
 40
0.0
 40
0.0
 40
0.0
 40
0.2897048043
 40
0.5490913404
 40
0.7822177947
 40
1.0
 40
1.0
 40
1.0
 40
1.0
 10
245.5594696329
 20
281.9784458745
 30
0.0
 10
245.6911054701
 20
282.0544454069
 30
0.0
 10
245.9299260617
 20
282.2189376619
 30
0.0
 10
246.2153499423
 20
282.5189051552
 30
0.0
 10
246.3958997316
 20
282.8507418793
 30
0.0
 10
246.438125509
 20
283.0889041036
 30
0.0
 10
246.4381254878
 20
283.203168138
 30
0.0
  0
SPLINE
  5
39F
100
AcDbEntity
  8
_1
100
AcDbSpline
 62
7
  6
CONTINUOUS
 70
0
 71
3
 72
9
 73
5
 74
0
 42
0.0000001
 43
0.0000001
 44
0.0000000001
 40
0.0
 40
0.0
 40
0.0
 40
0.0
 40
0.4675765891
 40
1.0
 40
1.0
 40
1.0
 40
1.0
 10
239.9704462825
 20
195.338089909
 30
0.0
 10
240.0679207962
 20
195.3943059999
 30
0.0
 10
240.2452727093
 20
195.5725526111
 30
0.0
 10
240.3275383045
 20
195.8051961716
 30
0.0
 10
240.3535102776
 20
195.9306652916
 30
0.0
  0
SPLINE
  5
3A0
100
AcDbEntity
  8
_1
100
AcDbSpline
 62
7
  6
CONTINUOUS
 70
0
 71
3
 72
11
 73
7
 74
0
 42
0.0000001
 43
0.0000001
 44
0.0000000001
 40
0.0
 40
0.0
 40
0.0
 40
0.0
 40
0.2372398078
 40
0.4999994051
 40
0.7627593222
 40
1.0
 40
1.0
 40
1.0
 40
1.0
 10
230.7102890514
 20
272.9970674346
 30
0.0
 10
230.4091218009
 20
272.8231894794
 30
0.0
 10
229.7087612369
 20
272.5694604316
 30
0.0
 10
228.5889723006
 20
272.4478959912
 30
0.0
 10
227.4691815121
 20
272.5694552256
 30
0.0
 10
226.768817973
 20
272.8231808155
 30
0.0
 10
226.4676483643
 20
272.9970572366
 30
0.0
  0
SPLINE
  5
3A1
100
AcDbEntity
  8
_1
100
AcDbSpline
 62
7
  6
CONTINUOUS
 70
0
 71
3
 72
11
 73
7
 74
0
 42
0.0000001
 43
0.0000001
 44
0.0000000001
 40
0.0
 40
0.0
 40
0.0
 40
0.0
 40
0.2177821605
 40
0.4509085882
 40
0.7102951949
 40
1.0
 40
1.0
 40
1.0
 40
1.0
 10
246.4381254878
 20
282.7949169295
 30
0.0
 10
246.4381254558
 20
282.680652919
 30
0.0
 10
246.395899782
 20
282.4424907331
 30
0.0
 10
246.2153499795
 20
282.1106539936
 30
0.0
 10
245.9299260639
 20
281.8106865144
 30
0.0
 10
245.69110547
 20
281.6461941983
 30
0.0
 10
245.5594696329
 20
281.5701946659
 30
0.0
  0
SPLINE
  5
3A2
100
AcDbEntity
  8
_1
100
AcDbSpline
 62
7
  6
CONTINUOUS
 70
0
 71
3
 72
9
 73
5
 74
0
 42
0.0000001
 43
0.0000001
 44
0.0000000001
 40
0.0
 40
0.0
 40
0.0
 40
0.0
 40
0.2381363303
 40
1.0
 40
1.0
 40
1.0
 40
1.0
 10
235.3418989666
 20
250.033127988
 30
0.0
 10
235.190303062
 20
250.1206499444
 30
0.0
 10
234.5658661364
 20
250.5091246029
 30
0.0
 10
233.9900090807
 20
250.9733706263
 30
0.0
 10
233.5801960601
 20
251.3550501108
 30
0.0
  0
SPLINE
  5
3A3
100
AcDbEntity
  8
_1
100
AcDbSpline
 62
7
  6
CONTINUOUS
 70
0
 71
3
 72
9
 73
5
 74
0
 42
0.0000001
 43
0.0000001
 44
0.0000000001
 40
0.0
 40
0.0
 40
0.0
 40
0.0
 40
0.2439674935
 40
1.0
 40
1.0
 40
1.0
 40
1.0
 10
233.5801960601
 20
251.3550501108
 30
0.0
 10
233.4545498761
 20
251.4720707234
 30
0.0
 10
232.9502061165
 20
251.9631113577
 30
0.0
 10
232.4880744689
 20
252.497055175
 30
0.0
 10
232.1631539412
 20
252.9184068365
 30
0.0
  0
SPLINE
  5
3A4
100
AcDbEntity
  8
_1
100
AcDbSpline
 62
7
  6
CONTINUOUS
 70
0
 71
3
 72
9
 73
5
 74
0
 42
0.0000001
 43
0.0000001
 44
0.0000000001
 40
0.0
 40
0.0
 40
0.0
 40
0.0
 40
0.25538761
 40
1.0
 40
1.0
 40
1.0
 40
1.0
 10
230.2828976798
 20
256.1468521238
 30
0.0
 10
230.2130023716
 20
256.3130409531
 30
0.0
 10
229.9518886458
 20
256.9689413579
 30
0.0
 10
229.7414315357
 20
257.6453720146
 30
0.0
 10
229.6189913951
 20
258.1565664839
 30
0.0
  0
SPLINE
  5
3A5
100
AcDbEntity
  8
_1
100
AcDbSpline
 62
7
  6
CONTINUOUS
 70
0
 71
3
 72
9
 73
5
 74
0
 42
0.0000001
 43
0.0000001
 44
0.0000000001
 40
0.0
 40
0.0
 40
0.0
 40
0.0
 40
0.2612698425
 40
1.0
 40
1.0
 40
1.0
 40
1.0
 10
229.6189913951
 20
258.1565664839
 30
0.0
 10
229.5740195046
 20
258.3443266551
 30
0.0
 10
229.4196659929
 20
259.0669378694
 30
0.0
 10
229.3381293918
 20
259.8064367492
 30
0.0
 10
229.3319812312
 20
260.3523023251
 30
0.0
  0
SPLINE
  5
3A6
100
AcDbEntity
  8
_1
100
AcDbSpline
 62
7
  6
CONTINUOUS
 70
0
 71
3
 72
11
 73
7
 74
0
 42
0.0000001
 43
0.0000001
 44
0.0000000001
 40
0.0
 40
0.0
 40
0.0
 40
0.0
 40
0.2897048043
 40
0.5490913404
 40
0.7822177947
 40
1.0
 40
1.0
 40
1.0
 40
1.0
 10
46.7924037653
 20
160.3618669043
 30
0.0
 10
46.6607679281
 20
160.2858673719
 30
0.0
 10
46.4219473364
 20
160.1213751169
 30
0.0
 10
46.1365234558
 20
159.8214076236
 30
0.0
 10
45.9559736665
 20
159.4895708995
 30
0.0
 10
45.9137478891
 20
159.2514086752
 30
0.0
 10
45.9137479103
 20
159.1371446408
 30
0.0
  0
SPLINE
  5
3A7
100
AcDbEntity
  8
_1
100
AcDbSpline
 62
7
  6
CONTINUOUS
 70
0
 71
3
 72
11
 73
7
 74
0
 42
0.0000001
 43
0.0000001
 44
0.0000000001
 40
0.0
 40
0.0
 40
0.0
 40
0.0
 40
0.2372405738
 40
0.5000004574
 40
0.7627600882
 40
1.0
 40
1.0
 40
1.0
 40
1.0
 10
68.0055365455
 20
170.1597367953
 30
0.0
 10
67.7043670687
 20
170.3336131401
 30
0.0
 10
67.0040037503
 20
170.5873387104
 30
0.0
 10
65.8842131242
 20
170.7088980407
 30
0.0
 10
64.7644240255
 20
170.5873336962
 30
0.0
 10
64.0640632409
 20
170.3336046287
 30
0.0
 10
63.7628958584
 20
170.1597265972
 30
0.0
  0
SPLINE
  5
3A8
100
AcDbEntity
  8
_1
100
AcDbSpline
 62
7
  6
CONTINUOUS
 70
0
 71
3
 72
17
 73
13
 74
0
 42
0.0000001
 43
0.0000001
 44
0.0000000001
 40
0.0
 40
0.0
 40
0.0
 40
0.0
 40
0.0428577878
 40
0.087486176
 40
0.1353174813
 40
0.1872826454
 40
0.3045432974
 40
0.438210469
 40
0.5825530129
 40
0.7297133842
 40
0.8713035225
 40
1.0
 40
1.0
 40
1.0
 40
1.0
 10
98.0411982595
 20
182.8993905292
 30
0.0
 10
98.1521451014
 20
182.9634206747
 30
0.0
 10
98.3966675269
 20
183.0651178388
 30
0.0
 10
98.8003487955
 20
183.1241837854
 30
0.0
 10
99.2338633135
 20
183.0924050926
 30
0.0
 10
99.8637283872
 20
182.9247562991
 30
0.0
 10
100.6689732014
 20
182.4845647288
 30
0.0
 10
101.5585945133
 20
181.6966671038
 30
0.0
 10
102.3449887587
 20
180.6901088671
 30
0.0
 10
102.9638739075
 20
179.5461643858
 30
0.0
 10
103.3655654873
 20
178.3586568011
 30
0.0
 10
103.4731691921
 20
177.5498706466
 30
0.0
 10
103.4731691921
 20
177.1652090962
 30
0.0
  0
SPLINE
  5
3A9
100
AcDbEntity
  8
_1
100
AcDbSpline
 62
7
  6
CONTINUOUS
 70
0
 71
3
 72
17
 73
13
 74
0
 42
0.0000001
 43
0.0000001
 44
0.0000000001
 40
0.0
 40
0.0
 40
0.0
 40
0.0
 40
0.1286888796
 40
0.2702755615
 40
0.4174294529
 40
0.5617772457
 40
0.6954484944
 40
0.8127114813
 40
0.864676537
 40
0.9125107088
 40
0.9571401103
 40
1.0
 40
1.0
 40
1.0
 40
1.0
 10
36.5393598541
 20
149.9514495722
 30
0.0
 10
36.5393598541
 20
149.1394326117
 30
0.0
 10
36.7665445296
 20
147.4320728145
 30
0.0
 10
37.6143574112
 20
144.9251560037
 30
0.0
 10
38.9209188932
 20
142.5101956561
 30
0.0
 10
40.5810826543
 20
140.3852099029
 30
0.0
 10
42.4591869521
 20
138.7217897037
 30
0.0
 10
44.1591717143
 20
137.7923873374
 30
0.0
 10
45.4889174279
 20
137.4385366871
 30
0.0
 10
46.4041484274
 20
137.3712198104
 30
0.0
 10
47.2563452868
 20
137.496198337
 30
0.0
 10
47.7726650139
 20
137.7106975061
 30
0.0
 10
48.0068620527
 20
137.8459415677
 30
0.0
  0
SPLINE
  5
3AA
100
AcDbEntity
  8
_1
100
AcDbSpline
 62
7
  6
CONTINUOUS
 70
0
 71
3
 72
9
 73
5
 74
0
 42
0.0000001
 43
0.0000001
 44
0.0000000001
 40
0.0
 40
0.0
 40
0.0
 40
0.0
 40
0.4801536199
 40
1.0
 40
1.0
 40
1.0
 40
1.0
 10
51.0348678144
 20
175.0583953486
 30
0.0
 10
51.0348678144
 20
173.2606512092
 30
0.0
 10
51.387766748
 20
169.5133702562
 30
0.0
 10
52.2905443558
 20
165.8666917909
 30
0.0
 10
52.8770140387
 20
164.0107924615
 30
0.0
  0
SPLINE
  5
3AB
100
AcDbEntity
  8
_1
100
AcDbSpline
 62
7
  6
CONTINUOUS
 70
0
 71
3
 72
15
 73
11
 74
0
 42
0.0000001
 43
0.0000001
 44
0.0000000001
 40
0.0
 40
0.0
 40
0.0
 40
0.0
 40
0.1569840498
 40
0.3063585635
 40
0.4463515601
 40
0.5758138686
 40
0.6944413927
 40
0.8030327413
 40
0.9037213106
 40
1.0
 40
1.0
 40
1.0
 40
1.0
 10
62.8493025846
 20
146.2779238275
 30
0.0
 10
63.8159390637
 20
145.1682330139
 30
0.0
 10
65.8058316118
 20
143.0896064429
 30
0.0
 10
69.0036132549
 20
140.3784042404
 30
0.0
 10
72.2816329801
 20
138.1986764485
 30
0.0
 10
75.5652663613
 20
136.6026761127
 30
0.0
 10
78.7819803849
 20
135.6304397683
 30
0.0
 10
81.8623463733
 20
135.3132934244
 30
0.0
 10
84.7317073891
 20
135.6734488183
 30
0.0
 10
86.4664311161
 20
136.3790968583
 30
0.0
 10
87.2480858287
 20
136.8303832365
 30
0.0
  0
SPLINE
  5
3AC
100
AcDbEntity
  8
_1
100
AcDbSpline
 62
7
  6
CONTINUOUS
 70
0
 71
3
 72
11
 73
7
 74
0
 42
0.0000001
 43
0.0000001
 44
0.0000000001
 40
0.0
 40
0.0
 40
0.0
 40
0.0
 40
0.2308985949
 40
0.4763243377
 40
0.7337433399
 40
1.0
 40
1.0
 40
1.0
 40
1.0
 10
35.4784803568
 20
180.3655098603
 30
0.0
 10
35.4784803568
 20
178.4134190162
 30
0.0
 10
35.7403970965
 20
174.3837821067
 30
0.0
 10
36.819229112
 20
168.2645629755
 30
0.0
 10
38.5735339478
 20
161.9936552573
 30
0.0
 10
40.1500468857
 20
157.8493535273
 30
0.0
 10
41.0392384688
 20
155.7814013721
 30
0.0
  0
SPLINE
  5
3AD
100
AcDbEntity
  8
_1
100
AcDbSpline
 62
7
  6
CONTINUOUS
 70
0
 71
3
 72
17
 73
13
 74
0
 42
0.0000001
 43
0.0000001
 44
0.0000000001
 40
0.0
 40
0.0
 40
0.0
 40
0.0
 40
0.1569683639
 40
0.3073961428
 40
0.4488492092
 40
0.5795532624
 40
0.6986783806
 40
0.8066847602
 40
0.8572056935
 40
0.905890888
 40
0.9532810211
 40
1.0
 40
1.0
 40
1.0
 40
1.0
 10
50.6041846678
 20
139.2334493653
 30
0.0
 10
52.1785787222
 20
137.1282765097
 30
0.0
 10
55.4696445134
 20
133.1555127539
 30
0.0
 10
60.8685668455
 20
127.9033184364
 30
0.0
 10
66.5059161347
 20
123.5934633352
 30
0.0
 10
72.2273879542
 20
120.3490646767
 30
0.0
 10
77.8780001455
 20
118.2647247299
 30
0.0
 10
82.5143806823
 20
117.5418242605
 30
0.0
 10
85.9915537283
 20
117.6478371363
 30
0.0
 10
88.4222231214
 20
118.0448637734
 30
0.0
 10
90.7126354784
 20
118.7592705577
 30
0.0
 10
92.138463048
 20
119.4466611745
 30
0.0
 10
92.8160528964
 20
119.8378632633
 30
0.0
  0
SPLINE
  5
3AE
100
AcDbEntity
  8
_1
100
AcDbSpline
 62
7
  6
CONTINUOUS
 70
0
 71
3
 72
14
 73
10
 74
0
 42
0.0000001
 43
0.0000001
 44
0.0000000001
 40
0.0
 40
0.0
 40
0.0
 40
0.0
 40
0.2892788482
 40
0.4225365085
 40
0.5484964133
 40
0.6678938316
 40
0.7818677421
 40
0.8919524217
 40
1.0
 40
1.0
 40
1.0
 40
1.0
 10
99.8254653452
 20
143.2156011989
 30
0.0
 10
99.8254653452
 20
141.0107115048
 30
0.0
 10
99.5680507923
 20
137.7742939078
 30
0.0
 10
98.5730659797
 20
133.7064217981
 30
0.0
 10
97.5608193335
 20
130.9957617745
 30
0.0
 10
96.2706198433
 20
128.5700480888
 30
0.0
 10
94.7123806894
 20
126.453672661
 30
0.0
 10
92.9005378163
 20
124.6705413629
 30
0.0
 10
91.5292739262
 20
123.7137324895
 30
0.0
 10
90.8160649522
 20
123.301964669
 30
0.0
  0
SPLINE
  5
3AF
100
AcDbEntity
  8
_1
100
AcDbSpline
 62
7
  6
CONTINUOUS
 70
0
 71
3
 72
11
 73
7
 74
0
 42
0.0000001
 43
0.0000001
 44
0.0000000001
 40
0.0
 40
0.0
 40
0.0
 40
0.0
 40
0.2898003451
 40
0.5490479149
 40
0.782227445
 40
1.0
 40
1.0
 40
1.0
 40
1.0
 10
100.5014465582
 20
104.8578965179
 30
0.0
 10
100.8745488521
 20
104.6424906813
 30
0.0
 10
101.6163905455
 20
104.2893238784
 30
0.0
 10
102.7568935839
 20
104.0143010612
 30
0.0
 10
103.8268084853
 20
104.0411065167
 30
0.0
 10
104.4710559277
 20
104.2750739554
 30
0.0
 10
104.7514202617
 20
104.4369527347
 30
0.0
  0
SPLINE
  5
3B0
100
AcDbEntity
  8
_1
100
AcDbSpline
 62
7
  6
CONTINUOUS
 70
0
 71
3
 72
13
 73
9
 74
0
 42
0.0000001
 43
0.0000001
 44
0.0000000001
 40
0.0
 40
0.0
 40
0.0
 40
0.0
 40
0.1147598692
 40
0.2383347086
 40
0.5008164557
 40
0.762852046
 40
0.8859052873
 40
1.0
 40
1.0
 40
1.0
 40
1.0
 10
36.5707471694
 20
148.6168932244
 30
0.0
 10
36.5760826274
 20
148.1431836007
 30
0.0
 10
36.6718897303
 20
147.1593468102
 30
0.0
 10
37.155937759
 20
145.1444475713
 30
0.0
 10
38.2562254
 20
142.6786599961
 30
0.0
 10
39.8564119342
 20
140.5061510223
 30
0.0
 10
41.366825085
 20
139.0971898911
 30
0.0
 10
42.1727699671
 20
138.5332118119
 30
0.0
 10
42.5806649048
 20
138.2977188873
 30
0.0
  0
SPLINE
  5
3B1
100
AcDbEntity
  8
_1
100
AcDbSpline
 62
7
  6
CONTINUOUS
 70
0
 71
3
 72
11
 73
7
 74
0
 42
0.0000001
 43
0.0000001
 44
0.0000000001
 40
0.0
 40
0.0
 40
0.0
 40
0.0
 40
0.2897481726
 40
0.5490824707
 40
0.7822235017
 40
1.0
 40
1.0
 40
1.0
 40
1.0
 10
103.4731691921
 20
177.1652090962
 30
0.0
 10
103.4731691921
 20
176.9371662556
 30
0.0
 10
103.4386481826
 20
176.5035434207
 30
0.0
 10
103.2629774445
 20
175.907775854
 30
0.0
 10
102.9673144111
 20
175.4243885241
 30
0.0
 10
102.689602469
 20
175.1908685178
 30
0.0
 10
102.5411525985
 20
175.1051944539
 30
0.0
  0
SPLINE
  5
3B2
100
AcDbEntity
  8
_1
100
AcDbSpline
 62
7
  6
CONTINUOUS
 70
0
 71
3
 72
11
 73
7
 74
0
 42
0.0000001
 43
0.0000001
 44
0.0000000001
 40
0.0
 40
0.0
 40
0.0
 40
0.0
 40
0.2897481726
 40
0.5490824707
 40
0.7822235017
 40
1.0
 40
1.0
 40
1.0
 40
1.0
 10
103.4731691921
 20
110.7694535553
 30
0.0
 10
103.4731691921
 20
110.5414107147
 30
0.0
 10
103.4386481826
 20
110.1077878799
 30
0.0
 10
103.2629774445
 20
109.5120203131
 30
0.0
 10
102.9673144111
 20
109.0286329833
 30
0.0
 10
102.689602469
 20
108.7951129769
 30
0.0
 10
102.5411525985
 20
108.709438913
 30
0.0
  0
SPLINE
  5
3B3
100
AcDbEntity
  8
_1
100
AcDbSpline
 62
7
  6
CONTINUOUS
 70
0
 71
3
 72
11
 73
7
 74
0
 42
0.0000001
 43
0.0000001
 44
0.0000000001
 40
0.0
 40
0.0
 40
0.0
 40
0.0
 40
0.2897481726
 40
0.5490824707
 40
0.7822235017
 40
1.0
 40
1.0
 40
1.0
 40
1.0
 10
45.9729297973
 20
210.3622367722
 30
0.0
 10
45.9729297973
 20
210.1341939315
 30
0.0
 10
45.9384087878
 20
209.7005710967
 30
0.0
 10
45.7627380497
 20
209.10480353
 30
0.0
 10
45.4670750163
 20
208.6214162001
 30
0.0
 10
45.1893630742
 20
208.3878961937
 30
0.0
 10
45.0409132036
 20
208.3022221299
 30
0.0
  0
SPLINE
  5
3B4
100
AcDbEntity
  8
_1
100
AcDbSpline
 62
7
  6
CONTINUOUS
 70
0
 71
3
 72
11
 73
7
 74
0
 42
0.0000001
 43
0.0000001
 44
0.0000000001
 40
0.0
 40
0.0
 40
0.0
 40
0.0
 40
0.2177434119
 40
0.4508805377
 40
0.710457812
 40
1.0
 40
1.0
 40
1.0
 40
1.0
 10
95.8147441375
 20
212.0869659615
 30
0.0
 10
95.8147441139
 20
212.1631279081
 30
0.0
 10
95.7867757194
 20
212.3219184419
 30
0.0
 10
95.6663197019
 20
212.5431994489
 30
0.0
 10
95.4759320772
 20
212.7430724522
 30
0.0
 10
95.3167714642
 20
212.8528173247
 30
0.0
 10
95.2290637179
 20
212.90345427
 30
0.0
  0
SPLINE
  5
3B5
100
AcDbEntity
  8
_1
100
AcDbSpline
 62
7
  6
CONTINUOUS
 70
0
 71
3
 72
13
 73
9
 74
0
 42
0.0000001
 43
0.0000001
 44
0.0000000001
 40
0.0
 40
0.0
 40
0.0
 40
0.0
 40
0.1140947246
 40
0.2371479795
 40
0.4991835791
 40
0.761665317
 40
0.8852401428
 40
1.0
 40
1.0
 40
1.0
 40
1.0
 10
108.9866926048
 20
191.4070680773
 30
0.0
 10
109.3945875851
 20
191.1715751282
 30
0.0
 10
110.2005325444
 20
190.6075969737
 30
0.0
 10
111.7109457805
 20
189.1986357229
 30
0.0
 10
113.3111322912
 20
187.0261266567
 30
0.0
 10
114.4114198407
 20
184.5603391062
 30
0.0
 10
114.8954678075
 20
182.5454400005
 30
0.0
 10
114.9912748828
 20
181.5616033147
 30
0.0
 10
114.9966103402
 20
181.0878937402
 30
0.0
  0
SPLINE
  5
3B6
100
AcDbEntity
  8
_1
100
AcDbSpline
 62
7
  6
CONTINUOUS
 70
0
 71
3
 72
17
 73
13
 74
0
 42
0.0000001
 43
0.0000001
 44
0.0000000001
 40
0.0
 40
0.0
 40
0.0
 40
0.0
 40
0.0428577878
 40
0.087486176
 40
0.1353174813
 40
0.1872826454
 40
0.3045432974
 40
0.438210469
 40
0.5825530129
 40
0.7297133842
 40
0.8713035225
 40
1.0
 40
1.0
 40
1.0
 40
1.0
 10
40.5409588646
 20
216.0964182051
 30
0.0
 10
40.6519057065
 20
216.1604483507
 30
0.0
 10
40.8964281321
 20
216.2621455147
 30
0.0
 10
41.3001094006
 20
216.3212114613
 30
0.0
 10
41.7336239186
 20
216.2894327686
 30
0.0
 10
42.3634889923
 20
216.1217839751
 30
0.0
 10
43.1687338066
 20
215.6815924048
 30
0.0
 10
44.0583551184
 20
214.8936947798
 30
0.0
 10
44.8447493638
 20
213.8871365431
 30
0.0
 10
45.4636345127
 20
212.7431920617
 30
0.0
 10
45.8653260924
 20
211.5556844771
 30
0.0
 10
45.9729297973
 20
210.7468983225
 30
0.0
 10
45.9729297973
 20
210.3622367722
 30
0.0
  0
SPLINE
  5
3B7
100
AcDbEntity
  8
_1
100
AcDbSpline
 62
7
  6
CONTINUOUS
 70
0
 71
3
 72
11
 73
7
 74
0
 42
0.0000001
 43
0.0000001
 44
0.0000000001
 40
0.0
 40
0.0
 40
0.0
 40
0.0
 40
0.218497652
 40
0.4519822407
 40
0.7109565306
 40
1.0
 40
1.0
 40
1.0
 40
1.0
 10
38.3306912014
 20
220.3689043835
 30
0.0
 10
38.0550638376
 20
220.2097606702
 30
0.0
 10
37.5387344673
 20
219.7786334496
 30
0.0
 10
36.9843754661
 20
218.8875326608
 30
0.0
 10
36.6481428748
 20
217.7895087513
 30
0.0
 10
36.5755514838
 20
216.989289034
 30
0.0
 10
36.5707471694
 20
216.5682845154
 30
0.0
  0
SPLINE
  5
3B8
100
AcDbEntity
  8
_1
100
AcDbSpline
 62
7
  6
CONTINUOUS
 70
0
 71
3
 72
11
 73
7
 74
0
 42
0.0000001
 43
0.0000001
 44
0.0000000001
 40
0.0
 40
0.0
 40
0.0
 40
0.0
 40
0.2177725651
 40
0.4509521023
 40
0.7101996636
 40
1.0
 40
1.0
 40
1.0
 40
1.0
 10
46.8159372493
 20
225.2678342278
 30
0.0
 10
47.0963015849
 20
225.4297130345
 30
0.0
 10
47.7405490694
 20
225.6636804578
 30
0.0
 10
48.8104639785
 20
225.6904858947
 30
0.0
 10
49.9509670036
 20
225.4154630797
 30
0.0
 10
50.6928086686
 20
225.062296277
 30
0.0
 10
51.0659109514
 20
224.8468904467
 30
0.0
  0
SPLINE
  5
3B9
100
AcDbEntity
  8
_1
100
AcDbSpline
 62
7
  6
CONTINUOUS
 70
0
 71
3
 72
17
 73
13
 74
0
 42
0.0000001
 43
0.0000001
 44
0.0000000001
 40
0.0
 40
0.0
 40
0.0
 40
0.0
 40
0.0428577878
 40
0.087486176
 40
0.1353174813
 40
0.1872826454
 40
0.3045432974
 40
0.438210469
 40
0.5825530129
 40
0.7297133842
 40
0.8713035225
 40
1.0
 40
1.0
 40
1.0
 40
1.0
 10
98.0411982595
 20
116.5036349883
 30
0.0
 10
98.1521451014
 20
116.5676651338
 30
0.0
 10
98.3966675269
 20
116.6693622979
 30
0.0
 10
98.8003487955
 20
116.7284282445
 30
0.0
 10
99.2338633135
 20
116.6966495518
 30
0.0
 10
99.8637283872
 20
116.5290007582
 30
0.0
 10
100.6689732014
 20
116.0888091879
 30
0.0
 10
101.5585945133
 20
115.300911563
 30
0.0
 10
102.3449887587
 20
114.2943533263
 30
0.0
 10
102.9638739075
 20
113.1504088449
 30
0.0
 10
103.3655654873
 20
111.9629012603
 30
0.0
 10
103.4731691921
 20
111.1541151057
 30
0.0
 10
103.4731691921
 20
110.7694535553
 30
0.0
  0
SPLINE
  5
3BA
100
AcDbEntity
  8
_1
100
AcDbSpline
 62
7
  6
CONTINUOUS
 70
0
 71
3
 72
11
 73
7
 74
0
 42
0.0000001
 43
0.0000001
 44
0.0000000001
 40
0.0
 40
0.0
 40
0.0
 40
0.0
 40
0.2177495119
 40
0.4508857243
 40
0.710451142
 40
1.0
 40
1.0
 40
1.0
 40
1.0
 10
70.1499911283
 20
227.6390188055
 30
0.0
 10
70.2159536869
 20
227.6770960872
 30
0.0
 10
70.3674538632
 20
227.732272581
 30
0.0
 10
70.6193137583
 20
227.7385953953
 30
0.0
 10
70.8876034468
 20
227.6736680344
 30
0.0
 10
71.0622231224
 20
227.5907018148
 30
0.0
 10
71.1499326728
 20
227.5400638278
 30
0.0
  0
SPLINE
  5
3BB
100
AcDbEntity
  8
_1
100
AcDbSpline
 62
7
  6
CONTINUOUS
 70
0
 71
3
 72
14
 73
10
 74
0
 42
0.0000001
 43
0.0000001
 44
0.0000000001
 40
0.0
 40
0.0
 40
0.0
 40
0.0
 40
0.1101218664
 40
0.2219729361
 40
0.337149393
 40
0.4570172164
 40
0.5826518764
 40
0.7148006026
 40
1.0
 40
1.0
 40
1.0
 40
1.0
 10
45.3163317062
 20
202.1102847778
 30
0.0
 10
44.6072531476
 20
201.7009028872
 30
0.0
 10
43.2400550462
 20
200.7626072269
 30
0.0
 10
41.4079097736
 20
199.0386165241
 30
0.0
 10
39.8017073718
 20
197.0094342097
 30
0.0
 10
38.4341672113
 20
194.6939189662
 30
0.0
 10
37.3148625505
 20
192.1113551813
 30
0.0
 10
36.1335725327
 20
188.2442541531
 30
0.0
 10
35.6941891282
 20
185.1484391717
 30
0.0
 10
35.5609149898
 20
183.0321353417
 30
0.0
  0
SPLINE
  5
3BC
100
AcDbEntity
  8
_1
100
AcDbSpline
 62
7
  6
CONTINUOUS
 70
0
 71
3
 72
9
 73
5
 74
0
 42
0.0000001
 43
0.0000001
 44
0.0000000001
 40
0.0
 40
0.0
 40
0.0
 40
0.0
 40
0.2467022531
 40
1.0
 40
1.0
 40
1.0
 40
1.0
 10
35.5609149898
 20
183.0321353417
 30
0.0
 10
35.5471247992
 20
182.8131563754
 30
0.0
 10
35.4984869379
 20
181.9250854134
 30
0.0
 10
35.4784803568
 20
181.0354799632
 30
0.0
 10
35.4784803568
 20
180.3655098603
 30
0.0
  0
SPLINE
  5
3BD
100
AcDbEntity
  8
_1
100
AcDbSpline
 62
7
  6
CONTINUOUS
 70
0
 71
3
 72
23
 73
19
 74
0
 42
0.0000001
 43
0.0000001
 44
0.0000000001
 40
0.0
 40
0.0
 40
0.0
 40
0.0
 40
0.0428145084
 40
0.0873965009
 40
0.1351793882
 40
0.1870886988
 40
0.2435354234
 40
0.304493014
 40
0.3695910862
 40
0.4381991879
 40
0.50949683
 40
0.5825325203
 40
0.6562755826
 40
0.7296643602
 40
0.801652172
 40
0.8712565547
 40
0.9376056829
 40
1.0
 40
1.0
 40
1.0
 40
1.0
 10
47.3163196504
 20
198.6461833721
 30
0.0
 10
48.3887708621
 20
199.2653579957
 30
0.0
 10
50.7528061509
 20
200.247930698
 30
0.0
 10
54.655172773
 20
200.819851772
 30
0.0
 10
58.8456864631
 20
200.5113854006
 30
0.0
 10
63.2313311434
 20
199.3461624794
 30
0.0
 10
67.725985903
 20
197.3597328672
 30
0.0
 10
72.2401774781
 20
194.5979832297
 30
0.0
 10
76.6822091945
 20
191.1204002983
 30
0.0
 10
80.959846459
 20
187.0006772523
 30
0.0
 10
84.9830679351
 20
182.3261432236
 30
0.0
 10
88.6665183253
 20
177.1961702764
 30
0.0
 10
91.9317425353
 20
171.7200848707
 30
0.0
 10
94.709073942
 20
166.0146745911
 30
0.0
 10
96.9393163675
 20
160.2016681799
 30
0.0
 10
98.5749127751
 20
154.4042923094
 30
0.0
 10
99.5809903263
 20
148.7465151411
 30
0.0
 10
99.8254653452
 20
145.0202805311
 30
0.0
 10
99.8254653452
 20
143.2156011989
 30
0.0
  0
SPLINE
  5
3BE
100
AcDbEntity
  8
_1
100
AcDbSpline
 62
7
  6
CONTINUOUS
 70
0
 71
3
 72
14
 73
10
 74
0
 42
0.0000001
 43
0.0000001
 44
0.0000000001
 40
0.0
 40
0.0
 40
0.0
 40
0.0
 40
0.1080484326
 40
0.218131421
 40
0.3321037092
 40
0.4515029974
 40
0.5774571748
 40
0.7107168778
 40
1.0
 40
1.0
 40
1.0
 40
1.0
 10
57.2482333088
 20
188.7919621894
 30
0.0
 10
56.7563618451
 20
188.5079814396
 30
0.0
 10
55.81072312
 20
187.8480344156
 30
0.0
 10
54.5611541794
 20
186.6183471466
 30
0.0
 10
53.4864517007
 20
185.1588163697
 30
0.0
 10
52.596786031
 20
183.4858787526
 30
0.0
 10
51.8985764095
 20
181.6165150533
 30
0.0
 10
51.2124099483
 20
178.8110693173
 30
0.0
 10
51.0348678144
 20
176.5790307465
 30
0.0
 10
51.0348678144
 20
175.0583953486
 30
0.0
  0
SPLINE
  5
3BF
100
AcDbEntity
  8
_1
100
AcDbSpline
 62
7
  6
CONTINUOUS
 70
0
 71
3
 72
11
 73
7
 74
0
 42
0.0000001
 43
0.0000001
 44
0.0000000001
 40
0.0
 40
0.0
 40
0.0
 40
0.0
 40
0.2177697575
 40
0.4509415106
 40
0.710211329
 40
1.0
 40
1.0
 40
1.0
 40
1.0
 10
38.5069424333
 20
154.3003832407
 30
0.0
 10
38.1936030829
 20
154.1194360919
 30
0.0
 10
37.6071051236
 20
153.6266548662
 30
0.0
 10
36.9831883109
 20
152.6060258567
 30
0.0
 10
36.6121065985
 20
151.348373998
 30
0.0
 10
36.5393598541
 20
150.4329453742
 30
0.0
 10
36.5393598541
 20
149.9514495722
 30
0.0
  0
SPLINE
  5
3C0
100
AcDbEntity
  8
_1
100
AcDbSpline
 62
7
  6
CONTINUOUS
 70
0
 71
3
 72
11
 73
7
 74
0
 42
0.0000001
 43
0.0000001
 44
0.0000000001
 40
0.0
 40
0.0
 40
0.0
 40
0.0
 40
0.2890434775
 40
0.5480177766
 40
0.7815023579
 40
1.0
 40
1.0
 40
1.0
 40
1.0
 10
114.9966103402
 20
113.1365024492
 30
0.0
 10
114.9918060258
 20
112.7154979193
 30
0.0
 10
114.9192146194
 20
111.9152781787
 30
0.0
 10
114.5829820253
 20
110.817254257
 30
0.0
 10
114.0286230088
 20
109.9261534858
 30
0.0
 10
113.5122936468
 20
109.4950263088
 30
0.0
 10
113.236666307
 20
109.3358825833
 30
0.0
  0
SPLINE
  5
3C1
100
AcDbEntity
  8
_1
100
AcDbSpline
 62
7
  6
CONTINUOUS
 70
0
 71
3
 72
13
 73
9
 74
0
 42
0.0000001
 43
0.0000001
 44
0.0000000001
 40
0.0
 40
0.0
 40
0.0
 40
0.0
 40
0.1147598692
 40
0.2383347086
 40
0.5008164557
 40
0.762852046
 40
0.8859052873
 40
1.0
 40
1.0
 40
1.0
 40
1.0
 10
115.1347115212
 20
194.4208714749
 30
0.0
 10
115.1400469791
 20
193.9471618511
 30
0.0
 10
115.235854082
 20
192.9633250607
 30
0.0
 10
115.7199021108
 20
190.9484258218
 30
0.0
 10
116.8201897517
 20
188.4826382466
 30
0.0
 10
118.420376286
 20
186.3101292727
 30
0.0
 10
119.9307894367
 20
184.9011681416
 30
0.0
 10
120.7367343188
 20
184.3371900623
 30
0.0
 10
121.1446292566
 20
184.1016971378
 30
0.0
  0
SPLINE
  5
3C2
100
AcDbEntity
  8
_1
100
AcDbSpline
 62
7
  6
CONTINUOUS
 70
0
 71
3
 72
11
 73
7
 74
0
 42
0.0000001
 43
0.0000001
 44
0.0000000001
 40
0.0
 40
0.0
 40
0.0
 40
0.0
 40
0.2368641689
 40
0.4991784024
 40
0.7619387912
 40
1.0
 40
1.0
 40
1.0
 40
1.0
 10
113.6513051859
 20
203.0024400817
 30
0.0
 10
113.8503155867
 20
202.8875439725
 30
0.0
 10
114.2272922455
 20
202.5712397716
 30
0.0
 10
114.6686154679
 20
201.9715248681
 30
0.0
 10
114.9728051135
 20
201.2906202426
 30
0.0
 10
115.0628023355
 20
200.8053418507
 30
0.0
 10
115.0654034766
 20
200.5743990612
 30
0.0
  0
SPLINE
  5
3C3
100
AcDbEntity
  8
_1
100
AcDbSpline
 62
7
  6
CONTINUOUS
 70
0
 71
3
 72
11
 73
7
 74
0
 42
0.0000001
 43
0.0000001
 44
0.0000000001
 40
0.0
 40
0.0
 40
0.0
 40
0.0
 40
0.2177817009
 40
0.4509079353
 40
0.7102947134
 40
1.0
 40
1.0
 40
1.0
 40
1.0
 10
68.8842100642
 20
168.9350043337
 30
0.0
 10
68.8842100431
 20
169.0492695749
 30
0.0
 10
68.8419833773
 20
169.2874345068
 30
0.0
 10
68.6614296858
 20
169.619274461
 30
0.0
 10
68.3759999715
 20
169.9192441634
 30
0.0
 10
68.1371748451
 20
170.0837371069
 30
0.0
 10
68.0055365455
 20
170.1597367953
 30
0.0
  0
SPLINE
  5
3C4
100
AcDbEntity
  8
_1
100
AcDbSpline
 62
7
  6
CONTINUOUS
 70
0
 71
3
 72
11
 73
7
 74
0
 42
0.0000001
 43
0.0000001
 44
0.0000000001
 40
0.0
 40
0.0
 40
0.0
 40
0.0
 40
0.2372531816
 40
0.5000006935
 40
0.7627478297
 40
1.0
 40
1.0
 40
1.0
 40
1.0
 10
88.1579664664
 20
216.9858618152
 30
0.0
 10
87.9571768259
 20
217.1017851457
 30
0.0
 10
87.4902730002
 20
217.2709713458
 30
0.0
 10
86.7437502708
 20
217.3518564266
 30
0.0
 10
85.9972289255
 20
217.2709677789
 30
0.0
 10
85.5303272904
 20
217.1017793008
 30
0.0
 10
85.3295393417
 20
216.9858550165
 30
0.0
  0
SPLINE
  5
3C5
100
AcDbEntity
  8
_1
100
AcDbSpline
 62
7
  6
CONTINUOUS
 70
0
 71
3
 72
11
 73
7
 74
0
 42
0.0000001
 43
0.0000001
 44
0.0000000001
 40
0.0
 40
0.0
 40
0.0
 40
0.0
 40
0.2897776971
 40
0.5490719787
 40
0.7822272299
 40
1.0
 40
1.0
 40
1.0
 40
1.0
 10
72.2481183532
 20
209.4333381699
 30
0.0
 10
71.9408885897
 20
209.255960042
 30
0.0
 10
71.3835696276
 20
208.8722562739
 30
0.0
 10
70.7177166488
 20
208.1721877793
 30
0.0
 10
70.2963968975
 20
207.398015825
 30
0.0
 10
70.1979378813
 20
206.8422593219
 30
0.0
 10
70.1979378848
 20
206.5756528883
 30
0.0
  0
SPLINE
  5
3C6
100
AcDbEntity
  8
_1
100
AcDbSpline
 62
7
  6
CONTINUOUS
 70
0
 71
3
 72
9
 73
5
 74
0
 42
0.0000001
 43
0.0000001
 44
0.0000000001
 40
0.0
 40
0.0
 40
0.0
 40
0.0
 40
0.5324234529
 40
1.0
 40
1.0
 40
1.0
 40
1.0
 10
126.1562405676
 20
129.9992344414
 30
0.0
 10
126.1302685925
 20
129.8737653115
 30
0.0
 10
126.0480029731
 20
129.6411217595
 30
0.0
 10
125.8706510781
 20
129.4628751427
 30
0.0
 10
125.7731765803
 20
129.4066590447
 30
0.0
  0
SPLINE
  5
3C7
100
AcDbEntity
  8
_1
100
AcDbSpline
 62
7
  6
CONTINUOUS
 70
0
 71
3
 72
11
 73
7
 74
0
 42
0.0000001
 43
0.0000001
 44
0.0000000001
 40
0.0
 40
0.0
 40
0.0
 40
0.0
 40
0.2319698822
 40
0.4883769512
 40
0.750967195
 40
1.0
 40
1.0
 40
1.0
 40
1.0
 10
124.773193017
 20
182.006792267
 30
0.0
 10
124.9455643458
 20
181.9072758853
 30
0.0
 10
125.276557408
 20
181.6416463477
 30
0.0
 10
125.6833969346
 20
181.1370676977
 30
0.0
 10
125.9940779054
 20
180.5516094277
 30
0.0
 10
126.121030237
 20
180.1270306139
 30
0.0
 10
126.1562405676
 20
179.9162750482
 30
0.0
  0
SPLINE
  5
3C8
100
AcDbEntity
  8
_1
100
AcDbSpline
 62
7
  6
CONTINUOUS
 70
0
 71
3
 72
24
 73
20
 74
0
 42
0.0000001
 43
0.0000001
 44
0.0000000001
 40
0.0
 40
0.0
 40
0.0
 40
0.0
 40
0.0623889024
 40
0.1287320535
 40
0.1983301929
 40
0.2703117852
 40
0.3436945543
 40
0.4174316663
 40
0.490461351
 40
0.5617530256
 40
0.6303553976
 40
0.6954479681
 40
0.7564003134
 40
0.8128421196
 40
0.8647469388
 40
0.9125257392
 40
0.9571039231
 40
0.9786662214
 40
1.0
 40
1.0
 40
1.0
 40
1.0
 10
102.6539042458
 20
141.5826381808
 30
0.0
 10
102.6539042458
 20
143.553261992
 30
0.0
 10
102.3869505424
 20
147.6221257044
 30
0.0
 10
101.2883658497
 20
153.8001357386
 30
0.0
 10
99.5023820639
 20
160.1305835054
 30
0.0
 10
97.0670667424
 20
166.4781169247
 30
0.0
 10
94.0343468054
 20
172.7081793766
 30
0.0
 10
90.4688616739
 20
178.6878362784
 30
0.0
 10
86.4466916501
 20
184.2895485448
 30
0.0
 10
82.053510066
 20
189.3939357771
 30
0.0
 10
77.3825158306
 20
193.8924865623
 30
0.0
 10
72.5320303984
 20
197.6898564057
 30
0.0
 10
67.602696917
 20
200.7055260291
 30
0.0
 10
62.6948971416
 20
202.8747102535
 30
0.0
 10
57.9054816294
 20
204.1467484592
 30
0.0
 10
53.3312871163
 20
204.4846656224
 30
0.0
 10
49.7352381769
 20
203.9552259405
 30
0.0
 10
47.118242561
 20
203.050161453
 30
0.0
 10
45.899905891
 20
202.4472075351
 30
0.0
 10
45.3163317062
 20
202.1102847778
 30
0.0
  0
SPLINE
  5
3C9
100
AcDbEntity
  8
_1
100
AcDbSpline
 62
7
  6
CONTINUOUS
 70
0
 71
3
 72
17
 73
13
 74
0
 42
0.0000001
 43
0.0000001
 44
0.0000000001
 40
0.0
 40
0.0
 40
0.0
 40
0.0
 40
0.0428577878
 40
0.087486176
 40
0.1353174813
 40
0.1872826454
 40
0.3045432974
 40
0.438210469
 40
0.5825530129
 40
0.7297133842
 40
0.8713035225
 40
1.0
 40
1.0
 40
1.0
 40
1.0
 10
102.5411525985
 20
108.709438913
 30
0.0
 10
102.4302057566
 20
108.6454087675
 30
0.0
 10
102.185683331
 20
108.5437116034
 30
0.0
 10
101.7820020625
 20
108.4846456568
 30
0.0
 10
101.3484875445
 20
108.5164243496
 30
0.0
 10
100.7186224708
 20
108.6840731431
 30
0.0
 10
99.9133776565
 20
109.1242647134
 30
0.0
 10
99.0237563447
 20
109.9121623384
 30
0.0
 10
98.2373620993
 20
110.9187205751
 30
0.0
 10
97.6184769504
 20
112.0626650565
 30
0.0
 10
97.2167853707
 20
113.2501726411
 30
0.0
 10
97.1091816658
 20
114.0589587956
 30
0.0
 10
97.1091816658
 20
114.443620346
 30
0.0
  0
SPLINE
  5
3CA
100
AcDbEntity
  8
_1
100
AcDbSpline
 62
7
  6
CONTINUOUS
 70
0
 71
3
 72
14
 73
10
 74
0
 42
0.0000001
 43
0.0000001
 44
0.0000000001
 40
0.0
 40
0.0
 40
0.0
 40
0.0
 40
0.2892788482
 40
0.4225365085
 40
0.5484964133
 40
0.6678938316
 40
0.7818677421
 40
0.8919524217
 40
1.0
 40
1.0
 40
1.0
 40
1.0
 10
38.3069192574
 20
178.7325468422
 30
0.0
 10
38.3069192574
 20
180.9374365363
 30
0.0
 10
38.5643338103
 20
184.1738541333
 30
0.0
 10
39.5593186229
 20
188.241726243
 30
0.0
 10
40.5715652691
 20
190.9523862666
 30
0.0
 10
41.8617647593
 20
193.3780999523
 30
0.0
 10
43.4200039132
 20
195.4944753801
 30
0.0
 10
45.2318467863
 20
197.2776066781
 30
0.0
 10
46.6031106764
 20
198.2344155516
 30
0.0
 10
47.3163196504
 20
198.6461833721
 30
0.0
  0
SPLINE
  5
3CB
100
AcDbEntity
  8
_1
100
AcDbSpline
 62
7
  6
CONTINUOUS
 70
0
 71
3
 72
11
 73
7
 74
0
 42
0.0000001
 43
0.0000001
 44
0.0000000001
 40
0.0
 40
0.0
 40
0.0
 40
0.0
 40
0.218497652
 40
0.4519822407
 40
0.7109565306
 40
1.0
 40
1.0
 40
1.0
 40
1.0
 10
104.7514202617
 20
104.4369527347
 30
0.0
 10
105.0270476255
 20
104.5960964479
 30
0.0
 10
105.5433769958
 20
105.0272236686
 30
0.0
 10
106.097735997
 20
105.9183244574
 30
0.0
 10
106.4339685883
 20
107.0163483669
 30
0.0
 10
106.5065599793
 20
107.8165680841
 30
0.0
 10
106.5113642937
 20
108.2375726028
 30
0.0
  0
SPLINE
  5
3CC
100
AcDbEntity
  8
_1
100
AcDbSpline
 62
7
  6
CONTINUOUS
 70
0
 71
3
 72
14
 73
10
 74
0
 42
0.0000001
 43
0.0000001
 44
0.0000000001
 40
0.0
 40
0.0
 40
0.0
 40
0.0
 40
0.1080484326
 40
0.218131421
 40
0.3321037092
 40
0.4515029974
 40
0.5774571748
 40
0.7107168778
 40
1.0
 40
1.0
 40
1.0
 40
1.0
 10
87.2480858287
 20
136.8303832365
 30
0.0
 10
87.7399572924
 20
137.1143639864
 30
0.0
 10
88.6855960175
 20
137.7743110103
 30
0.0
 10
89.9351649581
 20
139.0039982793
 30
0.0
 10
91.0098674368
 20
140.4635290562
 30
0.0
 10
91.8995331066
 20
142.1364666733
 30
0.0
 10
92.597742728
 20
144.0058303726
 30
0.0
 10
93.2839091893
 20
146.8112761086
 30
0.0
 10
93.4614513232
 20
149.0433146794
 30
0.0
 10
93.4614513232
 20
150.5639500774
 30
0.0
  0
SPLINE
  5
3CD
100
AcDbEntity
  8
_1
100
AcDbSpline
 62
7
  6
CONTINUOUS
 70
0
 71
3
 72
11
 73
7
 74
0
 42
0.0000001
 43
0.0000001
 44
0.0000000001
 40
0.0
 40
0.0
 40
0.0
 40
0.0
 40
0.3198492911
 40
0.5891759285
 40
0.8102558509
 40
1.0
 40
1.0
 40
1.0
 40
1.0
 10
46.7924214291
 20
155.8711561363
 30
0.0
 10
46.6625058117
 20
155.9461612561
 30
0.0
 10
46.4300793518
 20
156.0972983968
 30
0.0
 10
46.1454311866
 20
156.3520636008
 30
0.0
 10
45.9601770609
 20
156.6172156006
 30
0.0
 10
45.9137484521
 20
156.8110425592
 30
0.0
 10
45.9137478072
 20
156.900034622
 30
0.0
  0
SPLINE
  5
3CE
100
AcDbEntity
  8
_1
100
AcDbSpline
 62
7
  6
CONTINUOUS
 70
0
 71
3
 72
11
 73
7
 74
0
 42
0.0000001
 43
0.0000001
 44
0.0000000001
 40
0.0
 40
0.0
 40
0.0
 40
0.0
 40
0.48824957
 40
0.6231006145
 40
0.7562435844
 40
1.0
 40
1.0
 40
1.0
 40
1.0
 10
51.0350621161
 20
155.4742467004
 30
0.0
 10
50.4164216977
 20
155.1170766203
 30
0.0
 10
49.4136546359
 20
155.0620381302
 30
0.0
 10
48.3332211094
 20
155.2663334067
 30
0.0
 10
47.6118881221
 20
155.4738306
 30
0.0
 10
47.1012761788
 20
155.6928427974
 30
0.0
 10
46.7924214291
 20
155.8711561363
 30
0.0
  0
SPLINE
  5
3CF
100
AcDbEntity
  8
_1
100
AcDbSpline
 62
7
  6
CONTINUOUS
 70
0
 71
3
 72
11
 73
7
 74
0
 42
0.0000001
 43
0.0000001
 44
0.0000000001
 40
0.0
 40
0.0
 40
0.0
 40
0.0
 40
0.2898003451
 40
0.5490479149
 40
0.782227445
 40
1.0
 40
1.0
 40
1.0
 40
1.0
 10
42.5806649048
 20
219.9479606003
 30
0.0
 10
42.207562611
 20
220.1633664369
 30
0.0
 10
41.4657209176
 20
220.5165332398
 30
0.0
 10
40.3252178792
 20
220.791556057
 30
0.0
 10
39.2553029778
 20
220.7647506015
 30
0.0
 10
38.6110555354
 20
220.5307831628
 30
0.0
 10
38.3306912014
 20
220.3689043835
 30
0.0
  0
SPLINE
  5
3D0
100
AcDbEntity
  8
_1
100
AcDbSpline
 62
7
  6
CONTINUOUS
 70
0
 71
3
 72
13
 73
9
 74
0
 42
0.0000001
 43
0.0000001
 44
0.0000000001
 40
0.0
 40
0.0
 40
0.0
 40
0.0
 40
0.1147598692
 40
0.2383347086
 40
0.5008164557
 40
0.762852046
 40
0.8859052873
 40
1.0
 40
1.0
 40
1.0
 40
1.0
 10
106.5113642937
 20
176.1889638937
 30
0.0
 10
106.5060288357
 20
176.6626735175
 30
0.0
 10
106.4102217328
 20
177.646510308
 30
0.0
 10
105.9261737041
 20
179.6614095469
 30
0.0
 10
104.8258860631
 20
182.1271971221
 30
0.0
 10
103.2256995289
 20
184.2997060959
 30
0.0
 10
101.7152863781
 20
185.7086672271
 30
0.0
 10
100.909341496
 20
186.2726453063
 30
0.0
 10
100.5014465582
 20
186.5081382309
 30
0.0
  0
SPLINE
  5
3D1
100
AcDbEntity
  8
_1
100
AcDbSpline
 62
7
  6
CONTINUOUS
 70
0
 71
3
 72
24
 73
20
 74
0
 42
0.0000001
 43
0.0000001
 44
0.0000000001
 40
0.0
 40
0.0
 40
0.0
 40
0.0
 40
0.0213338219
 40
0.0428961556
 40
0.0874743838
 40
0.1352532382
 40
0.1871581433
 40
0.2436000153
 40
0.3045523243
 40
0.3696447563
 40
0.4382469639
 40
0.5095384952
 40
0.5825680025
 40
0.6563048729
 40
0.7296874793
 40
0.8016691365
 40
0.871267481
 40
0.9376109291
 40
1.0
 40
1.0
 40
1.0
 40
1.0
 10
47.791194894
 20
203.5391397402
 30
0.0
 10
48.3747698728
 20
203.8760638572
 30
0.0
 10
49.593109315
 20
204.4790180276
 30
0.0
 10
52.2101088294
 20
205.3840829643
 30
0.0
 10
55.8061624068
 20
205.9135213225
 30
0.0
 10
60.3803625424
 20
205.5756004835
 30
0.0
 10
65.1697834244
 20
204.3035569076
 30
0.0
 10
70.077584898
 20
202.1343674809
 30
0.0
 10
75.006913673
 20
199.1186968514
 30
0.0
 10
79.8573893082
 20
195.3213319709
 30
0.0
 10
84.5283729313
 20
190.8227905551
 30
0.0
 10
88.9215449694
 20
185.7184153615
 30
0.0
 10
92.9437062556
 20
180.1167187288
 30
0.0
 10
96.50918496
 20
174.1370794598
 30
0.0
 10
99.5419051141
 20
167.9070290478
 30
0.0
 10
101.9772264006
 20
161.5594942951
 30
0.0
 10
103.7632211916
 20
155.229030911
 30
0.0
 10
104.8618116055
 20
149.0510002344
 30
0.0
 10
105.128767676
 20
144.9821218596
 30
0.0
 10
105.128767676
 20
143.0114927194
 30
0.0
  0
SPLINE
  5
3D2
100
AcDbEntity
  8
_1
100
AcDbSpline
 62
7
  6
CONTINUOUS
 70
0
 71
3
 72
14
 73
10
 74
0
 42
0.0000001
 43
0.0000001
 44
0.0000000001
 40
0.0
 40
0.0
 40
0.0
 40
0.0
 40
0.1080472162
 40
0.2181316075
 40
0.332105374
 40
0.4515027588
 40
0.5774625386
 40
0.7107203606
 40
1.0
 40
1.0
 40
1.0
 40
1.0
 10
92.8160528964
 20
119.8378632633
 30
0.0
 10
93.5948422634
 20
120.2874922354
 30
0.0
 10
95.09219221
 20
121.3322840842
 30
0.0
 10
97.0706417582
 20
123.279370813
 30
0.0
 10
98.7721657982
 20
125.5903522164
 30
0.0
 10
100.1810032134
 20
128.2391172718
 30
0.0
 10
101.2863368116
 20
131.1990307633
 30
0.0
 10
102.3728170797
 20
135.6409666236
 30
0.0
 10
102.6539042458
 20
139.1749935106
 30
0.0
 10
102.6539042458
 20
141.5826381808
 30
0.0
  0
SPLINE
  5
3D3
100
AcDbEntity
  8
_1
100
AcDbSpline
 62
7
  6
CONTINUOUS
 70
0
 71
3
 72
11
 73
7
 74
0
 42
0.0000001
 43
0.0000001
 44
0.0000000001
 40
0.0
 40
0.0
 40
0.0
 40
0.0
 40
0.2897481726
 40
0.5490824707
 40
0.7822235017
 40
1.0
 40
1.0
 40
1.0
 40
1.0
 10
97.1091816658
 20
180.8393758869
 30
0.0
 10
97.1091816658
 20
181.0674187275
 30
0.0
 10
97.1437026753
 20
181.5010415623
 30
0.0
 10
97.3193734134
 20
182.0968091291
 30
0.0
 10
97.6150364468
 20
182.5801964589
 30
0.0
 10
97.8927483889
 20
182.8137164653
 30
0.0
 10
98.0411982595
 20
182.8993905292
 30
0.0
  0
SPLINE
  5
3D4
100
AcDbEntity
  8
_1
100
AcDbSpline
 62
7
  6
CONTINUOUS
 70
0
 71
3
 72
17
 73
13
 74
0
 42
0.0000001
 43
0.0000001
 44
0.0000000001
 40
0.0
 40
0.0
 40
0.0
 40
0.0
 40
0.046896488
 40
0.0944483676
 40
0.1432660819
 40
0.1938808566
 40
0.3019453434
 40
0.420966314
 40
0.55146262
 40
0.6926914182
 40
0.8429799665
 40
1.0
 40
1.0
 40
1.0
 40
1.0
 10
90.8160649522
 20
123.301964669
 30
0.0
 10
90.2041879042
 20
122.9487003557
 30
0.0
 10
88.9176885923
 20
122.3268193398
 30
0.0
 10
86.8525739526
 20
121.675767864
 30
0.0
 10
84.6620555679
 20
121.3071433529
 30
0.0
 10
81.5305080493
 20
121.1921305581
 30
0.0
 10
77.3544202241
 20
121.8093063354
 30
0.0
 10
72.2582443895
 20
123.6372315115
 30
0.0
 10
67.0908874597
 20
126.5028504543
 30
0.0
 10
61.9884986066
 20
130.3245550029
 30
0.0
 10
57.0868206588
 20
134.9959726107
 30
0.0
 10
54.0885445806
 20
138.5364580082
 30
0.0
 10
52.6503810246
 20
140.4147295995
 30
0.0
  0
SPLINE
  5
3D5
100
AcDbEntity
  8
_1
100
AcDbSpline
 62
7
  6
CONTINUOUS
 70
0
 71
3
 72
11
 73
7
 74
0
 42
0.0000001
 43
0.0000001
 44
0.0000000001
 40
0.0
 40
0.0
 40
0.0
 40
0.0
 40
0.2661198686
 40
0.5233471825
 40
0.768759479
 40
1.0
 40
1.0
 40
1.0
 40
1.0
 10
43.0871770501
 20
156.956073474
 30
0.0
 10
42.3216992372
 20
158.7923541835
 30
0.0
 10
40.9651549395
 20
162.4680508251
 30
0.0
 10
39.4572455209
 20
168.0219639556
 30
0.0
 10
38.5311116738
 20
173.4382872354
 30
0.0
 10
38.3069192574
 20
177.0038528536
 30
0.0
 10
38.3069192574
 20
178.7325468422
 30
0.0
  0
SPLINE
  5
3D6
100
AcDbEntity
  8
_1
100
AcDbSpline
 62
7
  6
CONTINUOUS
 70
0
 71
3
 72
12
 73
8
 74
0
 42
0.0000001
 43
0.0000001
 44
0.0000000001
 40
0.0
 40
0.0
 40
0.0
 40
0.0
 40
0.1080078388
 40
0.2193654781
 40
0.4557364142
 40
0.7152320853
 40
1.0
 40
1.0
 40
1.0
 40
1.0
 10
50.0875994144
 20
199.8575851615
 30
0.0
 10
49.561850433
 20
199.3803886943
 30
0.0
 10
48.5610605654
 20
198.334694235
 30
0.0
 10
46.7893283882
 20
195.9099709857
 30
0.0
 10
45.063134029
 20
192.2677813112
 30
0.0
 10
43.8536490847
 20
187.2528460101
 30
0.0
 10
43.6101980365
 20
183.6663803342
 30
0.0
 10
43.6101980365
 20
181.7943779962
 30
0.0
  0
SPLINE
  5
3D7
100
AcDbEntity
  8
_1
100
AcDbSpline
 62
7
  6
CONTINUOUS
 70
0
 71
3
 72
11
 73
7
 74
0
 42
0.0000001
 43
0.0000001
 44
0.0000000001
 40
0.0
 40
0.0
 40
0.0
 40
0.0
 40
0.2897481726
 40
0.5490824707
 40
0.7822235017
 40
1.0
 40
1.0
 40
1.0
 40
1.0
 10
97.1091816658
 20
114.443620346
 30
0.0
 10
97.1091816658
 20
114.6716631867
 30
0.0
 10
97.1437026753
 20
115.1052860215
 30
0.0
 10
97.3193734134
 20
115.7010535882
 30
0.0
 10
97.6150364468
 20
116.1844409181
 30
0.0
 10
97.8927483889
 20
116.4179609244
 30
0.0
 10
98.0411982595
 20
116.5036349883
 30
0.0
  0
SPLINE
  5
3D8
100
AcDbEntity
  8
_1
100
AcDbSpline
 62
7
  6
CONTINUOUS
 70
0
 71
3
 72
22
 73
18
 74
0
 42
0.0000001
 43
0.0000001
 44
0.0000000001
 40
0.0
 40
0.0
 40
0.0
 40
0.0
 40
0.0428209341
 40
0.0874095765
 40
0.1351994604
 40
0.1871160706
 40
0.2435704361
 40
0.3045360574
 40
0.369642533
 40
0.438259434
 40
0.5095663092
 40
0.5826115799
 40
0.7296291955
 40
0.801625994
 40
0.8712381097
 40
0.9375986571
 40
1.0
 40
1.0
 40
1.0
 40
1.0
 10
59.3695450894
 20
190.0166941842
 30
0.0
 10
60.1091773052
 20
190.4437204851
 30
0.0
 10
61.7395782156
 20
191.1213579557
 30
0.0
 10
64.4309085138
 20
191.5157678961
 30
0.0
 10
67.3209490066
 20
191.3030010874
 30
0.0
 10
70.3455438596
 20
190.4993659934
 30
0.0
 10
73.4453021741
 20
189.1293880374
 30
0.0
 10
76.5585166522
 20
187.2247233248
 30
0.0
 10
79.6219821828
 20
184.8263716546
 30
0.0
 10
82.5719827168
 20
181.9852554468
 30
0.0
 10
85.3468858481
 20
178.761186417
 30
0.0
 10
88.7390390771
 20
174.0361874305
 30
0.0
 10
91.5277997454
 20
168.8832875844
 30
0.0
 10
93.5922460619
 20
163.5034727508
 30
0.0
 10
94.7203492754
 20
159.5049507031
 30
0.0
 10
95.4141284679
 20
155.6031186194
 30
0.0
 10
95.5827628348
 20
153.0332626173
 30
0.0
 10
95.5827628348
 20
151.788682539
 30
0.0
  0
SPLINE
  5
3D9
100
AcDbEntity
  8
_1
100
AcDbSpline
 62
7
  6
CONTINUOUS
 70
0
 71
3
 72
11
 73
7
 74
0
 42
0.0000001
 43
0.0000001
 44
0.0000000001
 40
0.0
 40
0.0
 40
0.0
 40
0.0
 40
0.2897048043
 40
0.5490913404
 40
0.7822177947
 40
1.0
 40
1.0
 40
1.0
 40
1.0
 10
68.0055542093
 20
167.7102820701
 30
0.0
 10
68.1371900465
 20
167.7862816025
 30
0.0
 10
68.3760106381
 20
167.9507738575
 30
0.0
 10
68.6614345187
 20
168.2507413509
 30
0.0
 10
68.841984308
 20
168.5825780749
 30
0.0
 10
68.8842100854
 20
168.8207402992
 30
0.0
 10
68.8842100642
 20
168.9350043337
 30
0.0
  0
SPLINE
  5
3DA
100
AcDbEntity
  8
_1
100
AcDbSpline
 62
7
  6
CONTINUOUS
 70
0
 71
3
 72
11
 73
7
 74
0
 42
0.0000001
 43
0.0000001
 44
0.0000000001
 40
0.0
 40
0.0
 40
0.0
 40
0.0
 40
0.2897481726
 40
0.5490824707
 40
0.7822235017
 40
1.0
 40
1.0
 40
1.0
 40
1.0
 10
39.608942271
 20
214.0364035629
 30
0.0
 10
39.608942271
 20
214.2644464035
 30
0.0
 10
39.6434632805
 20
214.6980692383
 30
0.0
 10
39.8191340186
 20
215.2938368051
 30
0.0
 10
40.114797052
 20
215.7772241349
 30
0.0
 10
40.3925089941
 20
216.0107441413
 30
0.0
 10
40.5409588646
 20
216.0964182051
 30
0.0
  0
SPLINE
  5
3DB
100
AcDbEntity
  8
_1
100
AcDbSpline
 62
7
  6
CONTINUOUS
 70
0
 71
3
 72
11
 73
7
 74
0
 42
0.0000001
 43
0.0000001
 44
0.0000000001
 40
0.0
 40
0.0
 40
0.0
 40
0.0
 40
0.2372405738
 40
0.5000004574
 40
0.7627600882
 40
1.0
 40
1.0
 40
1.0
 40
1.0
 10
46.7924214291
 20
157.9124121791
 30
0.0
 10
47.0935909058
 20
157.7385358343
 30
0.0
 10
47.7939542242
 20
157.484810264
 30
0.0
 10
48.9137448503
 20
157.3632509337
 30
0.0
 10
50.0335339491
 20
157.4848152783
 30
0.0
 10
50.7338947336
 20
157.7385443457
 30
0.0
 10
51.0350621161
 20
157.9124223772
 30
0.0
  0
SPLINE
  5
3DC
100
AcDbEntity
  8
_1
100
AcDbSpline
 62
7
  6
CONTINUOUS
 70
0
 71
3
 72
11
 73
7
 74
0
 42
0.0000001
 43
0.0000001
 44
0.0000000001
 40
0.0
 40
0.0
 40
0.0
 40
0.0
 40
0.2177697575
 40
0.4509415106
 40
0.710211329
 40
1.0
 40
1.0
 40
1.0
 40
1.0
 10
48.0068620527
 20
137.8459415677
 30
0.0
 10
48.3202014031
 20
138.0268887166
 30
0.0
 10
48.9066993624
 20
138.5196699423
 30
0.0
 10
49.5306161751
 20
139.5402989518
 30
0.0
 10
49.9016978875
 20
140.7979508105
 30
0.0
 10
49.9744446319
 20
141.7133794342
 30
0.0
 10
49.9744446319
 20
142.1948752363
 30
0.0
  0
SPLINE
  5
3DD
100
AcDbEntity
  8
_1
100
AcDbSpline
 62
7
  6
CONTINUOUS
 70
0
 71
3
 72
17
 73
13
 74
0
 42
0.0000001
 43
0.0000001
 44
0.0000000001
 40
0.0
 40
0.0
 40
0.0
 40
0.0
 40
0.0428577878
 40
0.087486176
 40
0.1353174813
 40
0.1872826454
 40
0.3045432974
 40
0.438210469
 40
0.5825530129
 40
0.7297133842
 40
0.8713035225
 40
1.0
 40
1.0
 40
1.0
 40
1.0
 10
102.5411525985
 20
175.1051944539
 30
0.0
 10
102.4302057566
 20
175.0411643084
 30
0.0
 10
102.185683331
 20
174.9394671443
 30
0.0
 10
101.7820020625
 20
174.8804011977
 30
0.0
 10
101.3484875445
 20
174.9121798905
 30
0.0
 10
100.7186224708
 20
175.079828684
 30
0.0
 10
99.9133776565
 20
175.5200202543
 30
0.0
 10
99.0237563447
 20
176.3079178793
 30
0.0
 10
98.2373620993
 20
177.3144761159
 30
0.0
 10
97.6184769504
 20
178.4584205973
 30
0.0
 10
97.2167853707
 20
179.645928182
 30
0.0
 10
97.1091816658
 20
180.4547143365
 30
0.0
 10
97.1091816658
 20
180.8393758869
 30
0.0
  0
SPLINE
  5
3DE
100
AcDbEntity
  8
_1
100
AcDbSpline
 62
7
  6
CONTINUOUS
 70
0
 71
3
 72
17
 73
13
 74
0
 42
0.0000001
 43
0.0000001
 44
0.0000000001
 40
0.0
 40
0.0
 40
0.0
 40
0.0
 40
0.042859731
 40
0.0874892832
 40
0.1353237679
 40
0.187289188
 40
0.3045518298
 40
0.4382209864
 40
0.5825664021
 40
0.729720619
 40
0.8713092391
 40
1.0
 40
1.0
 40
1.0
 40
1.0
 10
67.498197385
 20
171.0383976609
 30
0.0
 10
67.7323933224
 20
171.1736416404
 30
0.0
 10
68.2487152239
 20
171.3881363049
 30
0.0
 10
69.100913322
 20
171.5131137766
 30
0.0
 10
70.016150264
 20
171.4458014271
 30
0.0
 10
71.3458964632
 20
171.0919428933
 30
0.0
 10
73.0458694635
 20
170.1625486063
 30
0.0
 10
74.9239507975
 20
168.4991487518
 30
0.0
 10
76.5841099161
 20
166.374193017
 30
0.0
 10
77.8906748025
 20
163.9592351686
 30
0.0
 10
78.7385114415
 20
161.4522987738
 30
0.0
 10
78.9657019577
 20
159.7449143966
 30
0.0
 10
78.9657019577
 20
158.932885545
 30
0.0
  0
SPLINE
  5
3DF
100
AcDbEntity
  8
_1
100
AcDbSpline
 62
7
  6
CONTINUOUS
 70
0
 71
3
 72
14
 73
10
 74
0
 42
0.0000001
 43
0.0000001
 44
0.0000000001
 40
0.0
 40
0.0
 40
0.0
 40
0.0
 40
0.2892790729
 40
0.4225365995
 40
0.5484963028
 40
0.6678936057
 40
0.7818675275
 40
0.8919523098
 40
1.0
 40
1.0
 40
1.0
 40
1.0
 10
105.128767676
 20
143.0114927194
 30
0.0
 10
105.128767676
 20
140.6038526802
 30
0.0
 10
104.8476827499
 20
137.0698326286
 30
0.0
 10
103.7612044737
 20
132.627904439
 30
0.0
 10
102.6558792538
 20
129.6679917759
 30
0.0
 10
101.2470422671
 20
127.0192260517
 30
0.0
 10
99.5455173923
 20
124.7082409381
 30
0.0
 10
97.5670672937
 20
122.7611418559
 30
0.0
 10
96.0697088586
 20
121.7163492402
 30
0.0
 10
95.2909165691
 20
121.266717378
 30
0.0
  0
SPLINE
  5
3E0
100
AcDbEntity
  8
_1
100
AcDbSpline
 62
7
  6
CONTINUOUS
 70
0
 71
3
 72
11
 73
7
 74
0
 42
0.0000001
 43
0.0000001
 44
0.0000000001
 40
0.0
 40
0.0
 40
0.0
 40
0.0
 40
0.2177817009
 40
0.4509079353
 40
0.7102947134
 40
1.0
 40
1.0
 40
1.0
 40
1.0
 10
45.9137479103
 20
159.1371446408
 30
0.0
 10
45.9137479315
 20
159.0228793995
 30
0.0
 10
45.9559745972
 20
158.7847144677
 30
0.0
 10
46.1365282888
 20
158.4528745134
 30
0.0
 10
46.4219580031
 20
158.1529048111
 30
0.0
 10
46.6607831294
 20
157.9884118675
 30
0.0
 10
46.7924214291
 20
157.9124121791
 30
0.0
  0
SPLINE
  5
3E1
100
AcDbEntity
  8
_1
100
AcDbSpline
 62
7
  6
CONTINUOUS
 70
0
 71
3
 72
11
 73
7
 74
0
 42
0.0000001
 43
0.0000001
 44
0.0000000001
 40
0.0
 40
0.0
 40
0.0
 40
0.0
 40
0.2177438688
 40
0.4508811915
 40
0.7104582954
 40
1.0
 40
1.0
 40
1.0
 40
1.0
 10
95.8147441375
 20
212.0053157213
 30
0.0
 10
95.8147441206
 20
211.929154596
 30
0.0
 10
95.7867763638
 20
211.7703658935
 30
0.0
 10
95.6663229526
 20
211.5490870277
 30
0.0
 10
95.4759391878
 20
211.3492155063
 30
0.0
 10
95.3167815986
 20
211.2394710525
 30
0.0
 10
95.2290754937
 20
211.1888342115
 30
0.0
  0
SPLINE
  5
3E2
100
AcDbEntity
  8
_1
100
AcDbSpline
 62
7
  6
CONTINUOUS
 70
0
 71
3
 72
11
 73
7
 74
0
 42
0.0000001
 43
0.0000001
 44
0.0000000001
 40
0.0
 40
0.0
 40
0.0
 40
0.0
 40
0.2374865551
 40
0.4800359105
 40
0.7327958448
 40
1.0
 40
1.0
 40
1.0
 40
1.0
 10
68.8842098785
 20
166.6978938321
 30
0.0
 10
68.8842073202
 20
166.5593069804
 30
0.0
 10
68.8453000908
 20
166.2776835198
 30
0.0
 10
68.6714038267
 20
165.8813641209
 30
0.0
 10
68.3876062805
 20
165.5321851357
 30
0.0
 10
68.1405926729
 20
165.3500704213
 30
0.0
 10
68.0055542092
 20
165.2721063933
 30
0.0
  0
SPLINE
  5
3E3
100
AcDbEntity
  8
_1
100
AcDbSpline
 62
7
  6
CONTINUOUS
 70
0
 71
3
 72
17
 73
13
 74
0
 42
0.0000001
 43
0.0000001
 44
0.0000000001
 40
0.0
 40
0.0
 40
0.0
 40
0.0
 40
0.1286888796
 40
0.2702755615
 40
0.4174294529
 40
0.5617772457
 40
0.6954484944
 40
0.8127114813
 40
0.864676537
 40
0.9125107088
 40
0.9571401103
 40
1.0
 40
1.0
 40
1.0
 40
1.0
 10
49.9744446319
 20
142.1948752363
 30
0.0
 10
49.9744446319
 20
143.0068921968
 30
0.0
 10
49.7472599564
 20
144.714251994
 30
0.0
 10
48.8994470748
 20
147.2211688047
 30
0.0
 10
47.5928855928
 20
149.6361291523
 30
0.0
 10
45.9327218317
 20
151.7611149056
 30
0.0
 10
44.0546175339
 20
153.4245351048
 30
0.0
 10
42.3546327717
 20
154.353937471
 30
0.0
 10
41.0248870581
 20
154.7077881214
 30
0.0
 10
40.1096560586
 20
154.7751049981
 30
0.0
 10
39.2574591992
 20
154.6501264715
 30
0.0
 10
38.741139472
 20
154.4356273024
 30
0.0
 10
38.5069424333
 20
154.3003832407
 30
0.0
  0
SPLINE
  5
3E4
100
AcDbEntity
  8
_1
100
AcDbSpline
 62
7
  6
CONTINUOUS
 70
0
 71
3
 72
22
 73
18
 74
0
 42
0.0000001
 43
0.0000001
 44
0.0000000001
 40
0.0
 40
0.0
 40
0.0
 40
0.0
 40
0.0624005795
 40
0.1287604623
 40
0.1983726952
 40
0.2703699565
 40
0.4173894953
 40
0.4904358414
 40
0.5617436083
 40
0.6303610547
 40
0.6954676694
 40
0.7564330708
 40
0.81288693
 40
0.8648028309
 40
0.9125919072
 40
0.9571797672
 40
1.0
 40
1.0
 40
1.0
 40
1.0
 10
93.4614513232
 20
150.5639500774
 30
0.0
 10
93.4614513232
 20
151.8085150043
 30
0.0
 10
93.292824075
 20
154.3783429111
 30
0.0
 10
92.5990523992
 20
158.2801499573
 30
0.0
 10
91.4709600582
 20
162.2786735377
 30
0.0
 10
89.4064998144
 20
167.6585372026
 30
0.0
 10
86.6177037643
 20
172.8114980918
 30
0.0
 10
83.2254951865
 20
177.5365535985
 30
0.0
 10
80.4505486957
 20
180.7606520634
 30
0.0
 10
77.5005126911
 20
183.6017774293
 30
0.0
 10
74.43702591
 20
186.0001176816
 30
0.0
 10
71.3238079861
 20
187.9047550467
 30
0.0
 10
68.2240646756
 20
189.2746967193
 30
0.0
 10
65.1995017124
 20
190.0782952077
 30
0.0
 10
62.3095056074
 20
190.2910336241
 30
0.0
 10
59.6182234825
 20
189.8966130526
 30
0.0
 10
57.9878541085
 20
189.218980394
 30
0.0
 10
57.2482333088
 20
188.7919621894
 30
0.0
  0
SPLINE
  5
3E5
100
AcDbEntity
  8
_1
100
AcDbSpline
 62
7
  6
CONTINUOUS
 70
0
 71
3
 72
11
 73
7
 74
0
 42
0.0000001
 43
0.0000001
 44
0.0000000001
 40
0.0
 40
0.0
 40
0.0
 40
0.0
 40
0.2177723091
 40
0.4509273687
 40
0.7102218233
 40
1.0
 40
1.0
 40
1.0
 40
1.0
 10
70.1979378848
 20
206.5756528883
 30
0.0
 10
70.1979378882
 20
206.3090435846
 30
0.0
 10
70.2963991528
 20
205.753280669
 30
0.0
 10
70.7177280186
 20
204.9791012189
 30
0.0
 10
71.3835945208
 20
204.2790275351
 30
0.0
 10
71.9409240599
 20
203.8953223021
 30
0.0
 10
72.2481595688
 20
203.7179438112
 30
0.0
  0
SPLINE
  5
3E6
100
AcDbEntity
  8
_1
100
AcDbSpline
 62
7
  6
CONTINUOUS
 70
0
 71
3
 72
11
 73
7
 74
0
 42
0.0000001
 43
0.0000001
 44
0.0000000001
 40
0.0
 40
0.0
 40
0.0
 40
0.0
 40
0.2897893829
 40
0.5490567279
 40
0.7822290943
 40
1.0
 40
1.0
 40
1.0
 40
1.0
 10
78.9657019577
 20
158.932885545
 30
0.0
 10
78.9657019577
 20
158.4513882627
 30
0.0
 10
78.8929580211
 20
157.5359613296
 30
0.0
 10
78.5218733534
 20
156.2783124755
 30
0.0
 10
77.8979652944
 20
155.2576782588
 30
0.0
 10
77.3114626277
 20
154.7648965354
 30
0.0
 10
76.9981217525
 20
154.583947765
 30
0.0
  0
SPLINE
  5
3E7
100
AcDbEntity
  8
_1
100
AcDbSpline
 62
7
  6
CONTINUOUS
 70
0
 71
3
 72
13
 73
9
 74
0
 42
0.0000001
 43
0.0000001
 44
0.0000000001
 40
0.0
 40
0.0
 40
0.0
 40
0.0
 40
0.1142487484
 40
0.2375477548
 40
0.5000005226
 40
0.7624530043
 40
0.8857516767
 40
1.0
 40
1.0
 40
1.0
 40
1.0
 10
72.2481595688
 20
203.7179438112
 30
0.0
 10
72.5869865648
 20
203.5223263793
 30
0.0
 10
73.3280214427
 20
203.1772424512
 30
0.0
 10
74.9702947581
 20
202.6784722905
 30
0.0
 10
77.1979147912
 20
202.4361870603
 30
0.0
 10
79.4255326822
 20
202.6784825902
 30
0.0
 10
81.0677998433
 20
203.1772608295
 30
0.0
 10
81.8088301805
 20
203.5223484592
 30
0.0
 10
82.1476545053
 20
203.7179676066
 30
0.0
  0
SPLINE
  5
3E8
100
AcDbEntity
  8
_1
100
AcDbSpline
 62
7
  6
CONTINUOUS
 70
0
 71
3
 72
11
 73
7
 74
0
 42
0.0000001
 43
0.0000001
 44
0.0000000001
 40
0.0
 40
0.0
 40
0.0
 40
0.0
 40
0.2895416688
 40
0.549118971
 40
0.7822562702
 40
1.0
 40
1.0
 40
1.0
 40
1.0
 10
95.2290754937
 20
211.2704844532
 30
0.0
 10
95.3167815864
 20
211.3211212872
 30
0.0
 10
95.4759391444
 20
211.4308658624
 30
0.0
 10
95.6663230504
 20
211.6307373227
 30
0.0
 10
95.7867763539
 20
211.8520162527
 30
0.0
 10
95.8147441612
 20
212.010804886
 30
0.0
 10
95.8147441375
 20
212.0869659615
 30
0.0
  0
SPLINE
  5
3E9
100
AcDbEntity
  8
_1
100
AcDbSpline
 62
7
  6
CONTINUOUS
 70
0
 71
3
 72
17
 73
13
 74
0
 42
0.0000001
 43
0.0000001
 44
0.0000000001
 40
0.0
 40
0.0
 40
0.0
 40
0.0
 40
0.0428577878
 40
0.087486176
 40
0.1353174813
 40
0.1872826454
 40
0.3045432974
 40
0.438210469
 40
0.5825530129
 40
0.7297133842
 40
0.8713035225
 40
1.0
 40
1.0
 40
1.0
 40
1.0
 10
45.0409132036
 20
208.3022221299
 30
0.0
 10
44.9299663617
 20
208.2381919844
 30
0.0
 10
44.6854439362
 20
208.1364948203
 30
0.0
 10
44.2817626676
 20
208.0774288737
 30
0.0
 10
43.8482481496
 20
208.1092075664
 30
0.0
 10
43.2183830759
 20
208.27685636
 30
0.0
 10
42.4131382617
 20
208.7170479303
 30
0.0
 10
41.5235169498
 20
209.5049455552
 30
0.0
 10
40.7371227044
 20
210.5115037919
 30
0.0
 10
40.1182375556
 20
211.6554482733
 30
0.0
 10
39.7165459758
 20
212.8429558579
 30
0.0
 10
39.608942271
 20
213.6517420125
 30
0.0
 10
39.608942271
 20
214.0364035629
 30
0.0
  0
SPLINE
  5
3EA
100
AcDbEntity
  8
_1
100
AcDbSpline
 62
7
  6
CONTINUOUS
 70
0
 71
3
 72
10
 73
6
 74
0
 42
0.0000001
 43
0.0000001
 44
0.0000000001
 40
0.0
 40
0.0
 40
0.0
 40
0.0
 40
0.2318769261
 40
0.4774077282
 40
1.0
 40
1.0
 40
1.0
 40
1.0
 10
43.6101980365
 20
181.7943779962
 30
0.0
 10
43.6101980365
 20
180.1506921728
 30
0.0
 10
43.8127537066
 20
176.7641772508
 30
0.0
 10
44.9567696593
 20
169.7604988725
 30
0.0
 10
46.5857555801
 20
164.5269005455
 30
0.0
 10
47.9556696583
 20
161.0850524782
 30
0.0
  0
SPLINE
  5
3EB
100
AcDbEntity
  8
_1
100
AcDbSpline
 62
7
  6
CONTINUOUS
 70
0
 71
3
 72
18
 73
14
 74
0
 42
0.0000001
 43
0.0000001
 44
0.0000000001
 40
0.0
 40
0.0
 40
0.0
 40
0.0
 40
0.1534634027
 40
0.2281843106
 40
0.3012047865
 40
0.407030928
 40
0.5078545312
 40
0.6031982258
 40
0.6928134097
 40
0.7767331176
 40
0.855329007
 40
0.9293615745
 40
1.0
 40
1.0
 40
1.0
 40
1.0
 10
57.9537035099
 20
143.4765034383
 30
0.0
 10
59.2641787211
 20
141.7650006945
 30
0.0
 10
61.3288920124
 20
139.3052908986
 30
0.0
 10
64.2798261745
 20
136.2716560704
 30
0.0
 10
66.8903729175
 20
133.8465153722
 30
0.0
 10
69.9420006871
 20
131.365337161
 30
0.0
 10
73.4580306579
 20
128.9818867529
 30
0.0
 10
76.9884096819
 20
127.0567296512
 30
0.0
 10
80.4884605905
 20
125.6154902701
 30
0.0
 10
83.9142884849
 20
124.6782575324
 30
0.0
 10
87.2234709418
 20
124.2603186796
 30
0.0
 10
90.3719531699
 20
124.3714330892
 30
0.0
 10
92.3707818093
 20
124.8097643629
 30
0.0
 10
93.3143053155
 20
125.11675354
 30
0.0
  0
SPLINE
  5
3EC
100
AcDbEntity
  8
_1
100
AcDbSpline
 62
7
  6
CONTINUOUS
 70
0
 71
3
 72
14
 73
10
 74
0
 42
0.0000001
 43
0.0000001
 44
0.0000000001
 40
0.0
 40
0.0
 40
0.0
 40
0.0
 40
0.2892793539
 40
0.4225384386
 40
0.548493027
 40
0.667892845
 40
0.7818660526
 40
0.8919501994
 40
1.0
 40
1.0
 40
1.0
 40
1.0
 10
95.5827628348
 20
151.788682539
 30
0.0
 10
95.5827628348
 20
150.2680669306
 30
0.0
 10
95.4052235693
 20
148.0360520928
 30
0.0
 10
94.7190735309
 20
145.2306240663
 30
0.0
 10
94.0208717003
 20
143.3612554674
 30
0.0
 10
93.1312069275
 20
141.6883063857
 30
0.0
 10
92.0565038497
 20
140.2287587643
 30
0.0
 10
90.8069230174
 20
138.999057242
 30
0.0
 10
89.8612743353
 20
138.3391012645
 30
0.0
 10
89.3693970714
 20
138.0551161649
 30
0.0
  0
SPLINE
  5
3ED
100
AcDbEntity
  8
_1
100
AcDbSpline
 62
7
  6
CONTINUOUS
 70
0
 71
3
 72
11
 73
7
 74
0
 42
0.0000001
 43
0.0000001
 44
0.0000000001
 40
0.0
 40
0.0
 40
0.0
 40
0.0
 40
0.2897781767
 40
0.5490726313
 40
0.7822276909
 40
1.0
 40
1.0
 40
1.0
 40
1.0
 10
72.2481595688
 20
203.6362935694
 30
0.0
 10
71.9409240599
 20
203.8136720604
 30
0.0
 10
71.3835945208
 20
204.1973772934
 30
0.0
 10
70.7177280186
 20
204.8974509772
 30
0.0
 10
70.2963991528
 20
205.6716304273
 30
0.0
 10
70.1979378882
 20
206.2273933429
 30
0.0
 10
70.1979378848
 20
206.4940026466
 30
0.0
  0
SPLINE
  5
3EE
100
AcDbEntity
  8
_1
100
AcDbSpline
 62
7
  6
CONTINUOUS
 70
0
 71
3
 72
13
 73
9
 74
0
 42
0.0000001
 43
0.0000001
 44
0.0000000001
 40
0.0
 40
0.0
 40
0.0
 40
0.0
 40
0.1142483233
 40
0.2375469957
 40
0.4999994774
 40
0.7624522452
 40
0.8857512516
 40
1.0
 40
1.0
 40
1.0
 40
1.0
 10
82.1476545053
 20
203.6363173649
 30
0.0
 10
81.8088301805
 20
203.4406982175
 30
0.0
 10
81.0677998433
 20
203.0956105877
 30
0.0
 10
79.4255326822
 20
202.5968323485
 30
0.0
 10
77.1979147912
 20
202.3545368186
 30
0.0
 10
74.9702947581
 20
202.5968220488
 30
0.0
 10
73.3280214427
 20
203.0955922095
 30
0.0
 10
72.5869865648
 20
203.4406761375
 30
0.0
 10
72.2481595688
 20
203.6362935694
 30
0.0
  0
SPLINE
  5
3EF
100
AcDbEntity
  8
_1
100
AcDbSpline
 62
7
  6
CONTINUOUS
 70
0
 71
3
 72
11
 73
7
 74
0
 42
0.0000001
 43
0.0000001
 44
0.0000000001
 40
0.0
 40
0.0
 40
0.0
 40
0.0
 40
0.2380373032
 40
0.5008218959
 40
0.7631598719
 40
1.0
 40
1.0
 40
1.0
 40
1.0
 10
229.3319812312
 20
260.3523023251
 30
0.0
 10
229.3430350104
 20
259.3708904959
 30
0.0
 10
229.7256181398
 20
257.3085031578
 30
0.0
 10
231.0179487346
 20
254.4142932042
 30
0.0
 10
232.8941246445
 20
251.8657390745
 30
0.0
 10
234.4961875617
 20
250.5213886494
 30
0.0
 10
235.3418989666
 20
250.033127988
 30
0.0
  0
SPLINE
  5
3F0
100
AcDbEntity
  8
_1
100
AcDbSpline
 62
7
  6
CONTINUOUS
 70
0
 71
3
 72
11
 73
7
 74
0
 42
0.0000001
 43
0.0000001
 44
0.0000000001
 40
0.0
 40
0.0
 40
0.0
 40
0.0
 40
0.2368641689
 40
0.4991784024
 40
0.7619387912
 40
1.0
 40
1.0
 40
1.0
 40
1.0
 10
227.8485748959
 20
268.933870932
 30
0.0
 10
228.0475852968
 20
268.8189748228
 30
0.0
 10
228.4245619556
 20
268.5026706218
 30
0.0
 10
228.8658851779
 20
267.9029557184
 30
0.0
 10
229.1700748235
 20
267.2220510928
 30
0.0
 10
229.2600720456
 20
266.7367727009
 30
0.0
 10
229.2626731866
 20
266.5058299115
 30
0.0
  0
SPLINE
  5
3F1
100
AcDbEntity
  8
_1
100
AcDbSpline
 62
7
  6
CONTINUOUS
 70
0
 71
3
 72
8
 73
4
 74
0
 42
0.0000001
 43
0.0000001
 44
0.0000000001
 40
0.0
 40
0.0
 40
0.0
 40
0.0
 40
1.0
 40
1.0
 40
1.0
 40
1.0
 10
229.0393224307
 20
188.964883335
 30
0.0
 10
228.9901787188
 20
188.9091881745
 30
0.0
 10
228.9315793916
 20
188.8604348005
 30
0.0
 10
228.867246801
 20
188.8233083529
 30
0.0
  0
SPLINE
  5
3F2
100
AcDbEntity
  8
_1
100
AcDbSpline
 62
7
  6
CONTINUOUS
 70
0
 71
3
 72
9
 73
5
 74
0
 42
0.0000001
 43
0.0000001
 44
0.0000000001
 40
0.0
 40
0.0
 40
0.0
 40
0.0
 40
0.2583134158
 40
1.0
 40
1.0
 40
1.0
 40
1.0
 10
241.8154519537
 20
207.8792662542
 30
0.0
 10
241.7674570493
 20
206.8432868471
 30
0.0
 10
241.5099771758
 20
202.8366969968
 30
0.0
 10
240.9571080318
 20
198.8466116006
 30
0.0
 10
240.3535102776
 20
195.9306652916
 30
0.0
  0
SPLINE
  5
3F3
100
AcDbEntity
  8
_1
100
AcDbSpline
 62
7
  6
CONTINUOUS
 70
0
 71
3
 72
9
 73
5
 74
0
 42
0.0000001
 43
0.0000001
 44
0.0000000001
 40
0.0
 40
0.0
 40
0.0
 40
0.0
 40
0.2563122883
 40
1.0
 40
1.0
 40
1.0
 40
1.0
 10
240.3535102776
 20
245.8477058985
 30
0.0
 10
240.5466620299
 20
244.6915734175
 30
0.0
 10
241.2364602255
 20
240.1706792866
 30
0.0
 10
241.6660352604
 20
235.6087544942
 30
0.0
 10
241.8154519537
 20
232.2110382846
 30
0.0
  0
SPLINE
  5
3F4
100
AcDbEntity
  8
_1
100
AcDbSpline
 62
7
  6
CONTINUOUS
 70
0
 71
3
 72
11
 73
7
 74
0
 42
0.0000001
 43
0.0000001
 44
0.0000000001
 40
0.0
 40
0.0
 40
0.0
 40
0.0
 40
0.2319590056
 40
0.4883757449
 40
0.7509793728
 40
1.0
 40
1.0
 40
1.0
 40
1.0
 10
238.9704627271
 20
247.9382231172
 30
0.0
 10
239.142825948
 20
247.8387114165
 30
0.0
 10
239.4737960928
 20
247.5730617214
 30
0.0
 10
239.8807110379
 20
247.0685279461
 30
0.0
 10
240.1913212988
 20
246.4830180044
 30
0.0
 10
240.3183016741
 20
246.0584511266
 30
0.0
 10
240.3535102776
 20
245.8477058985
 30
0.0
  0
SPLINE
  5
3F5
100
AcDbEntity
  8
_1
100
AcDbSpline
 62
7
  6
CONTINUOUS
 70
0
 71
3
 72
8
 73
4
 74
0
 42
0.0000001
 43
0.0000001
 44
0.0000000001
 40
0.0
 40
0.0
 40
0.0
 40
0.0
 40
1.0
 40
1.0
 40
1.0
 40
1.0
 10
70.3241060445
 20
227.7094839367
 30
0.0
 10
70.2634176201
 20
227.6940870601
 30
0.0
 10
70.2042161243
 20
227.6703205413
 30
0.0
 10
70.1499911315
 20
227.6390188029
 30
0.0
  0
SPLINE
  5
3F6
100
AcDbEntity
  8
_1
100
AcDbSpline
 62
7
  6
CONTINUOUS
 70
0
 71
3
 72
9
 73
5
 74
0
 42
0.0000001
 43
0.0000001
 44
0.0000000001
 40
0.0
 40
0.0
 40
0.0
 40
0.0
 40
0.2436360024
 40
1.0
 40
1.0
 40
1.0
 40
1.0
 10
127.6181822436
 20
166.2796074344
 30
0.0
 10
127.5692319773
 20
167.3927301365
 30
0.0
 10
127.2931910135
 20
171.9580636454
 30
0.0
 10
126.7262278316
 20
176.5045493878
 30
0.0
 10
126.1562405676
 20
179.9162750482
 30
0.0
  0
SPLINE
  5
3F7
100
AcDbEntity
  8
_1
100
AcDbSpline
 62
7
  6
CONTINUOUS
 70
0
 71
3
 72
9
 73
5
 74
0
 42
0.0000001
 43
0.0000001
 44
0.0000000001
 40
0.0
 40
0.0
 40
0.0
 40
0.0
 40
0.241871754
 40
1.0
 40
1.0
 40
1.0
 40
1.0
 10
126.1562405676
 20
129.9992344414
 30
0.0
 10
126.3530851394
 20
130.950179336
 30
0.0
 10
127.081256493
 20
134.8993346407
 30
0.0
 10
127.4773176185
 20
138.9072448936
 30
0.0
 10
127.6181822436
 20
141.9478354039
 30
0.0
  0
SPLINE
  5
3F8
100
AcDbEntity
  8
_1
100
AcDbSpline
 62
7
  6
CONTINUOUS
 70
0
 71
3
 72
9
 73
5
 74
0
 42
0.0000001
 43
0.0000001
 44
0.0000000001
 40
0.0
 40
0.0
 40
0.0
 40
0.0
 40
0.2380541114
 40
1.0
 40
1.0
 40
1.0
 40
1.0
 10
121.1446292566
 20
184.1016971378
 30
0.0
 10
120.9930896066
 20
184.1891866162
 30
0.0
 10
120.368698193
 20
184.5776964113
 30
0.0
 10
119.792804362
 20
185.0418624978
 30
0.0
 10
119.3829635142
 20
185.4235795513
 30
0.0
  0
SPLINE
  5
3F9
100
AcDbEntity
  8
_1
100
AcDbSpline
 62
7
  6
CONTINUOUS
 70
0
 71
3
 72
9
 73
5
 74
0
 42
0.0000001
 43
0.0000001
 44
0.0000000001
 40
0.0
 40
0.0
 40
0.0
 40
0.0
 40
0.243994579
 40
1.0
 40
1.0
 40
1.0
 40
1.0
 10
119.3829635142
 20
185.4235795513
 30
0.0
 10
119.2573007629
 20
185.5406191666
 30
0.0
 10
118.7529464981
 20
186.0316842678
 30
0.0
 10
118.2908096424
 20
186.5656573217
 30
0.0
 10
117.9659061472
 20
186.9870215705
 30
0.0
  0
SPLINE
  5
3FA
100
AcDbEntity
  8
_1
100
AcDbSpline
 62
7
  6
CONTINUOUS
 70
0
 71
3
 72
9
 73
5
 74
0
 42
0.0000001
 43
0.0000001
 44
0.0000000001
 40
0.0
 40
0.0
 40
0.0
 40
0.0
 40
0.2553916516
 40
1.0
 40
1.0
 40
1.0
 40
1.0
 10
116.0856773812
 20
190.2154201531
 30
0.0
 10
116.015775658
 20
190.3816058689
 30
0.0
 10
115.7545851656
 20
191.037462619
 30
0.0
 10
115.5441813007
 20
191.713899466
 30
0.0
 10
115.4217314406
 20
192.2250789721
 30
0.0
  0
SPLINE
  5
3FB
100
AcDbEntity
  8
_1
100
AcDbSpline
 62
7
  6
CONTINUOUS
 70
0
 71
3
 72
9
 73
5
 74
0
 42
0.0000001
 43
0.0000001
 44
0.0000000001
 40
0.0
 40
0.0
 40
0.0
 40
0.0
 40
0.2613157009
 40
1.0
 40
1.0
 40
1.0
 40
1.0
 10
115.4217314406
 20
192.2250789721
 30
0.0
 10
115.3767458825
 20
192.4128758009
 30
0.0
 10
115.2224262517
 20
193.135513781
 30
0.0
 10
115.1408594575
 20
193.8750258077
 30
0.0
 10
115.1347115212
 20
194.4208714749
 30
0.0
  0
ELLIPSE
  5
3FC
100
AcDbEntity
  8
_1
100
AcDbEllipse
 62
7
  6
CONTINUOUS
 10
250.0894215701
 20
295.4480977854
 30
0.0
 11
2.3730687665
 21
4.4026444242
 31
0.0
 40
0.556862072
 41
-2.372483465
 42
-0.8016871382
  0
ELLIPSE
  5
3FD
100
AcDbEntity
  8
_1
100
AcDbEllipse
 62
7
  6
CONTINUOUS
 10
244.1451824713
 20
311.4313219372
 30
0.0
 11
-6.9732295899
 21
12.1706873307
 31
0.0
 40
0.5773483695
 41
4.2636328641
 42
6.2393851482
  0
ELLIPSE
  5
3FE
100
AcDbEntity
  8
_1
100
AcDbEllipse
 62
7
  6
CONTINUOUS
 10
116.2217938877
 20
250.4985370924
 30
0.0
 11
113.9080210456
 21
65.2639215266
 31
0.0
 40
0.0753349731
 41
-0.3837585309
 42
0.471358875
  0
ELLIPSE
  5
3FF
100
AcDbEntity
  8
_1
100
AcDbEllipse
 62
7
  6
CONTINUOUS
 10
512.0721621695
 20
439.0509635744
 30
0.0
 11
273.5438290272
 21
140.9202579684
 31
0.0
 40
0.0331551908
 41
2.7916930674
 42
3.1245139142
  0
ELLIPSE
  5
400
100
AcDbEntity
  8
_1
100
AcDbEllipse
 62
7
  6
CONTINUOUS
 10
167.9190867687
 20
308.7571573313
 30
0.0
 11
6.9731426067
 21
12.1707374227
 31
0.0
 40
0.5773435439
 41
6.3269851026
 42
8.2877867852
  0
ELLIPSE
  5
401
100
AcDbEntity
  8
_1
100
AcDbEllipse
 62
7
  6
CONTINUOUS
 10
162.0243412655
 20
292.9452864138
 30
0.0
 11
-2.3730994875
 21
4.4026278786
 31
0.0
 40
0.5568670418
 41
0.8016832507
 42
2.3724795775
  0
ELLIPSE
  5
402
100
AcDbEntity
  8
_1
100
AcDbEllipse
 62
7
  6
CONTINUOUS
 10
297.2577599989
 20
247.1513753705
 30
0.0
 11
113.9089605082
 21
-65.2633770834
 31
0.0
 40
0.0753343482
 41
2.670234147
 42
3.5253515529
  0
ELLIPSE
  5
403
100
AcDbEntity
  8
_1
100
AcDbEllipse
 62
7
  6
CONTINUOUS
 10
-98.5959044615
 20
435.7018988301
 30
0.0
 11
273.5462731791
 21
-140.9189398968
 31
0.0
 40
0.0331551487
 41
0.0170784054
 42
0.3648461017
  0
ENDSEC
  0
SECTION
  2
OBJECTS
  0
DICTIONARY
  5
C
100
AcDbDictionary
280
0
281
1
  3
ACAD_GROUP
350
D
  3
ACAD_MLINESTYLE
350
17
  3
ACAD_LAYOUT
350
1A
  3
ACAD_PLOTSETTINGS
350
19
  3
ACAD_PLOTSTYLENAME
350
E
  0
DICTIONARY
  5
D
102
{ACAD_REACTORS
330
C
102
}
100
AcDbDictionary
280
0
281
1
  0
ACDBDICTIONARYWDFLT
  5
E
102
{ACAD_REACTORS
330
C
102
}
100
AcDbDictionary
281
1
  3
Normal
350
F
100
AcDbDictionaryWithDefault
340
F
  0
DICTIONARY
  5
17
102
{ACAD_REACTORS
330
C
102
}
100
AcDbDictionary
280
0
281
1
  3
Standard
350
18
  0
DICTIONARY
  5
19
102
{ACAD_REACTORS
330
C
102
}
100
AcDbDictionary
281
1
  0
DICTIONARY
  5
1A
102
{ACAD_REACTORS
330
C
102
}
100
AcDbDictionary
281
1
  3
Model
350
404
  3
Layout1
350
405
  0
ACDBPLACEHOLDER
  5
F
102
{ACAD_REACTORS
330
E
102
}
  0
MLINESTYLE
  5
18
102
{ACAD_REACTORS
330
17
102
}
100
AcDbMlineStyle
  2
STANDARD
 70
0
  3

 62
256
 51
90.0
 52
90.0
 71
2
 49
0.5
 62
256
  6
BYLAYER
 49
-0.5
 62
256
  6
BYLAYER
  0
LAYOUT
  5
404
102
{ACAD_REACTORS
330
1A
102
}
100
AcDbPlotSettings
  1

  2
none_device
  4

  6

 40
0.0
 41
0.0
 42
0.0
 43
0.0
 44
210.0
 45
297.0
 46
0.0
 47
0.0
 48
0.0
 49
0.0
140
0.0
141
0.0
142
1.0
143
1.0
 70
1024
 72
1
 73
0
 74
0
  7

 75
0
147
1.0
148
0.0
149
0.0
100
AcDbLayout
  1
Model
 70
0
 71
0
 10
0.0
 20
0.0
 11
210.0
 21
297.0
 12
0.0
 22
0.0
 32
0.0
 14
0.0
 24
0.0
 34
0.0
 15
0.0
 25
0.0
 35
0.0
146
0.0
 13
0.0
 23
0.0
 33
0.0
 16
1.0
 26
0.0
 36
0.0
 17
0.0
 27
1.0
 37
0.0
 76
0
330
211
345
0
346
0
  0
LAYOUT
  5
405
102
{ACAD_REACTORS
330
1A
102
}
100
AcDbPlotSettings
  1

  2
none_device
  4

  6

 40
0.0
 41
0.0
 42
0.0
 43
0.0
 44
210.0
 45
297.0
 46
0.0
 47
0.0
 48
0.0
 49
0.0
140
0.0
141
0.0
142
1.0
143
1.0
 70
0
 72
1
 73
0
 74
0
  7

 75
0
147
1.0
148
0.0
149
0.0
100
AcDbLayout
  1
Layout1
 70
0
 71
1
 10
0.0
 20
0.0
 11
210.0
 21
297.0
 12
0.0
 22
0.0
 32
0.0
 14
0.0
 24
0.0
 34
0.0
 15
0.0
 25
0.0
 35
0.0
146
0.0
 13
0.0
 23
0.0
 33
0.0
 16
1.0
 26
0.0
 36
0.0
 17
0.0
 27
1.0
 37
0.0
 76
0
330
212
345
0
346
0
  0
ENDSEC
  0
EOF
