999
DXF file: C:\Users\sesa63760\Dev\_Creo\CAD\MCADID0001383_3D-CAD\drw0001_3.dxf
999
Pro/ENGINEER 2019471 by Parametric Technology Corporation
  0
SECTION
  2
HEADER
  9
$ACADVER
  1
AC1024
  9
$DWGCODEPAGE
  3
ANSI_1252
  9
$EXTMAX
 10
178.2844459084
 20
252.1451449275
 30
0.0
  9
$EXTMIN
 10
0.0
 20
0.0
 30
0.0
  9
$LIMMIN
 10
0.0
 20
0.0
  9
$LIMMAX
 10
178.2844459084
 20
252.1451449275
  9
$VIEWCTR
 10
89.1422229542
 20
126.0725724638
  9
$VIEWSIZE
 40
252.1451449275
  9
$CLAYER
  8
0
  9
$LTSCALE
 40
16.4361279656
  9
$CELTYPE
  6
BYLAYER
  9
$DIMSCALE
 40
1.0
  9
$DIMASZ
 40
2.1224338799
  9
$DIMEXO
 40
1.0
  9
$DIMDLI
 40
11.3558702308
  9
$DIMEXE
 40
1.0
  9
$DIMCEN
 40
2.6895482126
  9
$DIMLFAC
 40
1.0
  9
$DIMBLK
  1
_FILLED
  9
$DIMALT
 70
0
  9
$DIMALTF
 40
0.0393700787
  9
$DIMTXT
 40
2.9714074318
  9
$DIMTOL
 70
1
  9
$DIMLIM
 70
0
  9
$DIMTFAC
 40
1.0
  9
$DIMTP
 40
0.01
  9
$DIMTM
 40
0.01
  9
$DIMGAP
 40
0.625
  9
$DIMDSEP
 70
46
  9
$AUNITS
 70
0
  9
$PDMODE
 70
3
  9
$PDSIZE
 40
0.3125
  9
$HANDSEED
  5
28C
  9
$TILEMODE
 70
1
  9
$MEASUREMENT
 70
1
  9
$INSUNITS
 70
4
  0
ENDSEC
  0
SECTION
  2
CLASSES
  0
CLASS
  1
ACDBDICTIONARYWDFLT
  2
AcDbDictionaryWithDefault
  3
AutoCAD 2000
 90
0
 91
1
280
0
281
0
  0
CLASS
  1
ACDBPLACEHOLDER
  2
AcDbPlaceHolder
  3
AutoCAD 2000
 90
0
 91
1
280
0
281
0
  0
CLASS
  1
LAYOUT
  2
AcDbLayout
  3
AutoCAD 2000
 90
0
 91
0
280
0
281
0
  0
ENDSEC
  0
SECTION
  2
TABLES
  0
TABLE
  2
VPORT
  5
8
100
AcDbSymbolTable
 70
2
  0
VPORT
  5
1F4
100
AcDbSymbolTableRecord
100
AcDbViewportTableRecord
  2
*ACTIVE
 70
0
 10
0.0
 20
0.0
 11
1.0
 21
1.0
 12
89.1422229542
 22
126.0725724638
 13
0.0
 23
0.0
 14
1.0
 24
1.0
 15
0.0
 25
0.0
 16
0.0
 26
0.0
 36
1.0
 17
0.0
 27
0.0
 37
0.0
 40
252.1451449275
 41
0.7070707071
 42
50.0
 43
0.0
 44
0.0
 50
0.0
 51
0.0
 71
0
 72
100
 73
1
 74
1
 75
0
 76
0
 77
0
 78
0
  0
ENDTAB
  0
TABLE
  2
LTYPE
  5
5
100
AcDbSymbolTable
 70
6
  0
LTYPE
  5
14
100
AcDbSymbolTableRecord
100
AcDbLinetypeTableRecord
  2
BYBLOCK
 70
0
  3

 72
65
 73
0
 40
0.0
  0
LTYPE
  5
15
100
AcDbSymbolTableRecord
100
AcDbLinetypeTableRecord
  2
BYLAYER
 70
0
  3

 72
65
 73
0
 40
0.0
  0
LTYPE
  5
16
100
AcDbSymbolTableRecord
100
AcDbLinetypeTableRecord
  2
CONTINUOUS
 70
64
  3
Solid line
 72
65
 73
0
 40
0.0
  0
LTYPE
  5
1F5
100
AcDbSymbolTableRecord
100
AcDbLinetypeTableRecord
  2
CENTER
 70
64
  3
____ _ ____ _ ____ _ ____ _ ____ _ ____ _ ____
 72
65
 73
4
 40
0.6
 49
0.375
 74
0
 49
-0.075
 74
0
 49
0.075
 74
0
 49
-0.075
 74
0
  0
LTYPE
  5
1F6
100
AcDbSymbolTableRecord
100
AcDbLinetypeTableRecord
  2
HIDDEN
 70
64
  3
- - - - - - - - - - - - - - - - - - - -
 72
65
 73
2
 40
0.2
 49
0.1
 74
0
 49
-0.1
 74
0
  0
LTYPE
  5
1F7
100
AcDbSymbolTableRecord
100
AcDbLinetypeTableRecord
  2
PHANTOM
 70
64
  3
_____ _ _ _____ _ _ _____ _ _ _____
 72
65
 73
6
 40
0.8
 49
0.45
 74
0
 49
-0.05
 74
0
 49
0.1
 74
0
 49
-0.05
 74
0
 49
0.1
 74
0
 49
-0.05
 74
0
  0
LTYPE
  5
1F8
100
AcDbSymbolTableRecord
100
AcDbLinetypeTableRecord
  2
DOT
 70
64
  3
. . . . . . . . . . . . . . . . . . . .
 72
65
 73
2
 40
0.2
 49
0.1
 74
0
 49
-0.1
 74
0
  0
LTYPE
  5
1F9
100
AcDbSymbolTableRecord
100
AcDbLinetypeTableRecord
  2
DASHED
 70
64
  3
- - - - - - - - - - - - - - - - - - - -
 72
65
 73
2
 40
0.2
 49
0.1
 74
0
 49
-0.1
 74
0
  0
ENDTAB
  0
TABLE
  2
LAYER
  5
2
100
AcDbSymbolTable
 70
36
  0
LAYER
  5
10
100
AcDbSymbolTableRecord
100
AcDbLayerTableRecord
  2
0
 70
0
 62
7
  6
CONTINUOUS
370
-3
390
F
  0
LAYER
  5
1FA
100
AcDbSymbolTableRecord
100
AcDbLayerTableRecord
  2
DEFAULT_1
 70
0
 62
7
  6
CENTER
370
-3
390
F
  0
LAYER
  5
1FB
100
AcDbSymbolTableRecord
100
AcDbLayerTableRecord
  2
DEFAULT_2
 70
0
 62
8
  6
HIDDEN
370
-3
390
F
  0
LAYER
  5
1FC
100
AcDbSymbolTableRecord
100
AcDbLayerTableRecord
  2
DEFAULT_3
 70
0
 62
7
  6
PHANTOM
370
-3
390
F
  0
LAYER
  5
1FD
100
AcDbSymbolTableRecord
100
AcDbLayerTableRecord
  2
00_COMPONENTS
 70
0
 62
7
  6
CONTINUOUS
370
-3
390
F
  0
LAYER
  5
1FE
100
AcDbSymbolTableRecord
100
AcDbLayerTableRecord
  2
01_1_DEFAULT_DATUMS
 70
0
 62
7
  6
CONTINUOUS
370
-3
390
F
  0
LAYER
  5
1FF
100
AcDbSymbolTableRecord
100
AcDbLayerTableRecord
  2
01_PLANES
 70
0
 62
7
  6
CONTINUOUS
370
-3
390
F
  0
LAYER
  5
200
100
AcDbSymbolTableRecord
100
AcDbLayerTableRecord
  2
02_COORD_SYS
 70
0
 62
7
  6
CONTINUOUS
370
-3
390
F
  0
LAYER
  5
201
100
AcDbSymbolTableRecord
100
AcDbLayerTableRecord
  2
03_AXES
 70
0
 62
7
  6
CONTINUOUS
370
-3
390
F
  0
LAYER
  5
202
100
AcDbSymbolTableRecord
100
AcDbLayerTableRecord
  2
04_POINTS
 70
0
 62
7
  6
CONTINUOUS
370
-3
390
F
  0
LAYER
  5
203
100
AcDbSymbolTableRecord
100
AcDbLayerTableRecord
  2
05_CURVES
 70
0
 62
7
  6
CONTINUOUS
370
-3
390
F
  0
LAYER
  5
204
100
AcDbSymbolTableRecord
100
AcDbLayerTableRecord
  2
06_SURFS
 70
0
 62
7
  6
CONTINUOUS
370
-3
390
F
  0
LAYER
  5
205
100
AcDbSymbolTableRecord
100
AcDbLayerTableRecord
  2
07_COSMETICS
 70
0
 62
7
  6
CONTINUOUS
370
-3
390
F
  0
LAYER
  5
206
100
AcDbSymbolTableRecord
100
AcDbLayerTableRecord
  2
10_NOTES
 70
0
 62
7
  6
CONTINUOUS
370
-3
390
F
  0
LAYER
  5
207
100
AcDbSymbolTableRecord
100
AcDbLayerTableRecord
  2
11_NOTES_PUB
 70
0
 62
7
  6
CONTINUOUS
370
-3
390
F
  0
LAYER
  5
208
100
AcDbSymbolTableRecord
100
AcDbLayerTableRecord
  2
13_REF_GTOL
 70
0
 62
7
  6
CONTINUOUS
370
-3
390
F
  0
LAYER
  5
209
100
AcDbSymbolTableRecord
100
AcDbLayerTableRecord
  2
16_MISC
 70
0
 62
7
  6
CONTINUOUS
370
-3
390
F
  0
LAYER
  5
20A
100
AcDbSymbolTableRecord
100
AcDbLayerTableRecord
  2
17_NO_PRINT
 70
0
 62
7
  6
CONTINUOUS
370
-3
390
F
  0
LAYER
  5
20B
100
AcDbSymbolTableRecord
100
AcDbLayerTableRecord
  2
18_DATUM_CAMS_JOINTS
 70
0
 62
7
  6
CONTINUOUS
370
-3
390
F
  0
LAYER
  5
20C
100
AcDbSymbolTableRecord
100
AcDbLayerTableRecord
  2
19_DATUM_FUNCTIONAL
 70
0
 62
7
  6
CONTINUOUS
370
-3
390
F
  0
LAYER
  5
20D
100
AcDbSymbolTableRecord
100
AcDbLayerTableRecord
  2
20_DATUM_KINEMATIC_SCHEME
 70
0
 62
7
  6
CONTINUOUS
370
-3
390
F
  0
LAYER
  5
20E
100
AcDbSymbolTableRecord
100
AcDbLayerTableRecord
  2
_1
 70
0
 62
7
  6
CONTINUOUS
370
-3
390
F
  0
ENDTAB
  0
TABLE
  2
STYLE
  5
3
100
AcDbSymbolTable
 70
1
  0
STYLE
  5
11
100
AcDbSymbolTableRecord
100
AcDbTextStyleTableRecord
  2
STANDARD
 70
0
 40
0.0
 41
0.8
 50
0.0
 71
0
 42
0.2
  3
txt
  4

  0
STYLE
  5
20F
100
AcDbSymbolTableRecord
100
AcDbTextStyleTableRecord
  2
TEXTSTYLE_1
 70
0
 40
0.0
 41
0.8
 50
0.0
 71
0
 42
0.2
  3
gdt
  4

  0
ENDTAB
  0
TABLE
  2
VIEW
  5
6
100
AcDbSymbolTable
 70
0
  0
ENDTAB
  0
TABLE
  2
UCS
  5
7
100
AcDbSymbolTable
 70
0
  0
ENDTAB
  0
TABLE
  2
APPID
  5
9
100
AcDbSymbolTable
 70
1
  0
APPID
  5
210
100
AcDbSymbolTableRecord
100
AcDbRegAppTableRecord
  2
ACAD
 70
0
  0
ENDTAB
  0
TABLE
  2
BLOCK_RECORD
  5
1
100
AcDbSymbolTable
 70
0
  0
BLOCK_RECORD
  5
211
100
AcDbSymbolTableRecord
100
AcDbBlockTableRecord
  2
*Model_Space
  0
BLOCK_RECORD
  5
212
100
AcDbSymbolTableRecord
100
AcDbBlockTableRecord
  2
*Paper_Space
  0
BLOCK_RECORD
  5
213
100
AcDbSymbolTableRecord
100
AcDbBlockTableRecord
  2
_FILLED
  0
ENDTAB
  0
TABLE
  2
DIMSTYLE
  5
A
100
AcDbSymbolTable
 70
1
100
AcDbDimStyleTable
 71
0
  0
DIMSTYLE
105
214
100
AcDbSymbolTableRecord
100
AcDbDimStyleTableRecord
  2
STANDARD
 70
0
  3

  4

 40
1.0
 41
2.1224338799
 42
1.0
 43
0.38
 44
1.0
 45
0.0
 46
0.0
 47
0.01
 48
0.01
140
2.9714074318
141
0.09
142
0.0
143
25.4
144
1.0
145
0.0
146
1.0
147
0.625
 71
1
 72
0
 73
0
 74
0
 75
0
 76
0
 77
1
 78
8
 79
2
170
0
171
1
172
0
173
0
174
0
175
0
176
0
177
0
178
0
270
2
179
2
271
2
272
2
273
2
274
2
275
0
280
0
281
0
282
0
283
1
284
8
285
0
286
0
287
3
288
0
340
11
278
46
341
213
342
213
343
213
344
213
  0
ENDTAB
  0
ENDSEC
  0
SECTION
  2
BLOCKS
  0
BLOCK
  5
20
100
AcDbEntity
  8
0
100
AcDbBlockBegin
  2
*Model_Space
 70
0
 10
0.0
 20
0.0
 30
0.0
  3
*Model_Space
  1

  0
ENDBLK
  5
21
100
AcDbEntity
  8
0
100
AcDbBlockEnd
  0
BLOCK
  5
1C
100
AcDbEntity
  8
0
100
AcDbBlockBegin
  2
*Paper_Space
 70
0
 10
0.0
 20
0.0
 30
0.0
  3
*Paper_Space
  1

  0
ENDBLK
  5
1D
100
AcDbEntity
  8
0
100
AcDbBlockEnd
  0
BLOCK
  5
215
100
AcDbEntity
  8
0
100
AcDbBlockBegin
  2
_FILLED
 70
64
 10
0.0
 20
0.0
  3
_FILLED
  1

  0
SOLID
  5
216
100
AcDbEntity
  8
0
  6
BYBLOCK
 62
0
100
AcDbTrace
 10
0.0
 20
0.0
 11
-1.0
 21
0.25
 12
-1.0
 22
-0.25
 13
-1.0
 23
-0.25
  0
ENDBLK
  5
217
100
AcDbEntity
  8
0
  6
BYBLOCK
 62
0
100
AcDbBlockEnd
  0
ENDSEC
  0
SECTION
  2
ENTITIES
  0
LINE
  5
218
100
AcDbEntity
  8
_1
100
AcDbLine
 62
7
  6
CONTINUOUS
 10
88.3612084614
 20
20.2148188406
 11
65.3612084614
 21
20.2148188406
  0
LINE
  5
219
100
AcDbEntity
  8
_1
100
AcDbLine
 62
7
  6
CONTINUOUS
 10
117.8612084614
 20
23.2148188406
 11
94.8612084614
 21
23.2148188406
  0
LINE
  5
21A
100
AcDbEntity
  8
_1
100
AcDbLine
 62
7
  6
CONTINUOUS
 10
63.6993069292
 20
36.1648188406
 11
90.0231099936
 21
36.1648188406
  0
LINE
  5
21B
100
AcDbEntity
  8
_1
100
AcDbLine
 62
7
  6
CONTINUOUS
 10
118.5407580995
 20
38.1648188406
 11
119.5929515326
 21
38.1648188406
  0
LINE
  5
21C
100
AcDbEntity
  8
_1
100
AcDbLine
 62
7
  6
CONTINUOUS
 10
117.6112084614
 20
39.0646943719
 11
111.6112084614
 21
39.0646880817
  0
LINE
  5
21D
100
AcDbEntity
  8
_1
100
AcDbLine
 62
7
  6
CONTINUOUS
 10
71.6112084614
 20
39.0646943719
 11
65.6112084614
 21
39.0646880817
  0
LWPOLYLINE
  5
21E
100
AcDbEntity
  8
_1
100
AcDbPolyline
 62
7
  6
CONTINUOUS
 90
4
 70
0
 10
65.6112084614
 20
39.0646943677
 10
68.0296029992
 20
38.3113679729
 10
69.2049352893
 20
38.3132314784
 10
71.6112084614
 20
39.0646943676
  0
LINE
  5
21F
100
AcDbEntity
  8
_1
100
AcDbLine
 62
7
  6
CONTINUOUS
 10
119.0447482985
 20
40.6648188406
 11
109.1440593199
 21
40.6648188406
  0
LINE
  5
220
100
AcDbEntity
  8
_1
100
AcDbLine
 62
7
  6
CONTINUOUS
 10
64.1776686243
 20
40.6648188406
 11
74.0783576029
 21
40.6648188406
  0
LINE
  5
221
100
AcDbEntity
  8
_1
100
AcDbLine
 62
7
  6
CONTINUOUS
 10
64.1112084614
 20
41.1648188406
 11
63.5247030818
 21
41.1648188406
  0
LINE
  5
222
100
AcDbEntity
  8
_1
100
AcDbLine
 62
7
  6
CONTINUOUS
 10
119.7675553801
 20
43.1648188406
 11
119.1112084614
 21
43.1648188406
  0
LINE
  5
223
100
AcDbEntity
  8
_1
100
AcDbLine
 62
7
  6
CONTINUOUS
 10
119.1112084614
 20
44.6648188406
 11
64.1112084614
 21
44.6648188406
  0
LWPOLYLINE
  5
224
100
AcDbEntity
  8
_1
100
AcDbPolyline
 62
7
  6
CONTINUOUS
 90
4
 70
0
 10
111.6112084614
 20
39.0646943677
 10
114.0296029991
 20
38.3113679728
 10
115.2049352892
 20
38.3132314785
 10
117.6112084614
 20
39.0646943676
  0
LINE
  5
225
100
AcDbEntity
  8
_1
100
AcDbLine
 62
7
  6
CONTINUOUS
 10
64.1112084614
 20
85.1648188406
 11
119.1112084614
 21
85.1648188406
  0
LINE
  5
226
100
AcDbEntity
  8
_1
100
AcDbLine
 62
7
  6
CONTINUOUS
 10
62.8612084614
 20
60.1648188406
 11
63.6993069292
 21
36.1648188406
  0
LINE
  5
227
100
AcDbEntity
  8
_1
100
AcDbLine
 62
7
  6
CONTINUOUS
 10
63.8612084614
 20
70.1648188406
 11
63.8612084614
 21
50.1648188406
  0
LINE
  5
228
100
AcDbEntity
  8
_1
100
AcDbLine
 62
7
  6
CONTINUOUS
 10
64.1112084614
 20
38.2185376883
 11
64.1112084614
 21
213.1648188406
  0
LINE
  5
229
100
AcDbEntity
  8
_1
100
AcDbLine
 62
7
  6
CONTINUOUS
 10
64.1776686243
 20
38.3160729668
 11
64.1776686243
 21
40.6648188406
  0
LINE
  5
22A
100
AcDbEntity
  8
_1
100
AcDbLine
 62
7
  6
CONTINUOUS
 10
64.1785277118
 20
85.1648188406
 11
64.1785277118
 21
40.6648188406
  0
LINE
  5
22B
100
AcDbEntity
  8
_1
100
AcDbLine
 62
7
  6
CONTINUOUS
 10
64.1810925306
 20
204.1648188406
 11
64.1810925306
 21
85.1648188406
  0
LINE
  5
22C
100
AcDbEntity
  8
_1
100
AcDbLine
 62
7
  6
CONTINUOUS
 10
64.3079437633
 20
213.1648188406
 11
64.3079437633
 21
204.1648188406
  0
LINE
  5
22D
100
AcDbEntity
  8
_1
100
AcDbLine
 62
7
  6
CONTINUOUS
 10
65.2783758713
 20
204.1648188406
 11
65.2783758713
 21
85.1648188406
  0
LINE
  5
22E
100
AcDbEntity
  8
_1
100
AcDbLine
 62
7
  6
CONTINUOUS
 10
65.2876410405
 20
85.1648188406
 11
65.2876410405
 21
40.6648188406
  0
LINE
  5
22F
100
AcDbEntity
  8
_1
100
AcDbLine
 62
7
  6
CONTINUOUS
 10
65.3612084614
 20
20.2148188406
 11
65.3612084614
 21
36.1648188406
  0
LINE
  5
230
100
AcDbEntity
  8
_1
100
AcDbLine
 62
7
  6
CONTINUOUS
 10
65.6112084614
 20
40.6648188406
 11
65.6112084614
 21
39.0646880817
  0
LINE
  5
231
100
AcDbEntity
  8
_1
100
AcDbLine
 62
7
  6
CONTINUOUS
 10
66.2573608022
 20
85.1648188406
 11
66.2573608022
 21
204.1648188406
  0
LINE
  5
232
100
AcDbEntity
  8
_1
100
AcDbLine
 62
7
  6
CONTINUOUS
 10
66.2666557806
 20
40.6648188406
 11
66.2666557806
 21
85.1648188406
  0
LINE
  5
233
100
AcDbEntity
  8
_1
100
AcDbLine
 62
7
  6
CONTINUOUS
 10
68.6112084614
 20
38.3122901163
 11
68.6112084614
 21
37.914997303
  0
LINE
  5
234
100
AcDbEntity
  8
_1
100
AcDbLine
 62
7
  6
CONTINUOUS
 10
69.0673837305
 20
85.1648188406
 11
69.0673837305
 21
44.6648188406
  0
LINE
  5
235
100
AcDbEntity
  8
_1
100
AcDbLine
 62
7
  6
CONTINUOUS
 10
69.0784446874
 20
204.1648188406
 11
69.0784446874
 21
85.1648188406
  0
LINE
  5
236
100
AcDbEntity
  8
_1
100
AcDbLine
 62
7
  6
CONTINUOUS
 10
69.0785479876
 20
44.6648188406
 11
69.0785479876
 21
40.6648188406
  0
LINE
  5
237
100
AcDbEntity
  8
_1
100
AcDbLine
 62
7
  6
CONTINUOUS
 10
69.3077533786
 20
204.1648188406
 11
69.3077533786
 21
213.1648188406
  0
LINE
  5
238
100
AcDbEntity
  8
_1
100
AcDbLine
 62
7
  6
CONTINUOUS
 10
71.6112084614
 20
40.6648188406
 11
71.6112084614
 21
39.0646947209
  0
LINE
  5
239
100
AcDbEntity
  8
_1
100
AcDbLine
 62
7
  6
CONTINUOUS
 10
71.6112084614
 20
37.6110762068
 11
71.6112084614
 21
37.5800179652
  0
LINE
  5
23A
100
AcDbEntity
  8
_1
100
AcDbLine
 62
7
  6
CONTINUOUS
 10
71.6112084614
 20
213.1648188406
 11
71.6112084614
 21
215.1648188406
  0
LINE
  5
23B
100
AcDbEntity
  8
_1
100
AcDbLine
 62
7
  6
CONTINUOUS
 10
73.9954230833
 20
37.7198680207
 11
73.9954230833
 21
40.6648188406
  0
LINE
  5
23C
100
AcDbEntity
  8
_1
100
AcDbLine
 62
7
  6
CONTINUOUS
 10
74.0671933459
 20
44.6648188406
 11
74.0671933459
 21
85.1648188406
  0
LINE
  5
23D
100
AcDbEntity
  8
_1
100
AcDbLine
 62
7
  6
CONTINUOUS
 10
74.0782543027
 20
85.1648188406
 11
74.0782543027
 21
204.1648188406
  0
LINE
  5
23E
100
AcDbEntity
  8
_1
100
AcDbLine
 62
7
  6
CONTINUOUS
 10
74.0783576029
 20
40.6648188406
 11
74.0783576029
 21
44.6648188406
  0
LINE
  5
23F
100
AcDbEntity
  8
_1
100
AcDbLine
 62
7
  6
CONTINUOUS
 10
74.0930418074
 20
85.1648188406
 11
74.0930418074
 21
44.6648188406
  0
LINE
  5
240
100
AcDbEntity
  8
_1
100
AcDbLine
 62
7
  6
CONTINUOUS
 10
74.1042260529
 20
204.1648188406
 11
74.1042260529
 21
85.1648188406
  0
LINE
  5
241
100
AcDbEntity
  8
_1
100
AcDbLine
 62
7
  6
CONTINUOUS
 10
74.1042263798
 20
44.6648188406
 11
74.1042263798
 21
38.5712744186
  0
LINE
  5
242
100
AcDbEntity
  8
_1
100
AcDbLine
 62
7
  6
CONTINUOUS
 10
74.8891314887
 20
44.6648188406
 11
74.8891314887
 21
85.1648188406
  0
LINE
  5
243
100
AcDbEntity
  8
_1
100
AcDbLine
 62
7
  6
CONTINUOUS
 10
74.9005230117
 20
38.6126476507
 11
74.9005230117
 21
44.6648188406
  0
LINE
  5
244
100
AcDbEntity
  8
_1
100
AcDbLine
 62
7
  6
CONTINUOUS
 10
74.9005662042
 20
85.1648188406
 11
74.9005662042
 21
204.1648188406
  0
LINE
  5
245
100
AcDbEntity
  8
_1
100
AcDbLine
 62
7
  6
CONTINUOUS
 10
83.6240730578
 20
85.1648188406
 11
83.6240730578
 21
204.1648188406
  0
LINE
  5
246
100
AcDbEntity
  8
_1
100
AcDbLine
 62
7
  6
CONTINUOUS
 10
83.8944731799
 20
38.3254105038
 11
83.8944731799
 21
85.1648188406
  0
LINE
  5
247
100
AcDbEntity
  8
_1
100
AcDbLine
 62
7
  6
CONTINUOUS
 10
87.1112084614
 20
215.1648188406
 11
87.1112084614
 21
233.1648188406
  0
LINE
  5
248
100
AcDbEntity
  8
_1
100
AcDbLine
 62
7
  6
CONTINUOUS
 10
88.3612084614
 20
20.2148188406
 11
88.3612084614
 21
36.1648188406
  0
LINE
  5
249
100
AcDbEntity
  8
_1
100
AcDbLine
 62
7
  6
CONTINUOUS
 10
94.8612084614
 20
23.2148188406
 11
94.8612084614
 21
36.9671026183
  0
LINE
  5
24A
100
AcDbEntity
  8
_1
100
AcDbLine
 62
7
  6
CONTINUOUS
 10
96.1112084614
 20
215.1648188406
 11
96.1112084614
 21
233.1648188406
  0
LINE
  5
24B
100
AcDbEntity
  8
_1
100
AcDbLine
 62
7
  6
CONTINUOUS
 10
99.327943743
 20
85.1648188406
 11
99.327943743
 21
38.3254105038
  0
LINE
  5
24C
100
AcDbEntity
  8
_1
100
AcDbLine
 62
7
  6
CONTINUOUS
 10
99.5983438651
 20
204.1648188406
 11
99.5983438651
 21
85.1648188406
  0
LINE
  5
24D
100
AcDbEntity
  8
_1
100
AcDbLine
 62
7
  6
CONTINUOUS
 10
90.0231099936
 20
36.1648188406
 11
90.0508931578
 21
36.9604245677
  0
LINE
  5
24E
100
AcDbEntity
  8
_1
100
AcDbLine
 62
7
  6
CONTINUOUS
 10
108.3218507187
 20
204.1648188406
 11
108.3218507187
 21
85.1648188406
  0
LINE
  5
24F
100
AcDbEntity
  8
_1
100
AcDbLine
 62
7
  6
CONTINUOUS
 10
108.3218939112
 20
44.6648188406
 11
108.3218939112
 21
38.6126476507
  0
LINE
  5
250
100
AcDbEntity
  8
_1
100
AcDbLine
 62
7
  6
CONTINUOUS
 10
108.3332854342
 20
85.1648188406
 11
108.3332854342
 21
44.6648188406
  0
LINE
  5
251
100
AcDbEntity
  8
_1
100
AcDbLine
 62
7
  6
CONTINUOUS
 10
109.1181905431
 20
38.5712744186
 11
109.1181905431
 21
44.6648188406
  0
LINE
  5
252
100
AcDbEntity
  8
_1
100
AcDbLine
 62
7
  6
CONTINUOUS
 10
109.1181908699
 20
85.1648188406
 11
109.1181908699
 21
204.1648188406
  0
LINE
  5
253
100
AcDbEntity
  8
_1
100
AcDbLine
 62
7
  6
CONTINUOUS
 10
109.1293751155
 20
44.6648188406
 11
109.1293751155
 21
85.1648188406
  0
LINE
  5
254
100
AcDbEntity
  8
_1
100
AcDbLine
 62
7
  6
CONTINUOUS
 10
109.1440593199
 20
44.6648188406
 11
109.1440593199
 21
40.6648188406
  0
LINE
  5
255
100
AcDbEntity
  8
_1
100
AcDbLine
 62
7
  6
CONTINUOUS
 10
109.1441626201
 20
204.1648188406
 11
109.1441626201
 21
85.1648188406
  0
LINE
  5
256
100
AcDbEntity
  8
_1
100
AcDbLine
 62
7
  6
CONTINUOUS
 10
109.155223577
 20
85.1648188406
 11
109.155223577
 21
44.6648188406
  0
LINE
  5
257
100
AcDbEntity
  8
_1
100
AcDbLine
 62
7
  6
CONTINUOUS
 10
109.2269938396
 20
40.6648188406
 11
109.2269938396
 21
37.7198680207
  0
LINE
  5
258
100
AcDbEntity
  8
_1
100
AcDbLine
 62
7
  6
CONTINUOUS
 10
111.6112084614
 20
40.6648188406
 11
111.6112084614
 21
39.0646880817
  0
LINE
  5
259
100
AcDbEntity
  8
_1
100
AcDbLine
 62
7
  6
CONTINUOUS
 10
111.6112084614
 20
37.5800179652
 11
111.6112084614
 21
37.6110762068
  0
LINE
  5
25A
100
AcDbEntity
  8
_1
100
AcDbLine
 62
7
  6
CONTINUOUS
 10
111.6112084614
 20
213.1648188406
 11
111.6112084614
 21
215.1648188406
  0
LINE
  5
25B
100
AcDbEntity
  8
_1
100
AcDbLine
 62
7
  6
CONTINUOUS
 10
113.9146635442
 20
213.1648188406
 11
113.9146635442
 21
204.1648188406
  0
LINE
  5
25C
100
AcDbEntity
  8
_1
100
AcDbLine
 62
7
  6
CONTINUOUS
 10
114.1438689353
 20
40.6648188406
 11
114.1438689353
 21
44.6648188406
  0
LINE
  5
25D
100
AcDbEntity
  8
_1
100
AcDbLine
 62
7
  6
CONTINUOUS
 10
114.1439722355
 20
85.1648188406
 11
114.1439722355
 21
204.1648188406
  0
LINE
  5
25E
100
AcDbEntity
  8
_1
100
AcDbLine
 62
7
  6
CONTINUOUS
 10
114.1550331923
 20
44.6648188406
 11
114.1550331923
 21
85.1648188406
  0
LINE
  5
25F
100
AcDbEntity
  8
_1
100
AcDbLine
 62
7
  6
CONTINUOUS
 10
114.6112084614
 20
37.914997303
 11
114.6112084614
 21
38.3122901164
  0
LINE
  5
260
100
AcDbEntity
  8
_1
100
AcDbLine
 62
7
  6
CONTINUOUS
 10
116.9557611422
 20
85.1648188406
 11
116.9557611422
 21
40.6648188406
  0
LINE
  5
261
100
AcDbEntity
  8
_1
100
AcDbLine
 62
7
  6
CONTINUOUS
 10
116.9650561207
 20
204.1648188406
 11
116.9650561207
 21
85.1648188406
  0
LINE
  5
262
100
AcDbEntity
  8
_1
100
AcDbLine
 62
7
  6
CONTINUOUS
 10
117.6112084614
 20
40.6648188406
 11
117.6112084614
 21
39.0646947209
  0
LINE
  5
263
100
AcDbEntity
  8
_1
100
AcDbLine
 62
7
  6
CONTINUOUS
 10
117.8612084614
 20
23.2148188406
 11
117.8612084614
 21
38.1008262026
  0
LINE
  5
264
100
AcDbEntity
  8
_1
100
AcDbLine
 62
7
  6
CONTINUOUS
 10
117.9347758824
 20
40.6648188406
 11
117.9347758824
 21
85.1648188406
  0
LINE
  5
265
100
AcDbEntity
  8
_1
100
AcDbLine
 62
7
  6
CONTINUOUS
 10
117.9440410515
 20
85.1648188406
 11
117.9440410515
 21
204.1648188406
  0
LINE
  5
266
100
AcDbEntity
  8
_1
100
AcDbLine
 62
7
  6
CONTINUOUS
 10
118.9144731595
 20
204.1648188406
 11
118.9144731595
 21
213.1648188406
  0
LINE
  5
267
100
AcDbEntity
  8
_1
100
AcDbLine
 62
7
  6
CONTINUOUS
 10
119.0413243922
 20
85.1648188406
 11
119.0413243922
 21
204.1648188406
  0
LINE
  5
268
100
AcDbEntity
  8
_1
100
AcDbLine
 62
7
  6
CONTINUOUS
 10
119.0438892111
 20
40.6648188406
 11
119.0438892111
 21
85.1648188406
  0
LINE
  5
269
100
AcDbEntity
  8
_1
100
AcDbLine
 62
7
  6
CONTINUOUS
 10
119.0447482985
 20
40.6648188406
 11
119.0447482985
 21
38.3160729668
  0
LINE
  5
26A
100
AcDbEntity
  8
_1
100
AcDbLine
 62
7
  6
CONTINUOUS
 10
119.1112084614
 20
38.2185376883
 11
119.1112084614
 21
213.1648188406
  0
LINE
  5
26B
100
AcDbEntity
  8
_1
100
AcDbLine
 62
7
  6
CONTINUOUS
 10
119.3612084614
 20
50.1648188406
 11
119.3612084614
 21
70.1648188406
  0
LINE
  5
26C
100
AcDbEntity
  8
_1
100
AcDbLine
 62
7
  6
CONTINUOUS
 10
119.5929515326
 20
38.1648188406
 11
120.3612084614
 21
60.1648188406
  0
LINE
  5
26D
100
AcDbEntity
  8
_1
100
AcDbLine
 62
7
  6
CONTINUOUS
 10
119.0413243922
 20
204.1648188406
 11
99.5983438651
 21
204.1648188406
  0
LINE
  5
26E
100
AcDbEntity
  8
_1
100
AcDbLine
 62
7
  6
CONTINUOUS
 10
83.6240730578
 20
204.1648188406
 11
64.1810925306
 21
204.1648188406
  0
LINE
  5
26F
100
AcDbEntity
  8
_1
100
AcDbLine
 62
7
  6
CONTINUOUS
 10
64.1112084614
 20
213.1648188406
 11
119.1112084614
 21
213.1648188406
  0
LINE
  5
270
100
AcDbEntity
  8
_1
100
AcDbLine
 62
7
  6
CONTINUOUS
 10
71.6112084614
 20
215.1648188406
 11
111.6112084614
 21
215.1648188406
  0
LINE
  5
271
100
AcDbEntity
  8
_1
100
AcDbLine
 62
7
  6
CONTINUOUS
 10
87.1112084614
 20
233.1648188406
 11
96.1112084614
 21
233.1648188406
  0
ARC
  5
272
100
AcDbEntity
  8
_1
100
AcDbCircle
 62
7
  6
CONTINUOUS
 10
86.4162933177
 20
583.5667366814
 40
545.3941826684
100
AcDbArc
 50
271.3565458152
 51
272.3018877022
  0
ARC
  5
273
100
AcDbEntity
  8
_1
100
AcDbCircle
 62
7
  6
CONTINUOUS
 10
96.6302475196
 20
578.0597165565
 40
539.8845442113
100
AcDbArc
 50
267.6932884776
 51
268.648278005
  0
ARC
  5
274
100
AcDbEntity
  8
_1
100
AcDbCircle
 62
7
  6
CONTINUOUS
 10
91.6112084614
 20
316.8648188406
 40
280.0
100
AcDbArc
 50
274.0960437582
 51
275.6363503639
  0
ARC
  5
275
100
AcDbEntity
  8
_1
100
AcDbCircle
 62
7
  6
CONTINUOUS
 10
91.6112084614
 20
316.8648188406
 40
280.0
100
AcDbArc
 50
264.3636496361
 51
265.9039562418
  0
ARC
  5
276
100
AcDbEntity
  8
_1
100
AcDbCircle
 62
7
  6
CONTINUOUS
 10
91.6112084614
 20
316.8648188406
 40
279.9206633584
100
AcDbArc
 50
266.4156613702
 51
273.5843386298
  0
ARC
  5
277
100
AcDbEntity
  8
_1
100
AcDbCircle
 62
7
  6
CONTINUOUS
 10
91.6112084614
 20
316.8648188406
 40
279.8964146534
100
AcDbArc
 50
274.7134955987
 51
275.6247724375
  0
ARC
  5
278
100
AcDbEntity
  8
_1
100
AcDbCircle
 62
7
  6
CONTINUOUS
 10
91.6112084614
 20
316.8648188406
 40
279.8964146534
100
AcDbArc
 50
264.3752275625
 51
265.2865044013
  0
ARC
  5
279
100
AcDbEntity
  8
_1
100
AcDbCircle
 62
7
  6
CONTINUOUS
 10
91.6112084614
 20
316.8648188406
 40
278.6462811523
100
AcDbArc
 50
268.4130672902
 51
271.5869327098
  0
ARC
  5
27A
100
AcDbEntity
  8
_1
100
AcDbCircle
 62
7
  6
CONTINUOUS
 10
106.3612084614
 20
60.1648188406
 40
14.0
100
AcDbArc
 50
0.0
 51
20.8532975385
  0
ARC
  5
27B
100
AcDbEntity
  8
_1
100
AcDbCircle
 62
7
  6
CONTINUOUS
 10
76.8612084614
 20
60.1648188406
 40
14.0
100
AcDbArc
 50
159.1208021426
 51
180.0
  0
ARC
  5
27C
100
AcDbEntity
  8
_1
100
AcDbCircle
 62
7
  6
CONTINUOUS
 10
116.3612084614
 20
70.1648188406
 40
3.0
100
AcDbArc
 50
0.0
 51
23.4835588578
  0
ARC
  5
27D
100
AcDbEntity
  8
_1
100
AcDbCircle
 62
7
  6
CONTINUOUS
 10
116.3612084614
 20
50.1648188406
 40
3.0
100
AcDbArc
 50
336.5164411422
 51
360.0
  0
ARC
  5
27E
100
AcDbEntity
  8
_1
100
AcDbCircle
 62
7
  6
CONTINUOUS
 10
66.8612084614
 20
50.1648188406
 40
3.0
100
AcDbArc
 50
180.0
 51
203.4835588578
  0
ARC
  5
27F
100
AcDbEntity
  8
_1
100
AcDbCircle
 62
7
  6
CONTINUOUS
 10
66.8612084614
 20
70.1648188406
 40
3.0
100
AcDbArc
 50
156.5164411422
 51
180.0
  0
SPLINE
  5
280
100
AcDbEntity
  8
_1
100
AcDbSpline
 62
7
  6
CONTINUOUS
 70
0
 71
3
 72
23
 73
19
 74
0
 42
0.0000001
 43
0.0000001
 44
0.0000000001
 40
0.0
 40
0.0
 40
0.0
 40
0.0
 40
0.1949255183
 40
0.3824423768
 40
0.5552686266
 40
0.6340995813
 40
0.7068214391
 40
0.772746767
 40
0.8312209195
 40
0.8816939355
 40
0.9236621293
 40
0.9567258901
 40
0.9698203688
 40
0.9805729471
 40
0.9889615986
 40
0.9949783899
 40
0.9986267404
 40
1.0
 40
1.0
 40
1.0
 40
1.0
 10
109.1112084614
 20
37.4917160244
 30
0.0
 10
109.2735771435
 20
37.5018857427
 30
0.0
 10
109.592170985
 20
37.5213995694
 30
0.0
 10
110.0548206536
 20
37.5483442198
 30
0.0
 10
110.4208100889
 20
37.5684292723
 30
0.0
 10
110.6911797397
 20
37.5824011449
 30
0.0
 10
110.8724696394
 20
37.5913264741
 30
0.0
 10
111.0368136633
 20
37.5989459153
 30
0.0
 10
111.1826285857
 20
37.6051853888
 30
0.0
 10
111.3084999493
 20
37.6099978586
 30
0.0
 10
111.4131750719
 20
37.6133344822
 30
0.0
 10
111.4867560608
 20
37.6150144765
 30
0.0
 10
111.5341811736
 20
37.6154789106
 30
0.0
 10
111.5612376847
 20
37.6154361386
 30
0.0
 10
111.5818397378
 20
37.6149937619
 30
0.0
 10
111.597786682
 20
37.61430652
 30
0.0
 10
111.6053497575
 20
37.6131981492
 30
0.0
 10
111.6112084614
 20
37.6122375993
 30
0.0
 10
111.6112084614
 20
37.6110914626
 30
0.0
  0
SPLINE
  5
281
100
AcDbEntity
  8
_1
100
AcDbSpline
 62
7
  6
CONTINUOUS
 70
0
 71
3
 72
23
 73
19
 74
0
 42
0.0000001
 43
0.0000001
 44
0.0000000001
 40
0.0
 40
0.0
 40
0.0
 40
0.0
 40
0.0013732189
 40
0.0050215588
 40
0.0110383502
 40
0.0194270057
 40
0.030179588
 40
0.0432740747
 40
0.0763378537
 40
0.1183060522
 40
0.1687790795
 40
0.2272532354
 40
0.2931785615
 40
0.365900415
 40
0.44473136
 40
0.6175575922
 40
0.805074453
 40
1.0
 40
1.0
 40
1.0
 40
1.0
 10
71.6112084614
 20
37.6110905881
 30
0.0
 10
71.6112084614
 20
37.6122366906
 30
0.0
 10
71.6170673096
 20
37.6131968638
 30
0.0
 10
71.6246302156
 20
37.6143051065
 30
0.0
 10
71.640577255
 20
37.6149919746
 30
0.0
 10
71.6611792754
 20
37.6154341644
 30
0.0
 10
71.6882358112
 20
37.6154768448
 30
0.0
 10
71.7356609365
 20
37.6150125404
 30
0.0
 10
71.8092419557
 20
37.6133329581
 30
0.0
 10
71.9139171037
 20
37.6099966854
 30
0.0
 10
72.0397884711
 20
37.6051842821
 30
0.0
 10
72.1856033837
 20
37.5989447688
 30
0.0
 10
72.3499473811
 20
37.5913252562
 30
0.0
 10
72.5312372404
 20
37.5823998438
 30
0.0
 10
72.801606829
 20
37.568427948
 30
0.0
 10
73.1675961634
 20
37.5483422672
 30
0.0
 10
73.6302457575
 20
37.5213972312
 30
0.0
 10
73.9488397525
 20
37.5018861528
 30
0.0
 10
74.1112084614
 20
37.4917168127
 30
0.0
  0
SPLINE
  5
282
100
AcDbEntity
  8
_1
100
AcDbSpline
 62
7
  6
CONTINUOUS
 70
0
 71
3
 72
9
 73
5
 74
0
 42
0.0000001
 43
0.0000001
 44
0.0000000001
 40
0.0
 40
0.0
 40
0.0
 40
0.0
 40
0.5805180837
 40
1.0
 40
1.0
 40
1.0
 40
1.0
 10
109.1181905431
 20
38.5712744186
 30
0.0
 10
109.1340848163
 20
38.4059079278
 30
0.0
 10
109.16430723
 20
38.1213461508
 30
0.0
 10
109.2045489525
 20
37.8377954578
 30
0.0
 10
109.2269938396
 20
37.7198680207
 30
0.0
  0
SPLINE
  5
283
100
AcDbEntity
  8
_1
100
AcDbSpline
 62
7
  6
CONTINUOUS
 70
0
 71
3
 72
14
 73
10
 74
0
 42
0.0000001
 43
0.0000001
 44
0.0000000001
 40
0.0
 40
0.0
 40
0.0
 40
0.0
 40
0.0265353401
 40
0.0832156495
 40
0.1721815244
 40
0.2917469778
 40
0.4387167613
 40
0.6090736517
 40
1.0
 40
1.0
 40
1.0
 40
1.0
 10
74.1042263798
 20
38.5712744186
 30
0.0
 10
74.1049073402
 20
38.5783592374
 30
0.0
 10
74.1292005026
 20
38.5912098269
 30
0.0
 10
74.1711266401
 20
38.5999276853
 30
0.0
 10
74.2434122712
 20
38.6097191119
 30
0.0
 10
74.3378911977
 20
38.6158257247
 30
0.0
 10
74.4552848244
 20
38.6197032949
 30
0.0
 10
74.6451590214
 20
38.6206762941
 30
0.0
 10
74.7957515419
 20
38.6168726277
 30
0.0
 10
74.9005230117
 20
38.6126476507
 30
0.0
  0
SPLINE
  5
284
100
AcDbEntity
  8
_1
100
AcDbSpline
 62
7
  6
CONTINUOUS
 70
0
 71
3
 72
9
 73
5
 74
0
 42
0.0000001
 43
0.0000001
 44
0.0000000001
 40
0.0
 40
0.0
 40
0.0
 40
0.0
 40
0.4194819163
 40
1.0
 40
1.0
 40
1.0
 40
1.0
 10
73.9954230833
 20
37.7198680207
 30
0.0
 10
74.0178679704
 20
37.8377954578
 30
0.0
 10
74.0581096929
 20
38.1213461508
 30
0.0
 10
74.0883321066
 20
38.4059079278
 30
0.0
 10
74.1042263798
 20
38.5712744186
 30
0.0
  0
SPLINE
  5
285
100
AcDbEntity
  8
_1
100
AcDbSpline
 62
7
  6
CONTINUOUS
 70
0
 71
3
 72
14
 73
10
 74
0
 42
0.0000001
 43
0.0000001
 44
0.0000000001
 40
0.0
 40
0.0
 40
0.0
 40
0.0
 40
0.3909358967
 40
0.5612938562
 40
0.7082621834
 40
0.8278265834
 40
0.9167896824
 40
0.9734673908
 40
1.0
 40
1.0
 40
1.0
 40
1.0
 10
108.3218939112
 20
38.6126476507
 30
0.0
 10
108.4266677855
 20
38.6168727247
 30
0.0
 10
108.5772627553
 20
38.6206828043
 30
0.0
 10
108.7671392023
 20
38.6197097116
 30
0.0
 10
108.8845321366
 20
38.6158260261
 30
0.0
 10
108.9790090389
 20
38.6097133622
 30
0.0
 10
109.0512926312
 20
38.5999211635
 30
0.0
 10
109.0932172197
 20
38.5912074999
 30
0.0
 10
109.1175096537
 20
38.5783584978
 30
0.0
 10
109.1181905431
 20
38.5712744186
 30
0.0
  0
SPLINE
  5
286
100
AcDbEntity
  8
_1
100
AcDbSpline
 62
7
  6
CONTINUOUS
 70
0
 71
3
 72
10
 73
6
 74
0
 42
0.0000001
 43
0.0000001
 44
0.0000000001
 40
0.0
 40
0.0
 40
0.0
 40
0.0
 40
0.3838450304
 40
0.6706759958
 40
1.0
 40
1.0
 40
1.0
 40
1.0
 10
119.0447482985
 20
38.3160729668
 30
0.0
 10
119.0496454684
 20
38.3012130433
 30
0.0
 10
119.0594738377
 20
38.2750861996
 30
0.0
 10
119.0762460331
 20
38.2400718004
 30
0.0
 10
119.0978496433
 20
38.2172192874
 30
0.0
 10
119.1112084614
 20
38.2185376883
 30
0.0
  0
SPLINE
  5
287
100
AcDbEntity
  8
_1
100
AcDbSpline
 62
7
  6
CONTINUOUS
 70
0
 71
3
 72
21
 73
17
 74
0
 42
0.0000001
 43
0.0000001
 44
0.0000000001
 40
0.0
 40
0.0
 40
0.0
 40
0.0
 40
0.193553853
 40
0.379805696
 40
0.5516835802
 40
0.6301501221
 40
0.7026176655
 40
0.7683833137
 40
0.8268279409
 40
0.8773816663
 40
0.9195858446
 40
0.9530483551
 40
0.9775193961
 40
0.9929016461
 40
0.9973288187
 40
1.0
 40
1.0
 40
1.0
 40
1.0
 10
68.6112084614
 20
37.914997303
 30
0.0
 10
68.9586281415
 20
37.886351819
 30
0.0
 10
69.6406151824
 20
37.8331711434
 30
0.0
 10
70.6318999698
 20
37.7651055751
 30
0.0
 10
71.4169138189
 20
37.7193162758
 30
0.0
 10
71.9976362587
 20
37.6912034105
 30
0.0
 10
72.387598502
 20
37.675241132
 30
0.0
 10
72.7416500064
 20
37.6638941062
 30
0.0
 10
73.0563362463
 20
37.6572374254
 30
0.0
 10
73.3286889653
 20
37.6553208831
 30
0.0
 10
73.5559469019
 20
37.6580674602
 30
0.0
 10
73.7363807204
 20
37.6653166118
 30
0.0
 10
73.8675610663
 20
37.6766798386
 30
0.0
 10
73.9471075152
 20
37.6904460289
 30
0.0
 10
73.9844641466
 20
37.7051239463
 30
0.0
 10
73.9945235799
 20
37.7151419498
 30
0.0
 10
73.9954230833
 20
37.7198680207
 30
0.0
  0
SPLINE
  5
288
100
AcDbEntity
  8
_1
100
AcDbSpline
 62
7
  6
CONTINUOUS
 70
0
 71
3
 72
10
 73
6
 74
0
 42
0.0000001
 43
0.0000001
 44
0.0000000001
 40
0.0
 40
0.0
 40
0.0
 40
0.0
 40
0.3293240042
 40
0.6161549696
 40
1.0
 40
1.0
 40
1.0
 40
1.0
 10
64.1112084614
 20
38.2185376883
 30
0.0
 10
64.1245672796
 20
38.2172192874
 30
0.0
 10
64.1461708898
 20
38.2400718004
 30
0.0
 10
64.1629430852
 20
38.2750861996
 30
0.0
 10
64.1727714544
 20
38.3012130433
 30
0.0
 10
64.1776686243
 20
38.3160729668
 30
0.0
  0
SPLINE
  5
289
100
AcDbEntity
  8
_1
100
AcDbSpline
 62
7
  6
CONTINUOUS
 70
0
 71
3
 72
21
 73
17
 74
0
 42
0.0000001
 43
0.0000001
 44
0.0000000001
 40
0.0
 40
0.0
 40
0.0
 40
0.0
 40
0.0026711386
 40
0.0070983285
 40
0.0224804104
 40
0.0469506096
 40
0.0804127518
 40
0.1226172725
 40
0.1731706718
 40
0.2316135368
 40
0.2973781947
 40
0.3698468744
 40
0.4483144557
 40
0.6201911851
 40
0.8064463587
 40
1.0
 40
1.0
 40
1.0
 40
1.0
 10
109.2269938396
 20
37.7198680207
 30
0.0
 10
109.2278933283
 20
37.7151420267
 30
0.0
 10
109.2379535894
 20
37.7051245689
 30
0.0
 10
109.2753107089
 20
37.6904496053
 30
0.0
 10
109.3548553639
 20
37.6766848196
 30
0.0
 10
109.4860329308
 20
37.6653186943
 30
0.0
 10
109.6664650972
 20
37.6580674132
 30
0.0
 10
109.8937223546
 20
37.6553216143
 30
0.0
 10
110.1660718391
 20
37.6572383969
 30
0.0
 10
110.4807524988
 20
37.6638924233
 30
0.0
 10
110.8348010489
 20
37.6752381033
 30
0.0
 10
111.224765232
 20
37.6912027059
 30
0.0
 10
111.8054892127
 20
37.7193183152
 30
0.0
 10
112.5905088147
 20
37.7651042422
 30
0.0
 10
113.5817972033
 20
37.8331655953
 30
0.0
 10
114.2637892564
 20
37.8863518582
 30
0.0
 10
114.6112084614
 20
37.914997303
 30
0.0
  0
ENDSEC
  0
SECTION
  2
OBJECTS
  0
DICTIONARY
  5
C
100
AcDbDictionary
280
0
281
1
  3
ACAD_GROUP
350
D
  3
ACAD_MLINESTYLE
350
17
  3
ACAD_LAYOUT
350
1A
  3
ACAD_PLOTSETTINGS
350
19
  3
ACAD_PLOTSTYLENAME
350
E
  0
DICTIONARY
  5
D
102
{ACAD_REACTORS
330
C
102
}
100
AcDbDictionary
280
0
281
1
  0
ACDBDICTIONARYWDFLT
  5
E
102
{ACAD_REACTORS
330
C
102
}
100
AcDbDictionary
281
1
  3
Normal
350
F
100
AcDbDictionaryWithDefault
340
F
  0
DICTIONARY
  5
17
102
{ACAD_REACTORS
330
C
102
}
100
AcDbDictionary
280
0
281
1
  3
Standard
350
18
  0
DICTIONARY
  5
19
102
{ACAD_REACTORS
330
C
102
}
100
AcDbDictionary
281
1
  0
DICTIONARY
  5
1A
102
{ACAD_REACTORS
330
C
102
}
100
AcDbDictionary
281
1
  3
Model
350
28A
  3
Layout1
350
28B
  0
ACDBPLACEHOLDER
  5
F
102
{ACAD_REACTORS
330
E
102
}
  0
MLINESTYLE
  5
18
102
{ACAD_REACTORS
330
17
102
}
100
AcDbMlineStyle
  2
STANDARD
 70
0
  3

 62
256
 51
90.0
 52
90.0
 71
2
 49
0.5
 62
256
  6
BYLAYER
 49
-0.5
 62
256
  6
BYLAYER
  0
LAYOUT
  5
28A
102
{ACAD_REACTORS
330
1A
102
}
100
AcDbPlotSettings
  1

  2
none_device
  4

  6

 40
0.0
 41
0.0
 42
0.0
 43
0.0
 44
210.0
 45
297.0
 46
0.0
 47
0.0
 48
0.0
 49
0.0
140
0.0
141
0.0
142
1.0
143
1.0
 70
1024
 72
1
 73
0
 74
0
  7

 75
0
147
1.0
148
0.0
149
0.0
100
AcDbLayout
  1
Model
 70
0
 71
0
 10
0.0
 20
0.0
 11
210.0
 21
297.0
 12
0.0
 22
0.0
 32
0.0
 14
0.0
 24
0.0
 34
0.0
 15
0.0
 25
0.0
 35
0.0
146
0.0
 13
0.0
 23
0.0
 33
0.0
 16
1.0
 26
0.0
 36
0.0
 17
0.0
 27
1.0
 37
0.0
 76
0
330
211
345
0
346
0
  0
LAYOUT
  5
28B
102
{ACAD_REACTORS
330
1A
102
}
100
AcDbPlotSettings
  1

  2
none_device
  4

  6

 40
0.0
 41
0.0
 42
0.0
 43
0.0
 44
210.0
 45
297.0
 46
0.0
 47
0.0
 48
0.0
 49
0.0
140
0.0
141
0.0
142
1.0
143
1.0
 70
0
 72
1
 73
0
 74
0
  7

 75
0
147
1.0
148
0.0
149
0.0
100
AcDbLayout
  1
Layout1
 70
0
 71
1
 10
0.0
 20
0.0
 11
210.0
 21
297.0
 12
0.0
 22
0.0
 32
0.0
 14
0.0
 24
0.0
 34
0.0
 15
0.0
 25
0.0
 35
0.0
146
0.0
 13
0.0
 23
0.0
 33
0.0
 16
1.0
 26
0.0
 36
0.0
 17
0.0
 27
1.0
 37
0.0
 76
0
330
212
345
0
346
0
  0
ENDSEC
  0
EOF
