999
DXF file: C:\Users\sesa63760\Dev\_Creo\CAD\MCADID0004853_3D-CAD\drw0001_5.dxf
999
Pro/ENGINEER 2019471 by Parametric Technology Corporation
  0
SECTION
  2
HEADER
  9
$ACADVER
  1
AC1024
  9
$DWGCODEPAGE
  3
ANSI_1252
  9
$EXTMAX
 10
404.2021123588
 20
571.6572731931
 30
0.0
  9
$EXTMIN
 10
0.0
 20
0.0
 30
0.0
  9
$LIMMIN
 10
0.0
 20
0.0
  9
$LIMMAX
 10
404.2021123588
 20
571.6572731931
  9
$VIEWCTR
 10
202.1010561794
 20
285.8286365966
  9
$VIEWSIZE
 40
571.6572731931
  9
$CLAYER
  8
0
  9
$LTSCALE
 40
37.2635852156
  9
$CELTYPE
  6
BYLAYER
  9
$DIMSCALE
 40
1.0
  9
$DIMASZ
 40
4.811929909
  9
$DIMEXO
 40
1.0
  9
$DIMDLI
 40
25.7457497853
  9
$DIMEXE
 40
1.0
  9
$DIMCEN
 40
6.0976775807
  9
$DIMLFAC
 40
1.0
  9
$DIMBLK
  1
_FILLED
  9
$DIMALT
 70
0
  9
$DIMALTF
 40
0.0393700787
  9
$DIMTXT
 40
6.7367018726
  9
$DIMTOL
 70
1
  9
$DIMLIM
 70
0
  9
$DIMTFAC
 40
1.0
  9
$DIMTP
 40
0.01
  9
$DIMTM
 40
0.01
  9
$DIMGAP
 40
0.625
  9
$DIMDSEP
 70
46
  9
$AUNITS
 70
0
  9
$PDMODE
 70
3
  9
$PDSIZE
 40
0.3125
  9
$HANDSEED
  5
2F8
  9
$TILEMODE
 70
1
  9
$MEASUREMENT
 70
1
  9
$INSUNITS
 70
4
  0
ENDSEC
  0
SECTION
  2
CLASSES
  0
CLASS
  1
ACDBDICTIONARYWDFLT
  2
AcDbDictionaryWithDefault
  3
AutoCAD 2000
 90
0
 91
1
280
0
281
0
  0
CLASS
  1
ACDBPLACEHOLDER
  2
AcDbPlaceHolder
  3
AutoCAD 2000
 90
0
 91
1
280
0
281
0
  0
CLASS
  1
LAYOUT
  2
AcDbLayout
  3
AutoCAD 2000
 90
0
 91
0
280
0
281
0
  0
ENDSEC
  0
SECTION
  2
TABLES
  0
TABLE
  2
VPORT
  5
8
100
AcDbSymbolTable
 70
2
  0
VPORT
  5
1F4
100
AcDbSymbolTableRecord
100
AcDbViewportTableRecord
  2
*ACTIVE
 70
0
 10
0.0
 20
0.0
 11
1.0
 21
1.0
 12
202.1010561794
 22
285.8286365966
 13
0.0
 23
0.0
 14
1.0
 24
1.0
 15
0.0
 25
0.0
 16
0.0
 26
0.0
 36
1.0
 17
0.0
 27
0.0
 37
0.0
 40
571.6572731931
 41
0.7070707071
 42
50.0
 43
0.0
 44
0.0
 50
0.0
 51
0.0
 71
0
 72
100
 73
1
 74
1
 75
0
 76
0
 77
0
 78
0
  0
ENDTAB
  0
TABLE
  2
LTYPE
  5
5
100
AcDbSymbolTable
 70
6
  0
LTYPE
  5
14
100
AcDbSymbolTableRecord
100
AcDbLinetypeTableRecord
  2
BYBLOCK
 70
0
  3

 72
65
 73
0
 40
0.0
  0
LTYPE
  5
15
100
AcDbSymbolTableRecord
100
AcDbLinetypeTableRecord
  2
BYLAYER
 70
0
  3

 72
65
 73
0
 40
0.0
  0
LTYPE
  5
16
100
AcDbSymbolTableRecord
100
AcDbLinetypeTableRecord
  2
CONTINUOUS
 70
64
  3
Solid line
 72
65
 73
0
 40
0.0
  0
LTYPE
  5
1F5
100
AcDbSymbolTableRecord
100
AcDbLinetypeTableRecord
  2
CENTER
 70
64
  3
____ _ ____ _ ____ _ ____ _ ____ _ ____ _ ____
 72
65
 73
4
 40
0.6
 49
0.375
 74
0
 49
-0.075
 74
0
 49
0.075
 74
0
 49
-0.075
 74
0
  0
LTYPE
  5
1F6
100
AcDbSymbolTableRecord
100
AcDbLinetypeTableRecord
  2
HIDDEN
 70
64
  3
- - - - - - - - - - - - - - - - - - - -
 72
65
 73
2
 40
0.2
 49
0.1
 74
0
 49
-0.1
 74
0
  0
LTYPE
  5
1F7
100
AcDbSymbolTableRecord
100
AcDbLinetypeTableRecord
  2
PHANTOM
 70
64
  3
_____ _ _ _____ _ _ _____ _ _ _____
 72
65
 73
6
 40
0.8
 49
0.45
 74
0
 49
-0.05
 74
0
 49
0.1
 74
0
 49
-0.05
 74
0
 49
0.1
 74
0
 49
-0.05
 74
0
  0
LTYPE
  5
1F8
100
AcDbSymbolTableRecord
100
AcDbLinetypeTableRecord
  2
DOT
 70
64
  3
. . . . . . . . . . . . . . . . . . . .
 72
65
 73
2
 40
0.2
 49
0.1
 74
0
 49
-0.1
 74
0
  0
LTYPE
  5
1F9
100
AcDbSymbolTableRecord
100
AcDbLinetypeTableRecord
  2
DASHED
 70
64
  3
- - - - - - - - - - - - - - - - - - - -
 72
65
 73
2
 40
0.2
 49
0.1
 74
0
 49
-0.1
 74
0
  0
ENDTAB
  0
TABLE
  2
LAYER
  5
2
100
AcDbSymbolTable
 70
36
  0
LAYER
  5
10
100
AcDbSymbolTableRecord
100
AcDbLayerTableRecord
  2
0
 70
0
 62
7
  6
CONTINUOUS
370
-3
390
F
  0
LAYER
  5
1FA
100
AcDbSymbolTableRecord
100
AcDbLayerTableRecord
  2
DEFAULT_1
 70
0
 62
7
  6
CENTER
370
-3
390
F
  0
LAYER
  5
1FB
100
AcDbSymbolTableRecord
100
AcDbLayerTableRecord
  2
DEFAULT_2
 70
0
 62
7
  6
HIDDEN
370
-3
390
F
  0
LAYER
  5
1FC
100
AcDbSymbolTableRecord
100
AcDbLayerTableRecord
  2
DEFAULT_3
 70
0
 62
7
  6
PHANTOM
370
-3
390
F
  0
LAYER
  5
1FD
100
AcDbSymbolTableRecord
100
AcDbLayerTableRecord
  2
00_COMPONENTS
 70
0
 62
7
  6
CONTINUOUS
370
-3
390
F
  0
LAYER
  5
1FE
100
AcDbSymbolTableRecord
100
AcDbLayerTableRecord
  2
01_1_DEFAULT_DATUMS
 70
0
 62
7
  6
CONTINUOUS
370
-3
390
F
  0
LAYER
  5
1FF
100
AcDbSymbolTableRecord
100
AcDbLayerTableRecord
  2
01_PLANES
 70
0
 62
7
  6
CONTINUOUS
370
-3
390
F
  0
LAYER
  5
200
100
AcDbSymbolTableRecord
100
AcDbLayerTableRecord
  2
02_COORD_SYS
 70
0
 62
7
  6
CONTINUOUS
370
-3
390
F
  0
LAYER
  5
201
100
AcDbSymbolTableRecord
100
AcDbLayerTableRecord
  2
03_AXES
 70
0
 62
7
  6
CONTINUOUS
370
-3
390
F
  0
LAYER
  5
202
100
AcDbSymbolTableRecord
100
AcDbLayerTableRecord
  2
04_POINTS
 70
0
 62
7
  6
CONTINUOUS
370
-3
390
F
  0
LAYER
  5
203
100
AcDbSymbolTableRecord
100
AcDbLayerTableRecord
  2
05_CURVES
 70
0
 62
7
  6
CONTINUOUS
370
-3
390
F
  0
LAYER
  5
204
100
AcDbSymbolTableRecord
100
AcDbLayerTableRecord
  2
06_SURFS
 70
0
 62
7
  6
CONTINUOUS
370
-3
390
F
  0
LAYER
  5
205
100
AcDbSymbolTableRecord
100
AcDbLayerTableRecord
  2
07_COSMETICS
 70
0
 62
7
  6
CONTINUOUS
370
-3
390
F
  0
LAYER
  5
206
100
AcDbSymbolTableRecord
100
AcDbLayerTableRecord
  2
10_NOTES
 70
0
 62
7
  6
CONTINUOUS
370
-3
390
F
  0
LAYER
  5
207
100
AcDbSymbolTableRecord
100
AcDbLayerTableRecord
  2
11_NOTES_PUB
 70
0
 62
7
  6
CONTINUOUS
370
-3
390
F
  0
LAYER
  5
208
100
AcDbSymbolTableRecord
100
AcDbLayerTableRecord
  2
13_REF_GTOL
 70
0
 62
7
  6
CONTINUOUS
370
-3
390
F
  0
LAYER
  5
209
100
AcDbSymbolTableRecord
100
AcDbLayerTableRecord
  2
16_MISC
 70
0
 62
7
  6
CONTINUOUS
370
-3
390
F
  0
LAYER
  5
20A
100
AcDbSymbolTableRecord
100
AcDbLayerTableRecord
  2
17_NO_PRINT
 70
0
 62
7
  6
CONTINUOUS
370
-3
390
F
  0
LAYER
  5
20B
100
AcDbSymbolTableRecord
100
AcDbLayerTableRecord
  2
18_DATUM_CAMS_JOINTS
 70
0
 62
7
  6
CONTINUOUS
370
-3
390
F
  0
LAYER
  5
20C
100
AcDbSymbolTableRecord
100
AcDbLayerTableRecord
  2
19_DATUM_FUNCTIONAL
 70
0
 62
7
  6
CONTINUOUS
370
-3
390
F
  0
LAYER
  5
20D
100
AcDbSymbolTableRecord
100
AcDbLayerTableRecord
  2
20_DATUM_KINEMATIC_SCHEME
 70
0
 62
7
  6
CONTINUOUS
370
-3
390
F
  0
ENDTAB
  0
TABLE
  2
STYLE
  5
3
100
AcDbSymbolTable
 70
1
  0
STYLE
  5
11
100
AcDbSymbolTableRecord
100
AcDbTextStyleTableRecord
  2
STANDARD
 70
0
 40
0.0
 41
1.0
 50
0.0
 71
0
 42
0.2
  3
ARIAL.TTF
  4

  0
STYLE
  5
20E
100
AcDbSymbolTableRecord
100
AcDbTextStyleTableRecord
  2
TEXTSTYLE_1
 70
0
 40
0.0
 41
0.8
 50
0.0
 71
0
 42
0.2
  3
gdt
  4

  0
ENDTAB
  0
TABLE
  2
VIEW
  5
6
100
AcDbSymbolTable
 70
0
  0
ENDTAB
  0
TABLE
  2
UCS
  5
7
100
AcDbSymbolTable
 70
0
  0
ENDTAB
  0
TABLE
  2
APPID
  5
9
100
AcDbSymbolTable
 70
1
  0
APPID
  5
20F
100
AcDbSymbolTableRecord
100
AcDbRegAppTableRecord
  2
ACAD
 70
0
  0
ENDTAB
  0
TABLE
  2
BLOCK_RECORD
  5
1
100
AcDbSymbolTable
 70
0
  0
BLOCK_RECORD
  5
210
100
AcDbSymbolTableRecord
100
AcDbBlockTableRecord
  2
*Model_Space
  0
BLOCK_RECORD
  5
211
100
AcDbSymbolTableRecord
100
AcDbBlockTableRecord
  2
*Paper_Space
  0
BLOCK_RECORD
  5
212
100
AcDbSymbolTableRecord
100
AcDbBlockTableRecord
  2
_FILLED
  0
ENDTAB
  0
TABLE
  2
DIMSTYLE
  5
A
100
AcDbSymbolTable
 70
1
100
AcDbDimStyleTable
 71
0
  0
DIMSTYLE
105
213
100
AcDbSymbolTableRecord
100
AcDbDimStyleTableRecord
  2
STANDARD
 70
0
  3

  4

 40
1.0
 41
4.811929909
 42
1.0
 43
0.38
 44
1.0
 45
0.0
 46
0.0
 47
0.01
 48
0.01
140
6.7367018726
141
0.09
142
0.0
143
25.4
144
1.0
145
0.0
146
1.0
147
0.625
 71
1
 72
0
 73
0
 74
0
 75
0
 76
0
 77
1
 78
8
 79
2
170
0
171
1
172
0
173
0
174
0
175
0
176
0
177
0
178
0
270
2
179
2
271
2
272
2
273
2
274
2
275
0
280
0
281
0
282
0
283
1
284
8
285
0
286
0
287
3
288
0
340
11
278
46
341
212
342
212
343
212
344
212
  0
ENDTAB
  0
ENDSEC
  0
SECTION
  2
BLOCKS
  0
BLOCK
  5
20
100
AcDbEntity
  8
0
100
AcDbBlockBegin
  2
*Model_Space
 70
0
 10
0.0
 20
0.0
 30
0.0
  3
*Model_Space
  1

  0
ENDBLK
  5
21
100
AcDbEntity
  8
0
100
AcDbBlockEnd
  0
BLOCK
  5
1C
100
AcDbEntity
  8
0
100
AcDbBlockBegin
  2
*Paper_Space
 70
0
 10
0.0
 20
0.0
 30
0.0
  3
*Paper_Space
  1

  0
ENDBLK
  5
1D
100
AcDbEntity
  8
0
100
AcDbBlockEnd
  0
BLOCK
  5
214
100
AcDbEntity
  8
0
100
AcDbBlockBegin
  2
_FILLED
 70
64
 10
0.0
 20
0.0
  3
_FILLED
  1

  0
SOLID
  5
215
100
AcDbEntity
  8
0
  6
BYBLOCK
 62
0
100
AcDbTrace
 10
0.0
 20
0.0
 11
-1.0
 21
0.25
 12
-1.0
 22
-0.25
 13
-1.0
 23
-0.25
  0
ENDBLK
  5
216
100
AcDbEntity
  8
0
  6
BYBLOCK
 62
0
100
AcDbBlockEnd
  0
ENDSEC
  0
SECTION
  2
ENTITIES
  0
LINE
  5
217
100
AcDbEntity
  8
0
100
AcDbLine
 62
7
  6
BYLAYER
 10
203.9486794175
 20
46.5302431669
 11
197.4486794175
 21
46.5302431669
  0
LINE
  5
218
100
AcDbEntity
  8
0
100
AcDbLine
 62
7
  6
BYLAYER
 10
197.4486794175
 20
48.5310983367
 11
203.9486794175
 21
48.5310983367
  0
LINE
  5
219
100
AcDbEntity
  8
0
100
AcDbLine
 62
7
  6
BYLAYER
 10
94.9486794175
 20
53.0264358358
 11
97.4486794175
 21
53.0264358358
  0
LINE
  5
21A
100
AcDbEntity
  8
0
100
AcDbLine
 62
7
  6
BYLAYER
 10
203.9486794175
 20
61.5265881406
 11
197.4486794175
 21
61.5265881406
  0
LINE
  5
21B
100
AcDbEntity
  8
0
100
AcDbLine
 62
7
  6
BYLAYER
 10
197.4486794175
 20
62.5264358358
 11
218.4520251338
 21
62.5264358358
  0
LINE
  5
21C
100
AcDbEntity
  8
0
100
AcDbLine
 62
7
  6
BYLAYER
 10
203.9486794175
 20
62.5446539204
 11
197.4486794175
 21
62.5446539204
  0
LINE
  5
21D
100
AcDbEntity
  8
0
100
AcDbLine
 62
7
  6
BYLAYER
 10
319.993052621
 20
62.7406550914
 11
208.4486794175
 21
62.7406550914
  0
LINE
  5
21E
100
AcDbEntity
  8
0
100
AcDbLine
 62
7
  6
BYLAYER
 10
197.4486794175
 20
64.5448771167
 11
203.9486794175
 21
64.5448771167
  0
LINE
  5
21F
100
AcDbEntity
  8
0
100
AcDbLine
 62
7
  6
BYLAYER
 10
101.9486794175
 20
67.5264358358
 11
197.4486794175
 21
67.5264358358
  0
LINE
  5
220
100
AcDbEntity
  8
0
100
AcDbLine
 62
7
  6
BYLAYER
 10
101.9486794175
 20
76.0264358358
 11
97.4486794175
 21
76.0264358358
  0
LINE
  5
221
100
AcDbEntity
  8
0
100
AcDbLine
 62
7
  6
BYLAYER
 10
219.1986794175
 20
123.2746632658
 11
295.698679415
 21
123.2916253608
  0
LINE
  5
222
100
AcDbEntity
  8
0
100
AcDbLine
 62
7
  6
BYLAYER
 10
208.4486794175
 20
113.4406550914
 11
304.4486794175
 21
113.4406550914
  0
LINE
  5
223
100
AcDbEntity
  8
0
100
AcDbLine
 62
7
  6
BYLAYER
 10
203.9486794175
 20
113.5264358358
 11
303.9486794175
 21
113.5264358358
  0
LINE
  5
224
100
AcDbEntity
  8
0
100
AcDbLine
 62
7
  6
BYLAYER
 10
295.6986794175
 20
128.3140797245
 11
219.1986794164
 21
128.4416085023
  0
LINE
  5
225
100
AcDbEntity
  8
0
100
AcDbLine
 62
7
  6
BYLAYER
 10
219.1986794175
 20
133.2746632658
 11
295.698679415
 21
133.2916253608
  0
LINE
  5
226
100
AcDbEntity
  8
0
100
AcDbLine
 62
7
  6
BYLAYER
 10
219.1986794175
 20
143.2746632658
 11
295.698679415
 21
143.2916253608
  0
LINE
  5
227
100
AcDbEntity
  8
0
100
AcDbLine
 62
7
  6
BYLAYER
 10
295.6986794175
 20
138.3140797245
 11
219.1986794164
 21
138.4416085023
  0
LINE
  5
228
100
AcDbEntity
  8
0
100
AcDbLine
 62
7
  6
BYLAYER
 10
219.1986794175
 20
153.2746632658
 11
295.698679415
 21
153.2916253608
  0
LINE
  5
229
100
AcDbEntity
  8
0
100
AcDbLine
 62
7
  6
BYLAYER
 10
219.1986794175
 20
163.2746632658
 11
295.698679415
 21
163.2916253608
  0
LINE
  5
22A
100
AcDbEntity
  8
0
100
AcDbLine
 62
7
  6
BYLAYER
 10
295.6986794175
 20
148.3140797245
 11
219.1986794164
 21
148.4416085023
  0
LINE
  5
22B
100
AcDbEntity
  8
0
100
AcDbLine
 62
7
  6
BYLAYER
 10
295.6986794175
 20
158.3140797245
 11
219.1986794164
 21
158.4416085023
  0
LINE
  5
22C
100
AcDbEntity
  8
0
100
AcDbLine
 62
7
  6
BYLAYER
 10
94.9486794175
 20
53.0264358358
 11
94.9486794175
 21
526.5264358358
  0
LINE
  5
22D
100
AcDbEntity
  8
0
100
AcDbLine
 62
7
  6
BYLAYER
 10
97.4486794175
 20
526.5264358358
 11
97.4486794175
 21
490.8161424682
  0
LINE
  5
22E
100
AcDbEntity
  8
0
100
AcDbLine
 62
7
  6
BYLAYER
 10
97.4486794175
 20
53.0264358358
 11
97.4486794175
 21
76.0264358358
  0
LINE
  5
22F
100
AcDbEntity
  8
0
100
AcDbLine
 62
7
  6
BYLAYER
 10
101.9486794175
 20
521.5264358358
 11
101.9486794175
 21
490.8161424682
  0
LINE
  5
230
100
AcDbEntity
  8
0
100
AcDbLine
 62
7
  6
BYLAYER
 10
101.9486794175
 20
76.0264358358
 11
101.9486794175
 21
67.5264358358
  0
LINE
  5
231
100
AcDbEntity
  8
0
100
AcDbLine
 62
7
  6
BYLAYER
 10
219.1986794175
 20
173.2746632658
 11
295.698679415
 21
173.2916253608
  0
LINE
  5
232
100
AcDbEntity
  8
0
100
AcDbLine
 62
7
  6
BYLAYER
 10
295.6986794175
 20
168.3140797245
 11
219.1986794164
 21
168.4416085023
  0
LINE
  5
233
100
AcDbEntity
  8
0
100
AcDbLine
 62
7
  6
BYLAYER
 10
295.6986794175
 20
178.3140797245
 11
219.1986794164
 21
178.4416085023
  0
LINE
  5
234
100
AcDbEntity
  8
0
100
AcDbLine
 62
7
  6
BYLAYER
 10
219.1986794175
 20
183.2746632658
 11
295.698679415
 21
183.2916253608
  0
LINE
  5
235
100
AcDbEntity
  8
0
100
AcDbLine
 62
7
  6
BYLAYER
 10
219.1986794175
 20
193.2746632658
 11
295.698679415
 21
193.2916253608
  0
LINE
  5
236
100
AcDbEntity
  8
0
100
AcDbLine
 62
7
  6
BYLAYER
 10
295.6986794175
 20
188.3140797245
 11
219.1986794164
 21
188.4416085023
  0
LINE
  5
237
100
AcDbEntity
  8
0
100
AcDbLine
 62
7
  6
BYLAYER
 10
295.6986794175
 20
198.3140797245
 11
219.1986794164
 21
198.4416085023
  0
LINE
  5
238
100
AcDbEntity
  8
0
100
AcDbLine
 62
7
  6
BYLAYER
 10
219.1986794175
 20
203.2746632658
 11
295.698679415
 21
203.2916253608
  0
LINE
  5
239
100
AcDbEntity
  8
0
100
AcDbLine
 62
7
  6
BYLAYER
 10
219.1986794175
 20
213.2746632658
 11
295.698679415
 21
213.2916253608
  0
LINE
  5
23A
100
AcDbEntity
  8
0
100
AcDbLine
 62
7
  6
BYLAYER
 10
295.6986794175
 20
208.3140797245
 11
219.1986794164
 21
208.4416085023
  0
LINE
  5
23B
100
AcDbEntity
  8
0
100
AcDbLine
 62
7
  6
BYLAYER
 10
219.1986794175
 20
223.2746632658
 11
295.698679415
 21
223.2916253608
  0
LINE
  5
23C
100
AcDbEntity
  8
0
100
AcDbLine
 62
7
  6
BYLAYER
 10
219.1986794175
 20
233.2746632658
 11
295.698679415
 21
233.2916253608
  0
LINE
  5
23D
100
AcDbEntity
  8
0
100
AcDbLine
 62
7
  6
BYLAYER
 10
295.6986794175
 20
218.3140797246
 11
219.1986794167
 21
218.4416085023
  0
LINE
  5
23E
100
AcDbEntity
  8
0
100
AcDbLine
 62
7
  6
BYLAYER
 10
295.6986794175
 20
228.3140797246
 11
219.1986794167
 21
228.4416085023
  0
LINE
  5
23F
100
AcDbEntity
  8
0
100
AcDbLine
 62
7
  6
BYLAYER
 10
219.1986794175
 20
243.2746632658
 11
295.698679415
 21
243.2916253608
  0
LINE
  5
240
100
AcDbEntity
  8
0
100
AcDbLine
 62
7
  6
BYLAYER
 10
219.1986794175
 20
253.2746632658
 11
295.698679415
 21
253.2916253608
  0
LINE
  5
241
100
AcDbEntity
  8
0
100
AcDbLine
 62
7
  6
BYLAYER
 10
295.6986794175
 20
238.3140797246
 11
219.1986794167
 21
238.4416085023
  0
LINE
  5
242
100
AcDbEntity
  8
0
100
AcDbLine
 62
7
  6
BYLAYER
 10
295.6986794175
 20
248.3140797246
 11
219.1986794167
 21
248.4416085023
  0
LINE
  5
243
100
AcDbEntity
  8
0
100
AcDbLine
 62
7
  6
BYLAYER
 10
219.1986794175
 20
263.2746632658
 11
295.698679415
 21
263.2916253608
  0
LINE
  5
244
100
AcDbEntity
  8
0
100
AcDbLine
 62
7
  6
BYLAYER
 10
295.6986794175
 20
258.3140797246
 11
219.1986794167
 21
258.4416085023
  0
LINE
  5
245
100
AcDbEntity
  8
0
100
AcDbLine
 62
7
  6
BYLAYER
 10
295.6986794175
 20
268.3140797246
 11
219.1986794167
 21
268.4416085023
  0
LINE
  5
246
100
AcDbEntity
  8
0
100
AcDbLine
 62
7
  6
BYLAYER
 10
197.4486794175
 20
46.5302431669
 11
197.4486794175
 21
526.5264358358
  0
LINE
  5
247
100
AcDbEntity
  8
0
100
AcDbLine
 62
7
  6
BYLAYER
 10
203.9486794175
 20
46.5302431669
 11
203.9486794175
 21
113.5264358358
  0
LINE
  5
248
100
AcDbEntity
  8
0
100
AcDbLine
 62
7
  6
BYLAYER
 10
203.9486794175
 20
498.4764358358
 11
203.9486794175
 21
526.5264358358
  0
LINE
  5
249
100
AcDbEntity
  8
0
100
AcDbLine
 62
7
  6
BYLAYER
 10
208.4486794175
 20
62.7406550914
 11
208.4486794175
 21
113.4406550914
  0
LINE
  5
24A
100
AcDbEntity
  8
0
100
AcDbLine
 62
7
  6
BYLAYER
 10
219.1986794175
 20
273.2746632658
 11
295.698679415
 21
273.2916253608
  0
LINE
  5
24B
100
AcDbEntity
  8
0
100
AcDbLine
 62
7
  6
BYLAYER
 10
219.1986794175
 20
283.2746632658
 11
295.698679415
 21
283.2916253608
  0
LINE
  5
24C
100
AcDbEntity
  8
0
100
AcDbLine
 62
7
  6
BYLAYER
 10
295.6986794175
 20
278.3140797246
 11
219.1986794167
 21
278.4416085023
  0
LINE
  5
24D
100
AcDbEntity
  8
0
100
AcDbLine
 62
7
  6
BYLAYER
 10
295.6986794175
 20
288.3140797246
 11
219.1986794167
 21
288.4416085023
  0
LINE
  5
24E
100
AcDbEntity
  8
0
100
AcDbLine
 62
7
  6
BYLAYER
 10
210.4486794175
 20
510.5264358358
 11
210.4486794175
 21
526.5264358358
  0
LINE
  5
24F
100
AcDbEntity
  8
0
100
AcDbLine
 62
7
  6
BYLAYER
 10
218.1512973781
 20
62.5264358357
 11
218.1512973781
 21
62.7406550914
  0
LINE
  5
250
100
AcDbEntity
  8
0
100
AcDbLine
 62
7
  6
BYLAYER
 10
218.4520251338
 20
62.5264358358
 11
218.4520251338
 21
62.7406550914
  0
LINE
  5
251
100
AcDbEntity
  8
0
100
AcDbLine
 62
7
  6
BYLAYER
 10
219.1986794175
 20
293.2746632658
 11
295.698679415
 21
293.2916253608
  0
LINE
  5
252
100
AcDbEntity
  8
0
100
AcDbLine
 62
7
  6
BYLAYER
 10
219.1986794175
 20
303.2746632658
 11
295.698679415
 21
303.2916253608
  0
LINE
  5
253
100
AcDbEntity
  8
0
100
AcDbLine
 62
7
  6
BYLAYER
 10
295.6986794175
 20
298.3140797246
 11
219.1986794167
 21
298.4416085023
  0
LINE
  5
254
100
AcDbEntity
  8
0
100
AcDbLine
 62
7
  6
BYLAYER
 10
304.4486794175
 20
344.3687098705
 11
303.9486794175
 21
343.8687158787
  0
LINE
  5
255
100
AcDbEntity
  8
0
100
AcDbLine
 62
7
  6
BYLAYER
 10
303.9486794175
 20
343.6976541364
 11
304.4486794175
 21
344.1976481282
  0
LINE
  5
256
100
AcDbEntity
  8
0
100
AcDbLine
 62
7
  6
BYLAYER
 10
304.4486794175
 20
332.2759710544
 11
303.9486794175
 21
331.7759770626
  0
LINE
  5
257
100
AcDbEntity
  8
0
100
AcDbLine
 62
7
  6
BYLAYER
 10
304.4486794175
 20
327.2139793222
 11
303.9486794175
 21
327.1877606218
  0
LINE
  5
258
100
AcDbEntity
  8
0
100
AcDbLine
 62
7
  6
BYLAYER
 10
219.1986794175
 20
313.2746632658
 11
295.698679415
 21
313.2916253608
  0
LINE
  5
259
100
AcDbEntity
  8
0
100
AcDbLine
 62
7
  6
BYLAYER
 10
219.1986794175
 20
323.2746632658
 11
295.698679415
 21
323.2916253608
  0
LINE
  5
25A
100
AcDbEntity
  8
0
100
AcDbLine
 62
7
  6
BYLAYER
 10
295.6986794175
 20
308.3140797246
 11
219.1986794167
 21
308.4416085023
  0
LINE
  5
25B
100
AcDbEntity
  8
0
100
AcDbLine
 62
7
  6
BYLAYER
 10
295.6986794175
 20
318.3140797246
 11
219.1986794167
 21
318.4416085023
  0
LINE
  5
25C
100
AcDbEntity
  8
0
100
AcDbLine
 62
7
  6
BYLAYER
 10
304.4486794175
 20
321.359396246
 11
303.9486794175
 21
320.8594022542
  0
LINE
  5
25D
100
AcDbEntity
  8
0
100
AcDbLine
 62
7
  6
BYLAYER
 10
303.9486794175
 20
320.574746653
 11
304.4486794175
 21
321.0747406448
  0
LINE
  5
25E
100
AcDbEntity
  8
0
100
AcDbLine
 62
7
  6
BYLAYER
 10
304.2766058131
 20
329.9210727033
 11
303.9486794175
 21
329.91969608
  0
LINE
  5
25F
100
AcDbEntity
  8
0
100
AcDbLine
 62
7
  6
BYLAYER
 10
219.1986794175
 20
333.2746632658
 11
295.698679415
 21
333.2916253608
  0
LINE
  5
260
100
AcDbEntity
  8
0
100
AcDbLine
 62
7
  6
BYLAYER
 10
295.6986794175
 20
328.3140797246
 11
219.1986794167
 21
328.4416085023
  0
LINE
  5
261
100
AcDbEntity
  8
0
100
AcDbLine
 62
7
  6
BYLAYER
 10
295.6986794175
 20
338.3140797246
 11
219.1986794167
 21
338.4416085023
  0
LINE
  5
262
100
AcDbEntity
  8
0
100
AcDbLine
 62
7
  6
BYLAYER
 10
304.4486794175
 20
307.326099898
 11
303.9486794175
 21
306.682269112
  0
LINE
  5
263
100
AcDbEntity
  8
0
100
AcDbLine
 62
7
  6
BYLAYER
 10
303.9486794175
 20
353.7972357002
 11
304.4486794175
 21
353.8059933812
  0
LINE
  5
264
100
AcDbEntity
  8
0
100
AcDbLine
 62
7
  6
BYLAYER
 10
219.1986794175
 20
343.2746632658
 11
295.698679415
 21
343.2916253608
  0
LINE
  5
265
100
AcDbEntity
  8
0
100
AcDbLine
 62
7
  6
BYLAYER
 10
219.1986794175
 20
353.2746632658
 11
295.698679415
 21
353.2916253608
  0
LINE
  5
266
100
AcDbEntity
  8
0
100
AcDbLine
 62
7
  6
BYLAYER
 10
295.6986794175
 20
348.3140797246
 11
219.1986794167
 21
348.4416085023
  0
LINE
  5
267
100
AcDbEntity
  8
0
100
AcDbLine
 62
7
  6
BYLAYER
 10
295.6986794175
 20
358.3140797246
 11
219.1986794167
 21
358.4416085023
  0
LINE
  5
268
100
AcDbEntity
  8
0
100
AcDbLine
 62
7
  6
BYLAYER
 10
291.9692065645
 20
113.4406550914
 11
291.9692065645
 21
113.5264358358
  0
LINE
  5
269
100
AcDbEntity
  8
0
100
AcDbLine
 62
7
  6
BYLAYER
 10
294.9403821955
 20
510.5264358358
 11
294.9403821955
 21
526.5264358358
  0
LINE
  5
26A
100
AcDbEntity
  8
0
100
AcDbLine
 62
7
  6
BYLAYER
 10
219.1986794175
 20
363.2746632658
 11
295.698679415
 21
363.2916253608
  0
LINE
  5
26B
100
AcDbEntity
  8
0
100
AcDbLine
 62
7
  6
BYLAYER
 10
219.1986794175
 20
373.2746632658
 11
295.698679415
 21
373.2916253608
  0
LINE
  5
26C
100
AcDbEntity
  8
0
100
AcDbLine
 62
7
  6
BYLAYER
 10
304.4486794175
 20
362.0114289882
 11
319.993052621
 21
362.0114289882
  0
LINE
  5
26D
100
AcDbEntity
  8
0
100
AcDbLine
 62
7
  6
BYLAYER
 10
303.9486794175
 20
362.0264358358
 11
304.4486794175
 21
362.0264358358
  0
LINE
  5
26E
100
AcDbEntity
  8
0
100
AcDbLine
 62
7
  6
BYLAYER
 10
319.993052621
 20
362.0264358358
 11
320.4486794175
 21
362.0264358358
  0
LINE
  5
26F
100
AcDbEntity
  8
0
100
AcDbLine
 62
7
  6
BYLAYER
 10
295.6986794175
 20
368.3140797246
 11
219.1986794167
 21
368.4416085023
  0
LINE
  5
270
100
AcDbEntity
  8
0
100
AcDbLine
 62
7
  6
BYLAYER
 10
303.9486794175
 20
526.5264358358
 11
303.9486794175
 21
510.5264358358
  0
LINE
  5
271
100
AcDbEntity
  8
0
100
AcDbLine
 62
7
  6
BYLAYER
 10
303.9486794175
 20
362.0264358358
 11
303.9486794175
 21
113.5264358358
  0
LINE
  5
272
100
AcDbEntity
  8
0
100
AcDbLine
 62
7
  6
BYLAYER
 10
304.4486794175
 20
113.4406550914
 11
304.4486794175
 21
362.0114289882
  0
LINE
  5
273
100
AcDbEntity
  8
0
100
AcDbLine
 62
7
  6
BYLAYER
 10
219.1986794175
 20
383.2746632658
 11
295.698679415
 21
383.2916253608
  0
LINE
  5
274
100
AcDbEntity
  8
0
100
AcDbLine
 62
7
  6
BYLAYER
 10
219.1986794175
 20
393.2746632658
 11
295.698679415
 21
393.2916253608
  0
LINE
  5
275
100
AcDbEntity
  8
0
100
AcDbLine
 62
7
  6
BYLAYER
 10
295.6986794175
 20
378.3140797246
 11
219.1986794167
 21
378.4416085023
  0
LINE
  5
276
100
AcDbEntity
  8
0
100
AcDbLine
 62
7
  6
BYLAYER
 10
295.6986794175
 20
388.3140797246
 11
219.1986794167
 21
388.4416085023
  0
LINE
  5
277
100
AcDbEntity
  8
0
100
AcDbLine
 62
7
  6
BYLAYER
 10
319.993052621
 20
362.0114289882
 11
319.993052621
 21
62.7406550914
  0
LINE
  5
278
100
AcDbEntity
  8
0
100
AcDbLine
 62
7
  6
BYLAYER
 10
320.4486794175
 20
510.5264358358
 11
320.4486794175
 21
362.0264358358
  0
LINE
  5
279
100
AcDbEntity
  8
0
100
AcDbLine
 62
7
  6
BYLAYER
 10
219.1986794175
 20
403.2746632658
 11
295.698679415
 21
403.2916253608
  0
LINE
  5
27A
100
AcDbEntity
  8
0
100
AcDbLine
 62
7
  6
BYLAYER
 10
295.6986794175
 20
398.3140797246
 11
219.1986794167
 21
398.4416085023
  0
LINE
  5
27B
100
AcDbEntity
  8
0
100
AcDbLine
 62
7
  6
BYLAYER
 10
295.6986794175
 20
408.3140797246
 11
219.1986794167
 21
408.4416085023
  0
LINE
  5
27C
100
AcDbEntity
  8
0
100
AcDbLine
 62
7
  6
BYLAYER
 10
219.1986794175
 20
413.2746632658
 11
295.698679415
 21
413.2916253608
  0
LINE
  5
27D
100
AcDbEntity
  8
0
100
AcDbLine
 62
7
  6
BYLAYER
 10
219.1986794175
 20
423.2746632658
 11
295.698679415
 21
423.2916253608
  0
LINE
  5
27E
100
AcDbEntity
  8
0
100
AcDbLine
 62
7
  6
BYLAYER
 10
295.6986794175
 20
418.3140797246
 11
219.1986794167
 21
418.4416085023
  0
LINE
  5
27F
100
AcDbEntity
  8
0
100
AcDbLine
 62
7
  6
BYLAYER
 10
295.6986794175
 20
428.3140797246
 11
219.1986794167
 21
428.4416085023
  0
LINE
  5
280
100
AcDbEntity
  8
0
100
AcDbLine
 62
7
  6
BYLAYER
 10
180.445718074
 20
445.3065290837
 11
107.4612833106
 21
444.8641834417
  0
LINE
  5
281
100
AcDbEntity
  8
0
100
AcDbLine
 62
7
  6
BYLAYER
 10
219.1986794175
 20
433.2746632658
 11
295.698679415
 21
433.2916253608
  0
LINE
  5
282
100
AcDbEntity
  8
0
100
AcDbLine
 62
7
  6
BYLAYER
 10
219.1986794175
 20
443.2746632658
 11
295.698679415
 21
443.2916253608
  0
LINE
  5
283
100
AcDbEntity
  8
0
100
AcDbLine
 62
7
  6
BYLAYER
 10
295.6986794175
 20
438.3140797246
 11
219.1986794167
 21
438.4416085023
  0
LINE
  5
284
100
AcDbEntity
  8
0
100
AcDbLine
 62
7
  6
BYLAYER
 10
107.4423419712
 20
438.1887465129
 11
180.4389588595
 21
437.7464417994
  0
LINE
  5
285
100
AcDbEntity
  8
0
100
AcDbLine
 62
7
  6
BYLAYER
 10
107.4423419767
 20
448.1887465129
 11
180.4389588573
 21
447.7464417994
  0
LINE
  5
286
100
AcDbEntity
  8
0
100
AcDbLine
 62
7
  6
BYLAYER
 10
180.4457180749
 20
455.3065290838
 11
107.4612833046
 21
454.8641834417
  0
LINE
  5
287
100
AcDbEntity
  8
0
100
AcDbLine
 62
7
  6
BYLAYER
 10
107.4428621064
 20
458.1887019874
 11
180.437765523
 21
458.2444736639
  0
LINE
  5
288
100
AcDbEntity
  8
0
100
AcDbLine
 62
7
  6
BYLAYER
 10
219.1986794175
 20
453.2746632658
 11
295.698679415
 21
453.2916253608
  0
LINE
  5
289
100
AcDbEntity
  8
0
100
AcDbLine
 62
7
  6
BYLAYER
 10
219.1986794175
 20
463.2746632658
 11
295.698679415
 21
463.2916253608
  0
LINE
  5
28A
100
AcDbEntity
  8
0
100
AcDbLine
 62
7
  6
BYLAYER
 10
180.4451288333
 20
464.8084496091
 11
107.4605211097
 21
464.8640997041
  0
LINE
  5
28B
100
AcDbEntity
  8
0
100
AcDbLine
 62
7
  6
BYLAYER
 10
295.6986794175
 20
448.3140797246
 11
219.1986794167
 21
448.4416085023
  0
LINE
  5
28C
100
AcDbEntity
  8
0
100
AcDbLine
 62
7
  6
BYLAYER
 10
295.6986794175
 20
458.3140797246
 11
219.1986794167
 21
458.4416085023
  0
LINE
  5
28D
100
AcDbEntity
  8
0
100
AcDbLine
 62
7
  6
BYLAYER
 10
219.1986794175
 20
473.2746632658
 11
295.698679415
 21
473.2916253608
  0
LINE
  5
28E
100
AcDbEntity
  8
0
100
AcDbLine
 62
7
  6
BYLAYER
 10
219.1986794175
 20
483.2746632658
 11
295.698679415
 21
483.2916253608
  0
LINE
  5
28F
100
AcDbEntity
  8
0
100
AcDbLine
 62
7
  6
BYLAYER
 10
295.6986794175
 20
468.3140797246
 11
219.1986794167
 21
468.4416085023
  0
LINE
  5
290
100
AcDbEntity
  8
0
100
AcDbLine
 62
7
  6
BYLAYER
 10
295.6986794175
 20
478.3140797246
 11
219.1986794167
 21
478.4416085023
  0
LINE
  5
291
100
AcDbEntity
  8
0
100
AcDbLine
 62
7
  6
BYLAYER
 10
219.1986794175
 20
493.2746632658
 11
295.698679415
 21
493.2916253608
  0
LINE
  5
292
100
AcDbEntity
  8
0
100
AcDbLine
 62
7
  6
BYLAYER
 10
101.9486794175
 20
490.8161424682
 11
97.4486794175
 21
490.8161424682
  0
LINE
  5
293
100
AcDbEntity
  8
0
100
AcDbLine
 62
7
  6
BYLAYER
 10
197.4486794175
 20
498.4764358357
 11
203.9486794175
 21
498.4764358358
  0
LINE
  5
294
100
AcDbEntity
  8
0
100
AcDbLine
 62
7
  6
BYLAYER
 10
295.6986794175
 20
488.3140797246
 11
219.1986794167
 21
488.4416085023
  0
LINE
  5
295
100
AcDbEntity
  8
0
100
AcDbLine
 62
7
  6
BYLAYER
 10
295.6986794175
 20
498.3140797246
 11
219.1986794167
 21
498.4416085023
  0
LINE
  5
296
100
AcDbEntity
  8
0
100
AcDbLine
 62
7
  6
BYLAYER
 10
203.9486794175
 20
501.0497953982
 11
197.4486794175
 21
501.0497953981
  0
LINE
  5
297
100
AcDbEntity
  8
0
100
AcDbLine
 62
7
  6
BYLAYER
 10
197.4486794175
 20
502.7375744546
 11
101.9486794175
 21
502.7375744546
  0
LINE
  5
298
100
AcDbEntity
  8
0
100
AcDbLine
 62
7
  6
BYLAYER
 10
101.9486794175
 20
504.7348335241
 11
197.4486794175
 21
504.7348335241
  0
LINE
  5
299
100
AcDbEntity
  8
0
100
AcDbLine
 62
7
  6
BYLAYER
 10
197.4486794175
 20
505.2284460276
 11
101.9486794175
 21
505.2284460276
  0
LINE
  5
29A
100
AcDbEntity
  8
0
100
AcDbLine
 62
7
  6
BYLAYER
 10
197.4486794175
 20
510.5264358358
 11
320.4486794175
 21
510.5264358358
  0
LINE
  5
29B
100
AcDbEntity
  8
0
100
AcDbLine
 62
7
  6
BYLAYER
 10
101.9486794175
 20
511.2202232361
 11
197.4486794175
 21
511.2202232361
  0
LINE
  5
29C
100
AcDbEntity
  8
0
100
AcDbLine
 62
7
  6
BYLAYER
 10
197.4486794175
 20
511.4740998795
 11
203.9486794175
 21
511.4740998795
  0
LINE
  5
29D
100
AcDbEntity
  8
0
100
AcDbLine
 62
7
  6
BYLAYER
 10
197.4486794175
 20
519.5264358358
 11
101.9486794175
 21
519.5264358358
  0
LINE
  5
29E
100
AcDbEntity
  8
0
100
AcDbLine
 62
7
  6
BYLAYER
 10
101.9486794175
 20
521.5264358358
 11
197.4486794175
 21
521.5264358358
  0
LINE
  5
29F
100
AcDbEntity
  8
0
100
AcDbLine
 62
7
  6
BYLAYER
 10
203.9486794175
 20
525.578771792
 11
197.4486794175
 21
525.578771792
  0
LINE
  5
2A0
100
AcDbEntity
  8
0
100
AcDbLine
 62
7
  6
BYLAYER
 10
303.9486794175
 20
526.5264358358
 11
210.4486794175
 21
526.5264358358
  0
LINE
  5
2A1
100
AcDbEntity
  8
0
100
AcDbLine
 62
7
  6
BYLAYER
 10
94.9486794175
 20
526.5264358358
 11
97.4486794175
 21
526.5264358358
  0
LINE
  5
2A2
100
AcDbEntity
  8
0
100
AcDbLine
 62
7
  6
BYLAYER
 10
197.4486794175
 20
526.5264358358
 11
203.9486794175
 21
526.5264358358
  0
ARC
  5
2A3
100
AcDbEntity
  8
0
100
AcDbCircle
 62
7
  6
BYLAYER
 10
304.2878518522
 20
339.9456232088
 40
10.0245568137
100
AcDbArc
 50
269.9357227734
 51
270.9211973038
  0
ARC
  5
2A4
100
AcDbEntity
  8
0
100
AcDbCircle
 62
7
  6
BYLAYER
 10
180.4454766853
 20
441.5265232252
 40
3.7793727575
100
AcDbArc
 50
269.9012075408
 51
89.996341129
  0
ARC
  5
2A5
100
AcDbEntity
  8
0
100
AcDbCircle
 62
7
  6
BYLAYER
 10
180.445476685
 20
451.5265232252
 40
3.7793727577
100
AcDbArc
 50
269.9012075125
 51
89.9963411106
  0
ARC
  5
2A6
100
AcDbEntity
  8
0
100
AcDbCircle
 62
7
  6
BYLAYER
 10
107.4473549323
 20
461.5263510823
 40
3.3369404374
100
AcDbArc
 50
89.7739906228
 51
269.9228739166
  0
ARC
  5
2A7
100
AcDbEntity
  8
0
100
AcDbCircle
 62
7
  6
BYLAYER
 10
107.4473549322
 20
441.5263510822
 40
3.3369404374
100
AcDbArc
 50
89.9320405494
 51
270.0622940269
  0
ARC
  5
2A8
100
AcDbEntity
  8
0
100
AcDbCircle
 62
7
  6
BYLAYER
 10
107.4473549323
 20
451.5263510823
 40
3.3369404374
100
AcDbArc
 50
89.9320405717
 51
270.0622940232
  0
ARC
  5
2A9
100
AcDbEntity
  8
0
100
AcDbCircle
 62
7
  6
BYLAYER
 10
180.4454747061
 20
461.5265216812
 40
3.2812570621
100
AcDbArc
 50
269.8654185314
 51
90.0060382355
  0
SPLINE
  5
2AA
100
AcDbEntity
  8
0
100
AcDbSpline
 62
7
  6
BYLAYER
 70
0
 71
3
 72
30
 73
26
 74
0
 42
0.0000001
 43
0.0000001
 44
0.0000000001
 40
0.0
 40
0.0
 40
0.0
 40
0.0
 40
0.0309919729
 40
0.0623428038
 40
0.0950082536
 40
0.1298967338
 40
0.1674810823
 40
0.2070986792
 40
0.247715693
 40
0.2885395055
 40
0.3294750714
 40
0.3704950788
 40
0.4114898604
 40
0.4523583205
 40
0.492953905
 40
0.5335956085
 40
0.5757689776
 40
0.6212418188
 40
0.6713320286
 40
0.7264366263
 40
0.7858845244
 40
0.8458469248
 40
0.9023735228
 40
0.9537046273
 40
1.0
 40
1.0
 40
1.0
 40
1.0
 10
219.1986794164
 20
128.4416085023
 30
0.0
 10
219.1174751959
 20
128.441608053
 30
0.0
 10
218.9539909431
 20
128.4320482816
 30
0.0
 10
218.7081337873
 20
128.3902260678
 30
0.0
 10
218.4582886484
 20
128.3195431561
 30
0.0
 10
218.2024562921
 20
128.2158331355
 30
0.0
 10
217.9442672211
 20
128.0743586919
 30
0.0
 10
217.6934325818
 20
127.8929083238
 30
0.0
 10
217.4629529129
 20
127.6735203275
 30
0.0
 10
217.2623365758
 20
127.4221891399
 30
0.0
 10
217.0946025611
 20
127.1467221905
 30
0.0
 10
216.9612314783
 20
126.852640479
 30
0.0
 10
216.8631437764
 20
126.5452179499
 30
0.0
 10
216.8010792702
 20
126.2297072963
 30
0.0
 10
216.7752264855
 20
125.9101232638
 30
0.0
 10
216.7861008656
 20
125.5862479525
 30
0.0
 10
216.8363270618
 20
125.2530918942
 30
0.0
 10
216.9343082707
 20
124.9046838366
 30
0.0
 10
217.0938313905
 20
124.5419671575
 30
0.0
 10
217.3295788529
 20
124.1781345915
 30
0.0
 10
217.6459687938
 20
123.8440528313
 30
0.0
 10
218.024321228
 20
123.5754571905
 30
0.0
 10
218.4273722103
 20
123.3932036449
 30
0.0
 10
218.8211523499
 20
123.2949876254
 30
0.0
 10
219.0773776965
 20
123.2746644445
 30
0.0
 10
219.1986794175
 20
123.2746632658
 30
0.0
  0
SPLINE
  5
2AB
100
AcDbEntity
  8
0
100
AcDbSpline
 62
7
  6
BYLAYER
 70
0
 71
3
 72
26
 73
22
 74
0
 42
0.0000001
 43
0.0000001
 44
0.0000000001
 40
0.0
 40
0.0
 40
0.0
 40
0.0
 40
0.0461035325
 40
0.0961376142
 40
0.1510766529
 40
0.209278781
 40
0.2653142312
 40
0.3163233382
 40
0.363029087
 40
0.4066366952
 40
0.4486821757
 40
0.4906885008
 40
0.5345607744
 40
0.5831060858
 40
0.6393431241
 40
0.7028586337
 40
0.7704590593
 40
0.8367391674
 40
0.8969579037
 40
0.9510468249
 40
1.0
 40
1.0
 40
1.0
 40
1.0
 10
295.698679415
 20
123.2916253608
 30
0.0
 10
295.8165876704
 20
123.2916276799
 30
0.0
 10
296.0628592691
 20
123.3108171813
 30
0.0
 10
296.4399527033
 20
123.4025580865
 30
0.0
 10
296.8243685665
 20
123.5708144478
 30
0.0
 10
297.1841057865
 20
123.8159235433
 30
0.0
 10
297.4849498954
 20
124.1160473526
 30
0.0
 10
297.7128536573
 20
124.4385529037
 30
0.0
 10
297.8750773119
 20
124.7628899314
 30
0.0
 10
297.9845599428
 20
125.0841849057
 30
0.0
 10
298.0507687196
 20
125.4046948531
 30
0.0
 10
298.0782232159
 20
125.731486213
 30
0.0
 10
298.0648311018
 20
126.0759020806
 30
0.0
 10
298.0003275758
 20
126.4517812553
 30
0.0
 10
297.8647937532
 20
126.8622493216
 30
0.0
 10
297.6369115381
 20
127.2869887173
 30
0.0
 10
297.3104191222
 20
127.6774578059
 30
0.0
 10
296.9121587297
 20
127.980490036
 30
0.0
 10
296.492991878
 20
128.181079746
 30
0.0
 10
296.0878695333
 20
128.2903820788
 30
0.0
 10
295.8238755393
 20
128.3140780995
 30
0.0
 10
295.6986794175
 20
128.3140797245
 30
0.0
  0
SPLINE
  5
2AC
100
AcDbEntity
  8
0
100
AcDbSpline
 62
7
  6
BYLAYER
 70
0
 71
3
 72
30
 73
26
 74
0
 42
0.0000001
 43
0.0000001
 44
0.0000000001
 40
0.0
 40
0.0
 40
0.0
 40
0.0
 40
0.0309919729
 40
0.0623428038
 40
0.0950082536
 40
0.1298967338
 40
0.1674810823
 40
0.2070986792
 40
0.247715693
 40
0.2885395055
 40
0.3294750714
 40
0.3704950788
 40
0.4114898604
 40
0.4523583205
 40
0.492953905
 40
0.5335956085
 40
0.5757689776
 40
0.6212418188
 40
0.6713320286
 40
0.7264366263
 40
0.7858845244
 40
0.8458469248
 40
0.9023735228
 40
0.9537046273
 40
1.0
 40
1.0
 40
1.0
 40
1.0
 10
219.1986794164
 20
138.4416085023
 30
0.0
 10
219.1174751959
 20
138.441608053
 30
0.0
 10
218.9539909431
 20
138.4320482816
 30
0.0
 10
218.7081337873
 20
138.3902260678
 30
0.0
 10
218.4582886484
 20
138.3195431561
 30
0.0
 10
218.2024562921
 20
138.2158331355
 30
0.0
 10
217.9442672211
 20
138.0743586919
 30
0.0
 10
217.6934325818
 20
137.8929083238
 30
0.0
 10
217.4629529129
 20
137.6735203275
 30
0.0
 10
217.2623365758
 20
137.4221891399
 30
0.0
 10
217.0946025611
 20
137.1467221905
 30
0.0
 10
216.9612314783
 20
136.852640479
 30
0.0
 10
216.8631437764
 20
136.5452179499
 30
0.0
 10
216.8010792702
 20
136.2297072963
 30
0.0
 10
216.7752264855
 20
135.9101232638
 30
0.0
 10
216.7861008656
 20
135.5862479525
 30
0.0
 10
216.8363270618
 20
135.2530918942
 30
0.0
 10
216.9343082707
 20
134.9046838366
 30
0.0
 10
217.0938313905
 20
134.5419671575
 30
0.0
 10
217.3295788529
 20
134.1781345915
 30
0.0
 10
217.6459687938
 20
133.8440528313
 30
0.0
 10
218.024321228
 20
133.5754571905
 30
0.0
 10
218.4273722103
 20
133.3932036449
 30
0.0
 10
218.8211523499
 20
133.2949876254
 30
0.0
 10
219.0773776964
 20
133.2746644445
 30
0.0
 10
219.1986794175
 20
133.2746632658
 30
0.0
  0
SPLINE
  5
2AD
100
AcDbEntity
  8
0
100
AcDbSpline
 62
7
  6
BYLAYER
 70
0
 71
3
 72
26
 73
22
 74
0
 42
0.0000001
 43
0.0000001
 44
0.0000000001
 40
0.0
 40
0.0
 40
0.0
 40
0.0
 40
0.0461035325
 40
0.0961376142
 40
0.1510766529
 40
0.209278781
 40
0.2653142312
 40
0.3163233382
 40
0.363029087
 40
0.4066366952
 40
0.4486821757
 40
0.4906885008
 40
0.5345607744
 40
0.5831060858
 40
0.6393431241
 40
0.7028586337
 40
0.7704590593
 40
0.8367391674
 40
0.8969579037
 40
0.9510468249
 40
1.0
 40
1.0
 40
1.0
 40
1.0
 10
295.698679415
 20
133.2916253608
 30
0.0
 10
295.8165876704
 20
133.2916276799
 30
0.0
 10
296.0628592691
 20
133.3108171813
 30
0.0
 10
296.4399527033
 20
133.4025580865
 30
0.0
 10
296.8243685665
 20
133.5708144478
 30
0.0
 10
297.1841057865
 20
133.8159235433
 30
0.0
 10
297.4849498954
 20
134.1160473526
 30
0.0
 10
297.7128536573
 20
134.4385529037
 30
0.0
 10
297.8750773119
 20
134.7628899314
 30
0.0
 10
297.9845599428
 20
135.0841849057
 30
0.0
 10
298.0507687196
 20
135.4046948531
 30
0.0
 10
298.0782232159
 20
135.731486213
 30
0.0
 10
298.0648311018
 20
136.0759020806
 30
0.0
 10
298.0003275758
 20
136.4517812553
 30
0.0
 10
297.8647937532
 20
136.8622493216
 30
0.0
 10
297.6369115381
 20
137.2869887173
 30
0.0
 10
297.3104191222
 20
137.6774578059
 30
0.0
 10
296.9121587297
 20
137.980490036
 30
0.0
 10
296.492991878
 20
138.181079746
 30
0.0
 10
296.0878695333
 20
138.2903820788
 30
0.0
 10
295.8238755393
 20
138.3140780995
 30
0.0
 10
295.6986794175
 20
138.3140797245
 30
0.0
  0
SPLINE
  5
2AE
100
AcDbEntity
  8
0
100
AcDbSpline
 62
7
  6
BYLAYER
 70
0
 71
3
 72
30
 73
26
 74
0
 42
0.0000001
 43
0.0000001
 44
0.0000000001
 40
0.0
 40
0.0
 40
0.0
 40
0.0
 40
0.0309919729
 40
0.0623428038
 40
0.0950082536
 40
0.1298967338
 40
0.1674810823
 40
0.2070986792
 40
0.247715693
 40
0.2885395055
 40
0.3294750714
 40
0.3704950788
 40
0.4114898604
 40
0.4523583205
 40
0.492953905
 40
0.5335956085
 40
0.5757689776
 40
0.6212418188
 40
0.6713320286
 40
0.7264366263
 40
0.7858845244
 40
0.8458469248
 40
0.9023735228
 40
0.9537046273
 40
1.0
 40
1.0
 40
1.0
 40
1.0
 10
219.1986794164
 20
148.4416085023
 30
0.0
 10
219.1174751959
 20
148.441608053
 30
0.0
 10
218.9539909431
 20
148.4320482816
 30
0.0
 10
218.7081337873
 20
148.3902260678
 30
0.0
 10
218.4582886484
 20
148.3195431561
 30
0.0
 10
218.2024562921
 20
148.2158331355
 30
0.0
 10
217.9442672211
 20
148.0743586919
 30
0.0
 10
217.6934325818
 20
147.8929083238
 30
0.0
 10
217.4629529129
 20
147.6735203275
 30
0.0
 10
217.2623365758
 20
147.4221891399
 30
0.0
 10
217.0946025611
 20
147.1467221905
 30
0.0
 10
216.9612314783
 20
146.852640479
 30
0.0
 10
216.8631437764
 20
146.5452179499
 30
0.0
 10
216.8010792702
 20
146.2297072963
 30
0.0
 10
216.7752264855
 20
145.9101232638
 30
0.0
 10
216.7861008656
 20
145.5862479525
 30
0.0
 10
216.8363270618
 20
145.2530918942
 30
0.0
 10
216.9343082707
 20
144.9046838366
 30
0.0
 10
217.0938313905
 20
144.5419671575
 30
0.0
 10
217.3295788529
 20
144.1781345915
 30
0.0
 10
217.6459687938
 20
143.8440528313
 30
0.0
 10
218.024321228
 20
143.5754571905
 30
0.0
 10
218.4273722103
 20
143.3932036449
 30
0.0
 10
218.8211523499
 20
143.2949876254
 30
0.0
 10
219.0773776964
 20
143.2746644445
 30
0.0
 10
219.1986794175
 20
143.2746632658
 30
0.0
  0
SPLINE
  5
2AF
100
AcDbEntity
  8
0
100
AcDbSpline
 62
7
  6
BYLAYER
 70
0
 71
3
 72
26
 73
22
 74
0
 42
0.0000001
 43
0.0000001
 44
0.0000000001
 40
0.0
 40
0.0
 40
0.0
 40
0.0
 40
0.0461035325
 40
0.0961376142
 40
0.1510766529
 40
0.209278781
 40
0.2653142312
 40
0.3163233382
 40
0.363029087
 40
0.4066366952
 40
0.4486821757
 40
0.4906885008
 40
0.5345607744
 40
0.5831060858
 40
0.6393431241
 40
0.7028586337
 40
0.7704590593
 40
0.8367391674
 40
0.8969579037
 40
0.9510468249
 40
1.0
 40
1.0
 40
1.0
 40
1.0
 10
295.698679415
 20
143.2916253608
 30
0.0
 10
295.8165876704
 20
143.2916276799
 30
0.0
 10
296.0628592691
 20
143.3108171813
 30
0.0
 10
296.4399527033
 20
143.4025580865
 30
0.0
 10
296.8243685665
 20
143.5708144478
 30
0.0
 10
297.1841057865
 20
143.8159235433
 30
0.0
 10
297.4849498954
 20
144.1160473526
 30
0.0
 10
297.7128536573
 20
144.4385529037
 30
0.0
 10
297.8750773119
 20
144.7628899314
 30
0.0
 10
297.9845599428
 20
145.0841849057
 30
0.0
 10
298.0507687196
 20
145.4046948531
 30
0.0
 10
298.0782232159
 20
145.731486213
 30
0.0
 10
298.0648311018
 20
146.0759020806
 30
0.0
 10
298.0003275758
 20
146.4517812553
 30
0.0
 10
297.8647937532
 20
146.8622493216
 30
0.0
 10
297.6369115381
 20
147.2869887173
 30
0.0
 10
297.3104191222
 20
147.6774578059
 30
0.0
 10
296.9121587297
 20
147.980490036
 30
0.0
 10
296.492991878
 20
148.181079746
 30
0.0
 10
296.0878695333
 20
148.2903820788
 30
0.0
 10
295.8238755393
 20
148.3140780995
 30
0.0
 10
295.6986794175
 20
148.3140797245
 30
0.0
  0
SPLINE
  5
2B0
100
AcDbEntity
  8
0
100
AcDbSpline
 62
7
  6
BYLAYER
 70
0
 71
3
 72
30
 73
26
 74
0
 42
0.0000001
 43
0.0000001
 44
0.0000000001
 40
0.0
 40
0.0
 40
0.0
 40
0.0
 40
0.0309919729
 40
0.0623428038
 40
0.0950082536
 40
0.1298967338
 40
0.1674810823
 40
0.2070986792
 40
0.247715693
 40
0.2885395055
 40
0.3294750714
 40
0.3704950788
 40
0.4114898604
 40
0.4523583205
 40
0.492953905
 40
0.5335956085
 40
0.5757689776
 40
0.6212418188
 40
0.6713320286
 40
0.7264366263
 40
0.7858845244
 40
0.8458469248
 40
0.9023735228
 40
0.9537046273
 40
1.0
 40
1.0
 40
1.0
 40
1.0
 10
219.1986794164
 20
158.4416085023
 30
0.0
 10
219.1174751959
 20
158.441608053
 30
0.0
 10
218.9539909431
 20
158.4320482816
 30
0.0
 10
218.7081337873
 20
158.3902260678
 30
0.0
 10
218.4582886484
 20
158.3195431561
 30
0.0
 10
218.2024562921
 20
158.2158331355
 30
0.0
 10
217.9442672211
 20
158.0743586919
 30
0.0
 10
217.6934325818
 20
157.8929083238
 30
0.0
 10
217.4629529129
 20
157.6735203275
 30
0.0
 10
217.2623365758
 20
157.4221891399
 30
0.0
 10
217.0946025611
 20
157.1467221905
 30
0.0
 10
216.9612314783
 20
156.852640479
 30
0.0
 10
216.8631437764
 20
156.5452179499
 30
0.0
 10
216.8010792702
 20
156.2297072963
 30
0.0
 10
216.7752264855
 20
155.9101232638
 30
0.0
 10
216.7861008656
 20
155.5862479525
 30
0.0
 10
216.8363270618
 20
155.2530918942
 30
0.0
 10
216.9343082707
 20
154.9046838366
 30
0.0
 10
217.0938313905
 20
154.5419671575
 30
0.0
 10
217.3295788529
 20
154.1781345915
 30
0.0
 10
217.6459687938
 20
153.8440528313
 30
0.0
 10
218.024321228
 20
153.5754571905
 30
0.0
 10
218.4273722103
 20
153.3932036449
 30
0.0
 10
218.8211523499
 20
153.2949876254
 30
0.0
 10
219.0773776964
 20
153.2746644445
 30
0.0
 10
219.1986794175
 20
153.2746632658
 30
0.0
  0
SPLINE
  5
2B1
100
AcDbEntity
  8
0
100
AcDbSpline
 62
7
  6
BYLAYER
 70
0
 71
3
 72
26
 73
22
 74
0
 42
0.0000001
 43
0.0000001
 44
0.0000000001
 40
0.0
 40
0.0
 40
0.0
 40
0.0
 40
0.0461035325
 40
0.0961376142
 40
0.1510766529
 40
0.209278781
 40
0.2653142312
 40
0.3163233382
 40
0.363029087
 40
0.4066366952
 40
0.4486821757
 40
0.4906885008
 40
0.5345607744
 40
0.5831060858
 40
0.6393431241
 40
0.7028586337
 40
0.7704590593
 40
0.8367391674
 40
0.8969579037
 40
0.9510468249
 40
1.0
 40
1.0
 40
1.0
 40
1.0
 10
295.698679415
 20
153.2916253608
 30
0.0
 10
295.8165876704
 20
153.2916276799
 30
0.0
 10
296.0628592691
 20
153.3108171813
 30
0.0
 10
296.4399527033
 20
153.4025580865
 30
0.0
 10
296.8243685665
 20
153.5708144478
 30
0.0
 10
297.1841057865
 20
153.8159235433
 30
0.0
 10
297.4849498954
 20
154.1160473526
 30
0.0
 10
297.7128536573
 20
154.4385529037
 30
0.0
 10
297.8750773119
 20
154.7628899314
 30
0.0
 10
297.9845599428
 20
155.0841849057
 30
0.0
 10
298.0507687196
 20
155.4046948531
 30
0.0
 10
298.0782232159
 20
155.731486213
 30
0.0
 10
298.0648311018
 20
156.0759020806
 30
0.0
 10
298.0003275758
 20
156.4517812553
 30
0.0
 10
297.8647937532
 20
156.8622493216
 30
0.0
 10
297.6369115381
 20
157.2869887173
 30
0.0
 10
297.3104191222
 20
157.6774578059
 30
0.0
 10
296.9121587297
 20
157.980490036
 30
0.0
 10
296.492991878
 20
158.181079746
 30
0.0
 10
296.0878695333
 20
158.2903820788
 30
0.0
 10
295.8238755393
 20
158.3140780995
 30
0.0
 10
295.6986794175
 20
158.3140797245
 30
0.0
  0
SPLINE
  5
2B2
100
AcDbEntity
  8
0
100
AcDbSpline
 62
7
  6
BYLAYER
 70
0
 71
3
 72
30
 73
26
 74
0
 42
0.0000001
 43
0.0000001
 44
0.0000000001
 40
0.0
 40
0.0
 40
0.0
 40
0.0
 40
0.0309919729
 40
0.0623428038
 40
0.0950082536
 40
0.1298967338
 40
0.1674810823
 40
0.2070986792
 40
0.247715693
 40
0.2885395055
 40
0.3294750714
 40
0.3704950788
 40
0.4114898604
 40
0.4523583205
 40
0.492953905
 40
0.5335956085
 40
0.5757689776
 40
0.6212418188
 40
0.6713320286
 40
0.7264366263
 40
0.7858845244
 40
0.8458469248
 40
0.9023735228
 40
0.9537046273
 40
1.0
 40
1.0
 40
1.0
 40
1.0
 10
219.1986794164
 20
168.4416085023
 30
0.0
 10
219.1174751959
 20
168.441608053
 30
0.0
 10
218.9539909431
 20
168.4320482816
 30
0.0
 10
218.7081337873
 20
168.3902260678
 30
0.0
 10
218.4582886484
 20
168.3195431561
 30
0.0
 10
218.2024562921
 20
168.2158331355
 30
0.0
 10
217.9442672211
 20
168.0743586919
 30
0.0
 10
217.6934325818
 20
167.8929083238
 30
0.0
 10
217.4629529129
 20
167.6735203275
 30
0.0
 10
217.2623365758
 20
167.4221891399
 30
0.0
 10
217.0946025611
 20
167.1467221905
 30
0.0
 10
216.9612314783
 20
166.852640479
 30
0.0
 10
216.8631437764
 20
166.5452179499
 30
0.0
 10
216.8010792702
 20
166.2297072963
 30
0.0
 10
216.7752264855
 20
165.9101232638
 30
0.0
 10
216.7861008656
 20
165.5862479525
 30
0.0
 10
216.8363270618
 20
165.2530918942
 30
0.0
 10
216.9343082707
 20
164.9046838366
 30
0.0
 10
217.0938313905
 20
164.5419671575
 30
0.0
 10
217.3295788529
 20
164.1781345915
 30
0.0
 10
217.6459687938
 20
163.8440528313
 30
0.0
 10
218.024321228
 20
163.5754571905
 30
0.0
 10
218.4273722103
 20
163.3932036449
 30
0.0
 10
218.8211523499
 20
163.2949876254
 30
0.0
 10
219.0773776964
 20
163.2746644445
 30
0.0
 10
219.1986794175
 20
163.2746632658
 30
0.0
  0
SPLINE
  5
2B3
100
AcDbEntity
  8
0
100
AcDbSpline
 62
7
  6
BYLAYER
 70
0
 71
3
 72
26
 73
22
 74
0
 42
0.0000001
 43
0.0000001
 44
0.0000000001
 40
0.0
 40
0.0
 40
0.0
 40
0.0
 40
0.0461035325
 40
0.0961376142
 40
0.1510766529
 40
0.209278781
 40
0.2653142312
 40
0.3163233382
 40
0.363029087
 40
0.4066366952
 40
0.4486821757
 40
0.4906885008
 40
0.5345607744
 40
0.5831060858
 40
0.6393431241
 40
0.7028586337
 40
0.7704590593
 40
0.8367391674
 40
0.8969579037
 40
0.9510468249
 40
1.0
 40
1.0
 40
1.0
 40
1.0
 10
295.698679415
 20
163.2916253608
 30
0.0
 10
295.8165876704
 20
163.2916276799
 30
0.0
 10
296.0628592691
 20
163.3108171813
 30
0.0
 10
296.4399527033
 20
163.4025580865
 30
0.0
 10
296.8243685665
 20
163.5708144478
 30
0.0
 10
297.1841057865
 20
163.8159235433
 30
0.0
 10
297.4849498954
 20
164.1160473526
 30
0.0
 10
297.7128536573
 20
164.4385529037
 30
0.0
 10
297.8750773119
 20
164.7628899314
 30
0.0
 10
297.9845599428
 20
165.0841849057
 30
0.0
 10
298.0507687196
 20
165.4046948531
 30
0.0
 10
298.0782232159
 20
165.731486213
 30
0.0
 10
298.0648311018
 20
166.0759020806
 30
0.0
 10
298.0003275758
 20
166.4517812553
 30
0.0
 10
297.8647937532
 20
166.8622493216
 30
0.0
 10
297.6369115381
 20
167.2869887173
 30
0.0
 10
297.3104191222
 20
167.6774578059
 30
0.0
 10
296.9121587297
 20
167.980490036
 30
0.0
 10
296.492991878
 20
168.181079746
 30
0.0
 10
296.0878695333
 20
168.2903820788
 30
0.0
 10
295.8238755393
 20
168.3140780995
 30
0.0
 10
295.6986794175
 20
168.3140797245
 30
0.0
  0
SPLINE
  5
2B4
100
AcDbEntity
  8
0
100
AcDbSpline
 62
7
  6
BYLAYER
 70
0
 71
3
 72
30
 73
26
 74
0
 42
0.0000001
 43
0.0000001
 44
0.0000000001
 40
0.0
 40
0.0
 40
0.0
 40
0.0
 40
0.0309919729
 40
0.0623428038
 40
0.0950082536
 40
0.1298967338
 40
0.1674810823
 40
0.2070986792
 40
0.247715693
 40
0.2885395055
 40
0.3294750714
 40
0.3704950788
 40
0.4114898604
 40
0.4523583205
 40
0.492953905
 40
0.5335956085
 40
0.5757689776
 40
0.6212418188
 40
0.6713320286
 40
0.7264366263
 40
0.7858845244
 40
0.8458469248
 40
0.9023735228
 40
0.9537046273
 40
1.0
 40
1.0
 40
1.0
 40
1.0
 10
219.1986794164
 20
178.4416085023
 30
0.0
 10
219.1174751959
 20
178.441608053
 30
0.0
 10
218.9539909431
 20
178.4320482816
 30
0.0
 10
218.7081337873
 20
178.3902260678
 30
0.0
 10
218.4582886484
 20
178.3195431561
 30
0.0
 10
218.2024562921
 20
178.2158331355
 30
0.0
 10
217.9442672211
 20
178.0743586919
 30
0.0
 10
217.6934325818
 20
177.8929083238
 30
0.0
 10
217.4629529129
 20
177.6735203275
 30
0.0
 10
217.2623365758
 20
177.4221891399
 30
0.0
 10
217.0946025611
 20
177.1467221905
 30
0.0
 10
216.9612314783
 20
176.852640479
 30
0.0
 10
216.8631437764
 20
176.5452179499
 30
0.0
 10
216.8010792702
 20
176.2297072963
 30
0.0
 10
216.7752264855
 20
175.9101232638
 30
0.0
 10
216.7861008656
 20
175.5862479525
 30
0.0
 10
216.8363270618
 20
175.2530918942
 30
0.0
 10
216.9343082707
 20
174.9046838366
 30
0.0
 10
217.0938313905
 20
174.5419671575
 30
0.0
 10
217.3295788529
 20
174.1781345915
 30
0.0
 10
217.6459687938
 20
173.8440528313
 30
0.0
 10
218.024321228
 20
173.5754571905
 30
0.0
 10
218.4273722103
 20
173.3932036449
 30
0.0
 10
218.8211523499
 20
173.2949876254
 30
0.0
 10
219.0773776964
 20
173.2746644445
 30
0.0
 10
219.1986794175
 20
173.2746632658
 30
0.0
  0
SPLINE
  5
2B5
100
AcDbEntity
  8
0
100
AcDbSpline
 62
7
  6
BYLAYER
 70
0
 71
3
 72
26
 73
22
 74
0
 42
0.0000001
 43
0.0000001
 44
0.0000000001
 40
0.0
 40
0.0
 40
0.0
 40
0.0
 40
0.0461035325
 40
0.0961376142
 40
0.1510766529
 40
0.209278781
 40
0.2653142312
 40
0.3163233382
 40
0.363029087
 40
0.4066366952
 40
0.4486821757
 40
0.4906885008
 40
0.5345607744
 40
0.5831060858
 40
0.6393431241
 40
0.7028586337
 40
0.7704590593
 40
0.8367391674
 40
0.8969579037
 40
0.9510468249
 40
1.0
 40
1.0
 40
1.0
 40
1.0
 10
295.698679415
 20
173.2916253608
 30
0.0
 10
295.8165876704
 20
173.2916276799
 30
0.0
 10
296.0628592691
 20
173.3108171813
 30
0.0
 10
296.4399527033
 20
173.4025580865
 30
0.0
 10
296.8243685665
 20
173.5708144478
 30
0.0
 10
297.1841057865
 20
173.8159235433
 30
0.0
 10
297.4849498954
 20
174.1160473526
 30
0.0
 10
297.7128536573
 20
174.4385529037
 30
0.0
 10
297.8750773119
 20
174.7628899314
 30
0.0
 10
297.9845599428
 20
175.0841849057
 30
0.0
 10
298.0507687196
 20
175.4046948531
 30
0.0
 10
298.0782232159
 20
175.731486213
 30
0.0
 10
298.0648311018
 20
176.0759020806
 30
0.0
 10
298.0003275758
 20
176.4517812553
 30
0.0
 10
297.8647937532
 20
176.8622493216
 30
0.0
 10
297.6369115381
 20
177.2869887173
 30
0.0
 10
297.3104191222
 20
177.6774578059
 30
0.0
 10
296.9121587297
 20
177.980490036
 30
0.0
 10
296.492991878
 20
178.181079746
 30
0.0
 10
296.0878695333
 20
178.2903820788
 30
0.0
 10
295.8238755393
 20
178.3140780995
 30
0.0
 10
295.6986794175
 20
178.3140797245
 30
0.0
  0
SPLINE
  5
2B6
100
AcDbEntity
  8
0
100
AcDbSpline
 62
7
  6
BYLAYER
 70
0
 71
3
 72
30
 73
26
 74
0
 42
0.0000001
 43
0.0000001
 44
0.0000000001
 40
0.0
 40
0.0
 40
0.0
 40
0.0
 40
0.0309919729
 40
0.0623428038
 40
0.0950082536
 40
0.1298967338
 40
0.1674810823
 40
0.2070986792
 40
0.247715693
 40
0.2885395055
 40
0.3294750714
 40
0.3704950788
 40
0.4114898604
 40
0.4523583205
 40
0.492953905
 40
0.5335956085
 40
0.5757689776
 40
0.6212418188
 40
0.6713320286
 40
0.7264366263
 40
0.7858845244
 40
0.8458469248
 40
0.9023735228
 40
0.9537046273
 40
1.0
 40
1.0
 40
1.0
 40
1.0
 10
219.1986794164
 20
188.4416085023
 30
0.0
 10
219.1174751959
 20
188.441608053
 30
0.0
 10
218.9539909431
 20
188.4320482816
 30
0.0
 10
218.7081337873
 20
188.3902260678
 30
0.0
 10
218.4582886484
 20
188.3195431561
 30
0.0
 10
218.2024562921
 20
188.2158331355
 30
0.0
 10
217.9442672211
 20
188.0743586919
 30
0.0
 10
217.6934325818
 20
187.8929083238
 30
0.0
 10
217.4629529129
 20
187.6735203275
 30
0.0
 10
217.2623365758
 20
187.4221891399
 30
0.0
 10
217.0946025611
 20
187.1467221905
 30
0.0
 10
216.9612314783
 20
186.852640479
 30
0.0
 10
216.8631437764
 20
186.5452179499
 30
0.0
 10
216.8010792702
 20
186.2297072963
 30
0.0
 10
216.7752264855
 20
185.9101232638
 30
0.0
 10
216.7861008656
 20
185.5862479525
 30
0.0
 10
216.8363270618
 20
185.2530918942
 30
0.0
 10
216.9343082707
 20
184.9046838366
 30
0.0
 10
217.0938313905
 20
184.5419671575
 30
0.0
 10
217.3295788529
 20
184.1781345915
 30
0.0
 10
217.6459687938
 20
183.8440528313
 30
0.0
 10
218.024321228
 20
183.5754571905
 30
0.0
 10
218.4273722103
 20
183.3932036449
 30
0.0
 10
218.8211523499
 20
183.2949876254
 30
0.0
 10
219.0773776964
 20
183.2746644445
 30
0.0
 10
219.1986794175
 20
183.2746632658
 30
0.0
  0
SPLINE
  5
2B7
100
AcDbEntity
  8
0
100
AcDbSpline
 62
7
  6
BYLAYER
 70
0
 71
3
 72
26
 73
22
 74
0
 42
0.0000001
 43
0.0000001
 44
0.0000000001
 40
0.0
 40
0.0
 40
0.0
 40
0.0
 40
0.0461035325
 40
0.0961376142
 40
0.1510766529
 40
0.209278781
 40
0.2653142312
 40
0.3163233382
 40
0.363029087
 40
0.4066366952
 40
0.4486821757
 40
0.4906885008
 40
0.5345607744
 40
0.5831060858
 40
0.6393431241
 40
0.7028586337
 40
0.7704590593
 40
0.8367391674
 40
0.8969579037
 40
0.9510468249
 40
1.0
 40
1.0
 40
1.0
 40
1.0
 10
295.698679415
 20
183.2916253608
 30
0.0
 10
295.8165876704
 20
183.2916276799
 30
0.0
 10
296.0628592691
 20
183.3108171813
 30
0.0
 10
296.4399527033
 20
183.4025580865
 30
0.0
 10
296.8243685665
 20
183.5708144478
 30
0.0
 10
297.1841057865
 20
183.8159235433
 30
0.0
 10
297.4849498954
 20
184.1160473526
 30
0.0
 10
297.7128536573
 20
184.4385529037
 30
0.0
 10
297.8750773119
 20
184.7628899314
 30
0.0
 10
297.9845599428
 20
185.0841849057
 30
0.0
 10
298.0507687196
 20
185.4046948531
 30
0.0
 10
298.0782232159
 20
185.731486213
 30
0.0
 10
298.0648311018
 20
186.0759020806
 30
0.0
 10
298.0003275758
 20
186.4517812553
 30
0.0
 10
297.8647937532
 20
186.8622493216
 30
0.0
 10
297.6369115381
 20
187.2869887173
 30
0.0
 10
297.3104191222
 20
187.6774578059
 30
0.0
 10
296.9121587297
 20
187.980490036
 30
0.0
 10
296.492991878
 20
188.181079746
 30
0.0
 10
296.0878695333
 20
188.2903820788
 30
0.0
 10
295.8238755393
 20
188.3140780995
 30
0.0
 10
295.6986794175
 20
188.3140797245
 30
0.0
  0
SPLINE
  5
2B8
100
AcDbEntity
  8
0
100
AcDbSpline
 62
7
  6
BYLAYER
 70
0
 71
3
 72
30
 73
26
 74
0
 42
0.0000001
 43
0.0000001
 44
0.0000000001
 40
0.0
 40
0.0
 40
0.0
 40
0.0
 40
0.0309919729
 40
0.0623428038
 40
0.0950082536
 40
0.1298967338
 40
0.1674810823
 40
0.2070986792
 40
0.247715693
 40
0.2885395055
 40
0.3294750714
 40
0.3704950788
 40
0.4114898604
 40
0.4523583205
 40
0.492953905
 40
0.5335956085
 40
0.5757689776
 40
0.6212418188
 40
0.6713320286
 40
0.7264366263
 40
0.7858845244
 40
0.8458469248
 40
0.9023735228
 40
0.9537046273
 40
1.0
 40
1.0
 40
1.0
 40
1.0
 10
219.1986794164
 20
198.4416085023
 30
0.0
 10
219.1174751959
 20
198.441608053
 30
0.0
 10
218.9539909431
 20
198.4320482816
 30
0.0
 10
218.7081337873
 20
198.3902260678
 30
0.0
 10
218.4582886484
 20
198.3195431561
 30
0.0
 10
218.2024562921
 20
198.2158331355
 30
0.0
 10
217.9442672211
 20
198.0743586919
 30
0.0
 10
217.6934325818
 20
197.8929083238
 30
0.0
 10
217.4629529129
 20
197.6735203275
 30
0.0
 10
217.2623365758
 20
197.4221891399
 30
0.0
 10
217.0946025611
 20
197.1467221905
 30
0.0
 10
216.9612314783
 20
196.852640479
 30
0.0
 10
216.8631437764
 20
196.5452179499
 30
0.0
 10
216.8010792702
 20
196.2297072963
 30
0.0
 10
216.7752264855
 20
195.9101232638
 30
0.0
 10
216.7861008656
 20
195.5862479525
 30
0.0
 10
216.8363270618
 20
195.2530918942
 30
0.0
 10
216.9343082707
 20
194.9046838366
 30
0.0
 10
217.0938313905
 20
194.5419671575
 30
0.0
 10
217.3295788529
 20
194.1781345915
 30
0.0
 10
217.6459687938
 20
193.8440528313
 30
0.0
 10
218.024321228
 20
193.5754571905
 30
0.0
 10
218.4273722103
 20
193.3932036449
 30
0.0
 10
218.8211523499
 20
193.2949876254
 30
0.0
 10
219.0773776964
 20
193.2746644445
 30
0.0
 10
219.1986794175
 20
193.2746632658
 30
0.0
  0
SPLINE
  5
2B9
100
AcDbEntity
  8
0
100
AcDbSpline
 62
7
  6
BYLAYER
 70
0
 71
3
 72
26
 73
22
 74
0
 42
0.0000001
 43
0.0000001
 44
0.0000000001
 40
0.0
 40
0.0
 40
0.0
 40
0.0
 40
0.0461035325
 40
0.0961376142
 40
0.1510766529
 40
0.209278781
 40
0.2653142312
 40
0.3163233382
 40
0.363029087
 40
0.4066366952
 40
0.4486821757
 40
0.4906885008
 40
0.5345607744
 40
0.5831060858
 40
0.6393431241
 40
0.7028586337
 40
0.7704590593
 40
0.8367391674
 40
0.8969579037
 40
0.9510468249
 40
1.0
 40
1.0
 40
1.0
 40
1.0
 10
295.698679415
 20
193.2916253608
 30
0.0
 10
295.8165876704
 20
193.2916276799
 30
0.0
 10
296.0628592691
 20
193.3108171813
 30
0.0
 10
296.4399527033
 20
193.4025580865
 30
0.0
 10
296.8243685665
 20
193.5708144478
 30
0.0
 10
297.1841057865
 20
193.8159235433
 30
0.0
 10
297.4849498954
 20
194.1160473526
 30
0.0
 10
297.7128536573
 20
194.4385529037
 30
0.0
 10
297.8750773119
 20
194.7628899314
 30
0.0
 10
297.9845599428
 20
195.0841849057
 30
0.0
 10
298.0507687196
 20
195.4046948531
 30
0.0
 10
298.0782232159
 20
195.731486213
 30
0.0
 10
298.0648311018
 20
196.0759020806
 30
0.0
 10
298.0003275758
 20
196.4517812553
 30
0.0
 10
297.8647937532
 20
196.8622493216
 30
0.0
 10
297.6369115381
 20
197.2869887173
 30
0.0
 10
297.3104191222
 20
197.6774578059
 30
0.0
 10
296.9121587297
 20
197.980490036
 30
0.0
 10
296.492991878
 20
198.181079746
 30
0.0
 10
296.0878695333
 20
198.2903820788
 30
0.0
 10
295.8238755393
 20
198.3140780995
 30
0.0
 10
295.6986794175
 20
198.3140797245
 30
0.0
  0
SPLINE
  5
2BA
100
AcDbEntity
  8
0
100
AcDbSpline
 62
7
  6
BYLAYER
 70
0
 71
3
 72
30
 73
26
 74
0
 42
0.0000001
 43
0.0000001
 44
0.0000000001
 40
0.0
 40
0.0
 40
0.0
 40
0.0
 40
0.0309919729
 40
0.0623428038
 40
0.0950082536
 40
0.1298967338
 40
0.1674810823
 40
0.2070986792
 40
0.247715693
 40
0.2885395055
 40
0.3294750714
 40
0.3704950788
 40
0.4114898604
 40
0.4523583205
 40
0.492953905
 40
0.5335956085
 40
0.5757689776
 40
0.6212418188
 40
0.6713320286
 40
0.7264366263
 40
0.7858845244
 40
0.8458469248
 40
0.9023735228
 40
0.9537046273
 40
1.0
 40
1.0
 40
1.0
 40
1.0
 10
219.1986794164
 20
208.4416085023
 30
0.0
 10
219.1174751959
 20
208.441608053
 30
0.0
 10
218.9539909431
 20
208.4320482816
 30
0.0
 10
218.7081337873
 20
208.3902260678
 30
0.0
 10
218.4582886484
 20
208.3195431561
 30
0.0
 10
218.2024562921
 20
208.2158331355
 30
0.0
 10
217.9442672211
 20
208.0743586919
 30
0.0
 10
217.6934325818
 20
207.8929083238
 30
0.0
 10
217.4629529129
 20
207.6735203275
 30
0.0
 10
217.2623365758
 20
207.4221891399
 30
0.0
 10
217.0946025611
 20
207.1467221905
 30
0.0
 10
216.9612314783
 20
206.852640479
 30
0.0
 10
216.8631437764
 20
206.5452179499
 30
0.0
 10
216.8010792702
 20
206.2297072963
 30
0.0
 10
216.7752264855
 20
205.9101232638
 30
0.0
 10
216.7861008656
 20
205.5862479525
 30
0.0
 10
216.8363270618
 20
205.2530918942
 30
0.0
 10
216.9343082707
 20
204.9046838366
 30
0.0
 10
217.0938313905
 20
204.5419671575
 30
0.0
 10
217.3295788529
 20
204.1781345915
 30
0.0
 10
217.6459687938
 20
203.8440528313
 30
0.0
 10
218.024321228
 20
203.5754571905
 30
0.0
 10
218.4273722103
 20
203.3932036449
 30
0.0
 10
218.8211523499
 20
203.2949876254
 30
0.0
 10
219.0773776964
 20
203.2746644445
 30
0.0
 10
219.1986794175
 20
203.2746632658
 30
0.0
  0
SPLINE
  5
2BB
100
AcDbEntity
  8
0
100
AcDbSpline
 62
7
  6
BYLAYER
 70
0
 71
3
 72
26
 73
22
 74
0
 42
0.0000001
 43
0.0000001
 44
0.0000000001
 40
0.0
 40
0.0
 40
0.0
 40
0.0
 40
0.0461035325
 40
0.0961376142
 40
0.1510766529
 40
0.209278781
 40
0.2653142312
 40
0.3163233382
 40
0.363029087
 40
0.4066366952
 40
0.4486821757
 40
0.4906885008
 40
0.5345607744
 40
0.5831060858
 40
0.6393431241
 40
0.7028586337
 40
0.7704590593
 40
0.8367391674
 40
0.8969579037
 40
0.9510468249
 40
1.0
 40
1.0
 40
1.0
 40
1.0
 10
295.698679415
 20
203.2916253608
 30
0.0
 10
295.8165876704
 20
203.2916276799
 30
0.0
 10
296.0628592691
 20
203.3108171813
 30
0.0
 10
296.4399527033
 20
203.4025580865
 30
0.0
 10
296.8243685665
 20
203.5708144478
 30
0.0
 10
297.1841057865
 20
203.8159235433
 30
0.0
 10
297.4849498954
 20
204.1160473526
 30
0.0
 10
297.7128536573
 20
204.4385529037
 30
0.0
 10
297.8750773119
 20
204.7628899314
 30
0.0
 10
297.9845599428
 20
205.0841849057
 30
0.0
 10
298.0507687196
 20
205.4046948531
 30
0.0
 10
298.0782232159
 20
205.731486213
 30
0.0
 10
298.0648311018
 20
206.0759020806
 30
0.0
 10
298.0003275758
 20
206.4517812553
 30
0.0
 10
297.8647937532
 20
206.8622493216
 30
0.0
 10
297.6369115381
 20
207.2869887173
 30
0.0
 10
297.3104191222
 20
207.6774578059
 30
0.0
 10
296.9121587297
 20
207.980490036
 30
0.0
 10
296.492991878
 20
208.181079746
 30
0.0
 10
296.0878695333
 20
208.2903820788
 30
0.0
 10
295.8238755393
 20
208.3140780995
 30
0.0
 10
295.6986794175
 20
208.3140797245
 30
0.0
  0
SPLINE
  5
2BC
100
AcDbEntity
  8
0
100
AcDbSpline
 62
7
  6
BYLAYER
 70
0
 71
3
 72
30
 73
26
 74
0
 42
0.0000001
 43
0.0000001
 44
0.0000000001
 40
0.0
 40
0.0
 40
0.0
 40
0.0
 40
0.0309919729
 40
0.0623428038
 40
0.0950082537
 40
0.1298967339
 40
0.1674810824
 40
0.2070986792
 40
0.247715693
 40
0.2885395055
 40
0.3294750715
 40
0.3704950788
 40
0.4114898604
 40
0.4523583206
 40
0.492953905
 40
0.5335956085
 40
0.5757689776
 40
0.6212418189
 40
0.6713320286
 40
0.7264366264
 40
0.7858845244
 40
0.8458469248
 40
0.9023735228
 40
0.9537046273
 40
1.0
 40
1.0
 40
1.0
 40
1.0
 10
219.1986794167
 20
218.4416085022
 30
0.0
 10
219.1174751962
 20
218.441608053
 30
0.0
 10
218.9539909432
 20
218.4320482816
 30
0.0
 10
218.7081337873
 20
218.3902260679
 30
0.0
 10
218.4582886484
 20
218.3195431561
 30
0.0
 10
218.2024562921
 20
218.2158331355
 30
0.0
 10
217.9442672211
 20
218.0743586919
 30
0.0
 10
217.6934325818
 20
217.8929083239
 30
0.0
 10
217.4629529129
 20
217.6735203275
 30
0.0
 10
217.2623365758
 20
217.4221891399
 30
0.0
 10
217.0946025611
 20
217.1467221905
 30
0.0
 10
216.9612314783
 20
216.852640479
 30
0.0
 10
216.8631437764
 20
216.5452179499
 30
0.0
 10
216.8010792702
 20
216.2297072963
 30
0.0
 10
216.7752264855
 20
215.9101232638
 30
0.0
 10
216.7861008656
 20
215.5862479525
 30
0.0
 10
216.8363270618
 20
215.2530918942
 30
0.0
 10
216.9343082707
 20
214.9046838366
 30
0.0
 10
217.0938313905
 20
214.5419671575
 30
0.0
 10
217.3295788529
 20
214.1781345915
 30
0.0
 10
217.6459687938
 20
213.8440528313
 30
0.0
 10
218.024321228
 20
213.5754571905
 30
0.0
 10
218.4273722103
 20
213.3932036449
 30
0.0
 10
218.8211523499
 20
213.2949876254
 30
0.0
 10
219.0773776964
 20
213.2746644445
 30
0.0
 10
219.1986794175
 20
213.2746632658
 30
0.0
  0
SPLINE
  5
2BD
100
AcDbEntity
  8
0
100
AcDbSpline
 62
7
  6
BYLAYER
 70
0
 71
3
 72
26
 73
22
 74
0
 42
0.0000001
 43
0.0000001
 44
0.0000000001
 40
0.0
 40
0.0
 40
0.0
 40
0.0
 40
0.0461035325
 40
0.0961376142
 40
0.1510766529
 40
0.209278781
 40
0.2653142312
 40
0.3163233382
 40
0.363029087
 40
0.4066366952
 40
0.4486821757
 40
0.4906885008
 40
0.5345607744
 40
0.5831060858
 40
0.6393431241
 40
0.7028586337
 40
0.7704590593
 40
0.8367391674
 40
0.8969579037
 40
0.9510468249
 40
1.0
 40
1.0
 40
1.0
 40
1.0
 10
295.698679415
 20
213.2916253608
 30
0.0
 10
295.8165876704
 20
213.2916276799
 30
0.0
 10
296.0628592691
 20
213.3108171813
 30
0.0
 10
296.4399527033
 20
213.4025580865
 30
0.0
 10
296.8243685665
 20
213.5708144478
 30
0.0
 10
297.1841057865
 20
213.8159235433
 30
0.0
 10
297.4849498954
 20
214.1160473526
 30
0.0
 10
297.7128536573
 20
214.4385529037
 30
0.0
 10
297.8750773119
 20
214.7628899314
 30
0.0
 10
297.9845599428
 20
215.0841849057
 30
0.0
 10
298.0507687196
 20
215.4046948531
 30
0.0
 10
298.0782232159
 20
215.731486213
 30
0.0
 10
298.0648311018
 20
216.0759020806
 30
0.0
 10
298.0003275758
 20
216.4517812553
 30
0.0
 10
297.8647937532
 20
216.8622493216
 30
0.0
 10
297.6369115381
 20
217.2869887173
 30
0.0
 10
297.3104191222
 20
217.6774578059
 30
0.0
 10
296.9121587297
 20
217.9804900361
 30
0.0
 10
296.492991878
 20
218.1810797461
 30
0.0
 10
296.0878695333
 20
218.2903820787
 30
0.0
 10
295.8238755393
 20
218.3140780995
 30
0.0
 10
295.6986794175
 20
218.3140797245
 30
0.0
  0
SPLINE
  5
2BE
100
AcDbEntity
  8
0
100
AcDbSpline
 62
7
  6
BYLAYER
 70
0
 71
3
 72
30
 73
26
 74
0
 42
0.0000001
 43
0.0000001
 44
0.0000000001
 40
0.0
 40
0.0
 40
0.0
 40
0.0
 40
0.0309919729
 40
0.0623428038
 40
0.0950082537
 40
0.1298967339
 40
0.1674810824
 40
0.2070986792
 40
0.247715693
 40
0.2885395055
 40
0.3294750715
 40
0.3704950788
 40
0.4114898604
 40
0.4523583206
 40
0.492953905
 40
0.5335956085
 40
0.5757689776
 40
0.6212418189
 40
0.6713320286
 40
0.7264366264
 40
0.7858845244
 40
0.8458469248
 40
0.9023735228
 40
0.9537046273
 40
1.0
 40
1.0
 40
1.0
 40
1.0
 10
219.1986794167
 20
228.4416085022
 30
0.0
 10
219.1174751962
 20
228.441608053
 30
0.0
 10
218.9539909432
 20
228.4320482816
 30
0.0
 10
218.7081337873
 20
228.3902260679
 30
0.0
 10
218.4582886484
 20
228.3195431561
 30
0.0
 10
218.2024562921
 20
228.2158331355
 30
0.0
 10
217.9442672211
 20
228.0743586919
 30
0.0
 10
217.6934325818
 20
227.8929083239
 30
0.0
 10
217.4629529129
 20
227.6735203275
 30
0.0
 10
217.2623365758
 20
227.4221891399
 30
0.0
 10
217.0946025611
 20
227.1467221905
 30
0.0
 10
216.9612314783
 20
226.852640479
 30
0.0
 10
216.8631437764
 20
226.5452179499
 30
0.0
 10
216.8010792702
 20
226.2297072964
 30
0.0
 10
216.7752264855
 20
225.9101232639
 30
0.0
 10
216.7861008656
 20
225.5862479525
 30
0.0
 10
216.8363270618
 20
225.2530918943
 30
0.0
 10
216.9343082707
 20
224.9046838366
 30
0.0
 10
217.0938313905
 20
224.5419671576
 30
0.0
 10
217.3295788529
 20
224.1781345915
 30
0.0
 10
217.6459687938
 20
223.8440528313
 30
0.0
 10
218.024321228
 20
223.5754571905
 30
0.0
 10
218.4273722103
 20
223.393203645
 30
0.0
 10
218.8211523499
 20
223.2949876255
 30
0.0
 10
219.0773776964
 20
223.2746644445
 30
0.0
 10
219.1986794175
 20
223.2746632658
 30
0.0
  0
SPLINE
  5
2BF
100
AcDbEntity
  8
0
100
AcDbSpline
 62
7
  6
BYLAYER
 70
0
 71
3
 72
26
 73
22
 74
0
 42
0.0000001
 43
0.0000001
 44
0.0000000001
 40
0.0
 40
0.0
 40
0.0
 40
0.0
 40
0.0461035325
 40
0.0961376142
 40
0.1510766529
 40
0.209278781
 40
0.2653142312
 40
0.3163233382
 40
0.363029087
 40
0.4066366952
 40
0.4486821757
 40
0.4906885008
 40
0.5345607744
 40
0.5831060858
 40
0.6393431241
 40
0.7028586337
 40
0.7704590593
 40
0.8367391674
 40
0.8969579037
 40
0.9510468249
 40
1.0
 40
1.0
 40
1.0
 40
1.0
 10
295.698679415
 20
223.2916253608
 30
0.0
 10
295.8165876704
 20
223.2916276799
 30
0.0
 10
296.0628592691
 20
223.3108171813
 30
0.0
 10
296.4399527033
 20
223.4025580866
 30
0.0
 10
296.8243685665
 20
223.5708144478
 30
0.0
 10
297.1841057865
 20
223.8159235433
 30
0.0
 10
297.4849498954
 20
224.1160473526
 30
0.0
 10
297.7128536573
 20
224.4385529037
 30
0.0
 10
297.8750773119
 20
224.7628899315
 30
0.0
 10
297.9845599428
 20
225.0841849058
 30
0.0
 10
298.0507687196
 20
225.4046948531
 30
0.0
 10
298.0782232159
 20
225.731486213
 30
0.0
 10
298.0648311018
 20
226.0759020806
 30
0.0
 10
298.0003275758
 20
226.4517812554
 30
0.0
 10
297.8647937532
 20
226.8622493217
 30
0.0
 10
297.6369115381
 20
227.2869887173
 30
0.0
 10
297.3104191222
 20
227.6774578059
 30
0.0
 10
296.9121587297
 20
227.9804900361
 30
0.0
 10
296.492991878
 20
228.1810797461
 30
0.0
 10
296.0878695333
 20
228.2903820787
 30
0.0
 10
295.8238755393
 20
228.3140780995
 30
0.0
 10
295.6986794175
 20
228.3140797245
 30
0.0
  0
SPLINE
  5
2C0
100
AcDbEntity
  8
0
100
AcDbSpline
 62
7
  6
BYLAYER
 70
0
 71
3
 72
30
 73
26
 74
0
 42
0.0000001
 43
0.0000001
 44
0.0000000001
 40
0.0
 40
0.0
 40
0.0
 40
0.0
 40
0.0309919729
 40
0.0623428038
 40
0.0950082537
 40
0.1298967339
 40
0.1674810824
 40
0.2070986792
 40
0.247715693
 40
0.2885395055
 40
0.3294750715
 40
0.3704950788
 40
0.4114898604
 40
0.4523583206
 40
0.492953905
 40
0.5335956085
 40
0.5757689776
 40
0.6212418189
 40
0.6713320286
 40
0.7264366264
 40
0.7858845244
 40
0.8458469248
 40
0.9023735228
 40
0.9537046273
 40
1.0
 40
1.0
 40
1.0
 40
1.0
 10
219.1986794167
 20
238.4416085022
 30
0.0
 10
219.1174751962
 20
238.441608053
 30
0.0
 10
218.9539909432
 20
238.4320482816
 30
0.0
 10
218.7081337873
 20
238.3902260679
 30
0.0
 10
218.4582886484
 20
238.3195431561
 30
0.0
 10
218.2024562921
 20
238.2158331355
 30
0.0
 10
217.9442672211
 20
238.0743586919
 30
0.0
 10
217.6934325818
 20
237.8929083239
 30
0.0
 10
217.4629529129
 20
237.6735203275
 30
0.0
 10
217.2623365758
 20
237.4221891399
 30
0.0
 10
217.0946025611
 20
237.1467221905
 30
0.0
 10
216.9612314783
 20
236.852640479
 30
0.0
 10
216.8631437764
 20
236.5452179499
 30
0.0
 10
216.8010792702
 20
236.2297072964
 30
0.0
 10
216.7752264855
 20
235.9101232639
 30
0.0
 10
216.7861008656
 20
235.5862479525
 30
0.0
 10
216.8363270618
 20
235.2530918943
 30
0.0
 10
216.9343082707
 20
234.9046838366
 30
0.0
 10
217.0938313905
 20
234.5419671576
 30
0.0
 10
217.3295788529
 20
234.1781345915
 30
0.0
 10
217.6459687938
 20
233.8440528313
 30
0.0
 10
218.024321228
 20
233.5754571905
 30
0.0
 10
218.4273722103
 20
233.393203645
 30
0.0
 10
218.8211523499
 20
233.2949876255
 30
0.0
 10
219.0773776964
 20
233.2746644445
 30
0.0
 10
219.1986794175
 20
233.2746632658
 30
0.0
  0
SPLINE
  5
2C1
100
AcDbEntity
  8
0
100
AcDbSpline
 62
7
  6
BYLAYER
 70
0
 71
3
 72
26
 73
22
 74
0
 42
0.0000001
 43
0.0000001
 44
0.0000000001
 40
0.0
 40
0.0
 40
0.0
 40
0.0
 40
0.0461035325
 40
0.0961376142
 40
0.1510766529
 40
0.209278781
 40
0.2653142312
 40
0.3163233382
 40
0.363029087
 40
0.4066366952
 40
0.4486821757
 40
0.4906885008
 40
0.5345607744
 40
0.5831060858
 40
0.6393431241
 40
0.7028586337
 40
0.7704590593
 40
0.8367391674
 40
0.8969579037
 40
0.9510468249
 40
1.0
 40
1.0
 40
1.0
 40
1.0
 10
295.698679415
 20
233.2916253608
 30
0.0
 10
295.8165876704
 20
233.2916276799
 30
0.0
 10
296.0628592691
 20
233.3108171813
 30
0.0
 10
296.4399527033
 20
233.4025580866
 30
0.0
 10
296.8243685665
 20
233.5708144478
 30
0.0
 10
297.1841057865
 20
233.8159235433
 30
0.0
 10
297.4849498954
 20
234.1160473526
 30
0.0
 10
297.7128536573
 20
234.4385529037
 30
0.0
 10
297.8750773119
 20
234.7628899315
 30
0.0
 10
297.9845599428
 20
235.0841849058
 30
0.0
 10
298.0507687196
 20
235.4046948531
 30
0.0
 10
298.0782232159
 20
235.731486213
 30
0.0
 10
298.0648311018
 20
236.0759020806
 30
0.0
 10
298.0003275758
 20
236.4517812554
 30
0.0
 10
297.8647937532
 20
236.8622493217
 30
0.0
 10
297.6369115381
 20
237.2869887173
 30
0.0
 10
297.3104191222
 20
237.6774578059
 30
0.0
 10
296.9121587297
 20
237.9804900361
 30
0.0
 10
296.492991878
 20
238.1810797461
 30
0.0
 10
296.0878695333
 20
238.2903820787
 30
0.0
 10
295.8238755393
 20
238.3140780995
 30
0.0
 10
295.6986794175
 20
238.3140797245
 30
0.0
  0
SPLINE
  5
2C2
100
AcDbEntity
  8
0
100
AcDbSpline
 62
7
  6
BYLAYER
 70
0
 71
3
 72
30
 73
26
 74
0
 42
0.0000001
 43
0.0000001
 44
0.0000000001
 40
0.0
 40
0.0
 40
0.0
 40
0.0
 40
0.0309919729
 40
0.0623428038
 40
0.0950082537
 40
0.1298967339
 40
0.1674810824
 40
0.2070986792
 40
0.247715693
 40
0.2885395055
 40
0.3294750715
 40
0.3704950788
 40
0.4114898604
 40
0.4523583206
 40
0.492953905
 40
0.5335956085
 40
0.5757689776
 40
0.6212418189
 40
0.6713320286
 40
0.7264366264
 40
0.7858845244
 40
0.8458469248
 40
0.9023735228
 40
0.9537046273
 40
1.0
 40
1.0
 40
1.0
 40
1.0
 10
219.1986794167
 20
248.4416085022
 30
0.0
 10
219.1174751962
 20
248.441608053
 30
0.0
 10
218.9539909432
 20
248.4320482816
 30
0.0
 10
218.7081337873
 20
248.3902260679
 30
0.0
 10
218.4582886484
 20
248.3195431561
 30
0.0
 10
218.2024562921
 20
248.2158331355
 30
0.0
 10
217.9442672211
 20
248.0743586919
 30
0.0
 10
217.6934325818
 20
247.8929083239
 30
0.0
 10
217.4629529129
 20
247.6735203275
 30
0.0
 10
217.2623365758
 20
247.4221891399
 30
0.0
 10
217.0946025611
 20
247.1467221905
 30
0.0
 10
216.9612314783
 20
246.852640479
 30
0.0
 10
216.8631437764
 20
246.5452179499
 30
0.0
 10
216.8010792702
 20
246.2297072964
 30
0.0
 10
216.7752264855
 20
245.9101232639
 30
0.0
 10
216.7861008656
 20
245.5862479525
 30
0.0
 10
216.8363270618
 20
245.2530918943
 30
0.0
 10
216.9343082707
 20
244.9046838366
 30
0.0
 10
217.0938313905
 20
244.5419671576
 30
0.0
 10
217.3295788529
 20
244.1781345915
 30
0.0
 10
217.6459687938
 20
243.8440528313
 30
0.0
 10
218.024321228
 20
243.5754571905
 30
0.0
 10
218.4273722103
 20
243.393203645
 30
0.0
 10
218.8211523499
 20
243.2949876255
 30
0.0
 10
219.0773776964
 20
243.2746644445
 30
0.0
 10
219.1986794175
 20
243.2746632658
 30
0.0
  0
SPLINE
  5
2C3
100
AcDbEntity
  8
0
100
AcDbSpline
 62
7
  6
BYLAYER
 70
0
 71
3
 72
26
 73
22
 74
0
 42
0.0000001
 43
0.0000001
 44
0.0000000001
 40
0.0
 40
0.0
 40
0.0
 40
0.0
 40
0.0461035325
 40
0.0961376142
 40
0.1510766529
 40
0.209278781
 40
0.2653142312
 40
0.3163233382
 40
0.363029087
 40
0.4066366952
 40
0.4486821757
 40
0.4906885008
 40
0.5345607744
 40
0.5831060858
 40
0.6393431241
 40
0.7028586337
 40
0.7704590593
 40
0.8367391674
 40
0.8969579037
 40
0.9510468249
 40
1.0
 40
1.0
 40
1.0
 40
1.0
 10
295.698679415
 20
243.2916253608
 30
0.0
 10
295.8165876704
 20
243.2916276799
 30
0.0
 10
296.0628592691
 20
243.3108171813
 30
0.0
 10
296.4399527033
 20
243.4025580866
 30
0.0
 10
296.8243685665
 20
243.5708144478
 30
0.0
 10
297.1841057865
 20
243.8159235433
 30
0.0
 10
297.4849498954
 20
244.1160473526
 30
0.0
 10
297.7128536573
 20
244.4385529037
 30
0.0
 10
297.8750773119
 20
244.7628899315
 30
0.0
 10
297.9845599428
 20
245.0841849058
 30
0.0
 10
298.0507687196
 20
245.4046948531
 30
0.0
 10
298.0782232159
 20
245.731486213
 30
0.0
 10
298.0648311018
 20
246.0759020806
 30
0.0
 10
298.0003275758
 20
246.4517812554
 30
0.0
 10
297.8647937532
 20
246.8622493217
 30
0.0
 10
297.6369115381
 20
247.2869887173
 30
0.0
 10
297.3104191222
 20
247.6774578059
 30
0.0
 10
296.9121587297
 20
247.9804900361
 30
0.0
 10
296.492991878
 20
248.1810797461
 30
0.0
 10
296.0878695333
 20
248.2903820787
 30
0.0
 10
295.8238755393
 20
248.3140780995
 30
0.0
 10
295.6986794175
 20
248.3140797245
 30
0.0
  0
SPLINE
  5
2C4
100
AcDbEntity
  8
0
100
AcDbSpline
 62
7
  6
BYLAYER
 70
0
 71
3
 72
30
 73
26
 74
0
 42
0.0000001
 43
0.0000001
 44
0.0000000001
 40
0.0
 40
0.0
 40
0.0
 40
0.0
 40
0.0309919729
 40
0.0623428038
 40
0.0950082537
 40
0.1298967339
 40
0.1674810824
 40
0.2070986792
 40
0.247715693
 40
0.2885395055
 40
0.3294750715
 40
0.3704950788
 40
0.4114898604
 40
0.4523583206
 40
0.492953905
 40
0.5335956085
 40
0.5757689776
 40
0.6212418189
 40
0.6713320286
 40
0.7264366264
 40
0.7858845244
 40
0.8458469248
 40
0.9023735228
 40
0.9537046273
 40
1.0
 40
1.0
 40
1.0
 40
1.0
 10
219.1986794167
 20
258.4416085022
 30
0.0
 10
219.1174751962
 20
258.441608053
 30
0.0
 10
218.9539909432
 20
258.4320482816
 30
0.0
 10
218.7081337873
 20
258.3902260679
 30
0.0
 10
218.4582886484
 20
258.3195431561
 30
0.0
 10
218.2024562921
 20
258.2158331355
 30
0.0
 10
217.9442672211
 20
258.0743586919
 30
0.0
 10
217.6934325818
 20
257.8929083239
 30
0.0
 10
217.4629529129
 20
257.6735203275
 30
0.0
 10
217.2623365758
 20
257.4221891399
 30
0.0
 10
217.0946025611
 20
257.1467221905
 30
0.0
 10
216.9612314783
 20
256.852640479
 30
0.0
 10
216.8631437764
 20
256.5452179499
 30
0.0
 10
216.8010792702
 20
256.2297072964
 30
0.0
 10
216.7752264855
 20
255.9101232639
 30
0.0
 10
216.7861008656
 20
255.5862479525
 30
0.0
 10
216.8363270618
 20
255.2530918943
 30
0.0
 10
216.9343082707
 20
254.9046838366
 30
0.0
 10
217.0938313905
 20
254.5419671576
 30
0.0
 10
217.3295788529
 20
254.1781345915
 30
0.0
 10
217.6459687938
 20
253.8440528313
 30
0.0
 10
218.024321228
 20
253.5754571905
 30
0.0
 10
218.4273722103
 20
253.393203645
 30
0.0
 10
218.8211523499
 20
253.2949876255
 30
0.0
 10
219.0773776964
 20
253.2746644445
 30
0.0
 10
219.1986794175
 20
253.2746632658
 30
0.0
  0
SPLINE
  5
2C5
100
AcDbEntity
  8
0
100
AcDbSpline
 62
7
  6
BYLAYER
 70
0
 71
3
 72
26
 73
22
 74
0
 42
0.0000001
 43
0.0000001
 44
0.0000000001
 40
0.0
 40
0.0
 40
0.0
 40
0.0
 40
0.0461035325
 40
0.0961376142
 40
0.1510766529
 40
0.209278781
 40
0.2653142312
 40
0.3163233382
 40
0.363029087
 40
0.4066366952
 40
0.4486821757
 40
0.4906885008
 40
0.5345607744
 40
0.5831060858
 40
0.6393431241
 40
0.7028586337
 40
0.7704590593
 40
0.8367391674
 40
0.8969579037
 40
0.9510468249
 40
1.0
 40
1.0
 40
1.0
 40
1.0
 10
295.698679415
 20
253.2916253608
 30
0.0
 10
295.8165876704
 20
253.2916276799
 30
0.0
 10
296.0628592691
 20
253.3108171813
 30
0.0
 10
296.4399527033
 20
253.4025580866
 30
0.0
 10
296.8243685665
 20
253.5708144478
 30
0.0
 10
297.1841057865
 20
253.8159235433
 30
0.0
 10
297.4849498954
 20
254.1160473526
 30
0.0
 10
297.7128536573
 20
254.4385529037
 30
0.0
 10
297.8750773119
 20
254.7628899315
 30
0.0
 10
297.9845599428
 20
255.0841849058
 30
0.0
 10
298.0507687196
 20
255.4046948531
 30
0.0
 10
298.0782232159
 20
255.731486213
 30
0.0
 10
298.0648311018
 20
256.0759020806
 30
0.0
 10
298.0003275758
 20
256.4517812554
 30
0.0
 10
297.8647937532
 20
256.8622493217
 30
0.0
 10
297.6369115381
 20
257.2869887173
 30
0.0
 10
297.3104191222
 20
257.6774578059
 30
0.0
 10
296.9121587297
 20
257.9804900361
 30
0.0
 10
296.492991878
 20
258.1810797461
 30
0.0
 10
296.0878695333
 20
258.2903820787
 30
0.0
 10
295.8238755393
 20
258.3140780995
 30
0.0
 10
295.6986794175
 20
258.3140797245
 30
0.0
  0
SPLINE
  5
2C6
100
AcDbEntity
  8
0
100
AcDbSpline
 62
7
  6
BYLAYER
 70
0
 71
3
 72
30
 73
26
 74
0
 42
0.0000001
 43
0.0000001
 44
0.0000000001
 40
0.0
 40
0.0
 40
0.0
 40
0.0
 40
0.0309919729
 40
0.0623428038
 40
0.0950082537
 40
0.1298967339
 40
0.1674810824
 40
0.2070986792
 40
0.247715693
 40
0.2885395055
 40
0.3294750715
 40
0.3704950788
 40
0.4114898604
 40
0.4523583206
 40
0.492953905
 40
0.5335956085
 40
0.5757689776
 40
0.6212418189
 40
0.6713320286
 40
0.7264366264
 40
0.7858845244
 40
0.8458469248
 40
0.9023735228
 40
0.9537046273
 40
1.0
 40
1.0
 40
1.0
 40
1.0
 10
219.1986794167
 20
268.4416085022
 30
0.0
 10
219.1174751962
 20
268.441608053
 30
0.0
 10
218.9539909432
 20
268.4320482816
 30
0.0
 10
218.7081337873
 20
268.3902260679
 30
0.0
 10
218.4582886484
 20
268.3195431561
 30
0.0
 10
218.2024562921
 20
268.2158331355
 30
0.0
 10
217.9442672211
 20
268.0743586919
 30
0.0
 10
217.6934325818
 20
267.8929083239
 30
0.0
 10
217.4629529129
 20
267.6735203275
 30
0.0
 10
217.2623365758
 20
267.4221891399
 30
0.0
 10
217.0946025611
 20
267.1467221905
 30
0.0
 10
216.9612314783
 20
266.852640479
 30
0.0
 10
216.8631437764
 20
266.5452179499
 30
0.0
 10
216.8010792702
 20
266.2297072964
 30
0.0
 10
216.7752264855
 20
265.9101232639
 30
0.0
 10
216.7861008656
 20
265.5862479525
 30
0.0
 10
216.8363270618
 20
265.2530918943
 30
0.0
 10
216.9343082707
 20
264.9046838366
 30
0.0
 10
217.0938313905
 20
264.5419671576
 30
0.0
 10
217.3295788529
 20
264.1781345915
 30
0.0
 10
217.6459687938
 20
263.8440528313
 30
0.0
 10
218.024321228
 20
263.5754571905
 30
0.0
 10
218.4273722103
 20
263.393203645
 30
0.0
 10
218.8211523499
 20
263.2949876255
 30
0.0
 10
219.0773776964
 20
263.2746644445
 30
0.0
 10
219.1986794175
 20
263.2746632658
 30
0.0
  0
SPLINE
  5
2C7
100
AcDbEntity
  8
0
100
AcDbSpline
 62
7
  6
BYLAYER
 70
0
 71
3
 72
26
 73
22
 74
0
 42
0.0000001
 43
0.0000001
 44
0.0000000001
 40
0.0
 40
0.0
 40
0.0
 40
0.0
 40
0.0461035325
 40
0.0961376142
 40
0.1510766529
 40
0.209278781
 40
0.2653142312
 40
0.3163233382
 40
0.363029087
 40
0.4066366952
 40
0.4486821757
 40
0.4906885008
 40
0.5345607744
 40
0.5831060858
 40
0.6393431241
 40
0.7028586337
 40
0.7704590593
 40
0.8367391674
 40
0.8969579037
 40
0.9510468249
 40
1.0
 40
1.0
 40
1.0
 40
1.0
 10
295.698679415
 20
263.2916253608
 30
0.0
 10
295.8165876704
 20
263.2916276799
 30
0.0
 10
296.0628592691
 20
263.3108171813
 30
0.0
 10
296.4399527033
 20
263.4025580866
 30
0.0
 10
296.8243685665
 20
263.5708144478
 30
0.0
 10
297.1841057865
 20
263.8159235433
 30
0.0
 10
297.4849498954
 20
264.1160473526
 30
0.0
 10
297.7128536573
 20
264.4385529037
 30
0.0
 10
297.8750773119
 20
264.7628899315
 30
0.0
 10
297.9845599428
 20
265.0841849058
 30
0.0
 10
298.0507687196
 20
265.4046948531
 30
0.0
 10
298.0782232159
 20
265.731486213
 30
0.0
 10
298.0648311018
 20
266.0759020806
 30
0.0
 10
298.0003275758
 20
266.4517812554
 30
0.0
 10
297.8647937532
 20
266.8622493217
 30
0.0
 10
297.6369115381
 20
267.2869887173
 30
0.0
 10
297.3104191222
 20
267.6774578059
 30
0.0
 10
296.9121587297
 20
267.9804900361
 30
0.0
 10
296.492991878
 20
268.1810797461
 30
0.0
 10
296.0878695333
 20
268.2903820787
 30
0.0
 10
295.8238755393
 20
268.3140780995
 30
0.0
 10
295.6986794175
 20
268.3140797245
 30
0.0
  0
SPLINE
  5
2C8
100
AcDbEntity
  8
0
100
AcDbSpline
 62
7
  6
BYLAYER
 70
0
 71
3
 72
30
 73
26
 74
0
 42
0.0000001
 43
0.0000001
 44
0.0000000001
 40
0.0
 40
0.0
 40
0.0
 40
0.0
 40
0.0309919729
 40
0.0623428038
 40
0.0950082537
 40
0.1298967339
 40
0.1674810824
 40
0.2070986792
 40
0.247715693
 40
0.2885395055
 40
0.3294750715
 40
0.3704950788
 40
0.4114898604
 40
0.4523583206
 40
0.492953905
 40
0.5335956085
 40
0.5757689776
 40
0.6212418189
 40
0.6713320286
 40
0.7264366264
 40
0.7858845244
 40
0.8458469248
 40
0.9023735228
 40
0.9537046273
 40
1.0
 40
1.0
 40
1.0
 40
1.0
 10
219.1986794167
 20
278.4416085022
 30
0.0
 10
219.1174751962
 20
278.441608053
 30
0.0
 10
218.9539909432
 20
278.4320482816
 30
0.0
 10
218.7081337873
 20
278.3902260679
 30
0.0
 10
218.4582886484
 20
278.3195431561
 30
0.0
 10
218.2024562921
 20
278.2158331355
 30
0.0
 10
217.9442672211
 20
278.0743586919
 30
0.0
 10
217.6934325818
 20
277.8929083239
 30
0.0
 10
217.4629529129
 20
277.6735203275
 30
0.0
 10
217.2623365758
 20
277.4221891399
 30
0.0
 10
217.0946025611
 20
277.1467221905
 30
0.0
 10
216.9612314783
 20
276.852640479
 30
0.0
 10
216.8631437764
 20
276.5452179499
 30
0.0
 10
216.8010792702
 20
276.2297072964
 30
0.0
 10
216.7752264855
 20
275.9101232639
 30
0.0
 10
216.7861008656
 20
275.5862479525
 30
0.0
 10
216.8363270618
 20
275.2530918943
 30
0.0
 10
216.9343082707
 20
274.9046838366
 30
0.0
 10
217.0938313905
 20
274.5419671576
 30
0.0
 10
217.3295788529
 20
274.1781345915
 30
0.0
 10
217.6459687938
 20
273.8440528313
 30
0.0
 10
218.024321228
 20
273.5754571905
 30
0.0
 10
218.4273722103
 20
273.393203645
 30
0.0
 10
218.8211523499
 20
273.2949876255
 30
0.0
 10
219.0773776964
 20
273.2746644445
 30
0.0
 10
219.1986794175
 20
273.2746632658
 30
0.0
  0
SPLINE
  5
2C9
100
AcDbEntity
  8
0
100
AcDbSpline
 62
7
  6
BYLAYER
 70
0
 71
3
 72
26
 73
22
 74
0
 42
0.0000001
 43
0.0000001
 44
0.0000000001
 40
0.0
 40
0.0
 40
0.0
 40
0.0
 40
0.0461035325
 40
0.0961376142
 40
0.1510766529
 40
0.209278781
 40
0.2653142312
 40
0.3163233382
 40
0.363029087
 40
0.4066366952
 40
0.4486821757
 40
0.4906885008
 40
0.5345607744
 40
0.5831060858
 40
0.6393431241
 40
0.7028586337
 40
0.7704590593
 40
0.8367391674
 40
0.8969579037
 40
0.9510468249
 40
1.0
 40
1.0
 40
1.0
 40
1.0
 10
295.698679415
 20
273.2916253608
 30
0.0
 10
295.8165876704
 20
273.2916276799
 30
0.0
 10
296.0628592691
 20
273.3108171813
 30
0.0
 10
296.4399527033
 20
273.4025580866
 30
0.0
 10
296.8243685665
 20
273.5708144478
 30
0.0
 10
297.1841057865
 20
273.8159235433
 30
0.0
 10
297.4849498954
 20
274.1160473526
 30
0.0
 10
297.7128536573
 20
274.4385529037
 30
0.0
 10
297.8750773119
 20
274.7628899315
 30
0.0
 10
297.9845599428
 20
275.0841849058
 30
0.0
 10
298.0507687196
 20
275.4046948531
 30
0.0
 10
298.0782232159
 20
275.731486213
 30
0.0
 10
298.0648311018
 20
276.0759020806
 30
0.0
 10
298.0003275758
 20
276.4517812554
 30
0.0
 10
297.8647937532
 20
276.8622493217
 30
0.0
 10
297.6369115381
 20
277.2869887173
 30
0.0
 10
297.3104191222
 20
277.6774578059
 30
0.0
 10
296.9121587297
 20
277.9804900361
 30
0.0
 10
296.492991878
 20
278.1810797461
 30
0.0
 10
296.0878695333
 20
278.2903820787
 30
0.0
 10
295.8238755393
 20
278.3140780995
 30
0.0
 10
295.6986794175
 20
278.3140797245
 30
0.0
  0
SPLINE
  5
2CA
100
AcDbEntity
  8
0
100
AcDbSpline
 62
7
  6
BYLAYER
 70
0
 71
3
 72
30
 73
26
 74
0
 42
0.0000001
 43
0.0000001
 44
0.0000000001
 40
0.0
 40
0.0
 40
0.0
 40
0.0
 40
0.0309919729
 40
0.0623428038
 40
0.0950082537
 40
0.1298967339
 40
0.1674810824
 40
0.2070986792
 40
0.247715693
 40
0.2885395055
 40
0.3294750715
 40
0.3704950788
 40
0.4114898604
 40
0.4523583206
 40
0.492953905
 40
0.5335956085
 40
0.5757689776
 40
0.6212418189
 40
0.6713320286
 40
0.7264366264
 40
0.7858845244
 40
0.8458469248
 40
0.9023735228
 40
0.9537046273
 40
1.0
 40
1.0
 40
1.0
 40
1.0
 10
219.1986794167
 20
288.4416085022
 30
0.0
 10
219.1174751962
 20
288.441608053
 30
0.0
 10
218.9539909432
 20
288.4320482816
 30
0.0
 10
218.7081337873
 20
288.3902260679
 30
0.0
 10
218.4582886484
 20
288.3195431561
 30
0.0
 10
218.2024562921
 20
288.2158331355
 30
0.0
 10
217.9442672211
 20
288.0743586919
 30
0.0
 10
217.6934325818
 20
287.8929083239
 30
0.0
 10
217.4629529129
 20
287.6735203275
 30
0.0
 10
217.2623365758
 20
287.4221891399
 30
0.0
 10
217.0946025611
 20
287.1467221905
 30
0.0
 10
216.9612314783
 20
286.852640479
 30
0.0
 10
216.8631437764
 20
286.5452179499
 30
0.0
 10
216.8010792702
 20
286.2297072964
 30
0.0
 10
216.7752264855
 20
285.9101232639
 30
0.0
 10
216.7861008656
 20
285.5862479525
 30
0.0
 10
216.8363270618
 20
285.2530918943
 30
0.0
 10
216.9343082707
 20
284.9046838366
 30
0.0
 10
217.0938313905
 20
284.5419671576
 30
0.0
 10
217.3295788529
 20
284.1781345915
 30
0.0
 10
217.6459687938
 20
283.8440528313
 30
0.0
 10
218.024321228
 20
283.5754571905
 30
0.0
 10
218.4273722103
 20
283.393203645
 30
0.0
 10
218.8211523499
 20
283.2949876255
 30
0.0
 10
219.0773776964
 20
283.2746644445
 30
0.0
 10
219.1986794175
 20
283.2746632658
 30
0.0
  0
SPLINE
  5
2CB
100
AcDbEntity
  8
0
100
AcDbSpline
 62
7
  6
BYLAYER
 70
0
 71
3
 72
26
 73
22
 74
0
 42
0.0000001
 43
0.0000001
 44
0.0000000001
 40
0.0
 40
0.0
 40
0.0
 40
0.0
 40
0.0461035325
 40
0.0961376142
 40
0.1510766529
 40
0.209278781
 40
0.2653142312
 40
0.3163233382
 40
0.363029087
 40
0.4066366952
 40
0.4486821757
 40
0.4906885008
 40
0.5345607744
 40
0.5831060858
 40
0.6393431241
 40
0.7028586337
 40
0.7704590593
 40
0.8367391674
 40
0.8969579037
 40
0.9510468249
 40
1.0
 40
1.0
 40
1.0
 40
1.0
 10
295.698679415
 20
283.2916253608
 30
0.0
 10
295.8165876704
 20
283.2916276799
 30
0.0
 10
296.0628592691
 20
283.3108171813
 30
0.0
 10
296.4399527033
 20
283.4025580866
 30
0.0
 10
296.8243685665
 20
283.5708144478
 30
0.0
 10
297.1841057865
 20
283.8159235433
 30
0.0
 10
297.4849498954
 20
284.1160473526
 30
0.0
 10
297.7128536573
 20
284.4385529037
 30
0.0
 10
297.8750773119
 20
284.7628899315
 30
0.0
 10
297.9845599428
 20
285.0841849058
 30
0.0
 10
298.0507687196
 20
285.4046948531
 30
0.0
 10
298.0782232159
 20
285.731486213
 30
0.0
 10
298.0648311018
 20
286.0759020806
 30
0.0
 10
298.0003275758
 20
286.4517812554
 30
0.0
 10
297.8647937532
 20
286.8622493217
 30
0.0
 10
297.6369115381
 20
287.2869887173
 30
0.0
 10
297.3104191222
 20
287.6774578059
 30
0.0
 10
296.9121587297
 20
287.9804900361
 30
0.0
 10
296.492991878
 20
288.1810797461
 30
0.0
 10
296.0878695333
 20
288.2903820787
 30
0.0
 10
295.8238755393
 20
288.3140780995
 30
0.0
 10
295.6986794175
 20
288.3140797245
 30
0.0
  0
SPLINE
  5
2CC
100
AcDbEntity
  8
0
100
AcDbSpline
 62
7
  6
BYLAYER
 70
0
 71
3
 72
30
 73
26
 74
0
 42
0.0000001
 43
0.0000001
 44
0.0000000001
 40
0.0
 40
0.0
 40
0.0
 40
0.0
 40
0.0309919729
 40
0.0623428038
 40
0.0950082537
 40
0.1298967339
 40
0.1674810824
 40
0.2070986792
 40
0.247715693
 40
0.2885395055
 40
0.3294750715
 40
0.3704950788
 40
0.4114898604
 40
0.4523583206
 40
0.492953905
 40
0.5335956085
 40
0.5757689776
 40
0.6212418189
 40
0.6713320286
 40
0.7264366264
 40
0.7858845244
 40
0.8458469248
 40
0.9023735228
 40
0.9537046273
 40
1.0
 40
1.0
 40
1.0
 40
1.0
 10
219.1986794167
 20
298.4416085022
 30
0.0
 10
219.1174751962
 20
298.441608053
 30
0.0
 10
218.9539909432
 20
298.4320482816
 30
0.0
 10
218.7081337873
 20
298.3902260679
 30
0.0
 10
218.4582886484
 20
298.3195431561
 30
0.0
 10
218.2024562921
 20
298.2158331355
 30
0.0
 10
217.9442672211
 20
298.0743586919
 30
0.0
 10
217.6934325818
 20
297.8929083239
 30
0.0
 10
217.4629529129
 20
297.6735203275
 30
0.0
 10
217.2623365758
 20
297.4221891399
 30
0.0
 10
217.0946025611
 20
297.1467221905
 30
0.0
 10
216.9612314783
 20
296.852640479
 30
0.0
 10
216.8631437764
 20
296.5452179499
 30
0.0
 10
216.8010792702
 20
296.2297072964
 30
0.0
 10
216.7752264855
 20
295.9101232639
 30
0.0
 10
216.7861008656
 20
295.5862479525
 30
0.0
 10
216.8363270618
 20
295.2530918943
 30
0.0
 10
216.9343082707
 20
294.9046838366
 30
0.0
 10
217.0938313905
 20
294.5419671576
 30
0.0
 10
217.3295788529
 20
294.1781345915
 30
0.0
 10
217.6459687938
 20
293.8440528313
 30
0.0
 10
218.024321228
 20
293.5754571905
 30
0.0
 10
218.4273722103
 20
293.393203645
 30
0.0
 10
218.8211523499
 20
293.2949876255
 30
0.0
 10
219.0773776964
 20
293.2746644445
 30
0.0
 10
219.1986794175
 20
293.2746632658
 30
0.0
  0
SPLINE
  5
2CD
100
AcDbEntity
  8
0
100
AcDbSpline
 62
7
  6
BYLAYER
 70
0
 71
3
 72
26
 73
22
 74
0
 42
0.0000001
 43
0.0000001
 44
0.0000000001
 40
0.0
 40
0.0
 40
0.0
 40
0.0
 40
0.0461035325
 40
0.0961376142
 40
0.1510766529
 40
0.209278781
 40
0.2653142312
 40
0.3163233382
 40
0.363029087
 40
0.4066366952
 40
0.4486821757
 40
0.4906885008
 40
0.5345607744
 40
0.5831060858
 40
0.6393431241
 40
0.7028586337
 40
0.7704590593
 40
0.8367391674
 40
0.8969579037
 40
0.9510468249
 40
1.0
 40
1.0
 40
1.0
 40
1.0
 10
295.698679415
 20
293.2916253608
 30
0.0
 10
295.8165876704
 20
293.2916276799
 30
0.0
 10
296.0628592691
 20
293.3108171813
 30
0.0
 10
296.4399527033
 20
293.4025580866
 30
0.0
 10
296.8243685665
 20
293.5708144478
 30
0.0
 10
297.1841057865
 20
293.8159235433
 30
0.0
 10
297.4849498954
 20
294.1160473526
 30
0.0
 10
297.7128536573
 20
294.4385529037
 30
0.0
 10
297.8750773119
 20
294.7628899315
 30
0.0
 10
297.9845599428
 20
295.0841849058
 30
0.0
 10
298.0507687196
 20
295.4046948531
 30
0.0
 10
298.0782232159
 20
295.731486213
 30
0.0
 10
298.0648311018
 20
296.0759020806
 30
0.0
 10
298.0003275758
 20
296.4517812554
 30
0.0
 10
297.8647937532
 20
296.8622493217
 30
0.0
 10
297.6369115381
 20
297.2869887173
 30
0.0
 10
297.3104191222
 20
297.6774578059
 30
0.0
 10
296.9121587297
 20
297.9804900361
 30
0.0
 10
296.492991878
 20
298.1810797461
 30
0.0
 10
296.0878695333
 20
298.2903820787
 30
0.0
 10
295.8238755393
 20
298.3140780995
 30
0.0
 10
295.6986794175
 20
298.3140797245
 30
0.0
  0
SPLINE
  5
2CE
100
AcDbEntity
  8
0
100
AcDbSpline
 62
7
  6
BYLAYER
 70
0
 71
3
 72
30
 73
26
 74
0
 42
0.0000001
 43
0.0000001
 44
0.0000000001
 40
0.0
 40
0.0
 40
0.0
 40
0.0
 40
0.0309919729
 40
0.0623428038
 40
0.0950082537
 40
0.1298967339
 40
0.1674810824
 40
0.2070986792
 40
0.247715693
 40
0.2885395055
 40
0.3294750715
 40
0.3704950788
 40
0.4114898604
 40
0.4523583206
 40
0.492953905
 40
0.5335956085
 40
0.5757689776
 40
0.6212418189
 40
0.6713320286
 40
0.7264366264
 40
0.7858845244
 40
0.8458469248
 40
0.9023735228
 40
0.9537046273
 40
1.0
 40
1.0
 40
1.0
 40
1.0
 10
219.1986794167
 20
308.4416085022
 30
0.0
 10
219.1174751962
 20
308.441608053
 30
0.0
 10
218.9539909432
 20
308.4320482816
 30
0.0
 10
218.7081337873
 20
308.3902260679
 30
0.0
 10
218.4582886484
 20
308.3195431561
 30
0.0
 10
218.2024562921
 20
308.2158331355
 30
0.0
 10
217.9442672211
 20
308.0743586919
 30
0.0
 10
217.6934325818
 20
307.8929083239
 30
0.0
 10
217.4629529129
 20
307.6735203275
 30
0.0
 10
217.2623365758
 20
307.4221891399
 30
0.0
 10
217.0946025611
 20
307.1467221905
 30
0.0
 10
216.9612314783
 20
306.852640479
 30
0.0
 10
216.8631437764
 20
306.5452179499
 30
0.0
 10
216.8010792702
 20
306.2297072964
 30
0.0
 10
216.7752264855
 20
305.9101232639
 30
0.0
 10
216.7861008656
 20
305.5862479525
 30
0.0
 10
216.8363270618
 20
305.2530918943
 30
0.0
 10
216.9343082707
 20
304.9046838366
 30
0.0
 10
217.0938313905
 20
304.5419671576
 30
0.0
 10
217.3295788529
 20
304.1781345915
 30
0.0
 10
217.6459687938
 20
303.8440528313
 30
0.0
 10
218.024321228
 20
303.5754571905
 30
0.0
 10
218.4273722103
 20
303.393203645
 30
0.0
 10
218.8211523499
 20
303.2949876255
 30
0.0
 10
219.0773776964
 20
303.2746644445
 30
0.0
 10
219.1986794175
 20
303.2746632658
 30
0.0
  0
SPLINE
  5
2CF
100
AcDbEntity
  8
0
100
AcDbSpline
 62
7
  6
BYLAYER
 70
0
 71
3
 72
26
 73
22
 74
0
 42
0.0000001
 43
0.0000001
 44
0.0000000001
 40
0.0
 40
0.0
 40
0.0
 40
0.0
 40
0.0461035325
 40
0.0961376142
 40
0.1510766529
 40
0.209278781
 40
0.2653142312
 40
0.3163233382
 40
0.363029087
 40
0.4066366952
 40
0.4486821757
 40
0.4906885008
 40
0.5345607744
 40
0.5831060858
 40
0.6393431241
 40
0.7028586337
 40
0.7704590593
 40
0.8367391674
 40
0.8969579037
 40
0.9510468249
 40
1.0
 40
1.0
 40
1.0
 40
1.0
 10
295.698679415
 20
303.2916253608
 30
0.0
 10
295.8165876704
 20
303.2916276799
 30
0.0
 10
296.0628592691
 20
303.3108171813
 30
0.0
 10
296.4399527033
 20
303.4025580866
 30
0.0
 10
296.8243685665
 20
303.5708144478
 30
0.0
 10
297.1841057865
 20
303.8159235433
 30
0.0
 10
297.4849498954
 20
304.1160473526
 30
0.0
 10
297.7128536573
 20
304.4385529037
 30
0.0
 10
297.8750773119
 20
304.7628899315
 30
0.0
 10
297.9845599428
 20
305.0841849058
 30
0.0
 10
298.0507687196
 20
305.4046948531
 30
0.0
 10
298.0782232159
 20
305.731486213
 30
0.0
 10
298.0648311018
 20
306.0759020806
 30
0.0
 10
298.0003275758
 20
306.4517812554
 30
0.0
 10
297.8647937532
 20
306.8622493217
 30
0.0
 10
297.6369115381
 20
307.2869887173
 30
0.0
 10
297.3104191222
 20
307.6774578059
 30
0.0
 10
296.9121587297
 20
307.9804900361
 30
0.0
 10
296.492991878
 20
308.1810797461
 30
0.0
 10
296.0878695333
 20
308.2903820787
 30
0.0
 10
295.8238755393
 20
308.3140780995
 30
0.0
 10
295.6986794175
 20
308.3140797245
 30
0.0
  0
SPLINE
  5
2D0
100
AcDbEntity
  8
0
100
AcDbSpline
 62
7
  6
BYLAYER
 70
0
 71
3
 72
30
 73
26
 74
0
 42
0.0000001
 43
0.0000001
 44
0.0000000001
 40
0.0
 40
0.0
 40
0.0
 40
0.0
 40
0.0309919729
 40
0.0623428038
 40
0.0950082537
 40
0.1298967339
 40
0.1674810824
 40
0.2070986792
 40
0.247715693
 40
0.2885395055
 40
0.3294750715
 40
0.3704950788
 40
0.4114898604
 40
0.4523583206
 40
0.492953905
 40
0.5335956085
 40
0.5757689776
 40
0.6212418189
 40
0.6713320286
 40
0.7264366264
 40
0.7858845244
 40
0.8458469248
 40
0.9023735228
 40
0.9537046273
 40
1.0
 40
1.0
 40
1.0
 40
1.0
 10
219.1986794167
 20
318.4416085022
 30
0.0
 10
219.1174751962
 20
318.441608053
 30
0.0
 10
218.9539909432
 20
318.4320482816
 30
0.0
 10
218.7081337873
 20
318.3902260679
 30
0.0
 10
218.4582886484
 20
318.3195431561
 30
0.0
 10
218.2024562921
 20
318.2158331355
 30
0.0
 10
217.9442672211
 20
318.0743586919
 30
0.0
 10
217.6934325818
 20
317.8929083239
 30
0.0
 10
217.4629529129
 20
317.6735203275
 30
0.0
 10
217.2623365758
 20
317.4221891399
 30
0.0
 10
217.0946025611
 20
317.1467221905
 30
0.0
 10
216.9612314783
 20
316.852640479
 30
0.0
 10
216.8631437764
 20
316.5452179499
 30
0.0
 10
216.8010792702
 20
316.2297072964
 30
0.0
 10
216.7752264855
 20
315.9101232639
 30
0.0
 10
216.7861008656
 20
315.5862479525
 30
0.0
 10
216.8363270618
 20
315.2530918943
 30
0.0
 10
216.9343082707
 20
314.9046838366
 30
0.0
 10
217.0938313905
 20
314.5419671576
 30
0.0
 10
217.3295788529
 20
314.1781345915
 30
0.0
 10
217.6459687938
 20
313.8440528313
 30
0.0
 10
218.024321228
 20
313.5754571905
 30
0.0
 10
218.4273722103
 20
313.393203645
 30
0.0
 10
218.8211523499
 20
313.2949876255
 30
0.0
 10
219.0773776964
 20
313.2746644445
 30
0.0
 10
219.1986794175
 20
313.2746632658
 30
0.0
  0
SPLINE
  5
2D1
100
AcDbEntity
  8
0
100
AcDbSpline
 62
7
  6
BYLAYER
 70
0
 71
3
 72
26
 73
22
 74
0
 42
0.0000001
 43
0.0000001
 44
0.0000000001
 40
0.0
 40
0.0
 40
0.0
 40
0.0
 40
0.0461035325
 40
0.0961376142
 40
0.1510766529
 40
0.209278781
 40
0.2653142312
 40
0.3163233382
 40
0.363029087
 40
0.4066366952
 40
0.4486821757
 40
0.4906885008
 40
0.5345607744
 40
0.5831060858
 40
0.6393431241
 40
0.7028586337
 40
0.7704590593
 40
0.8367391674
 40
0.8969579037
 40
0.9510468249
 40
1.0
 40
1.0
 40
1.0
 40
1.0
 10
295.698679415
 20
313.2916253608
 30
0.0
 10
295.8165876704
 20
313.2916276799
 30
0.0
 10
296.0628592691
 20
313.3108171813
 30
0.0
 10
296.4399527033
 20
313.4025580866
 30
0.0
 10
296.8243685665
 20
313.5708144478
 30
0.0
 10
297.1841057865
 20
313.8159235433
 30
0.0
 10
297.4849498954
 20
314.1160473526
 30
0.0
 10
297.7128536573
 20
314.4385529037
 30
0.0
 10
297.8750773119
 20
314.7628899315
 30
0.0
 10
297.9845599428
 20
315.0841849058
 30
0.0
 10
298.0507687196
 20
315.4046948531
 30
0.0
 10
298.0782232159
 20
315.731486213
 30
0.0
 10
298.0648311018
 20
316.0759020806
 30
0.0
 10
298.0003275758
 20
316.4517812554
 30
0.0
 10
297.8647937532
 20
316.8622493217
 30
0.0
 10
297.6369115381
 20
317.2869887173
 30
0.0
 10
297.3104191222
 20
317.6774578059
 30
0.0
 10
296.9121587297
 20
317.9804900361
 30
0.0
 10
296.492991878
 20
318.1810797461
 30
0.0
 10
296.0878695333
 20
318.2903820787
 30
0.0
 10
295.8238755393
 20
318.3140780995
 30
0.0
 10
295.6986794175
 20
318.3140797245
 30
0.0
  0
SPLINE
  5
2D2
100
AcDbEntity
  8
0
100
AcDbSpline
 62
7
  6
BYLAYER
 70
0
 71
3
 72
30
 73
26
 74
0
 42
0.0000001
 43
0.0000001
 44
0.0000000001
 40
0.0
 40
0.0
 40
0.0
 40
0.0
 40
0.0309919729
 40
0.0623428038
 40
0.0950082537
 40
0.1298967339
 40
0.1674810824
 40
0.2070986792
 40
0.247715693
 40
0.2885395055
 40
0.3294750715
 40
0.3704950788
 40
0.4114898604
 40
0.4523583206
 40
0.492953905
 40
0.5335956085
 40
0.5757689776
 40
0.6212418189
 40
0.6713320286
 40
0.7264366264
 40
0.7858845244
 40
0.8458469248
 40
0.9023735228
 40
0.9537046273
 40
1.0
 40
1.0
 40
1.0
 40
1.0
 10
219.1986794167
 20
328.4416085022
 30
0.0
 10
219.1174751962
 20
328.441608053
 30
0.0
 10
218.9539909432
 20
328.4320482816
 30
0.0
 10
218.7081337873
 20
328.3902260679
 30
0.0
 10
218.4582886484
 20
328.3195431561
 30
0.0
 10
218.2024562921
 20
328.2158331355
 30
0.0
 10
217.9442672211
 20
328.0743586919
 30
0.0
 10
217.6934325818
 20
327.8929083239
 30
0.0
 10
217.4629529129
 20
327.6735203275
 30
0.0
 10
217.2623365758
 20
327.4221891399
 30
0.0
 10
217.0946025611
 20
327.1467221905
 30
0.0
 10
216.9612314783
 20
326.852640479
 30
0.0
 10
216.8631437764
 20
326.5452179499
 30
0.0
 10
216.8010792702
 20
326.2297072964
 30
0.0
 10
216.7752264855
 20
325.9101232639
 30
0.0
 10
216.7861008656
 20
325.5862479525
 30
0.0
 10
216.8363270618
 20
325.2530918943
 30
0.0
 10
216.9343082707
 20
324.9046838366
 30
0.0
 10
217.0938313905
 20
324.5419671576
 30
0.0
 10
217.3295788529
 20
324.1781345915
 30
0.0
 10
217.6459687938
 20
323.8440528313
 30
0.0
 10
218.024321228
 20
323.5754571905
 30
0.0
 10
218.4273722103
 20
323.393203645
 30
0.0
 10
218.8211523499
 20
323.2949876255
 30
0.0
 10
219.0773776964
 20
323.2746644445
 30
0.0
 10
219.1986794175
 20
323.2746632658
 30
0.0
  0
SPLINE
  5
2D3
100
AcDbEntity
  8
0
100
AcDbSpline
 62
7
  6
BYLAYER
 70
0
 71
3
 72
26
 73
22
 74
0
 42
0.0000001
 43
0.0000001
 44
0.0000000001
 40
0.0
 40
0.0
 40
0.0
 40
0.0
 40
0.0461035325
 40
0.0961376142
 40
0.1510766529
 40
0.209278781
 40
0.2653142312
 40
0.3163233382
 40
0.363029087
 40
0.4066366952
 40
0.4486821757
 40
0.4906885008
 40
0.5345607744
 40
0.5831060858
 40
0.6393431241
 40
0.7028586337
 40
0.7704590593
 40
0.8367391674
 40
0.8969579037
 40
0.9510468249
 40
1.0
 40
1.0
 40
1.0
 40
1.0
 10
295.698679415
 20
323.2916253608
 30
0.0
 10
295.8165876704
 20
323.2916276799
 30
0.0
 10
296.0628592691
 20
323.3108171813
 30
0.0
 10
296.4399527033
 20
323.4025580866
 30
0.0
 10
296.8243685665
 20
323.5708144478
 30
0.0
 10
297.1841057865
 20
323.8159235433
 30
0.0
 10
297.4849498954
 20
324.1160473526
 30
0.0
 10
297.7128536573
 20
324.4385529037
 30
0.0
 10
297.8750773119
 20
324.7628899315
 30
0.0
 10
297.9845599428
 20
325.0841849058
 30
0.0
 10
298.0507687196
 20
325.4046948531
 30
0.0
 10
298.0782232159
 20
325.731486213
 30
0.0
 10
298.0648311018
 20
326.0759020806
 30
0.0
 10
298.0003275758
 20
326.4517812554
 30
0.0
 10
297.8647937532
 20
326.8622493217
 30
0.0
 10
297.6369115381
 20
327.2869887173
 30
0.0
 10
297.3104191222
 20
327.6774578059
 30
0.0
 10
296.9121587297
 20
327.9804900361
 30
0.0
 10
296.492991878
 20
328.1810797461
 30
0.0
 10
296.0878695333
 20
328.2903820787
 30
0.0
 10
295.8238755393
 20
328.3140780995
 30
0.0
 10
295.6986794175
 20
328.3140797245
 30
0.0
  0
SPLINE
  5
2D4
100
AcDbEntity
  8
0
100
AcDbSpline
 62
7
  6
BYLAYER
 70
0
 71
3
 72
30
 73
26
 74
0
 42
0.0000001
 43
0.0000001
 44
0.0000000001
 40
0.0
 40
0.0
 40
0.0
 40
0.0
 40
0.0309919729
 40
0.0623428038
 40
0.0950082537
 40
0.1298967339
 40
0.1674810824
 40
0.2070986792
 40
0.247715693
 40
0.2885395055
 40
0.3294750715
 40
0.3704950788
 40
0.4114898604
 40
0.4523583206
 40
0.492953905
 40
0.5335956085
 40
0.5757689776
 40
0.6212418189
 40
0.6713320286
 40
0.7264366264
 40
0.7858845244
 40
0.8458469248
 40
0.9023735228
 40
0.9537046273
 40
1.0
 40
1.0
 40
1.0
 40
1.0
 10
219.1986794167
 20
338.4416085022
 30
0.0
 10
219.1174751962
 20
338.441608053
 30
0.0
 10
218.9539909432
 20
338.4320482816
 30
0.0
 10
218.7081337873
 20
338.3902260679
 30
0.0
 10
218.4582886484
 20
338.3195431561
 30
0.0
 10
218.2024562921
 20
338.2158331355
 30
0.0
 10
217.9442672211
 20
338.0743586919
 30
0.0
 10
217.6934325818
 20
337.8929083239
 30
0.0
 10
217.4629529129
 20
337.6735203275
 30
0.0
 10
217.2623365758
 20
337.4221891399
 30
0.0
 10
217.0946025611
 20
337.1467221905
 30
0.0
 10
216.9612314783
 20
336.852640479
 30
0.0
 10
216.8631437764
 20
336.5452179499
 30
0.0
 10
216.8010792702
 20
336.2297072964
 30
0.0
 10
216.7752264855
 20
335.9101232639
 30
0.0
 10
216.7861008656
 20
335.5862479525
 30
0.0
 10
216.8363270618
 20
335.2530918943
 30
0.0
 10
216.9343082707
 20
334.9046838366
 30
0.0
 10
217.0938313905
 20
334.5419671576
 30
0.0
 10
217.3295788529
 20
334.1781345915
 30
0.0
 10
217.6459687938
 20
333.8440528313
 30
0.0
 10
218.024321228
 20
333.5754571905
 30
0.0
 10
218.4273722103
 20
333.393203645
 30
0.0
 10
218.8211523499
 20
333.2949876255
 30
0.0
 10
219.0773776964
 20
333.2746644445
 30
0.0
 10
219.1986794175
 20
333.2746632658
 30
0.0
  0
SPLINE
  5
2D5
100
AcDbEntity
  8
0
100
AcDbSpline
 62
7
  6
BYLAYER
 70
0
 71
3
 72
26
 73
22
 74
0
 42
0.0000001
 43
0.0000001
 44
0.0000000001
 40
0.0
 40
0.0
 40
0.0
 40
0.0
 40
0.0461035325
 40
0.0961376142
 40
0.1510766529
 40
0.209278781
 40
0.2653142312
 40
0.3163233382
 40
0.363029087
 40
0.4066366952
 40
0.4486821757
 40
0.4906885008
 40
0.5345607744
 40
0.5831060858
 40
0.6393431241
 40
0.7028586337
 40
0.7704590593
 40
0.8367391674
 40
0.8969579037
 40
0.9510468249
 40
1.0
 40
1.0
 40
1.0
 40
1.0
 10
295.698679415
 20
333.2916253608
 30
0.0
 10
295.8165876704
 20
333.2916276799
 30
0.0
 10
296.0628592691
 20
333.3108171813
 30
0.0
 10
296.4399527033
 20
333.4025580866
 30
0.0
 10
296.8243685665
 20
333.5708144478
 30
0.0
 10
297.1841057865
 20
333.8159235433
 30
0.0
 10
297.4849498954
 20
334.1160473526
 30
0.0
 10
297.7128536573
 20
334.4385529037
 30
0.0
 10
297.8750773119
 20
334.7628899315
 30
0.0
 10
297.9845599428
 20
335.0841849058
 30
0.0
 10
298.0507687196
 20
335.4046948531
 30
0.0
 10
298.0782232159
 20
335.731486213
 30
0.0
 10
298.0648311018
 20
336.0759020806
 30
0.0
 10
298.0003275758
 20
336.4517812554
 30
0.0
 10
297.8647937532
 20
336.8622493217
 30
0.0
 10
297.6369115381
 20
337.2869887173
 30
0.0
 10
297.3104191222
 20
337.6774578059
 30
0.0
 10
296.9121587297
 20
337.9804900361
 30
0.0
 10
296.492991878
 20
338.1810797461
 30
0.0
 10
296.0878695333
 20
338.2903820787
 30
0.0
 10
295.8238755393
 20
338.3140780995
 30
0.0
 10
295.6986794175
 20
338.3140797245
 30
0.0
  0
SPLINE
  5
2D6
100
AcDbEntity
  8
0
100
AcDbSpline
 62
7
  6
BYLAYER
 70
0
 71
3
 72
30
 73
26
 74
0
 42
0.0000001
 43
0.0000001
 44
0.0000000001
 40
0.0
 40
0.0
 40
0.0
 40
0.0
 40
0.0309919729
 40
0.0623428038
 40
0.0950082537
 40
0.1298967339
 40
0.1674810824
 40
0.2070986792
 40
0.247715693
 40
0.2885395055
 40
0.3294750715
 40
0.3704950788
 40
0.4114898604
 40
0.4523583206
 40
0.492953905
 40
0.5335956085
 40
0.5757689776
 40
0.6212418189
 40
0.6713320286
 40
0.7264366264
 40
0.7858845244
 40
0.8458469248
 40
0.9023735228
 40
0.9537046273
 40
1.0
 40
1.0
 40
1.0
 40
1.0
 10
219.1986794167
 20
348.4416085022
 30
0.0
 10
219.1174751962
 20
348.441608053
 30
0.0
 10
218.9539909432
 20
348.4320482816
 30
0.0
 10
218.7081337873
 20
348.3902260679
 30
0.0
 10
218.4582886484
 20
348.3195431561
 30
0.0
 10
218.2024562921
 20
348.2158331355
 30
0.0
 10
217.9442672211
 20
348.0743586919
 30
0.0
 10
217.6934325818
 20
347.8929083239
 30
0.0
 10
217.4629529129
 20
347.6735203275
 30
0.0
 10
217.2623365758
 20
347.4221891399
 30
0.0
 10
217.0946025611
 20
347.1467221905
 30
0.0
 10
216.9612314783
 20
346.852640479
 30
0.0
 10
216.8631437764
 20
346.5452179499
 30
0.0
 10
216.8010792702
 20
346.2297072964
 30
0.0
 10
216.7752264855
 20
345.9101232639
 30
0.0
 10
216.7861008656
 20
345.5862479525
 30
0.0
 10
216.8363270618
 20
345.2530918943
 30
0.0
 10
216.9343082707
 20
344.9046838366
 30
0.0
 10
217.0938313905
 20
344.5419671576
 30
0.0
 10
217.3295788529
 20
344.1781345915
 30
0.0
 10
217.6459687938
 20
343.8440528313
 30
0.0
 10
218.024321228
 20
343.5754571905
 30
0.0
 10
218.4273722103
 20
343.393203645
 30
0.0
 10
218.8211523499
 20
343.2949876255
 30
0.0
 10
219.0773776964
 20
343.2746644445
 30
0.0
 10
219.1986794175
 20
343.2746632658
 30
0.0
  0
SPLINE
  5
2D7
100
AcDbEntity
  8
0
100
AcDbSpline
 62
7
  6
BYLAYER
 70
0
 71
3
 72
26
 73
22
 74
0
 42
0.0000001
 43
0.0000001
 44
0.0000000001
 40
0.0
 40
0.0
 40
0.0
 40
0.0
 40
0.0461035325
 40
0.0961376142
 40
0.1510766529
 40
0.209278781
 40
0.2653142312
 40
0.3163233382
 40
0.363029087
 40
0.4066366952
 40
0.4486821757
 40
0.4906885008
 40
0.5345607744
 40
0.5831060858
 40
0.6393431241
 40
0.7028586337
 40
0.7704590593
 40
0.8367391674
 40
0.8969579037
 40
0.9510468249
 40
1.0
 40
1.0
 40
1.0
 40
1.0
 10
295.698679415
 20
343.2916253608
 30
0.0
 10
295.8165876704
 20
343.2916276799
 30
0.0
 10
296.0628592691
 20
343.3108171813
 30
0.0
 10
296.4399527033
 20
343.4025580866
 30
0.0
 10
296.8243685665
 20
343.5708144478
 30
0.0
 10
297.1841057865
 20
343.8159235433
 30
0.0
 10
297.4849498954
 20
344.1160473526
 30
0.0
 10
297.7128536573
 20
344.4385529037
 30
0.0
 10
297.8750773119
 20
344.7628899315
 30
0.0
 10
297.9845599428
 20
345.0841849058
 30
0.0
 10
298.0507687196
 20
345.4046948531
 30
0.0
 10
298.0782232159
 20
345.731486213
 30
0.0
 10
298.0648311018
 20
346.0759020806
 30
0.0
 10
298.0003275758
 20
346.4517812554
 30
0.0
 10
297.8647937532
 20
346.8622493217
 30
0.0
 10
297.6369115381
 20
347.2869887173
 30
0.0
 10
297.3104191222
 20
347.6774578059
 30
0.0
 10
296.9121587297
 20
347.9804900361
 30
0.0
 10
296.492991878
 20
348.1810797461
 30
0.0
 10
296.0878695333
 20
348.2903820787
 30
0.0
 10
295.8238755393
 20
348.3140780995
 30
0.0
 10
295.6986794175
 20
348.3140797245
 30
0.0
  0
SPLINE
  5
2D8
100
AcDbEntity
  8
0
100
AcDbSpline
 62
7
  6
BYLAYER
 70
0
 71
3
 72
30
 73
26
 74
0
 42
0.0000001
 43
0.0000001
 44
0.0000000001
 40
0.0
 40
0.0
 40
0.0
 40
0.0
 40
0.0309919729
 40
0.0623428038
 40
0.0950082537
 40
0.1298967339
 40
0.1674810824
 40
0.2070986792
 40
0.247715693
 40
0.2885395055
 40
0.3294750715
 40
0.3704950788
 40
0.4114898604
 40
0.4523583206
 40
0.492953905
 40
0.5335956085
 40
0.5757689776
 40
0.6212418189
 40
0.6713320286
 40
0.7264366264
 40
0.7858845244
 40
0.8458469248
 40
0.9023735228
 40
0.9537046273
 40
1.0
 40
1.0
 40
1.0
 40
1.0
 10
219.1986794167
 20
358.4416085022
 30
0.0
 10
219.1174751962
 20
358.441608053
 30
0.0
 10
218.9539909432
 20
358.4320482816
 30
0.0
 10
218.7081337873
 20
358.3902260679
 30
0.0
 10
218.4582886484
 20
358.3195431561
 30
0.0
 10
218.2024562921
 20
358.2158331355
 30
0.0
 10
217.9442672211
 20
358.0743586919
 30
0.0
 10
217.6934325818
 20
357.8929083239
 30
0.0
 10
217.4629529129
 20
357.6735203275
 30
0.0
 10
217.2623365758
 20
357.4221891399
 30
0.0
 10
217.0946025611
 20
357.1467221905
 30
0.0
 10
216.9612314783
 20
356.852640479
 30
0.0
 10
216.8631437764
 20
356.5452179499
 30
0.0
 10
216.8010792702
 20
356.2297072964
 30
0.0
 10
216.7752264855
 20
355.9101232639
 30
0.0
 10
216.7861008656
 20
355.5862479525
 30
0.0
 10
216.8363270618
 20
355.2530918943
 30
0.0
 10
216.9343082707
 20
354.9046838366
 30
0.0
 10
217.0938313905
 20
354.5419671576
 30
0.0
 10
217.3295788529
 20
354.1781345915
 30
0.0
 10
217.6459687938
 20
353.8440528313
 30
0.0
 10
218.024321228
 20
353.5754571905
 30
0.0
 10
218.4273722103
 20
353.393203645
 30
0.0
 10
218.8211523499
 20
353.2949876255
 30
0.0
 10
219.0773776964
 20
353.2746644445
 30
0.0
 10
219.1986794175
 20
353.2746632658
 30
0.0
  0
SPLINE
  5
2D9
100
AcDbEntity
  8
0
100
AcDbSpline
 62
7
  6
BYLAYER
 70
0
 71
3
 72
26
 73
22
 74
0
 42
0.0000001
 43
0.0000001
 44
0.0000000001
 40
0.0
 40
0.0
 40
0.0
 40
0.0
 40
0.0461035325
 40
0.0961376142
 40
0.1510766529
 40
0.209278781
 40
0.2653142312
 40
0.3163233382
 40
0.363029087
 40
0.4066366952
 40
0.4486821757
 40
0.4906885008
 40
0.5345607744
 40
0.5831060858
 40
0.6393431241
 40
0.7028586337
 40
0.7704590593
 40
0.8367391674
 40
0.8969579037
 40
0.9510468249
 40
1.0
 40
1.0
 40
1.0
 40
1.0
 10
295.698679415
 20
353.2916253608
 30
0.0
 10
295.8165876704
 20
353.2916276799
 30
0.0
 10
296.0628592691
 20
353.3108171813
 30
0.0
 10
296.4399527033
 20
353.4025580866
 30
0.0
 10
296.8243685665
 20
353.5708144478
 30
0.0
 10
297.1841057865
 20
353.8159235433
 30
0.0
 10
297.4849498954
 20
354.1160473526
 30
0.0
 10
297.7128536573
 20
354.4385529037
 30
0.0
 10
297.8750773119
 20
354.7628899315
 30
0.0
 10
297.9845599428
 20
355.0841849058
 30
0.0
 10
298.0507687196
 20
355.4046948531
 30
0.0
 10
298.0782232159
 20
355.731486213
 30
0.0
 10
298.0648311018
 20
356.0759020806
 30
0.0
 10
298.0003275758
 20
356.4517812554
 30
0.0
 10
297.8647937532
 20
356.8622493217
 30
0.0
 10
297.6369115381
 20
357.2869887173
 30
0.0
 10
297.3104191222
 20
357.6774578059
 30
0.0
 10
296.9121587297
 20
357.9804900361
 30
0.0
 10
296.492991878
 20
358.1810797461
 30
0.0
 10
296.0878695333
 20
358.2903820787
 30
0.0
 10
295.8238755393
 20
358.3140780995
 30
0.0
 10
295.6986794175
 20
358.3140797245
 30
0.0
  0
SPLINE
  5
2DA
100
AcDbEntity
  8
0
100
AcDbSpline
 62
7
  6
BYLAYER
 70
0
 71
3
 72
30
 73
26
 74
0
 42
0.0000001
 43
0.0000001
 44
0.0000000001
 40
0.0
 40
0.0
 40
0.0
 40
0.0
 40
0.0309919729
 40
0.0623428038
 40
0.0950082537
 40
0.1298967339
 40
0.1674810824
 40
0.2070986792
 40
0.247715693
 40
0.2885395055
 40
0.3294750715
 40
0.3704950788
 40
0.4114898604
 40
0.4523583206
 40
0.492953905
 40
0.5335956085
 40
0.5757689776
 40
0.6212418189
 40
0.6713320286
 40
0.7264366264
 40
0.7858845244
 40
0.8458469248
 40
0.9023735228
 40
0.9537046273
 40
1.0
 40
1.0
 40
1.0
 40
1.0
 10
219.1986794167
 20
368.4416085022
 30
0.0
 10
219.1174751962
 20
368.441608053
 30
0.0
 10
218.9539909432
 20
368.4320482816
 30
0.0
 10
218.7081337873
 20
368.3902260679
 30
0.0
 10
218.4582886484
 20
368.3195431561
 30
0.0
 10
218.2024562921
 20
368.2158331355
 30
0.0
 10
217.9442672211
 20
368.0743586919
 30
0.0
 10
217.6934325818
 20
367.8929083239
 30
0.0
 10
217.4629529129
 20
367.6735203275
 30
0.0
 10
217.2623365758
 20
367.4221891399
 30
0.0
 10
217.0946025611
 20
367.1467221905
 30
0.0
 10
216.9612314783
 20
366.852640479
 30
0.0
 10
216.8631437764
 20
366.5452179499
 30
0.0
 10
216.8010792702
 20
366.2297072964
 30
0.0
 10
216.7752264855
 20
365.9101232639
 30
0.0
 10
216.7861008656
 20
365.5862479525
 30
0.0
 10
216.8363270618
 20
365.2530918943
 30
0.0
 10
216.9343082707
 20
364.9046838366
 30
0.0
 10
217.0938313905
 20
364.5419671576
 30
0.0
 10
217.3295788529
 20
364.1781345915
 30
0.0
 10
217.6459687938
 20
363.8440528313
 30
0.0
 10
218.024321228
 20
363.5754571905
 30
0.0
 10
218.4273722103
 20
363.393203645
 30
0.0
 10
218.8211523499
 20
363.2949876255
 30
0.0
 10
219.0773776964
 20
363.2746644445
 30
0.0
 10
219.1986794175
 20
363.2746632658
 30
0.0
  0
SPLINE
  5
2DB
100
AcDbEntity
  8
0
100
AcDbSpline
 62
7
  6
BYLAYER
 70
0
 71
3
 72
26
 73
22
 74
0
 42
0.0000001
 43
0.0000001
 44
0.0000000001
 40
0.0
 40
0.0
 40
0.0
 40
0.0
 40
0.0461035325
 40
0.0961376142
 40
0.1510766529
 40
0.209278781
 40
0.2653142312
 40
0.3163233382
 40
0.363029087
 40
0.4066366952
 40
0.4486821757
 40
0.4906885008
 40
0.5345607744
 40
0.5831060858
 40
0.6393431241
 40
0.7028586337
 40
0.7704590593
 40
0.8367391674
 40
0.8969579037
 40
0.9510468249
 40
1.0
 40
1.0
 40
1.0
 40
1.0
 10
295.698679415
 20
363.2916253608
 30
0.0
 10
295.8165876704
 20
363.2916276799
 30
0.0
 10
296.0628592691
 20
363.3108171813
 30
0.0
 10
296.4399527033
 20
363.4025580866
 30
0.0
 10
296.8243685665
 20
363.5708144478
 30
0.0
 10
297.1841057865
 20
363.8159235433
 30
0.0
 10
297.4849498954
 20
364.1160473526
 30
0.0
 10
297.7128536573
 20
364.4385529037
 30
0.0
 10
297.8750773119
 20
364.7628899315
 30
0.0
 10
297.9845599428
 20
365.0841849058
 30
0.0
 10
298.0507687196
 20
365.4046948531
 30
0.0
 10
298.0782232159
 20
365.731486213
 30
0.0
 10
298.0648311018
 20
366.0759020806
 30
0.0
 10
298.0003275758
 20
366.4517812554
 30
0.0
 10
297.8647937532
 20
366.8622493217
 30
0.0
 10
297.6369115381
 20
367.2869887173
 30
0.0
 10
297.3104191222
 20
367.6774578059
 30
0.0
 10
296.9121587297
 20
367.9804900361
 30
0.0
 10
296.492991878
 20
368.1810797461
 30
0.0
 10
296.0878695333
 20
368.2903820787
 30
0.0
 10
295.8238755393
 20
368.3140780995
 30
0.0
 10
295.6986794175
 20
368.3140797245
 30
0.0
  0
SPLINE
  5
2DC
100
AcDbEntity
  8
0
100
AcDbSpline
 62
7
  6
BYLAYER
 70
0
 71
3
 72
30
 73
26
 74
0
 42
0.0000001
 43
0.0000001
 44
0.0000000001
 40
0.0
 40
0.0
 40
0.0
 40
0.0
 40
0.0309919729
 40
0.0623428038
 40
0.0950082537
 40
0.1298967339
 40
0.1674810824
 40
0.2070986792
 40
0.247715693
 40
0.2885395055
 40
0.3294750715
 40
0.3704950788
 40
0.4114898604
 40
0.4523583206
 40
0.492953905
 40
0.5335956085
 40
0.5757689776
 40
0.6212418189
 40
0.6713320286
 40
0.7264366264
 40
0.7858845244
 40
0.8458469248
 40
0.9023735228
 40
0.9537046273
 40
1.0
 40
1.0
 40
1.0
 40
1.0
 10
219.1986794167
 20
378.4416085022
 30
0.0
 10
219.1174751962
 20
378.441608053
 30
0.0
 10
218.9539909432
 20
378.4320482816
 30
0.0
 10
218.7081337873
 20
378.3902260679
 30
0.0
 10
218.4582886484
 20
378.3195431561
 30
0.0
 10
218.2024562921
 20
378.2158331355
 30
0.0
 10
217.9442672211
 20
378.0743586919
 30
0.0
 10
217.6934325818
 20
377.8929083239
 30
0.0
 10
217.4629529129
 20
377.6735203275
 30
0.0
 10
217.2623365758
 20
377.4221891399
 30
0.0
 10
217.0946025611
 20
377.1467221905
 30
0.0
 10
216.9612314783
 20
376.852640479
 30
0.0
 10
216.8631437764
 20
376.5452179499
 30
0.0
 10
216.8010792702
 20
376.2297072964
 30
0.0
 10
216.7752264855
 20
375.9101232639
 30
0.0
 10
216.7861008656
 20
375.5862479525
 30
0.0
 10
216.8363270618
 20
375.2530918943
 30
0.0
 10
216.9343082707
 20
374.9046838366
 30
0.0
 10
217.0938313905
 20
374.5419671576
 30
0.0
 10
217.3295788529
 20
374.1781345915
 30
0.0
 10
217.6459687938
 20
373.8440528313
 30
0.0
 10
218.024321228
 20
373.5754571905
 30
0.0
 10
218.4273722103
 20
373.393203645
 30
0.0
 10
218.8211523499
 20
373.2949876255
 30
0.0
 10
219.0773776964
 20
373.2746644445
 30
0.0
 10
219.1986794175
 20
373.2746632658
 30
0.0
  0
SPLINE
  5
2DD
100
AcDbEntity
  8
0
100
AcDbSpline
 62
7
  6
BYLAYER
 70
0
 71
3
 72
26
 73
22
 74
0
 42
0.0000001
 43
0.0000001
 44
0.0000000001
 40
0.0
 40
0.0
 40
0.0
 40
0.0
 40
0.0461035325
 40
0.0961376142
 40
0.1510766529
 40
0.209278781
 40
0.2653142312
 40
0.3163233382
 40
0.363029087
 40
0.4066366952
 40
0.4486821757
 40
0.4906885008
 40
0.5345607744
 40
0.5831060858
 40
0.6393431241
 40
0.7028586337
 40
0.7704590593
 40
0.8367391674
 40
0.8969579037
 40
0.9510468249
 40
1.0
 40
1.0
 40
1.0
 40
1.0
 10
295.698679415
 20
373.2916253608
 30
0.0
 10
295.8165876704
 20
373.2916276799
 30
0.0
 10
296.0628592691
 20
373.3108171813
 30
0.0
 10
296.4399527033
 20
373.4025580866
 30
0.0
 10
296.8243685665
 20
373.5708144478
 30
0.0
 10
297.1841057865
 20
373.8159235433
 30
0.0
 10
297.4849498954
 20
374.1160473526
 30
0.0
 10
297.7128536573
 20
374.4385529037
 30
0.0
 10
297.8750773119
 20
374.7628899315
 30
0.0
 10
297.9845599428
 20
375.0841849058
 30
0.0
 10
298.0507687196
 20
375.4046948531
 30
0.0
 10
298.0782232159
 20
375.731486213
 30
0.0
 10
298.0648311018
 20
376.0759020806
 30
0.0
 10
298.0003275758
 20
376.4517812554
 30
0.0
 10
297.8647937532
 20
376.8622493217
 30
0.0
 10
297.6369115381
 20
377.2869887173
 30
0.0
 10
297.3104191222
 20
377.6774578059
 30
0.0
 10
296.9121587297
 20
377.9804900361
 30
0.0
 10
296.492991878
 20
378.1810797461
 30
0.0
 10
296.0878695333
 20
378.2903820787
 30
0.0
 10
295.8238755393
 20
378.3140780995
 30
0.0
 10
295.6986794175
 20
378.3140797245
 30
0.0
  0
SPLINE
  5
2DE
100
AcDbEntity
  8
0
100
AcDbSpline
 62
7
  6
BYLAYER
 70
0
 71
3
 72
30
 73
26
 74
0
 42
0.0000001
 43
0.0000001
 44
0.0000000001
 40
0.0
 40
0.0
 40
0.0
 40
0.0
 40
0.0309919729
 40
0.0623428038
 40
0.0950082537
 40
0.1298967339
 40
0.1674810824
 40
0.2070986792
 40
0.247715693
 40
0.2885395055
 40
0.3294750715
 40
0.3704950788
 40
0.4114898604
 40
0.4523583206
 40
0.492953905
 40
0.5335956085
 40
0.5757689776
 40
0.6212418189
 40
0.6713320286
 40
0.7264366264
 40
0.7858845244
 40
0.8458469248
 40
0.9023735228
 40
0.9537046273
 40
1.0
 40
1.0
 40
1.0
 40
1.0
 10
219.1986794167
 20
388.4416085022
 30
0.0
 10
219.1174751962
 20
388.441608053
 30
0.0
 10
218.9539909432
 20
388.4320482816
 30
0.0
 10
218.7081337873
 20
388.3902260679
 30
0.0
 10
218.4582886484
 20
388.3195431561
 30
0.0
 10
218.2024562921
 20
388.2158331355
 30
0.0
 10
217.9442672211
 20
388.0743586919
 30
0.0
 10
217.6934325818
 20
387.8929083239
 30
0.0
 10
217.4629529129
 20
387.6735203275
 30
0.0
 10
217.2623365758
 20
387.4221891399
 30
0.0
 10
217.0946025611
 20
387.1467221905
 30
0.0
 10
216.9612314783
 20
386.852640479
 30
0.0
 10
216.8631437764
 20
386.5452179499
 30
0.0
 10
216.8010792702
 20
386.2297072964
 30
0.0
 10
216.7752264855
 20
385.9101232639
 30
0.0
 10
216.7861008656
 20
385.5862479525
 30
0.0
 10
216.8363270618
 20
385.2530918943
 30
0.0
 10
216.9343082707
 20
384.9046838366
 30
0.0
 10
217.0938313905
 20
384.5419671576
 30
0.0
 10
217.3295788529
 20
384.1781345915
 30
0.0
 10
217.6459687938
 20
383.8440528313
 30
0.0
 10
218.024321228
 20
383.5754571905
 30
0.0
 10
218.4273722103
 20
383.393203645
 30
0.0
 10
218.8211523499
 20
383.2949876255
 30
0.0
 10
219.0773776964
 20
383.2746644445
 30
0.0
 10
219.1986794175
 20
383.2746632658
 30
0.0
  0
SPLINE
  5
2DF
100
AcDbEntity
  8
0
100
AcDbSpline
 62
7
  6
BYLAYER
 70
0
 71
3
 72
26
 73
22
 74
0
 42
0.0000001
 43
0.0000001
 44
0.0000000001
 40
0.0
 40
0.0
 40
0.0
 40
0.0
 40
0.0461035325
 40
0.0961376142
 40
0.1510766529
 40
0.209278781
 40
0.2653142312
 40
0.3163233382
 40
0.363029087
 40
0.4066366952
 40
0.4486821757
 40
0.4906885008
 40
0.5345607744
 40
0.5831060858
 40
0.6393431241
 40
0.7028586337
 40
0.7704590593
 40
0.8367391674
 40
0.8969579037
 40
0.9510468249
 40
1.0
 40
1.0
 40
1.0
 40
1.0
 10
295.698679415
 20
383.2916253608
 30
0.0
 10
295.8165876704
 20
383.2916276799
 30
0.0
 10
296.0628592691
 20
383.3108171813
 30
0.0
 10
296.4399527033
 20
383.4025580866
 30
0.0
 10
296.8243685665
 20
383.5708144478
 30
0.0
 10
297.1841057865
 20
383.8159235433
 30
0.0
 10
297.4849498954
 20
384.1160473526
 30
0.0
 10
297.7128536573
 20
384.4385529037
 30
0.0
 10
297.8750773119
 20
384.7628899315
 30
0.0
 10
297.9845599428
 20
385.0841849058
 30
0.0
 10
298.0507687196
 20
385.4046948531
 30
0.0
 10
298.0782232159
 20
385.731486213
 30
0.0
 10
298.0648311018
 20
386.0759020806
 30
0.0
 10
298.0003275758
 20
386.4517812554
 30
0.0
 10
297.8647937532
 20
386.8622493217
 30
0.0
 10
297.6369115381
 20
387.2869887173
 30
0.0
 10
297.3104191222
 20
387.6774578059
 30
0.0
 10
296.9121587297
 20
387.9804900361
 30
0.0
 10
296.492991878
 20
388.1810797461
 30
0.0
 10
296.0878695333
 20
388.2903820787
 30
0.0
 10
295.8238755393
 20
388.3140780995
 30
0.0
 10
295.6986794175
 20
388.3140797245
 30
0.0
  0
SPLINE
  5
2E0
100
AcDbEntity
  8
0
100
AcDbSpline
 62
7
  6
BYLAYER
 70
0
 71
3
 72
30
 73
26
 74
0
 42
0.0000001
 43
0.0000001
 44
0.0000000001
 40
0.0
 40
0.0
 40
0.0
 40
0.0
 40
0.0309919729
 40
0.0623428038
 40
0.0950082537
 40
0.1298967339
 40
0.1674810824
 40
0.2070986792
 40
0.247715693
 40
0.2885395055
 40
0.3294750715
 40
0.3704950788
 40
0.4114898604
 40
0.4523583206
 40
0.492953905
 40
0.5335956085
 40
0.5757689776
 40
0.6212418189
 40
0.6713320286
 40
0.7264366264
 40
0.7858845244
 40
0.8458469248
 40
0.9023735228
 40
0.9537046273
 40
1.0
 40
1.0
 40
1.0
 40
1.0
 10
219.1986794167
 20
398.4416085022
 30
0.0
 10
219.1174751962
 20
398.441608053
 30
0.0
 10
218.9539909432
 20
398.4320482816
 30
0.0
 10
218.7081337873
 20
398.3902260679
 30
0.0
 10
218.4582886484
 20
398.3195431561
 30
0.0
 10
218.2024562921
 20
398.2158331355
 30
0.0
 10
217.9442672211
 20
398.0743586919
 30
0.0
 10
217.6934325818
 20
397.8929083239
 30
0.0
 10
217.4629529129
 20
397.6735203275
 30
0.0
 10
217.2623365758
 20
397.4221891399
 30
0.0
 10
217.0946025611
 20
397.1467221905
 30
0.0
 10
216.9612314783
 20
396.852640479
 30
0.0
 10
216.8631437764
 20
396.5452179499
 30
0.0
 10
216.8010792702
 20
396.2297072964
 30
0.0
 10
216.7752264855
 20
395.9101232639
 30
0.0
 10
216.7861008656
 20
395.5862479525
 30
0.0
 10
216.8363270618
 20
395.2530918943
 30
0.0
 10
216.9343082707
 20
394.9046838366
 30
0.0
 10
217.0938313905
 20
394.5419671576
 30
0.0
 10
217.3295788529
 20
394.1781345915
 30
0.0
 10
217.6459687938
 20
393.8440528313
 30
0.0
 10
218.024321228
 20
393.5754571905
 30
0.0
 10
218.4273722103
 20
393.393203645
 30
0.0
 10
218.8211523499
 20
393.2949876255
 30
0.0
 10
219.0773776964
 20
393.2746644445
 30
0.0
 10
219.1986794175
 20
393.2746632658
 30
0.0
  0
SPLINE
  5
2E1
100
AcDbEntity
  8
0
100
AcDbSpline
 62
7
  6
BYLAYER
 70
0
 71
3
 72
26
 73
22
 74
0
 42
0.0000001
 43
0.0000001
 44
0.0000000001
 40
0.0
 40
0.0
 40
0.0
 40
0.0
 40
0.0461035325
 40
0.0961376142
 40
0.1510766529
 40
0.209278781
 40
0.2653142312
 40
0.3163233382
 40
0.363029087
 40
0.4066366952
 40
0.4486821757
 40
0.4906885008
 40
0.5345607744
 40
0.5831060858
 40
0.6393431241
 40
0.7028586337
 40
0.7704590593
 40
0.8367391674
 40
0.8969579037
 40
0.9510468249
 40
1.0
 40
1.0
 40
1.0
 40
1.0
 10
295.698679415
 20
393.2916253608
 30
0.0
 10
295.8165876704
 20
393.2916276799
 30
0.0
 10
296.0628592691
 20
393.3108171813
 30
0.0
 10
296.4399527033
 20
393.4025580866
 30
0.0
 10
296.8243685665
 20
393.5708144478
 30
0.0
 10
297.1841057865
 20
393.8159235433
 30
0.0
 10
297.4849498954
 20
394.1160473526
 30
0.0
 10
297.7128536573
 20
394.4385529037
 30
0.0
 10
297.8750773119
 20
394.7628899315
 30
0.0
 10
297.9845599428
 20
395.0841849058
 30
0.0
 10
298.0507687196
 20
395.4046948531
 30
0.0
 10
298.0782232159
 20
395.731486213
 30
0.0
 10
298.0648311018
 20
396.0759020806
 30
0.0
 10
298.0003275758
 20
396.4517812554
 30
0.0
 10
297.8647937532
 20
396.8622493217
 30
0.0
 10
297.6369115381
 20
397.2869887173
 30
0.0
 10
297.3104191222
 20
397.6774578059
 30
0.0
 10
296.9121587297
 20
397.9804900361
 30
0.0
 10
296.492991878
 20
398.1810797461
 30
0.0
 10
296.0878695333
 20
398.2903820787
 30
0.0
 10
295.8238755393
 20
398.3140780995
 30
0.0
 10
295.6986794175
 20
398.3140797245
 30
0.0
  0
SPLINE
  5
2E2
100
AcDbEntity
  8
0
100
AcDbSpline
 62
7
  6
BYLAYER
 70
0
 71
3
 72
30
 73
26
 74
0
 42
0.0000001
 43
0.0000001
 44
0.0000000001
 40
0.0
 40
0.0
 40
0.0
 40
0.0
 40
0.0309919729
 40
0.0623428038
 40
0.0950082537
 40
0.1298967339
 40
0.1674810824
 40
0.2070986792
 40
0.247715693
 40
0.2885395055
 40
0.3294750715
 40
0.3704950788
 40
0.4114898604
 40
0.4523583206
 40
0.492953905
 40
0.5335956085
 40
0.5757689776
 40
0.6212418189
 40
0.6713320286
 40
0.7264366264
 40
0.7858845244
 40
0.8458469248
 40
0.9023735228
 40
0.9537046273
 40
1.0
 40
1.0
 40
1.0
 40
1.0
 10
219.1986794167
 20
408.4416085022
 30
0.0
 10
219.1174751962
 20
408.441608053
 30
0.0
 10
218.9539909432
 20
408.4320482816
 30
0.0
 10
218.7081337873
 20
408.3902260679
 30
0.0
 10
218.4582886484
 20
408.3195431561
 30
0.0
 10
218.2024562921
 20
408.2158331355
 30
0.0
 10
217.9442672211
 20
408.0743586919
 30
0.0
 10
217.6934325818
 20
407.8929083239
 30
0.0
 10
217.4629529129
 20
407.6735203275
 30
0.0
 10
217.2623365758
 20
407.4221891399
 30
0.0
 10
217.0946025611
 20
407.1467221905
 30
0.0
 10
216.9612314783
 20
406.852640479
 30
0.0
 10
216.8631437764
 20
406.5452179499
 30
0.0
 10
216.8010792702
 20
406.2297072964
 30
0.0
 10
216.7752264855
 20
405.9101232639
 30
0.0
 10
216.7861008656
 20
405.5862479525
 30
0.0
 10
216.8363270618
 20
405.2530918943
 30
0.0
 10
216.9343082707
 20
404.9046838366
 30
0.0
 10
217.0938313905
 20
404.5419671576
 30
0.0
 10
217.3295788529
 20
404.1781345915
 30
0.0
 10
217.6459687938
 20
403.8440528313
 30
0.0
 10
218.024321228
 20
403.5754571905
 30
0.0
 10
218.4273722103
 20
403.393203645
 30
0.0
 10
218.8211523499
 20
403.2949876255
 30
0.0
 10
219.0773776964
 20
403.2746644445
 30
0.0
 10
219.1986794175
 20
403.2746632658
 30
0.0
  0
SPLINE
  5
2E3
100
AcDbEntity
  8
0
100
AcDbSpline
 62
7
  6
BYLAYER
 70
0
 71
3
 72
26
 73
22
 74
0
 42
0.0000001
 43
0.0000001
 44
0.0000000001
 40
0.0
 40
0.0
 40
0.0
 40
0.0
 40
0.0461035325
 40
0.0961376142
 40
0.1510766529
 40
0.209278781
 40
0.2653142312
 40
0.3163233382
 40
0.363029087
 40
0.4066366952
 40
0.4486821757
 40
0.4906885008
 40
0.5345607744
 40
0.5831060858
 40
0.6393431241
 40
0.7028586337
 40
0.7704590593
 40
0.8367391674
 40
0.8969579037
 40
0.9510468249
 40
1.0
 40
1.0
 40
1.0
 40
1.0
 10
295.698679415
 20
403.2916253608
 30
0.0
 10
295.8165876704
 20
403.2916276799
 30
0.0
 10
296.0628592691
 20
403.3108171813
 30
0.0
 10
296.4399527033
 20
403.4025580866
 30
0.0
 10
296.8243685665
 20
403.5708144478
 30
0.0
 10
297.1841057865
 20
403.8159235433
 30
0.0
 10
297.4849498954
 20
404.1160473526
 30
0.0
 10
297.7128536573
 20
404.4385529037
 30
0.0
 10
297.8750773119
 20
404.7628899315
 30
0.0
 10
297.9845599428
 20
405.0841849058
 30
0.0
 10
298.0507687196
 20
405.4046948531
 30
0.0
 10
298.0782232159
 20
405.731486213
 30
0.0
 10
298.0648311018
 20
406.0759020806
 30
0.0
 10
298.0003275758
 20
406.4517812554
 30
0.0
 10
297.8647937532
 20
406.8622493217
 30
0.0
 10
297.6369115381
 20
407.2869887173
 30
0.0
 10
297.3104191222
 20
407.6774578059
 30
0.0
 10
296.9121587297
 20
407.9804900361
 30
0.0
 10
296.492991878
 20
408.1810797461
 30
0.0
 10
296.0878695333
 20
408.2903820787
 30
0.0
 10
295.8238755393
 20
408.3140780995
 30
0.0
 10
295.6986794175
 20
408.3140797245
 30
0.0
  0
SPLINE
  5
2E4
100
AcDbEntity
  8
0
100
AcDbSpline
 62
7
  6
BYLAYER
 70
0
 71
3
 72
30
 73
26
 74
0
 42
0.0000001
 43
0.0000001
 44
0.0000000001
 40
0.0
 40
0.0
 40
0.0
 40
0.0
 40
0.0309919729
 40
0.0623428038
 40
0.0950082537
 40
0.1298967339
 40
0.1674810824
 40
0.2070986792
 40
0.247715693
 40
0.2885395055
 40
0.3294750715
 40
0.3704950788
 40
0.4114898604
 40
0.4523583206
 40
0.492953905
 40
0.5335956085
 40
0.5757689776
 40
0.6212418189
 40
0.6713320286
 40
0.7264366264
 40
0.7858845244
 40
0.8458469248
 40
0.9023735228
 40
0.9537046273
 40
1.0
 40
1.0
 40
1.0
 40
1.0
 10
219.1986794167
 20
418.4416085022
 30
0.0
 10
219.1174751962
 20
418.441608053
 30
0.0
 10
218.9539909432
 20
418.4320482816
 30
0.0
 10
218.7081337873
 20
418.3902260679
 30
0.0
 10
218.4582886484
 20
418.3195431561
 30
0.0
 10
218.2024562921
 20
418.2158331355
 30
0.0
 10
217.9442672211
 20
418.0743586919
 30
0.0
 10
217.6934325818
 20
417.8929083239
 30
0.0
 10
217.4629529129
 20
417.6735203275
 30
0.0
 10
217.2623365758
 20
417.4221891399
 30
0.0
 10
217.0946025611
 20
417.1467221905
 30
0.0
 10
216.9612314783
 20
416.852640479
 30
0.0
 10
216.8631437764
 20
416.5452179499
 30
0.0
 10
216.8010792702
 20
416.2297072964
 30
0.0
 10
216.7752264855
 20
415.9101232639
 30
0.0
 10
216.7861008656
 20
415.5862479525
 30
0.0
 10
216.8363270618
 20
415.2530918943
 30
0.0
 10
216.9343082707
 20
414.9046838366
 30
0.0
 10
217.0938313905
 20
414.5419671576
 30
0.0
 10
217.3295788529
 20
414.1781345915
 30
0.0
 10
217.6459687938
 20
413.8440528313
 30
0.0
 10
218.024321228
 20
413.5754571905
 30
0.0
 10
218.4273722103
 20
413.393203645
 30
0.0
 10
218.8211523499
 20
413.2949876255
 30
0.0
 10
219.0773776964
 20
413.2746644445
 30
0.0
 10
219.1986794175
 20
413.2746632658
 30
0.0
  0
SPLINE
  5
2E5
100
AcDbEntity
  8
0
100
AcDbSpline
 62
7
  6
BYLAYER
 70
0
 71
3
 72
26
 73
22
 74
0
 42
0.0000001
 43
0.0000001
 44
0.0000000001
 40
0.0
 40
0.0
 40
0.0
 40
0.0
 40
0.0461035325
 40
0.0961376142
 40
0.1510766529
 40
0.209278781
 40
0.2653142312
 40
0.3163233382
 40
0.363029087
 40
0.4066366952
 40
0.4486821757
 40
0.4906885008
 40
0.5345607744
 40
0.5831060858
 40
0.6393431241
 40
0.7028586337
 40
0.7704590593
 40
0.8367391674
 40
0.8969579037
 40
0.9510468249
 40
1.0
 40
1.0
 40
1.0
 40
1.0
 10
295.698679415
 20
413.2916253608
 30
0.0
 10
295.8165876704
 20
413.2916276799
 30
0.0
 10
296.0628592691
 20
413.3108171813
 30
0.0
 10
296.4399527033
 20
413.4025580866
 30
0.0
 10
296.8243685665
 20
413.5708144478
 30
0.0
 10
297.1841057865
 20
413.8159235433
 30
0.0
 10
297.4849498954
 20
414.1160473526
 30
0.0
 10
297.7128536573
 20
414.4385529037
 30
0.0
 10
297.8750773119
 20
414.7628899315
 30
0.0
 10
297.9845599428
 20
415.0841849058
 30
0.0
 10
298.0507687196
 20
415.4046948531
 30
0.0
 10
298.0782232159
 20
415.731486213
 30
0.0
 10
298.0648311018
 20
416.0759020806
 30
0.0
 10
298.0003275758
 20
416.4517812554
 30
0.0
 10
297.8647937532
 20
416.8622493217
 30
0.0
 10
297.6369115381
 20
417.2869887173
 30
0.0
 10
297.3104191222
 20
417.6774578059
 30
0.0
 10
296.9121587297
 20
417.9804900361
 30
0.0
 10
296.492991878
 20
418.1810797461
 30
0.0
 10
296.0878695333
 20
418.2903820787
 30
0.0
 10
295.8238755393
 20
418.3140780995
 30
0.0
 10
295.6986794175
 20
418.3140797245
 30
0.0
  0
SPLINE
  5
2E6
100
AcDbEntity
  8
0
100
AcDbSpline
 62
7
  6
BYLAYER
 70
0
 71
3
 72
30
 73
26
 74
0
 42
0.0000001
 43
0.0000001
 44
0.0000000001
 40
0.0
 40
0.0
 40
0.0
 40
0.0
 40
0.0309919729
 40
0.0623428038
 40
0.0950082537
 40
0.1298967339
 40
0.1674810824
 40
0.2070986792
 40
0.247715693
 40
0.2885395055
 40
0.3294750715
 40
0.3704950788
 40
0.4114898604
 40
0.4523583206
 40
0.492953905
 40
0.5335956085
 40
0.5757689776
 40
0.6212418189
 40
0.6713320286
 40
0.7264366264
 40
0.7858845244
 40
0.8458469248
 40
0.9023735228
 40
0.9537046273
 40
1.0
 40
1.0
 40
1.0
 40
1.0
 10
219.1986794167
 20
428.4416085022
 30
0.0
 10
219.1174751962
 20
428.441608053
 30
0.0
 10
218.9539909432
 20
428.4320482816
 30
0.0
 10
218.7081337873
 20
428.3902260679
 30
0.0
 10
218.4582886484
 20
428.3195431561
 30
0.0
 10
218.2024562921
 20
428.2158331355
 30
0.0
 10
217.9442672211
 20
428.0743586919
 30
0.0
 10
217.6934325818
 20
427.8929083239
 30
0.0
 10
217.4629529129
 20
427.6735203275
 30
0.0
 10
217.2623365758
 20
427.4221891399
 30
0.0
 10
217.0946025611
 20
427.1467221905
 30
0.0
 10
216.9612314783
 20
426.852640479
 30
0.0
 10
216.8631437764
 20
426.5452179499
 30
0.0
 10
216.8010792702
 20
426.2297072964
 30
0.0
 10
216.7752264855
 20
425.9101232639
 30
0.0
 10
216.7861008656
 20
425.5862479525
 30
0.0
 10
216.8363270618
 20
425.2530918943
 30
0.0
 10
216.9343082707
 20
424.9046838366
 30
0.0
 10
217.0938313905
 20
424.5419671576
 30
0.0
 10
217.3295788529
 20
424.1781345915
 30
0.0
 10
217.6459687938
 20
423.8440528313
 30
0.0
 10
218.024321228
 20
423.5754571905
 30
0.0
 10
218.4273722103
 20
423.393203645
 30
0.0
 10
218.8211523499
 20
423.2949876255
 30
0.0
 10
219.0773776964
 20
423.2746644445
 30
0.0
 10
219.1986794175
 20
423.2746632658
 30
0.0
  0
SPLINE
  5
2E7
100
AcDbEntity
  8
0
100
AcDbSpline
 62
7
  6
BYLAYER
 70
0
 71
3
 72
26
 73
22
 74
0
 42
0.0000001
 43
0.0000001
 44
0.0000000001
 40
0.0
 40
0.0
 40
0.0
 40
0.0
 40
0.0461035325
 40
0.0961376142
 40
0.1510766529
 40
0.209278781
 40
0.2653142312
 40
0.3163233382
 40
0.363029087
 40
0.4066366952
 40
0.4486821757
 40
0.4906885008
 40
0.5345607744
 40
0.5831060858
 40
0.6393431241
 40
0.7028586337
 40
0.7704590593
 40
0.8367391674
 40
0.8969579037
 40
0.9510468249
 40
1.0
 40
1.0
 40
1.0
 40
1.0
 10
295.698679415
 20
423.2916253608
 30
0.0
 10
295.8165876704
 20
423.2916276799
 30
0.0
 10
296.0628592691
 20
423.3108171813
 30
0.0
 10
296.4399527033
 20
423.4025580866
 30
0.0
 10
296.8243685665
 20
423.5708144478
 30
0.0
 10
297.1841057865
 20
423.8159235433
 30
0.0
 10
297.4849498954
 20
424.1160473526
 30
0.0
 10
297.7128536573
 20
424.4385529037
 30
0.0
 10
297.8750773119
 20
424.7628899315
 30
0.0
 10
297.9845599428
 20
425.0841849058
 30
0.0
 10
298.0507687196
 20
425.4046948531
 30
0.0
 10
298.0782232159
 20
425.731486213
 30
0.0
 10
298.0648311018
 20
426.0759020806
 30
0.0
 10
298.0003275758
 20
426.4517812554
 30
0.0
 10
297.8647937532
 20
426.8622493217
 30
0.0
 10
297.6369115381
 20
427.2869887173
 30
0.0
 10
297.3104191222
 20
427.6774578059
 30
0.0
 10
296.9121587297
 20
427.9804900361
 30
0.0
 10
296.492991878
 20
428.1810797461
 30
0.0
 10
296.0878695333
 20
428.2903820787
 30
0.0
 10
295.8238755393
 20
428.3140780995
 30
0.0
 10
295.6986794175
 20
428.3140797245
 30
0.0
  0
SPLINE
  5
2E8
100
AcDbEntity
  8
0
100
AcDbSpline
 62
7
  6
BYLAYER
 70
0
 71
3
 72
30
 73
26
 74
0
 42
0.0000001
 43
0.0000001
 44
0.0000000001
 40
0.0
 40
0.0
 40
0.0
 40
0.0
 40
0.0309919729
 40
0.0623428038
 40
0.0950082537
 40
0.1298967339
 40
0.1674810824
 40
0.2070986792
 40
0.247715693
 40
0.2885395055
 40
0.3294750715
 40
0.3704950788
 40
0.4114898604
 40
0.4523583206
 40
0.492953905
 40
0.5335956085
 40
0.5757689776
 40
0.6212418189
 40
0.6713320286
 40
0.7264366264
 40
0.7858845244
 40
0.8458469248
 40
0.9023735228
 40
0.9537046273
 40
1.0
 40
1.0
 40
1.0
 40
1.0
 10
219.1986794167
 20
438.4416085022
 30
0.0
 10
219.1174751962
 20
438.441608053
 30
0.0
 10
218.9539909432
 20
438.4320482816
 30
0.0
 10
218.7081337873
 20
438.3902260679
 30
0.0
 10
218.4582886484
 20
438.3195431561
 30
0.0
 10
218.2024562921
 20
438.2158331355
 30
0.0
 10
217.9442672211
 20
438.0743586919
 30
0.0
 10
217.6934325818
 20
437.8929083239
 30
0.0
 10
217.4629529129
 20
437.6735203275
 30
0.0
 10
217.2623365758
 20
437.4221891399
 30
0.0
 10
217.0946025611
 20
437.1467221905
 30
0.0
 10
216.9612314783
 20
436.852640479
 30
0.0
 10
216.8631437764
 20
436.5452179499
 30
0.0
 10
216.8010792702
 20
436.2297072964
 30
0.0
 10
216.7752264855
 20
435.9101232639
 30
0.0
 10
216.7861008656
 20
435.5862479525
 30
0.0
 10
216.8363270618
 20
435.2530918943
 30
0.0
 10
216.9343082707
 20
434.9046838366
 30
0.0
 10
217.0938313905
 20
434.5419671576
 30
0.0
 10
217.3295788529
 20
434.1781345915
 30
0.0
 10
217.6459687938
 20
433.8440528313
 30
0.0
 10
218.024321228
 20
433.5754571905
 30
0.0
 10
218.4273722103
 20
433.393203645
 30
0.0
 10
218.8211523499
 20
433.2949876255
 30
0.0
 10
219.0773776964
 20
433.2746644445
 30
0.0
 10
219.1986794175
 20
433.2746632658
 30
0.0
  0
SPLINE
  5
2E9
100
AcDbEntity
  8
0
100
AcDbSpline
 62
7
  6
BYLAYER
 70
0
 71
3
 72
26
 73
22
 74
0
 42
0.0000001
 43
0.0000001
 44
0.0000000001
 40
0.0
 40
0.0
 40
0.0
 40
0.0
 40
0.0461035325
 40
0.0961376142
 40
0.1510766529
 40
0.209278781
 40
0.2653142312
 40
0.3163233382
 40
0.363029087
 40
0.4066366952
 40
0.4486821757
 40
0.4906885008
 40
0.5345607744
 40
0.5831060858
 40
0.6393431241
 40
0.7028586337
 40
0.7704590593
 40
0.8367391674
 40
0.8969579037
 40
0.9510468249
 40
1.0
 40
1.0
 40
1.0
 40
1.0
 10
295.698679415
 20
433.2916253608
 30
0.0
 10
295.8165876704
 20
433.2916276799
 30
0.0
 10
296.0628592691
 20
433.3108171813
 30
0.0
 10
296.4399527033
 20
433.4025580866
 30
0.0
 10
296.8243685665
 20
433.5708144478
 30
0.0
 10
297.1841057865
 20
433.8159235433
 30
0.0
 10
297.4849498954
 20
434.1160473526
 30
0.0
 10
297.7128536573
 20
434.4385529037
 30
0.0
 10
297.8750773119
 20
434.7628899315
 30
0.0
 10
297.9845599428
 20
435.0841849058
 30
0.0
 10
298.0507687196
 20
435.4046948531
 30
0.0
 10
298.0782232159
 20
435.731486213
 30
0.0
 10
298.0648311018
 20
436.0759020806
 30
0.0
 10
298.0003275758
 20
436.4517812554
 30
0.0
 10
297.8647937532
 20
436.8622493217
 30
0.0
 10
297.6369115381
 20
437.2869887173
 30
0.0
 10
297.3104191222
 20
437.6774578059
 30
0.0
 10
296.9121587297
 20
437.9804900361
 30
0.0
 10
296.492991878
 20
438.1810797461
 30
0.0
 10
296.0878695333
 20
438.2903820787
 30
0.0
 10
295.8238755393
 20
438.3140780995
 30
0.0
 10
295.6986794175
 20
438.3140797245
 30
0.0
  0
SPLINE
  5
2EA
100
AcDbEntity
  8
0
100
AcDbSpline
 62
7
  6
BYLAYER
 70
0
 71
3
 72
30
 73
26
 74
0
 42
0.0000001
 43
0.0000001
 44
0.0000000001
 40
0.0
 40
0.0
 40
0.0
 40
0.0
 40
0.0309919729
 40
0.0623428038
 40
0.0950082537
 40
0.1298967339
 40
0.1674810824
 40
0.2070986792
 40
0.247715693
 40
0.2885395055
 40
0.3294750715
 40
0.3704950788
 40
0.4114898604
 40
0.4523583206
 40
0.492953905
 40
0.5335956085
 40
0.5757689776
 40
0.6212418189
 40
0.6713320286
 40
0.7264366264
 40
0.7858845244
 40
0.8458469248
 40
0.9023735228
 40
0.9537046273
 40
1.0
 40
1.0
 40
1.0
 40
1.0
 10
219.1986794167
 20
448.4416085022
 30
0.0
 10
219.1174751962
 20
448.441608053
 30
0.0
 10
218.9539909432
 20
448.4320482816
 30
0.0
 10
218.7081337873
 20
448.3902260679
 30
0.0
 10
218.4582886484
 20
448.3195431561
 30
0.0
 10
218.2024562921
 20
448.2158331355
 30
0.0
 10
217.9442672211
 20
448.0743586919
 30
0.0
 10
217.6934325818
 20
447.8929083239
 30
0.0
 10
217.4629529129
 20
447.6735203275
 30
0.0
 10
217.2623365758
 20
447.4221891399
 30
0.0
 10
217.0946025611
 20
447.1467221905
 30
0.0
 10
216.9612314783
 20
446.852640479
 30
0.0
 10
216.8631437764
 20
446.5452179499
 30
0.0
 10
216.8010792702
 20
446.2297072964
 30
0.0
 10
216.7752264855
 20
445.9101232639
 30
0.0
 10
216.7861008656
 20
445.5862479525
 30
0.0
 10
216.8363270618
 20
445.2530918943
 30
0.0
 10
216.9343082707
 20
444.9046838366
 30
0.0
 10
217.0938313905
 20
444.5419671576
 30
0.0
 10
217.3295788529
 20
444.1781345915
 30
0.0
 10
217.6459687938
 20
443.8440528313
 30
0.0
 10
218.024321228
 20
443.5754571905
 30
0.0
 10
218.4273722103
 20
443.393203645
 30
0.0
 10
218.8211523499
 20
443.2949876255
 30
0.0
 10
219.0773776964
 20
443.2746644445
 30
0.0
 10
219.1986794175
 20
443.2746632658
 30
0.0
  0
SPLINE
  5
2EB
100
AcDbEntity
  8
0
100
AcDbSpline
 62
7
  6
BYLAYER
 70
0
 71
3
 72
26
 73
22
 74
0
 42
0.0000001
 43
0.0000001
 44
0.0000000001
 40
0.0
 40
0.0
 40
0.0
 40
0.0
 40
0.0461035325
 40
0.0961376142
 40
0.1510766529
 40
0.209278781
 40
0.2653142312
 40
0.3163233382
 40
0.363029087
 40
0.4066366952
 40
0.4486821757
 40
0.4906885008
 40
0.5345607744
 40
0.5831060858
 40
0.6393431241
 40
0.7028586337
 40
0.7704590593
 40
0.8367391674
 40
0.8969579037
 40
0.9510468249
 40
1.0
 40
1.0
 40
1.0
 40
1.0
 10
295.698679415
 20
443.2916253608
 30
0.0
 10
295.8165876704
 20
443.2916276799
 30
0.0
 10
296.0628592691
 20
443.3108171813
 30
0.0
 10
296.4399527033
 20
443.4025580866
 30
0.0
 10
296.8243685665
 20
443.5708144478
 30
0.0
 10
297.1841057865
 20
443.8159235433
 30
0.0
 10
297.4849498954
 20
444.1160473526
 30
0.0
 10
297.7128536573
 20
444.4385529037
 30
0.0
 10
297.8750773119
 20
444.7628899315
 30
0.0
 10
297.9845599428
 20
445.0841849058
 30
0.0
 10
298.0507687196
 20
445.4046948531
 30
0.0
 10
298.0782232159
 20
445.731486213
 30
0.0
 10
298.0648311018
 20
446.0759020806
 30
0.0
 10
298.0003275758
 20
446.4517812554
 30
0.0
 10
297.8647937532
 20
446.8622493217
 30
0.0
 10
297.6369115381
 20
447.2869887173
 30
0.0
 10
297.3104191222
 20
447.6774578059
 30
0.0
 10
296.9121587297
 20
447.9804900361
 30
0.0
 10
296.492991878
 20
448.1810797461
 30
0.0
 10
296.0878695333
 20
448.2903820787
 30
0.0
 10
295.8238755393
 20
448.3140780995
 30
0.0
 10
295.6986794175
 20
448.3140797245
 30
0.0
  0
SPLINE
  5
2EC
100
AcDbEntity
  8
0
100
AcDbSpline
 62
7
  6
BYLAYER
 70
0
 71
3
 72
30
 73
26
 74
0
 42
0.0000001
 43
0.0000001
 44
0.0000000001
 40
0.0
 40
0.0
 40
0.0
 40
0.0
 40
0.0309919729
 40
0.0623428038
 40
0.0950082537
 40
0.1298967339
 40
0.1674810824
 40
0.2070986792
 40
0.247715693
 40
0.2885395055
 40
0.3294750715
 40
0.3704950788
 40
0.4114898604
 40
0.4523583206
 40
0.492953905
 40
0.5335956085
 40
0.5757689776
 40
0.6212418189
 40
0.6713320286
 40
0.7264366264
 40
0.7858845244
 40
0.8458469248
 40
0.9023735228
 40
0.9537046273
 40
1.0
 40
1.0
 40
1.0
 40
1.0
 10
219.1986794167
 20
458.4416085022
 30
0.0
 10
219.1174751962
 20
458.441608053
 30
0.0
 10
218.9539909432
 20
458.4320482816
 30
0.0
 10
218.7081337873
 20
458.3902260679
 30
0.0
 10
218.4582886484
 20
458.3195431561
 30
0.0
 10
218.2024562921
 20
458.2158331355
 30
0.0
 10
217.9442672211
 20
458.0743586919
 30
0.0
 10
217.6934325818
 20
457.8929083239
 30
0.0
 10
217.4629529129
 20
457.6735203275
 30
0.0
 10
217.2623365758
 20
457.4221891399
 30
0.0
 10
217.0946025611
 20
457.1467221905
 30
0.0
 10
216.9612314783
 20
456.852640479
 30
0.0
 10
216.8631437764
 20
456.5452179499
 30
0.0
 10
216.8010792702
 20
456.2297072964
 30
0.0
 10
216.7752264855
 20
455.9101232639
 30
0.0
 10
216.7861008656
 20
455.5862479525
 30
0.0
 10
216.8363270618
 20
455.2530918943
 30
0.0
 10
216.9343082707
 20
454.9046838366
 30
0.0
 10
217.0938313905
 20
454.5419671576
 30
0.0
 10
217.3295788529
 20
454.1781345915
 30
0.0
 10
217.6459687938
 20
453.8440528313
 30
0.0
 10
218.024321228
 20
453.5754571905
 30
0.0
 10
218.4273722103
 20
453.393203645
 30
0.0
 10
218.8211523499
 20
453.2949876255
 30
0.0
 10
219.0773776964
 20
453.2746644445
 30
0.0
 10
219.1986794175
 20
453.2746632658
 30
0.0
  0
SPLINE
  5
2ED
100
AcDbEntity
  8
0
100
AcDbSpline
 62
7
  6
BYLAYER
 70
0
 71
3
 72
26
 73
22
 74
0
 42
0.0000001
 43
0.0000001
 44
0.0000000001
 40
0.0
 40
0.0
 40
0.0
 40
0.0
 40
0.0461035325
 40
0.0961376142
 40
0.1510766529
 40
0.209278781
 40
0.2653142312
 40
0.3163233382
 40
0.363029087
 40
0.4066366952
 40
0.4486821757
 40
0.4906885008
 40
0.5345607744
 40
0.5831060858
 40
0.6393431241
 40
0.7028586337
 40
0.7704590593
 40
0.8367391674
 40
0.8969579037
 40
0.9510468249
 40
1.0
 40
1.0
 40
1.0
 40
1.0
 10
295.698679415
 20
453.2916253608
 30
0.0
 10
295.8165876704
 20
453.2916276799
 30
0.0
 10
296.0628592691
 20
453.3108171813
 30
0.0
 10
296.4399527033
 20
453.4025580866
 30
0.0
 10
296.8243685665
 20
453.5708144478
 30
0.0
 10
297.1841057865
 20
453.8159235433
 30
0.0
 10
297.4849498954
 20
454.1160473526
 30
0.0
 10
297.7128536573
 20
454.4385529037
 30
0.0
 10
297.8750773119
 20
454.7628899315
 30
0.0
 10
297.9845599428
 20
455.0841849058
 30
0.0
 10
298.0507687196
 20
455.4046948531
 30
0.0
 10
298.0782232159
 20
455.731486213
 30
0.0
 10
298.0648311018
 20
456.0759020806
 30
0.0
 10
298.0003275758
 20
456.4517812554
 30
0.0
 10
297.8647937532
 20
456.8622493217
 30
0.0
 10
297.6369115381
 20
457.2869887173
 30
0.0
 10
297.3104191222
 20
457.6774578059
 30
0.0
 10
296.9121587297
 20
457.9804900361
 30
0.0
 10
296.492991878
 20
458.1810797461
 30
0.0
 10
296.0878695333
 20
458.2903820787
 30
0.0
 10
295.8238755393
 20
458.3140780995
 30
0.0
 10
295.6986794175
 20
458.3140797245
 30
0.0
  0
SPLINE
  5
2EE
100
AcDbEntity
  8
0
100
AcDbSpline
 62
7
  6
BYLAYER
 70
0
 71
3
 72
30
 73
26
 74
0
 42
0.0000001
 43
0.0000001
 44
0.0000000001
 40
0.0
 40
0.0
 40
0.0
 40
0.0
 40
0.0309919729
 40
0.0623428038
 40
0.0950082537
 40
0.1298967339
 40
0.1674810824
 40
0.2070986792
 40
0.247715693
 40
0.2885395055
 40
0.3294750715
 40
0.3704950788
 40
0.4114898604
 40
0.4523583206
 40
0.492953905
 40
0.5335956085
 40
0.5757689776
 40
0.6212418189
 40
0.6713320286
 40
0.7264366264
 40
0.7858845244
 40
0.8458469248
 40
0.9023735228
 40
0.9537046273
 40
1.0
 40
1.0
 40
1.0
 40
1.0
 10
219.1986794167
 20
468.4416085022
 30
0.0
 10
219.1174751962
 20
468.441608053
 30
0.0
 10
218.9539909432
 20
468.4320482816
 30
0.0
 10
218.7081337873
 20
468.3902260679
 30
0.0
 10
218.4582886484
 20
468.3195431561
 30
0.0
 10
218.2024562921
 20
468.2158331355
 30
0.0
 10
217.9442672211
 20
468.0743586919
 30
0.0
 10
217.6934325818
 20
467.8929083239
 30
0.0
 10
217.4629529129
 20
467.6735203275
 30
0.0
 10
217.2623365758
 20
467.4221891399
 30
0.0
 10
217.0946025611
 20
467.1467221905
 30
0.0
 10
216.9612314783
 20
466.852640479
 30
0.0
 10
216.8631437764
 20
466.5452179499
 30
0.0
 10
216.8010792702
 20
466.2297072964
 30
0.0
 10
216.7752264855
 20
465.9101232639
 30
0.0
 10
216.7861008656
 20
465.5862479525
 30
0.0
 10
216.8363270618
 20
465.2530918943
 30
0.0
 10
216.9343082707
 20
464.9046838366
 30
0.0
 10
217.0938313905
 20
464.5419671576
 30
0.0
 10
217.3295788529
 20
464.1781345915
 30
0.0
 10
217.6459687938
 20
463.8440528313
 30
0.0
 10
218.024321228
 20
463.5754571905
 30
0.0
 10
218.4273722103
 20
463.393203645
 30
0.0
 10
218.8211523499
 20
463.2949876255
 30
0.0
 10
219.0773776964
 20
463.2746644445
 30
0.0
 10
219.1986794175
 20
463.2746632658
 30
0.0
  0
SPLINE
  5
2EF
100
AcDbEntity
  8
0
100
AcDbSpline
 62
7
  6
BYLAYER
 70
0
 71
3
 72
26
 73
22
 74
0
 42
0.0000001
 43
0.0000001
 44
0.0000000001
 40
0.0
 40
0.0
 40
0.0
 40
0.0
 40
0.0461035325
 40
0.0961376142
 40
0.1510766529
 40
0.209278781
 40
0.2653142312
 40
0.3163233382
 40
0.363029087
 40
0.4066366952
 40
0.4486821757
 40
0.4906885008
 40
0.5345607744
 40
0.5831060858
 40
0.6393431241
 40
0.7028586337
 40
0.7704590593
 40
0.8367391674
 40
0.8969579037
 40
0.9510468249
 40
1.0
 40
1.0
 40
1.0
 40
1.0
 10
295.698679415
 20
463.2916253608
 30
0.0
 10
295.8165876704
 20
463.2916276799
 30
0.0
 10
296.0628592691
 20
463.3108171813
 30
0.0
 10
296.4399527033
 20
463.4025580866
 30
0.0
 10
296.8243685665
 20
463.5708144478
 30
0.0
 10
297.1841057865
 20
463.8159235433
 30
0.0
 10
297.4849498954
 20
464.1160473526
 30
0.0
 10
297.7128536573
 20
464.4385529037
 30
0.0
 10
297.8750773119
 20
464.7628899315
 30
0.0
 10
297.9845599428
 20
465.0841849058
 30
0.0
 10
298.0507687196
 20
465.4046948531
 30
0.0
 10
298.0782232159
 20
465.731486213
 30
0.0
 10
298.0648311018
 20
466.0759020806
 30
0.0
 10
298.0003275758
 20
466.4517812554
 30
0.0
 10
297.8647937532
 20
466.8622493217
 30
0.0
 10
297.6369115381
 20
467.2869887173
 30
0.0
 10
297.3104191222
 20
467.6774578059
 30
0.0
 10
296.9121587297
 20
467.9804900361
 30
0.0
 10
296.492991878
 20
468.1810797461
 30
0.0
 10
296.0878695333
 20
468.2903820787
 30
0.0
 10
295.8238755393
 20
468.3140780995
 30
0.0
 10
295.6986794175
 20
468.3140797245
 30
0.0
  0
SPLINE
  5
2F0
100
AcDbEntity
  8
0
100
AcDbSpline
 62
7
  6
BYLAYER
 70
0
 71
3
 72
30
 73
26
 74
0
 42
0.0000001
 43
0.0000001
 44
0.0000000001
 40
0.0
 40
0.0
 40
0.0
 40
0.0
 40
0.0309919729
 40
0.0623428038
 40
0.0950082537
 40
0.1298967339
 40
0.1674810824
 40
0.2070986792
 40
0.247715693
 40
0.2885395055
 40
0.3294750715
 40
0.3704950788
 40
0.4114898604
 40
0.4523583206
 40
0.492953905
 40
0.5335956085
 40
0.5757689776
 40
0.6212418189
 40
0.6713320286
 40
0.7264366264
 40
0.7858845244
 40
0.8458469248
 40
0.9023735228
 40
0.9537046273
 40
1.0
 40
1.0
 40
1.0
 40
1.0
 10
219.1986794167
 20
478.4416085022
 30
0.0
 10
219.1174751962
 20
478.441608053
 30
0.0
 10
218.9539909432
 20
478.4320482816
 30
0.0
 10
218.7081337873
 20
478.3902260679
 30
0.0
 10
218.4582886484
 20
478.3195431561
 30
0.0
 10
218.2024562921
 20
478.2158331355
 30
0.0
 10
217.9442672211
 20
478.0743586919
 30
0.0
 10
217.6934325818
 20
477.8929083239
 30
0.0
 10
217.4629529129
 20
477.6735203275
 30
0.0
 10
217.2623365758
 20
477.4221891399
 30
0.0
 10
217.0946025611
 20
477.1467221904
 30
0.0
 10
216.9612314783
 20
476.852640479
 30
0.0
 10
216.8631437764
 20
476.5452179499
 30
0.0
 10
216.8010792702
 20
476.2297072964
 30
0.0
 10
216.7752264855
 20
475.9101232639
 30
0.0
 10
216.7861008656
 20
475.5862479525
 30
0.0
 10
216.8363270618
 20
475.2530918943
 30
0.0
 10
216.9343082707
 20
474.9046838366
 30
0.0
 10
217.0938313905
 20
474.5419671576
 30
0.0
 10
217.3295788529
 20
474.1781345915
 30
0.0
 10
217.6459687938
 20
473.8440528312
 30
0.0
 10
218.024321228
 20
473.5754571905
 30
0.0
 10
218.4273722103
 20
473.393203645
 30
0.0
 10
218.8211523499
 20
473.2949876255
 30
0.0
 10
219.0773776964
 20
473.2746644445
 30
0.0
 10
219.1986794175
 20
473.2746632658
 30
0.0
  0
SPLINE
  5
2F1
100
AcDbEntity
  8
0
100
AcDbSpline
 62
7
  6
BYLAYER
 70
0
 71
3
 72
26
 73
22
 74
0
 42
0.0000001
 43
0.0000001
 44
0.0000000001
 40
0.0
 40
0.0
 40
0.0
 40
0.0
 40
0.0461035325
 40
0.0961376142
 40
0.1510766529
 40
0.209278781
 40
0.2653142312
 40
0.3163233382
 40
0.363029087
 40
0.4066366952
 40
0.4486821757
 40
0.4906885008
 40
0.5345607744
 40
0.5831060858
 40
0.6393431241
 40
0.7028586337
 40
0.7704590593
 40
0.8367391674
 40
0.8969579037
 40
0.9510468249
 40
1.0
 40
1.0
 40
1.0
 40
1.0
 10
295.698679415
 20
473.2916253608
 30
0.0
 10
295.8165876704
 20
473.2916276799
 30
0.0
 10
296.0628592691
 20
473.3108171813
 30
0.0
 10
296.4399527033
 20
473.4025580866
 30
0.0
 10
296.8243685665
 20
473.5708144478
 30
0.0
 10
297.1841057865
 20
473.8159235433
 30
0.0
 10
297.4849498954
 20
474.1160473526
 30
0.0
 10
297.7128536573
 20
474.4385529037
 30
0.0
 10
297.8750773119
 20
474.7628899315
 30
0.0
 10
297.9845599428
 20
475.0841849058
 30
0.0
 10
298.0507687196
 20
475.4046948531
 30
0.0
 10
298.0782232159
 20
475.731486213
 30
0.0
 10
298.0648311018
 20
476.0759020806
 30
0.0
 10
298.0003275758
 20
476.4517812554
 30
0.0
 10
297.8647937532
 20
476.8622493217
 30
0.0
 10
297.6369115381
 20
477.2869887173
 30
0.0
 10
297.3104191222
 20
477.6774578059
 30
0.0
 10
296.9121587297
 20
477.9804900361
 30
0.0
 10
296.492991878
 20
478.1810797461
 30
0.0
 10
296.0878695333
 20
478.2903820787
 30
0.0
 10
295.8238755393
 20
478.3140780995
 30
0.0
 10
295.6986794175
 20
478.3140797245
 30
0.0
  0
SPLINE
  5
2F2
100
AcDbEntity
  8
0
100
AcDbSpline
 62
7
  6
BYLAYER
 70
0
 71
3
 72
30
 73
26
 74
0
 42
0.0000001
 43
0.0000001
 44
0.0000000001
 40
0.0
 40
0.0
 40
0.0
 40
0.0
 40
0.0309919729
 40
0.0623428038
 40
0.0950082537
 40
0.1298967339
 40
0.1674810824
 40
0.2070986792
 40
0.247715693
 40
0.2885395055
 40
0.3294750715
 40
0.3704950788
 40
0.4114898604
 40
0.4523583206
 40
0.492953905
 40
0.5335956085
 40
0.5757689776
 40
0.6212418189
 40
0.6713320286
 40
0.7264366264
 40
0.7858845244
 40
0.8458469248
 40
0.9023735228
 40
0.9537046273
 40
1.0
 40
1.0
 40
1.0
 40
1.0
 10
219.1986794167
 20
488.4416085022
 30
0.0
 10
219.1174751962
 20
488.441608053
 30
0.0
 10
218.9539909432
 20
488.4320482816
 30
0.0
 10
218.7081337873
 20
488.3902260679
 30
0.0
 10
218.4582886484
 20
488.3195431561
 30
0.0
 10
218.2024562921
 20
488.2158331355
 30
0.0
 10
217.9442672211
 20
488.0743586919
 30
0.0
 10
217.6934325818
 20
487.8929083239
 30
0.0
 10
217.4629529129
 20
487.6735203275
 30
0.0
 10
217.2623365758
 20
487.4221891399
 30
0.0
 10
217.0946025611
 20
487.1467221905
 30
0.0
 10
216.9612314783
 20
486.852640479
 30
0.0
 10
216.8631437764
 20
486.5452179499
 30
0.0
 10
216.8010792702
 20
486.2297072964
 30
0.0
 10
216.7752264855
 20
485.9101232639
 30
0.0
 10
216.7861008656
 20
485.5862479525
 30
0.0
 10
216.8363270618
 20
485.2530918943
 30
0.0
 10
216.9343082707
 20
484.9046838366
 30
0.0
 10
217.0938313905
 20
484.5419671576
 30
0.0
 10
217.3295788529
 20
484.1781345915
 30
0.0
 10
217.6459687938
 20
483.8440528313
 30
0.0
 10
218.024321228
 20
483.5754571905
 30
0.0
 10
218.4273722103
 20
483.393203645
 30
0.0
 10
218.8211523499
 20
483.2949876255
 30
0.0
 10
219.0773776964
 20
483.2746644445
 30
0.0
 10
219.1986794175
 20
483.2746632658
 30
0.0
  0
SPLINE
  5
2F3
100
AcDbEntity
  8
0
100
AcDbSpline
 62
7
  6
BYLAYER
 70
0
 71
3
 72
26
 73
22
 74
0
 42
0.0000001
 43
0.0000001
 44
0.0000000001
 40
0.0
 40
0.0
 40
0.0
 40
0.0
 40
0.0461035325
 40
0.0961376142
 40
0.1510766529
 40
0.209278781
 40
0.2653142312
 40
0.3163233382
 40
0.363029087
 40
0.4066366952
 40
0.4486821757
 40
0.4906885008
 40
0.5345607744
 40
0.5831060858
 40
0.6393431241
 40
0.7028586337
 40
0.7704590593
 40
0.8367391674
 40
0.8969579037
 40
0.9510468249
 40
1.0
 40
1.0
 40
1.0
 40
1.0
 10
295.698679415
 20
483.2916253608
 30
0.0
 10
295.8165876704
 20
483.2916276799
 30
0.0
 10
296.0628592691
 20
483.3108171813
 30
0.0
 10
296.4399527033
 20
483.4025580866
 30
0.0
 10
296.8243685665
 20
483.5708144478
 30
0.0
 10
297.1841057865
 20
483.8159235433
 30
0.0
 10
297.4849498954
 20
484.1160473526
 30
0.0
 10
297.7128536573
 20
484.4385529037
 30
0.0
 10
297.8750773119
 20
484.7628899315
 30
0.0
 10
297.9845599428
 20
485.0841849058
 30
0.0
 10
298.0507687196
 20
485.4046948531
 30
0.0
 10
298.0782232159
 20
485.731486213
 30
0.0
 10
298.0648311018
 20
486.0759020806
 30
0.0
 10
298.0003275758
 20
486.4517812554
 30
0.0
 10
297.8647937532
 20
486.8622493217
 30
0.0
 10
297.6369115381
 20
487.2869887173
 30
0.0
 10
297.3104191222
 20
487.6774578059
 30
0.0
 10
296.9121587297
 20
487.9804900361
 30
0.0
 10
296.492991878
 20
488.1810797461
 30
0.0
 10
296.0878695333
 20
488.2903820787
 30
0.0
 10
295.8238755393
 20
488.3140780995
 30
0.0
 10
295.6986794175
 20
488.3140797245
 30
0.0
  0
SPLINE
  5
2F4
100
AcDbEntity
  8
0
100
AcDbSpline
 62
7
  6
BYLAYER
 70
0
 71
3
 72
30
 73
26
 74
0
 42
0.0000001
 43
0.0000001
 44
0.0000000001
 40
0.0
 40
0.0
 40
0.0
 40
0.0
 40
0.0309919729
 40
0.0623428038
 40
0.0950082537
 40
0.1298967339
 40
0.1674810824
 40
0.2070986792
 40
0.247715693
 40
0.2885395055
 40
0.3294750715
 40
0.3704950788
 40
0.4114898604
 40
0.4523583206
 40
0.492953905
 40
0.5335956085
 40
0.5757689776
 40
0.6212418189
 40
0.6713320286
 40
0.7264366264
 40
0.7858845244
 40
0.8458469248
 40
0.9023735228
 40
0.9537046273
 40
1.0
 40
1.0
 40
1.0
 40
1.0
 10
219.1986794167
 20
498.4416085022
 30
0.0
 10
219.1174751962
 20
498.441608053
 30
0.0
 10
218.9539909432
 20
498.4320482816
 30
0.0
 10
218.7081337873
 20
498.3902260679
 30
0.0
 10
218.4582886484
 20
498.3195431561
 30
0.0
 10
218.2024562921
 20
498.2158331355
 30
0.0
 10
217.9442672211
 20
498.0743586919
 30
0.0
 10
217.6934325818
 20
497.8929083239
 30
0.0
 10
217.4629529129
 20
497.6735203275
 30
0.0
 10
217.2623365758
 20
497.4221891399
 30
0.0
 10
217.0946025611
 20
497.1467221905
 30
0.0
 10
216.9612314783
 20
496.852640479
 30
0.0
 10
216.8631437764
 20
496.5452179499
 30
0.0
 10
216.8010792702
 20
496.2297072964
 30
0.0
 10
216.7752264855
 20
495.9101232639
 30
0.0
 10
216.7861008656
 20
495.5862479525
 30
0.0
 10
216.8363270618
 20
495.2530918943
 30
0.0
 10
216.9343082707
 20
494.9046838366
 30
0.0
 10
217.0938313905
 20
494.5419671576
 30
0.0
 10
217.3295788529
 20
494.1781345915
 30
0.0
 10
217.6459687938
 20
493.8440528313
 30
0.0
 10
218.024321228
 20
493.5754571905
 30
0.0
 10
218.4273722103
 20
493.393203645
 30
0.0
 10
218.8211523499
 20
493.2949876255
 30
0.0
 10
219.0773776964
 20
493.2746644445
 30
0.0
 10
219.1986794175
 20
493.2746632658
 30
0.0
  0
SPLINE
  5
2F5
100
AcDbEntity
  8
0
100
AcDbSpline
 62
7
  6
BYLAYER
 70
0
 71
3
 72
26
 73
22
 74
0
 42
0.0000001
 43
0.0000001
 44
0.0000000001
 40
0.0
 40
0.0
 40
0.0
 40
0.0
 40
0.0461035325
 40
0.0961376142
 40
0.1510766529
 40
0.209278781
 40
0.2653142312
 40
0.3163233382
 40
0.363029087
 40
0.4066366952
 40
0.4486821757
 40
0.4906885008
 40
0.5345607744
 40
0.5831060858
 40
0.6393431241
 40
0.7028586337
 40
0.7704590593
 40
0.8367391674
 40
0.8969579037
 40
0.9510468249
 40
1.0
 40
1.0
 40
1.0
 40
1.0
 10
295.698679415
 20
493.2916253608
 30
0.0
 10
295.8165876704
 20
493.2916276799
 30
0.0
 10
296.0628592691
 20
493.3108171813
 30
0.0
 10
296.4399527033
 20
493.4025580866
 30
0.0
 10
296.8243685665
 20
493.5708144478
 30
0.0
 10
297.1841057865
 20
493.8159235433
 30
0.0
 10
297.4849498954
 20
494.1160473526
 30
0.0
 10
297.7128536573
 20
494.4385529037
 30
0.0
 10
297.8750773119
 20
494.7628899315
 30
0.0
 10
297.9845599428
 20
495.0841849058
 30
0.0
 10
298.0507687196
 20
495.4046948531
 30
0.0
 10
298.0782232159
 20
495.731486213
 30
0.0
 10
298.0648311018
 20
496.0759020806
 30
0.0
 10
298.0003275758
 20
496.4517812554
 30
0.0
 10
297.8647937532
 20
496.8622493217
 30
0.0
 10
297.6369115381
 20
497.2869887173
 30
0.0
 10
297.3104191222
 20
497.6774578059
 30
0.0
 10
296.9121587297
 20
497.9804900361
 30
0.0
 10
296.492991878
 20
498.1810797461
 30
0.0
 10
296.0878695333
 20
498.2903820787
 30
0.0
 10
295.8238755393
 20
498.3140780995
 30
0.0
 10
295.6986794175
 20
498.3140797245
 30
0.0
  0
ENDSEC
  0
SECTION
  2
OBJECTS
  0
DICTIONARY
  5
C
100
AcDbDictionary
280
0
281
1
  3
ACAD_GROUP
350
D
  3
ACAD_MLINESTYLE
350
17
  3
ACAD_LAYOUT
350
1A
  3
ACAD_PLOTSETTINGS
350
19
  3
ACAD_PLOTSTYLENAME
350
E
  0
DICTIONARY
  5
D
102
{ACAD_REACTORS
330
C
102
}
100
AcDbDictionary
280
0
281
1
  0
ACDBDICTIONARYWDFLT
  5
E
102
{ACAD_REACTORS
330
C
102
}
100
AcDbDictionary
281
1
  3
Normal
350
F
100
AcDbDictionaryWithDefault
340
F
  0
DICTIONARY
  5
17
102
{ACAD_REACTORS
330
C
102
}
100
AcDbDictionary
280
0
281
1
  3
Standard
350
18
  0
DICTIONARY
  5
19
102
{ACAD_REACTORS
330
C
102
}
100
AcDbDictionary
281
1
  0
DICTIONARY
  5
1A
102
{ACAD_REACTORS
330
C
102
}
100
AcDbDictionary
281
1
  3
Model
350
2F6
  3
Layout1
350
2F7
  0
ACDBPLACEHOLDER
  5
F
102
{ACAD_REACTORS
330
E
102
}
  0
MLINESTYLE
  5
18
102
{ACAD_REACTORS
330
17
102
}
100
AcDbMlineStyle
  2
STANDARD
 70
0
  3

 62
256
 51
90.0
 52
90.0
 71
2
 49
0.5
 62
256
  6
BYLAYER
 49
-0.5
 62
256
  6
BYLAYER
  0
LAYOUT
  5
2F6
102
{ACAD_REACTORS
330
1A
102
}
100
AcDbPlotSettings
  1

  2
none_device
  4

  6

 40
0.0
 41
0.0
 42
0.0
 43
0.0
 44
210.0
 45
297.0
 46
0.0
 47
0.0
 48
0.0
 49
0.0
140
0.0
141
0.0
142
1.0
143
1.0
 70
1024
 72
1
 73
0
 74
0
  7

 75
0
147
1.0
148
0.0
149
0.0
100
AcDbLayout
  1
Model
 70
0
 71
0
 10
0.0
 20
0.0
 11
210.0
 21
297.0
 12
0.0
 22
0.0
 32
0.0
 14
0.0
 24
0.0
 34
0.0
 15
0.0
 25
0.0
 35
0.0
146
0.0
 13
0.0
 23
0.0
 33
0.0
 16
1.0
 26
0.0
 36
0.0
 17
0.0
 27
1.0
 37
0.0
 76
0
330
210
345
0
346
0
  0
LAYOUT
  5
2F7
102
{ACAD_REACTORS
330
1A
102
}
100
AcDbPlotSettings
  1

  2
none_device
  4

  6

 40
0.0
 41
0.0
 42
0.0
 43
0.0
 44
210.0
 45
297.0
 46
0.0
 47
0.0
 48
0.0
 49
0.0
140
0.0
141
0.0
142
1.0
143
1.0
 70
0
 72
1
 73
0
 74
0
  7

 75
0
147
1.0
148
0.0
149
0.0
100
AcDbLayout
  1
Layout1
 70
0
 71
1
 10
0.0
 20
0.0
 11
210.0
 21
297.0
 12
0.0
 22
0.0
 32
0.0
 14
0.0
 24
0.0
 34
0.0
 15
0.0
 25
0.0
 35
0.0
146
0.0
 13
0.0
 23
0.0
 33
0.0
 16
1.0
 26
0.0
 36
0.0
 17
0.0
 27
1.0
 37
0.0
 76
0
330
211
345
0
346
0
  0
ENDSEC
  0
EOF
