999
DXF file: C:\Users\sesa63760\Dev\_Creo\CAD\MCADID0004988_3D-CAD\drw0001_7.dxf
999
Pro/ENGINEER 2019471 by Parametric Technology Corporation
  0
SECTION
  2
HEADER
  9
$ACADVER
  1
AC1024
  9
$DWGCODEPAGE
  3
ANSI_1252
  9
$EXTMAX
 10
127.9231704352
 20
180.9199124726
 30
0.0
  9
$EXTMIN
 10
0.0
 20
0.0
 30
0.0
  9
$LIMMIN
 10
0.0
 20
0.0
  9
$LIMMAX
 10
127.9231704352
 20
180.9199124726
  9
$VIEWCTR
 10
63.9615852176
 20
90.4599562363
  9
$VIEWSIZE
 40
180.9199124726
  9
$CLAYER
  8
0
  9
$LTSCALE
 40
11.7932979982
  9
$CELTYPE
  6
BYLAYER
  9
$DIMSCALE
 40
1.0
  9
$DIMASZ
 40
1.5228948861
  9
$DIMEXO
 40
1.0
  9
$DIMDLI
 40
8.1480967988
  9
$DIMEXE
 40
1.0
  9
$DIMCEN
 40
1.9298123997
  9
$DIMLFAC
 40
1.0
  9
$DIMBLK
  1
_FILLED
  9
$DIMALT
 70
0
  9
$DIMALTF
 40
0.0393700787
  9
$DIMTXT
 40
2.1320528406
  9
$DIMTOL
 70
1
  9
$DIMLIM
 70
0
  9
$DIMTFAC
 40
1.0
  9
$DIMTP
 40
0.01
  9
$DIMTM
 40
0.01
  9
$DIMGAP
 40
0.625
  9
$DIMDSEP
 70
46
  9
$AUNITS
 70
0
  9
$PDMODE
 70
3
  9
$PDSIZE
 40
0.3125
  9
$HANDSEED
  5
4F4
  9
$TILEMODE
 70
1
  9
$MEASUREMENT
 70
1
  9
$INSUNITS
 70
4
  0
ENDSEC
  0
SECTION
  2
CLASSES
  0
CLASS
  1
ACDBDICTIONARYWDFLT
  2
AcDbDictionaryWithDefault
  3
AutoCAD 2000
 90
0
 91
1
280
0
281
0
  0
CLASS
  1
ACDBPLACEHOLDER
  2
AcDbPlaceHolder
  3
AutoCAD 2000
 90
0
 91
1
280
0
281
0
  0
CLASS
  1
LAYOUT
  2
AcDbLayout
  3
AutoCAD 2000
 90
0
 91
0
280
0
281
0
  0
ENDSEC
  0
SECTION
  2
TABLES
  0
TABLE
  2
VPORT
  5
8
100
AcDbSymbolTable
 70
2
  0
VPORT
  5
1F4
100
AcDbSymbolTableRecord
100
AcDbViewportTableRecord
  2
*ACTIVE
 70
0
 10
0.0
 20
0.0
 11
1.0
 21
1.0
 12
63.9615852176
 22
90.4599562363
 13
0.0
 23
0.0
 14
1.0
 24
1.0
 15
0.0
 25
0.0
 16
0.0
 26
0.0
 36
1.0
 17
0.0
 27
0.0
 37
0.0
 40
180.9199124726
 41
0.7070707071
 42
50.0
 43
0.0
 44
0.0
 50
0.0
 51
0.0
 71
0
 72
100
 73
1
 74
1
 75
0
 76
0
 77
0
 78
0
  0
ENDTAB
  0
TABLE
  2
LTYPE
  5
5
100
AcDbSymbolTable
 70
6
  0
LTYPE
  5
14
100
AcDbSymbolTableRecord
100
AcDbLinetypeTableRecord
  2
BYBLOCK
 70
0
  3

 72
65
 73
0
 40
0.0
  0
LTYPE
  5
15
100
AcDbSymbolTableRecord
100
AcDbLinetypeTableRecord
  2
BYLAYER
 70
0
  3

 72
65
 73
0
 40
0.0
  0
LTYPE
  5
16
100
AcDbSymbolTableRecord
100
AcDbLinetypeTableRecord
  2
CONTINUOUS
 70
64
  3
Solid line
 72
65
 73
0
 40
0.0
  0
LTYPE
  5
1F5
100
AcDbSymbolTableRecord
100
AcDbLinetypeTableRecord
  2
CENTER
 70
64
  3
____ _ ____ _ ____ _ ____ _ ____ _ ____ _ ____
 72
65
 73
4
 40
0.6
 49
0.375
 74
0
 49
-0.075
 74
0
 49
0.075
 74
0
 49
-0.075
 74
0
  0
LTYPE
  5
1F6
100
AcDbSymbolTableRecord
100
AcDbLinetypeTableRecord
  2
HIDDEN
 70
64
  3
- - - - - - - - - - - - - - - - - - - -
 72
65
 73
2
 40
0.2
 49
0.1
 74
0
 49
-0.1
 74
0
  0
LTYPE
  5
1F7
100
AcDbSymbolTableRecord
100
AcDbLinetypeTableRecord
  2
PHANTOM
 70
64
  3
_____ _ _ _____ _ _ _____ _ _ _____
 72
65
 73
6
 40
0.8
 49
0.45
 74
0
 49
-0.05
 74
0
 49
0.1
 74
0
 49
-0.05
 74
0
 49
0.1
 74
0
 49
-0.05
 74
0
  0
LTYPE
  5
1F8
100
AcDbSymbolTableRecord
100
AcDbLinetypeTableRecord
  2
DOT
 70
64
  3
. . . . . . . . . . . . . . . . . . . .
 72
65
 73
2
 40
0.2
 49
0.1
 74
0
 49
-0.1
 74
0
  0
LTYPE
  5
1F9
100
AcDbSymbolTableRecord
100
AcDbLinetypeTableRecord
  2
DASHED
 70
64
  3
- - - - - - - - - - - - - - - - - - - -
 72
65
 73
2
 40
0.2
 49
0.1
 74
0
 49
-0.1
 74
0
  0
ENDTAB
  0
TABLE
  2
LAYER
  5
2
100
AcDbSymbolTable
 70
36
  0
LAYER
  5
10
100
AcDbSymbolTableRecord
100
AcDbLayerTableRecord
  2
0
 70
0
 62
7
  6
CONTINUOUS
370
-3
390
F
  0
LAYER
  5
1FA
100
AcDbSymbolTableRecord
100
AcDbLayerTableRecord
  2
DEFAULT_1
 70
0
 62
7
  6
CENTER
370
-3
390
F
  0
LAYER
  5
1FB
100
AcDbSymbolTableRecord
100
AcDbLayerTableRecord
  2
DEFAULT_2
 70
0
 62
7
  6
HIDDEN
370
-3
390
F
  0
LAYER
  5
1FC
100
AcDbSymbolTableRecord
100
AcDbLayerTableRecord
  2
DEFAULT_3
 70
0
 62
7
  6
PHANTOM
370
-3
390
F
  0
LAYER
  5
1FD
100
AcDbSymbolTableRecord
100
AcDbLayerTableRecord
  2
00_COMPONENTS
 70
0
 62
7
  6
CONTINUOUS
370
-3
390
F
  0
LAYER
  5
1FE
100
AcDbSymbolTableRecord
100
AcDbLayerTableRecord
  2
01_1_DEFAULT_DATUMS
 70
0
 62
7
  6
CONTINUOUS
370
-3
390
F
  0
LAYER
  5
1FF
100
AcDbSymbolTableRecord
100
AcDbLayerTableRecord
  2
01_PLANES
 70
0
 62
7
  6
CONTINUOUS
370
-3
390
F
  0
LAYER
  5
200
100
AcDbSymbolTableRecord
100
AcDbLayerTableRecord
  2
02_COORD_SYS
 70
0
 62
7
  6
CONTINUOUS
370
-3
390
F
  0
LAYER
  5
201
100
AcDbSymbolTableRecord
100
AcDbLayerTableRecord
  2
03_AXES
 70
0
 62
7
  6
CONTINUOUS
370
-3
390
F
  0
LAYER
  5
202
100
AcDbSymbolTableRecord
100
AcDbLayerTableRecord
  2
04_POINTS
 70
0
 62
7
  6
CONTINUOUS
370
-3
390
F
  0
LAYER
  5
203
100
AcDbSymbolTableRecord
100
AcDbLayerTableRecord
  2
05_CURVES
 70
0
 62
7
  6
CONTINUOUS
370
-3
390
F
  0
LAYER
  5
204
100
AcDbSymbolTableRecord
100
AcDbLayerTableRecord
  2
06_SURFS
 70
0
 62
7
  6
CONTINUOUS
370
-3
390
F
  0
LAYER
  5
205
100
AcDbSymbolTableRecord
100
AcDbLayerTableRecord
  2
07_COSMETICS
 70
0
 62
7
  6
CONTINUOUS
370
-3
390
F
  0
LAYER
  5
206
100
AcDbSymbolTableRecord
100
AcDbLayerTableRecord
  2
10_NOTES
 70
0
 62
7
  6
CONTINUOUS
370
-3
390
F
  0
LAYER
  5
207
100
AcDbSymbolTableRecord
100
AcDbLayerTableRecord
  2
11_NOTES_PUB
 70
0
 62
7
  6
CONTINUOUS
370
-3
390
F
  0
LAYER
  5
208
100
AcDbSymbolTableRecord
100
AcDbLayerTableRecord
  2
13_REF_GTOL
 70
0
 62
7
  6
CONTINUOUS
370
-3
390
F
  0
LAYER
  5
209
100
AcDbSymbolTableRecord
100
AcDbLayerTableRecord
  2
16_MISC
 70
0
 62
7
  6
CONTINUOUS
370
-3
390
F
  0
LAYER
  5
20A
100
AcDbSymbolTableRecord
100
AcDbLayerTableRecord
  2
17_NO_PRINT
 70
0
 62
7
  6
CONTINUOUS
370
-3
390
F
  0
LAYER
  5
20B
100
AcDbSymbolTableRecord
100
AcDbLayerTableRecord
  2
18_DATUM_CAMS_JOINTS
 70
0
 62
7
  6
CONTINUOUS
370
-3
390
F
  0
LAYER
  5
20C
100
AcDbSymbolTableRecord
100
AcDbLayerTableRecord
  2
19_DATUM_FUNCTIONAL
 70
0
 62
7
  6
CONTINUOUS
370
-3
390
F
  0
LAYER
  5
20D
100
AcDbSymbolTableRecord
100
AcDbLayerTableRecord
  2
20_DATUM_KINEMATIC_SCHEME
 70
0
 62
7
  6
CONTINUOUS
370
-3
390
F
  0
ENDTAB
  0
TABLE
  2
STYLE
  5
3
100
AcDbSymbolTable
 70
1
  0
STYLE
  5
11
100
AcDbSymbolTableRecord
100
AcDbTextStyleTableRecord
  2
STANDARD
 70
0
 40
0.0
 41
1.0
 50
0.0
 71
0
 42
0.2
  3
ARIAL.TTF
  4

  0
STYLE
  5
20E
100
AcDbSymbolTableRecord
100
AcDbTextStyleTableRecord
  2
TEXTSTYLE_1
 70
0
 40
0.0
 41
0.8
 50
0.0
 71
0
 42
0.2
  3
gdt
  4

  0
ENDTAB
  0
TABLE
  2
VIEW
  5
6
100
AcDbSymbolTable
 70
0
  0
ENDTAB
  0
TABLE
  2
UCS
  5
7
100
AcDbSymbolTable
 70
0
  0
ENDTAB
  0
TABLE
  2
APPID
  5
9
100
AcDbSymbolTable
 70
1
  0
APPID
  5
20F
100
AcDbSymbolTableRecord
100
AcDbRegAppTableRecord
  2
ACAD
 70
0
  0
ENDTAB
  0
TABLE
  2
BLOCK_RECORD
  5
1
100
AcDbSymbolTable
 70
0
  0
BLOCK_RECORD
  5
210
100
AcDbSymbolTableRecord
100
AcDbBlockTableRecord
  2
*Model_Space
  0
BLOCK_RECORD
  5
211
100
AcDbSymbolTableRecord
100
AcDbBlockTableRecord
  2
*Paper_Space
  0
BLOCK_RECORD
  5
212
100
AcDbSymbolTableRecord
100
AcDbBlockTableRecord
  2
_FILLED
  0
ENDTAB
  0
TABLE
  2
DIMSTYLE
  5
A
100
AcDbSymbolTable
 70
1
100
AcDbDimStyleTable
 71
0
  0
DIMSTYLE
105
213
100
AcDbSymbolTableRecord
100
AcDbDimStyleTableRecord
  2
STANDARD
 70
0
  3

  4

 40
1.0
 41
1.5228948861
 42
1.0
 43
0.38
 44
1.0
 45
0.0
 46
0.0
 47
0.01
 48
0.01
140
2.1320528406
141
0.09
142
0.0
143
25.4
144
1.0
145
0.0
146
1.0
147
0.625
 71
1
 72
0
 73
0
 74
0
 75
0
 76
0
 77
1
 78
8
 79
2
170
0
171
1
172
0
173
0
174
0
175
0
176
0
177
0
178
0
270
2
179
2
271
2
272
2
273
2
274
2
275
0
280
0
281
0
282
0
283
1
284
8
285
0
286
0
287
3
288
0
340
11
278
46
341
212
342
212
343
212
344
212
  0
ENDTAB
  0
ENDSEC
  0
SECTION
  2
BLOCKS
  0
BLOCK
  5
20
100
AcDbEntity
  8
0
100
AcDbBlockBegin
  2
*Model_Space
 70
0
 10
0.0
 20
0.0
 30
0.0
  3
*Model_Space
  1

  0
ENDBLK
  5
21
100
AcDbEntity
  8
0
100
AcDbBlockEnd
  0
BLOCK
  5
1C
100
AcDbEntity
  8
0
100
AcDbBlockBegin
  2
*Paper_Space
 70
0
 10
0.0
 20
0.0
 30
0.0
  3
*Paper_Space
  1

  0
ENDBLK
  5
1D
100
AcDbEntity
  8
0
100
AcDbBlockEnd
  0
BLOCK
  5
214
100
AcDbEntity
  8
0
100
AcDbBlockBegin
  2
_FILLED
 70
64
 10
0.0
 20
0.0
  3
_FILLED
  1

  0
SOLID
  5
215
100
AcDbEntity
  8
0
  6
BYBLOCK
 62
0
100
AcDbTrace
 10
0.0
 20
0.0
 11
-1.0
 21
0.25
 12
-1.0
 22
-0.25
 13
-1.0
 23
-0.25
  0
ENDBLK
  5
216
100
AcDbEntity
  8
0
  6
BYBLOCK
 62
0
100
AcDbBlockEnd
  0
ENDSEC
  0
SECTION
  2
ENTITIES
  0
LINE
  5
217
100
AcDbEntity
  8
0
100
AcDbLine
 62
7
  6
BYLAYER
 10
13.5830294189
 20
88.7491649825
 11
13.5830294189
 21
93.0065242954
  0
LINE
  5
218
100
AcDbEntity
  8
0
100
AcDbLine
 62
7
  6
BYLAYER
 10
16.8830294189
 20
83.2278446389
 11
16.8830294189
 21
98.5778446389
  0
LINE
  5
219
100
AcDbEntity
  8
0
100
AcDbLine
 62
7
  6
BYLAYER
 10
18.0830294189
 20
83.2278446389
 11
18.0830294189
 21
98.5778446389
  0
LINE
  5
21A
100
AcDbEntity
  8
0
100
AcDbLine
 62
7
  6
BYLAYER
 10
18.2273748535
 20
98.5778446389
 11
18.2273748535
 21
83.2278446389
  0
LINE
  5
21B
100
AcDbEntity
  8
0
100
AcDbLine
 62
7
  6
BYLAYER
 10
19.9330294189
 20
97.1778446389
 11
19.9330294189
 21
92.0028446389
  0
LINE
  5
21C
100
AcDbEntity
  8
0
100
AcDbLine
 62
7
  6
BYLAYER
 10
19.9330294189
 20
89.8028446389
 11
19.9330294189
 21
84.6278446389
  0
LINE
  5
21D
100
AcDbEntity
  8
0
100
AcDbLine
 62
7
  6
BYLAYER
 10
22.7017526255
 20
83.2278446389
 11
22.7017526255
 21
83.8953843531
  0
LINE
  5
21E
100
AcDbEntity
  8
0
100
AcDbLine
 62
7
  6
BYLAYER
 10
22.7017526255
 20
90.5353049248
 11
22.7017526255
 21
91.2705037359
  0
LINE
  5
21F
100
AcDbEntity
  8
0
100
AcDbLine
 62
7
  6
BYLAYER
 10
22.7017526255
 20
97.910185542
 11
22.7017526255
 21
98.5778446389
  0
LINE
  5
220
100
AcDbEntity
  8
0
100
AcDbLine
 62
7
  6
BYLAYER
 10
23.5125605209
 20
98.5778446389
 11
23.5125605209
 21
97.6844459923
  0
LINE
  5
221
100
AcDbEntity
  8
0
100
AcDbLine
 62
7
  6
BYLAYER
 10
23.5125605209
 20
91.4962432856
 11
23.5125605209
 21
90.309565375
  0
LINE
  5
222
100
AcDbEntity
  8
0
100
AcDbLine
 62
7
  6
BYLAYER
 10
23.5125605209
 20
84.1211239029
 11
23.5125605209
 21
83.2278446389
  0
LINE
  5
223
100
AcDbEntity
  8
0
100
AcDbLine
 62
7
  6
BYLAYER
 10
23.9330294189
 20
84.6278446389
 11
23.9330294189
 21
89.8028446389
  0
LINE
  5
224
100
AcDbEntity
  8
0
100
AcDbLine
 62
7
  6
BYLAYER
 10
23.9330294189
 20
92.0028446389
 11
23.9330294189
 21
97.1778446389
  0
LINE
  5
225
100
AcDbEntity
  8
0
100
AcDbLine
 62
7
  6
BYLAYER
 10
24.8330294189
 20
97.6478446389
 11
24.8330294189
 21
97.0978446389
  0
LINE
  5
226
100
AcDbEntity
  8
0
100
AcDbLine
 62
7
  6
BYLAYER
 10
24.8330294189
 20
95.5878446389
 11
24.8330294189
 21
95.0378446389
  0
LINE
  5
227
100
AcDbEntity
  8
0
100
AcDbLine
 62
7
  6
BYLAYER
 10
24.8330294189
 20
94.0678446389
 11
24.8330294189
 21
93.5178446389
  0
LINE
  5
228
100
AcDbEntity
  8
0
100
AcDbLine
 62
7
  6
BYLAYER
 10
24.8330294189
 20
92.0228446389
 11
24.8330294189
 21
91.4728446389
  0
LINE
  5
229
100
AcDbEntity
  8
0
100
AcDbLine
 62
7
  6
BYLAYER
 10
24.8330294189
 20
90.3378446389
 11
24.8330294189
 21
89.7878446389
  0
LINE
  5
22A
100
AcDbEntity
  8
0
100
AcDbLine
 62
7
  6
BYLAYER
 10
24.8330294189
 20
88.2878446389
 11
24.8330294189
 21
87.7378446389
  0
LINE
  5
22B
100
AcDbEntity
  8
0
100
AcDbLine
 62
7
  6
BYLAYER
 10
24.8330294189
 20
86.7678446389
 11
24.8330294189
 21
86.2178446389
  0
LINE
  5
22C
100
AcDbEntity
  8
0
100
AcDbLine
 62
7
  6
BYLAYER
 10
24.8330294189
 20
84.7078446389
 11
24.8330294189
 21
84.1578446389
  0
LINE
  5
22D
100
AcDbEntity
  8
0
100
AcDbLine
 62
7
  6
BYLAYER
 10
24.9319457723
 20
91.5098609863
 11
24.9319457723
 21
92.0097185193
  0
LINE
  5
22E
100
AcDbEntity
  8
0
100
AcDbLine
 62
7
  6
BYLAYER
 10
24.9319457723
 20
93.519893085
 11
24.9319457723
 21
94.0197533284
  0
LINE
  5
22F
100
AcDbEntity
  8
0
100
AcDbLine
 62
7
  6
BYLAYER
 10
24.9319457723
 20
95.0798609863
 11
24.9319457723
 21
95.5797185193
  0
LINE
  5
230
100
AcDbEntity
  8
0
100
AcDbLine
 62
7
  6
BYLAYER
 10
24.9319457723
 20
97.089893085
 11
24.9319457723
 21
97.5897533284
  0
LINE
  5
231
100
AcDbEntity
  8
0
100
AcDbLine
 62
7
  6
BYLAYER
 10
24.9357570516
 20
84.1844315205
 11
24.9357570516
 21
84.6842890535
  0
LINE
  5
232
100
AcDbEntity
  8
0
100
AcDbLine
 62
7
  6
BYLAYER
 10
24.9357570516
 20
86.1944636193
 11
24.9357570516
 21
86.6943238627
  0
LINE
  5
233
100
AcDbEntity
  8
0
100
AcDbLine
 62
7
  6
BYLAYER
 10
24.9357570516
 20
87.7544315205
 11
24.9357570516
 21
88.2542890535
  0
LINE
  5
234
100
AcDbEntity
  8
0
100
AcDbLine
 62
7
  6
BYLAYER
 10
24.9357570516
 20
89.7644636193
 11
24.9357570516
 21
90.2643238627
  0
LINE
  5
235
100
AcDbEntity
  8
0
100
AcDbLine
 62
7
  6
BYLAYER
 10
25.1226678457
 20
97.3898071574
 11
25.1226665582
 21
97.2123197697
  0
LINE
  5
236
100
AcDbEntity
  8
0
100
AcDbLine
 62
7
  6
BYLAYER
 10
25.1226678457
 20
93.8198071574
 11
25.1226665582
 21
93.6423197697
  0
LINE
  5
237
100
AcDbEntity
  8
0
100
AcDbLine
 62
7
  6
BYLAYER
 10
25.1226665582
 20
91.887294545
 11
25.1226678457
 21
91.7098071574
  0
LINE
  5
238
100
AcDbEntity
  8
0
100
AcDbLine
 62
7
  6
BYLAYER
 10
25.1226665582
 20
95.457294545
 11
25.1226678457
 21
95.2798071574
  0
LINE
  5
239
100
AcDbEntity
  8
0
100
AcDbLine
 62
7
  6
BYLAYER
 10
25.1264778376
 20
84.5618650793
 11
25.1264791251
 21
84.3843776916
  0
LINE
  5
23A
100
AcDbEntity
  8
0
100
AcDbLine
 62
7
  6
BYLAYER
 10
25.1264778376
 20
88.1318650793
 11
25.1264791251
 21
87.9543776916
  0
LINE
  5
23B
100
AcDbEntity
  8
0
100
AcDbLine
 62
7
  6
BYLAYER
 10
25.1264791251
 20
90.0643776916
 11
25.1264778376
 21
89.886890304
  0
LINE
  5
23C
100
AcDbEntity
  8
0
100
AcDbLine
 62
7
  6
BYLAYER
 10
25.1264791251
 20
86.4943776916
 11
25.1264778376
 21
86.316890304
  0
LINE
  5
23D
100
AcDbEntity
  8
0
100
AcDbLine
 62
7
  6
BYLAYER
 10
26.2319457723
 20
91.5098071574
 11
26.2319457723
 21
94.0198071574
  0
LINE
  5
23E
100
AcDbEntity
  8
0
100
AcDbLine
 62
7
  6
BYLAYER
 10
26.2319457723
 20
95.0798071574
 11
26.2319457723
 21
97.5898071574
  0
LINE
  5
23F
100
AcDbEntity
  8
0
100
AcDbLine
 62
7
  6
BYLAYER
 10
26.2357570516
 20
84.1843776916
 11
26.2357570516
 21
86.6943776916
  0
LINE
  5
240
100
AcDbEntity
  8
0
100
AcDbLine
 62
7
  6
BYLAYER
 10
26.2357570516
 20
87.7543776916
 11
26.2357570516
 21
90.2643776916
  0
LINE
  5
241
100
AcDbEntity
  8
0
100
AcDbLine
 62
7
  6
BYLAYER
 10
26.4319457723
 20
97.5898071574
 11
26.4319457723
 21
95.0798071574
  0
LINE
  5
242
100
AcDbEntity
  8
0
100
AcDbLine
 62
7
  6
BYLAYER
 10
26.4319457723
 20
94.0198071574
 11
26.4319457723
 21
91.5098071574
  0
LINE
  5
243
100
AcDbEntity
  8
0
100
AcDbLine
 62
7
  6
BYLAYER
 10
26.4357570516
 20
90.2643776916
 11
26.4357570516
 21
87.7543776916
  0
LINE
  5
244
100
AcDbEntity
  8
0
100
AcDbLine
 62
7
  6
BYLAYER
 10
26.4357570516
 20
86.6943776916
 11
26.4357570516
 21
84.1843776916
  0
LINE
  5
245
100
AcDbEntity
  8
0
100
AcDbLine
 62
7
  6
BYLAYER
 10
26.4973907975
 20
86.7378446389
 11
26.4973907975
 21
86.7678446389
  0
LINE
  5
246
100
AcDbEntity
  8
0
100
AcDbLine
 62
7
  6
BYLAYER
 10
26.4973907975
 20
90.3078446389
 11
26.4973907975
 21
90.3378446389
  0
LINE
  5
247
100
AcDbEntity
  8
0
100
AcDbLine
 62
7
  6
BYLAYER
 10
26.4973907975
 20
94.0478446389
 11
26.4973907975
 21
94.0678446389
  0
LINE
  5
248
100
AcDbEntity
  8
0
100
AcDbLine
 62
7
  6
BYLAYER
 10
26.4973907975
 20
97.6278446389
 11
26.4973907975
 21
97.6478446389
  0
LINE
  5
249
100
AcDbEntity
  8
0
100
AcDbLine
 62
7
  6
BYLAYER
 10
26.8319457723
 20
91.5098071574
 11
26.8319457723
 21
94.0198071574
  0
LINE
  5
24A
100
AcDbEntity
  8
0
100
AcDbLine
 62
7
  6
BYLAYER
 10
26.8319457723
 20
95.0798071574
 11
26.8319457723
 21
97.5898071574
  0
LINE
  5
24B
100
AcDbEntity
  8
0
100
AcDbLine
 62
7
  6
BYLAYER
 10
26.8357570516
 20
84.1843776916
 11
26.8357570516
 21
86.6943776916
  0
LINE
  5
24C
100
AcDbEntity
  8
0
100
AcDbLine
 62
7
  6
BYLAYER
 10
26.8357570516
 20
87.7543776916
 11
26.8357570516
 21
90.2643776916
  0
LINE
  5
24D
100
AcDbEntity
  8
0
100
AcDbLine
 62
7
  6
BYLAYER
 10
27.0319457723
 20
91.5098071574
 11
27.0319457723
 21
94.0198071574
  0
LINE
  5
24E
100
AcDbEntity
  8
0
100
AcDbLine
 62
7
  6
BYLAYER
 10
27.0319457723
 20
95.0798071574
 11
27.0319457723
 21
97.5898071574
  0
LINE
  5
24F
100
AcDbEntity
  8
0
100
AcDbLine
 62
7
  6
BYLAYER
 10
27.0357570516
 20
84.1843776916
 11
27.0357570516
 21
86.6943776916
  0
LINE
  5
250
100
AcDbEntity
  8
0
100
AcDbLine
 62
7
  6
BYLAYER
 10
27.0357570516
 20
87.7543776916
 11
27.0357570516
 21
90.2643776916
  0
LINE
  5
251
100
AcDbEntity
  8
0
100
AcDbLine
 62
7
  6
BYLAYER
 10
14.0223692471
 20
94.0671844672
 11
16.1436895907
 21
96.1885048107
  0
LINE
  5
252
100
AcDbEntity
  8
0
100
AcDbLine
 62
7
  6
BYLAYER
 10
16.1436895907
 20
85.5671844672
 11
14.0223692471
 21
87.6885048107
  0
LINE
  5
253
100
AcDbEntity
  8
0
100
AcDbLine
 62
7
  6
BYLAYER
 10
27.8619457723
 20
97.3898071574
 11
27.8619457723
 21
95.2798071574
  0
LINE
  5
254
100
AcDbEntity
  8
0
100
AcDbLine
 62
7
  6
BYLAYER
 10
27.8619457723
 20
93.8198071574
 11
27.8619457723
 21
91.7098071574
  0
LINE
  5
255
100
AcDbEntity
  8
0
100
AcDbLine
 62
7
  6
BYLAYER
 10
27.8657570516
 20
90.0643776916
 11
27.8657570516
 21
87.9543776916
  0
LINE
  5
256
100
AcDbEntity
  8
0
100
AcDbLine
 62
7
  6
BYLAYER
 10
27.8657570516
 20
86.4943776916
 11
27.8657570516
 21
84.3843776916
  0
LINE
  5
257
100
AcDbEntity
  8
0
100
AcDbLine
 62
7
  6
BYLAYER
 10
28.1619457723
 20
97.3898071574
 11
28.1619457723
 21
95.2798071574
  0
LINE
  5
258
100
AcDbEntity
  8
0
100
AcDbLine
 62
7
  6
BYLAYER
 10
28.1619457723
 20
93.8198071574
 11
28.1619457723
 21
91.7098071574
  0
LINE
  5
259
100
AcDbEntity
  8
0
100
AcDbLine
 62
7
  6
BYLAYER
 10
28.1657570516
 20
90.0643776916
 11
28.1657570516
 21
87.9543776916
  0
LINE
  5
25A
100
AcDbEntity
  8
0
100
AcDbLine
 62
7
  6
BYLAYER
 10
28.1657570516
 20
86.4943776916
 11
28.1657570516
 21
84.3843776916
  0
LINE
  5
25B
100
AcDbEntity
  8
0
100
AcDbLine
 62
7
  6
BYLAYER
 10
28.2130294189
 20
84.1578446389
 11
28.2130294189
 21
86.7678446389
  0
LINE
  5
25C
100
AcDbEntity
  8
0
100
AcDbLine
 62
7
  6
BYLAYER
 10
28.2130294189
 20
87.7378446389
 11
28.2130294189
 21
90.3378446389
  0
LINE
  5
25D
100
AcDbEntity
  8
0
100
AcDbLine
 62
7
  6
BYLAYER
 10
28.2130294189
 20
91.4728446389
 11
28.2130294189
 21
94.0678446389
  0
LINE
  5
25E
100
AcDbEntity
  8
0
100
AcDbLine
 62
7
  6
BYLAYER
 10
28.2130294189
 20
95.0378446389
 11
28.2130294189
 21
97.6478446389
  0
LINE
  5
25F
100
AcDbEntity
  8
0
100
AcDbLine
 62
7
  6
BYLAYER
 10
28.3478273695
 20
98.5778446389
 11
28.3478273695
 21
83.2278446389
  0
LINE
  5
260
100
AcDbEntity
  8
0
100
AcDbLine
 62
7
  6
BYLAYER
 10
28.5830294189
 20
83.2278446389
 11
28.5830294189
 21
98.5778446389
  0
LINE
  5
261
100
AcDbEntity
  8
0
100
AcDbLine
 62
7
  6
BYLAYER
 10
31.3330294189
 20
82.9778446389
 11
31.3330294189
 21
98.8278446389
  0
LINE
  5
262
100
AcDbEntity
  8
0
100
AcDbLine
 62
7
  6
BYLAYER
 10
31.5830294189
 20
98.5778446389
 11
31.5830294189
 21
83.2278446389
  0
LINE
  5
263
100
AcDbEntity
  8
0
100
AcDbLine
 62
7
  6
BYLAYER
 10
38.2330294189
 20
92.0528446389
 11
38.2330294189
 21
90.4963517276
  0
LINE
  5
264
100
AcDbEntity
  8
0
100
AcDbLine
 62
7
  6
BYLAYER
 10
39.2330294189
 20
92.7528446389
 11
39.2330294189
 21
92.9028446389
  0
LINE
  5
265
100
AcDbEntity
  8
0
100
AcDbLine
 62
7
  6
BYLAYER
 10
33.9816542315
 20
87.6483833774
 11
34.1318417571
 21
87.9080826404
  0
LINE
  5
266
100
AcDbEntity
  8
0
100
AcDbLine
 62
7
  6
BYLAYER
 10
36.0342170807
 20
91.1976066375
 11
36.1844046063
 21
91.4573059005
  0
LINE
  5
267
100
AcDbEntity
  8
0
100
AcDbLine
 62
7
  6
BYLAYER
 10
18.0830294189
 20
97.1528446389
 11
16.8830294189
 21
96.6528446389
  0
LINE
  5
268
100
AcDbEntity
  8
0
100
AcDbLine
 62
7
  6
BYLAYER
 10
16.8830294189
 20
85.1528446389
 11
18.0830294189
 21
84.6528446389
  0
LINE
  5
269
100
AcDbEntity
  8
0
100
AcDbLine
 62
7
  6
BYLAYER
 10
41.4330294189
 20
89.7528446389
 11
41.4330294189
 21
92.0528446389
  0
LINE
  5
26A
100
AcDbEntity
  8
0
100
AcDbLine
 62
7
  6
BYLAYER
 10
42.5830294189
 20
83.2278446389
 11
42.5830294189
 21
89.7528446389
  0
LINE
  5
26B
100
AcDbEntity
  8
0
100
AcDbLine
 62
7
  6
BYLAYER
 10
42.5830294189
 20
92.0528446389
 11
42.5830294189
 21
98.5778446389
  0
LINE
  5
26C
100
AcDbEntity
  8
0
100
AcDbLine
 62
7
  6
BYLAYER
 10
42.8330294189
 20
82.9778446389
 11
42.8330294189
 21
98.8278446389
  0
LINE
  5
26D
100
AcDbEntity
  8
0
100
AcDbLine
 62
7
  6
BYLAYER
 10
43.6724442643
 20
82.9778446389
 11
43.6724442643
 21
84.7778446389
  0
LINE
  5
26E
100
AcDbEntity
  8
0
100
AcDbLine
 62
7
  6
BYLAYER
 10
43.6724442643
 20
97.0278446389
 11
43.6724442643
 21
98.8278446389
  0
LINE
  5
26F
100
AcDbEntity
  8
0
100
AcDbLine
 62
7
  6
BYLAYER
 10
43.9188092932
 20
98.5778446389
 11
43.9188092932
 21
97.2742096679
  0
LINE
  5
270
100
AcDbEntity
  8
0
100
AcDbLine
 62
7
  6
BYLAYER
 10
43.9188092932
 20
84.53147961
 11
43.9188092932
 21
83.2278446389
  0
LINE
  5
271
100
AcDbEntity
  8
0
100
AcDbLine
 62
7
  6
BYLAYER
 10
44.3793944479
 20
83.2278446389
 11
44.3793944479
 21
84.5278446389
  0
LINE
  5
272
100
AcDbEntity
  8
0
100
AcDbLine
 62
7
  6
BYLAYER
 10
44.3793944479
 20
97.2778446389
 11
44.3793944479
 21
98.5778446389
  0
LINE
  5
273
100
AcDbEntity
  8
0
100
AcDbLine
 62
7
  6
BYLAYER
 10
44.3830294189
 20
98.5778446389
 11
44.3830294189
 21
97.2778446389
  0
LINE
  5
274
100
AcDbEntity
  8
0
100
AcDbLine
 62
7
  6
BYLAYER
 10
44.3830294189
 20
84.5278446389
 11
44.3830294189
 21
83.2278446389
  0
LINE
  5
275
100
AcDbEntity
  8
0
100
AcDbLine
 62
7
  6
BYLAYER
 10
44.8525685693
 20
83.0528446389
 11
44.8525685693
 21
98.7528446389
  0
LINE
  5
276
100
AcDbEntity
  8
0
100
AcDbLine
 62
7
  6
BYLAYER
 10
46.0476951765
 20
83.0528446389
 11
46.0476951765
 21
98.7528446389
  0
LINE
  5
277
100
AcDbEntity
  8
0
100
AcDbLine
 62
7
  6
BYLAYER
 10
46.240781436
 20
83.0528446389
 11
46.240781436
 21
98.7528446389
  0
LINE
  5
278
100
AcDbEntity
  8
0
100
AcDbLine
 62
7
  6
BYLAYER
 10
46.4327353784
 20
83.0528446389
 11
46.4327353784
 21
98.7528446389
  0
LINE
  5
279
100
AcDbEntity
  8
0
100
AcDbLine
 62
7
  6
BYLAYER
 10
46.5830294189
 20
98.7778446389
 11
46.5830294189
 21
98.7528446389
  0
LINE
  5
27A
100
AcDbEntity
  8
0
100
AcDbLine
 62
7
  6
BYLAYER
 10
46.5830294189
 20
83.0278446389
 11
46.5830294189
 21
83.0528446389
  0
LINE
  5
27B
100
AcDbEntity
  8
0
100
AcDbLine
 62
7
  6
BYLAYER
 10
46.6246893207
 20
83.0528446389
 11
46.6246893207
 21
98.7528446389
  0
LINE
  5
27C
100
AcDbEntity
  8
0
100
AcDbLine
 62
7
  6
BYLAYER
 10
46.816643263
 20
83.0528446389
 11
46.816643263
 21
98.7528446389
  0
LINE
  5
27D
100
AcDbEntity
  8
0
100
AcDbLine
 62
7
  6
BYLAYER
 10
47.0085972053
 20
83.0528446389
 11
47.0085972053
 21
98.7528446389
  0
LINE
  5
27E
100
AcDbEntity
  8
0
100
AcDbLine
 62
7
  6
BYLAYER
 10
47.2005511476
 20
83.0528446389
 11
47.2005511476
 21
98.7528446389
  0
LINE
  5
27F
100
AcDbEntity
  8
0
100
AcDbLine
 62
7
  6
BYLAYER
 10
47.2981609119
 20
83.0528446389
 11
47.2981609119
 21
98.7528446389
  0
LINE
  5
280
100
AcDbEntity
  8
0
100
AcDbLine
 62
7
  6
BYLAYER
 10
40.3344046063
 20
89.0573059005
 11
40.1842170807
 21
88.7976066375
  0
LINE
  5
281
100
AcDbEntity
  8
0
100
AcDbLine
 62
7
  6
BYLAYER
 10
38.2818417571
 20
85.5080826404
 11
38.1316542315
 21
85.2483833774
  0
LINE
  5
282
100
AcDbEntity
  8
0
100
AcDbLine
 62
7
  6
BYLAYER
 10
38.1316542315
 20
85.2483833774
 11
33.9816542315
 21
87.6483833774
  0
LINE
  5
283
100
AcDbEntity
  8
0
100
AcDbLine
 62
7
  6
BYLAYER
 10
34.1318417571
 20
87.9080826404
 11
38.2818417571
 21
85.5080826404
  0
LINE
  5
284
100
AcDbEntity
  8
0
100
AcDbLine
 62
7
  6
BYLAYER
 10
48.5830294189
 20
98.7778446389
 11
48.5830294189
 21
98.7528446389
  0
LINE
  5
285
100
AcDbEntity
  8
0
100
AcDbLine
 62
7
  6
BYLAYER
 10
48.5830294189
 20
83.0278446389
 11
48.5830294189
 21
83.0528446389
  0
LINE
  5
286
100
AcDbEntity
  8
0
100
AcDbLine
 62
7
  6
BYLAYER
 10
18.0830294189
 20
89.6528446389
 11
16.8830294189
 21
89.1528446389
  0
LINE
  5
287
100
AcDbEntity
  8
0
100
AcDbLine
 62
7
  6
BYLAYER
 10
16.8830294189
 20
92.6528446389
 11
18.0830294189
 21
92.1528446389
  0
LINE
  5
288
100
AcDbEntity
  8
0
100
AcDbLine
 62
7
  6
BYLAYER
 10
40.1842170807
 20
88.7976066375
 11
36.0342170807
 21
91.1976066375
  0
LINE
  5
289
100
AcDbEntity
  8
0
100
AcDbLine
 62
7
  6
BYLAYER
 10
36.1844046063
 20
91.4573059005
 11
40.3344046063
 21
89.0573059005
  0
LINE
  5
28A
100
AcDbEntity
  8
0
100
AcDbLine
 62
7
  6
BYLAYER
 10
38.2330294189
 20
90.4963517276
 11
39.5186770931
 21
89.7528446389
  0
LINE
  5
28B
100
AcDbEntity
  8
0
100
AcDbLine
 62
7
  6
BYLAYER
 10
51.4667407591
 20
97.3528446389
 11
51.4667407591
 21
84.4528446389
  0
LINE
  5
28C
100
AcDbEntity
  8
0
100
AcDbLine
 62
7
  6
BYLAYER
 10
51.6471559905
 20
83.0528446389
 11
51.6471559905
 21
84.4528446389
  0
LINE
  5
28D
100
AcDbEntity
  8
0
100
AcDbLine
 62
7
  6
BYLAYER
 10
51.6471559905
 20
97.3528446389
 11
51.6471559905
 21
98.7528446389
  0
LINE
  5
28E
100
AcDbEntity
  8
0
100
AcDbLine
 62
7
  6
BYLAYER
 10
52.0151115345
 20
97.3528446389
 11
52.0151114698
 21
93.9879681661
  0
LINE
  5
28F
100
AcDbEntity
  8
0
100
AcDbLine
 62
7
  6
BYLAYER
 10
52.0151114698
 20
87.8177211115
 11
52.0151115345
 21
84.4528446389
  0
LINE
  5
290
100
AcDbEntity
  8
0
100
AcDbLine
 62
7
  6
BYLAYER
 10
52.0868087674
 20
93.1462328482
 11
52.0868087674
 21
88.6594564297
  0
LINE
  5
291
100
AcDbEntity
  8
0
100
AcDbLine
 62
7
  6
BYLAYER
 10
52.5032602621
 20
98.7528446389
 11
52.5032602621
 21
97.3528446389
  0
LINE
  5
292
100
AcDbEntity
  8
0
100
AcDbLine
 62
7
  6
BYLAYER
 10
52.5032602621
 20
84.4528446389
 11
52.5032602621
 21
83.0528446389
  0
LINE
  5
293
100
AcDbEntity
  8
0
100
AcDbLine
 62
7
  6
BYLAYER
 10
55.207421925
 20
84.5278446389
 11
55.207421925
 21
97.2778446389
  0
LINE
  5
294
100
AcDbEntity
  8
0
100
AcDbLine
 62
7
  6
BYLAYER
 10
55.3979039535
 20
97.0278446389
 11
55.3979039535
 21
84.7778446389
  0
LINE
  5
295
100
AcDbEntity
  8
0
100
AcDbLine
 62
7
  6
BYLAYER
 10
56.8802234703
 20
97.3528446389
 11
56.8802234703
 21
84.4528446389
  0
LINE
  5
296
100
AcDbEntity
  8
0
100
AcDbLine
 62
7
  6
BYLAYER
 10
17.1330294189
 20
82.9778446389
 11
114.5330294189
 21
82.9778446389
  0
LINE
  5
297
100
AcDbEntity
  8
0
100
AcDbLine
 62
7
  6
BYLAYER
 10
46.5830294189
 20
83.0278446389
 11
48.5830294189
 21
83.0278446389
  0
LINE
  5
298
100
AcDbEntity
  8
0
100
AcDbLine
 62
7
  6
BYLAYER
 10
44.8525685693
 20
83.0528446389
 11
61.8786498033
 21
83.0528446389
  0
LINE
  5
299
100
AcDbEntity
  8
0
100
AcDbLine
 62
7
  6
BYLAYER
 10
16.8830294189
 20
83.2278446389
 11
44.865174458
 21
83.2278446389
  0
LINE
  5
29A
100
AcDbEntity
  8
0
100
AcDbLine
 62
7
  6
BYLAYER
 10
62.1202023433
 20
83.2278446389
 11
114.7830294189
 21
83.2278446389
  0
LINE
  5
29B
100
AcDbEntity
  8
0
100
AcDbLine
 62
7
  6
BYLAYER
 10
63.0149546336
 20
83.6528446389
 11
68.3847650304
 21
83.6528446389
  0
LINE
  5
29C
100
AcDbEntity
  8
0
100
AcDbLine
 62
7
  6
BYLAYER
 10
98.598585016
 20
83.8778446389
 11
97.3260908004
 21
83.8778446389
  0
LINE
  5
29D
100
AcDbEntity
  8
0
100
AcDbLine
 62
7
  6
BYLAYER
 10
85.5749206802
 20
83.8778446389
 11
84.3260908004
 21
83.8778446389
  0
LINE
  5
29E
100
AcDbEntity
  8
0
100
AcDbLine
 62
7
  6
BYLAYER
 10
22.5953948339
 20
83.8778446389
 11
21.2914219239
 21
83.8778446389
  0
LINE
  5
29F
100
AcDbEntity
  8
0
100
AcDbLine
 62
7
  6
BYLAYER
 10
68.1830294189
 20
84.0778446389
 11
65.1830294189
 21
84.0778446389
  0
LINE
  5
2A0
100
AcDbEntity
  8
0
100
AcDbLine
 62
7
  6
BYLAYER
 10
95.0330294189
 20
84.1578446389
 11
91.6546960856
 21
84.1578446389
  0
LINE
  5
2A1
100
AcDbEntity
  8
0
100
AcDbLine
 62
7
  6
BYLAYER
 10
82.0330294189
 20
84.1578446389
 11
78.6530294189
 21
84.1578446389
  0
LINE
  5
2A2
100
AcDbEntity
  8
0
100
AcDbLine
 62
7
  6
BYLAYER
 10
28.2130294189
 20
84.1578446389
 11
24.8330294189
 21
84.1578446389
  0
LINE
  5
2A3
100
AcDbEntity
  8
0
100
AcDbLine
 62
7
  6
BYLAYER
 10
78.8193297142
 20
84.1783218729
 11
81.8497503036
 21
84.1783218729
  0
LINE
  5
2A4
100
AcDbEntity
  8
0
100
AcDbLine
 62
7
  6
BYLAYER
 10
24.9353174577
 20
84.1843776916
 11
27.9657570516
 21
84.1843776916
  0
LINE
  5
2A5
100
AcDbEntity
  8
0
100
AcDbLine
 62
7
  6
BYLAYER
 10
91.9136493065
 20
84.2084164275
 11
94.9440698959
 21
84.2084164275
  0
LINE
  5
2A6
100
AcDbEntity
  8
0
100
AcDbLine
 62
7
  6
BYLAYER
 10
68.3847650304
 20
84.2528446389
 11
68.1830294189
 21
84.2528446389
  0
LINE
  5
2A7
100
AcDbEntity
  8
0
100
AcDbLine
 62
7
  6
BYLAYER
 10
65.1830294189
 20
84.2528446389
 11
64.0844180034
 21
84.2528446389
  0
LINE
  5
2A8
100
AcDbEntity
  8
0
100
AcDbLine
 62
7
  6
BYLAYER
 10
78.9193297142
 20
84.3783218729
 11
79.7493297142
 21
84.3783218729
  0
LINE
  5
2A9
100
AcDbEntity
  8
0
100
AcDbLine
 62
7
  6
BYLAYER
 10
80.5493297142
 20
84.3783218729
 11
81.6586076407
 21
84.3783218729
  0
LINE
  5
2AA
100
AcDbEntity
  8
0
100
AcDbLine
 62
7
  6
BYLAYER
 10
25.1264791251
 20
84.3843776916
 11
26.2357570516
 21
84.3843776916
  0
LINE
  5
2AB
100
AcDbEntity
  8
0
100
AcDbLine
 62
7
  6
BYLAYER
 10
27.0357570516
 20
84.3843776916
 11
27.8657570516
 21
84.3843776916
  0
LINE
  5
2AC
100
AcDbEntity
  8
0
100
AcDbLine
 62
7
  6
BYLAYER
 10
92.0136493065
 20
84.4084164275
 11
92.8436493065
 21
84.4084164275
  0
LINE
  5
2AD
100
AcDbEntity
  8
0
100
AcDbLine
 62
7
  6
BYLAYER
 10
93.6436493065
 20
84.4084164275
 11
94.752927233
 21
84.4084164275
  0
LINE
  5
2AE
100
AcDbEntity
  8
0
100
AcDbLine
 62
7
  6
BYLAYER
 10
51.4667407591
 20
84.4528446389
 11
65.1830294189
 21
84.4528446389
  0
LINE
  5
2AF
100
AcDbEntity
  8
0
100
AcDbLine
 62
7
  6
BYLAYER
 10
65.1830294189
 20
84.4778446389
 11
68.1830294189
 21
84.4778446389
  0
LINE
  5
2B0
100
AcDbEntity
  8
0
100
AcDbLine
 62
7
  6
BYLAYER
 10
44.8525685693
 20
84.5278446389
 11
43.9261328672
 21
84.5278446389
  0
LINE
  5
2B1
100
AcDbEntity
  8
0
100
AcDbLine
 62
7
  6
BYLAYER
 10
52.0151115345
 20
84.5278446389
 11
56.8802234703
 21
84.5278446389
  0
LINE
  5
2B2
100
AcDbEntity
  8
0
100
AcDbLine
 62
7
  6
BYLAYER
 10
58.6802222456
 20
84.5278446389
 11
73.7830294189
 21
84.5278446389
  0
LINE
  5
2B3
100
AcDbEntity
  8
0
100
AcDbLine
 62
7
  6
BYLAYER
 10
58.6802222456
 20
97.3528446389
 11
58.6802222456
 21
84.4528446389
  0
LINE
  5
2B4
100
AcDbEntity
  8
0
100
AcDbLine
 62
7
  6
BYLAYER
 10
58.7830294189
 20
84.7778446389
 11
58.7830294189
 21
97.0278446389
  0
LINE
  5
2B5
100
AcDbEntity
  8
0
100
AcDbLine
 62
7
  6
BYLAYER
 10
59.0330294189
 20
97.2778446389
 11
59.0330294189
 21
84.5278446389
  0
LINE
  5
2B6
100
AcDbEntity
  8
0
100
AcDbLine
 62
7
  6
BYLAYER
 10
43.6724442643
 20
84.7778446389
 11
44.8525685693
 21
84.7778446389
  0
LINE
  5
2B7
100
AcDbEntity
  8
0
100
AcDbLine
 62
7
  6
BYLAYER
 10
52.0151115282
 20
84.7778446389
 11
56.8802234703
 21
84.7778446389
  0
LINE
  5
2B8
100
AcDbEntity
  8
0
100
AcDbLine
 62
7
  6
BYLAYER
 10
58.6802222456
 20
84.7778446389
 11
73.7830294189
 21
84.7778446389
  0
LINE
  5
2B9
100
AcDbEntity
  8
0
100
AcDbLine
 62
7
  6
BYLAYER
 10
81.3493297142
 20
85.433321873
 11
81.1586076431
 21
85.433321873
  0
LINE
  5
2BA
100
AcDbEntity
  8
0
100
AcDbLine
 62
7
  6
BYLAYER
 10
25.4357570516
 20
85.4393776916
 11
25.6264791226
 21
85.4393776916
  0
LINE
  5
2BB
100
AcDbEntity
  8
0
100
AcDbLine
 62
7
  6
BYLAYER
 10
94.4436493065
 20
85.4634164275
 11
94.2529272354
 21
85.4634164275
  0
LINE
  5
2BC
100
AcDbEntity
  8
0
100
AcDbLine
 62
7
  6
BYLAYER
 10
61.8330294189
 20
86.0028446389
 11
63.3330294189
 21
86.0028446389
  0
LINE
  5
2BD
100
AcDbEntity
  8
0
100
AcDbLine
 62
7
  6
BYLAYER
 10
68.8330294189
 20
86.0028446389
 11
70.3330294189
 21
86.0028446389
  0
LINE
  5
2BE
100
AcDbEntity
  8
0
100
AcDbLine
 62
7
  6
BYLAYER
 10
81.6586076407
 20
86.4883218729
 11
80.5493297142
 21
86.4883218729
  0
LINE
  5
2BF
100
AcDbEntity
  8
0
100
AcDbLine
 62
7
  6
BYLAYER
 10
79.7493297142
 20
86.4883218729
 11
78.9193297142
 21
86.4883218729
  0
LINE
  5
2C0
100
AcDbEntity
  8
0
100
AcDbLine
 62
7
  6
BYLAYER
 10
27.8657570516
 20
86.4943776916
 11
27.0357570516
 21
86.4943776916
  0
LINE
  5
2C1
100
AcDbEntity
  8
0
100
AcDbLine
 62
7
  6
BYLAYER
 10
26.2357570516
 20
86.4943776916
 11
25.1264791251
 21
86.4943776916
  0
LINE
  5
2C2
100
AcDbEntity
  8
0
100
AcDbLine
 62
7
  6
BYLAYER
 10
94.752927233
 20
86.5184164275
 11
93.6436493065
 21
86.5184164275
  0
LINE
  5
2C3
100
AcDbEntity
  8
0
100
AcDbLine
 62
7
  6
BYLAYER
 10
92.8436493065
 20
86.5184164275
 11
92.0136493065
 21
86.5184164275
  0
LINE
  5
2C4
100
AcDbEntity
  8
0
100
AcDbLine
 62
7
  6
BYLAYER
 10
78.8193297142
 20
86.6883218729
 11
81.8497592224
 21
86.6883218729
  0
LINE
  5
2C5
100
AcDbEntity
  8
0
100
AcDbLine
 62
7
  6
BYLAYER
 10
24.9353089888
 20
86.6943776916
 11
27.9657570516
 21
86.6943776916
  0
LINE
  5
2C6
100
AcDbEntity
  8
0
100
AcDbLine
 62
7
  6
BYLAYER
 10
78.6530294189
 20
86.7020380499
 11
79.9567305606
 21
86.7020380499
  0
LINE
  5
2C7
100
AcDbEntity
  8
0
100
AcDbLine
 62
7
  6
BYLAYER
 10
91.9136493065
 20
86.7184164275
 11
94.9440788147
 21
86.7184164275
  0
LINE
  5
2C8
100
AcDbEntity
  8
0
100
AcDbLine
 62
7
  6
BYLAYER
 10
26.4973907975
 20
86.7378446389
 11
28.2130294189
 21
86.7378446389
  0
LINE
  5
2C9
100
AcDbEntity
  8
0
100
AcDbLine
 62
7
  6
BYLAYER
 10
91.6563627522
 20
86.7378446389
 11
93.1062780121
 21
86.7378446389
  0
LINE
  5
2CA
100
AcDbEntity
  8
0
100
AcDbLine
 62
7
  6
BYLAYER
 10
24.8330294189
 20
86.7678446389
 11
28.2130294189
 21
86.7678446389
  0
LINE
  5
2CB
100
AcDbEntity
  8
0
100
AcDbLine
 62
7
  6
BYLAYER
 10
78.6530294189
 20
86.7678446389
 11
82.0330294189
 21
86.7678446389
  0
LINE
  5
2CC
100
AcDbEntity
  8
0
100
AcDbLine
 62
7
  6
BYLAYER
 10
91.6546960856
 20
86.7678446389
 11
95.0330294189
 21
86.7678446389
  0
LINE
  5
2CD
100
AcDbEntity
  8
0
100
AcDbLine
 62
7
  6
BYLAYER
 10
95.0330294189
 20
87.7378446389
 11
91.6546960856
 21
87.7378446389
  0
LINE
  5
2CE
100
AcDbEntity
  8
0
100
AcDbLine
 62
7
  6
BYLAYER
 10
82.0330294189
 20
87.7378446389
 11
78.6530294189
 21
87.7378446389
  0
LINE
  5
2CF
100
AcDbEntity
  8
0
100
AcDbLine
 62
7
  6
BYLAYER
 10
28.2130294189
 20
87.7378446389
 11
24.8330294189
 21
87.7378446389
  0
LINE
  5
2D0
100
AcDbEntity
  8
0
100
AcDbLine
 62
7
  6
BYLAYER
 10
78.8592650499
 20
87.7483218729
 11
79.7493297142
 21
87.7483218729
  0
LINE
  5
2D1
100
AcDbEntity
  8
0
100
AcDbLine
 62
7
  6
BYLAYER
 10
80.5493297142
 20
87.7483218729
 11
81.8497777769
 21
87.7483218729
  0
LINE
  5
2D2
100
AcDbEntity
  8
0
100
AcDbLine
 62
7
  6
BYLAYER
 10
24.9353275434
 20
87.7543776916
 11
27.9657570516
 21
87.7543776916
  0
LINE
  5
2D3
100
AcDbEntity
  8
0
100
AcDbLine
 62
7
  6
BYLAYER
 10
91.9136493065
 20
87.7784164275
 11
94.9440973692
 21
87.7784164275
  0
LINE
  5
2D4
100
AcDbEntity
  8
0
100
AcDbLine
 62
7
  6
BYLAYER
 10
61.8330294189
 20
86.0028446389
 11
61.8330294189
 21
88.3028446389
  0
LINE
  5
2D5
100
AcDbEntity
  8
0
100
AcDbLine
 62
7
  6
BYLAYER
 10
62.0830294189
 20
88.3028446389
 11
62.0830294189
 21
86.0028446389
  0
LINE
  5
2D6
100
AcDbEntity
  8
0
100
AcDbLine
 62
7
  6
BYLAYER
 10
63.0830294189
 20
86.0028446389
 11
63.0830294189
 21
88.3028446389
  0
LINE
  5
2D7
100
AcDbEntity
  8
0
100
AcDbLine
 62
7
  6
BYLAYER
 10
63.3330294189
 20
88.3028446389
 11
63.3330294189
 21
86.0028446389
  0
LINE
  5
2D8
100
AcDbEntity
  8
0
100
AcDbLine
 62
7
  6
BYLAYER
 10
64.0844180034
 20
98.1528446389
 11
64.0844180034
 21
97.5528446389
  0
LINE
  5
2D9
100
AcDbEntity
  8
0
100
AcDbLine
 62
7
  6
BYLAYER
 10
64.0844180034
 20
83.6528446389
 11
64.0844180034
 21
84.2528446389
  0
LINE
  5
2DA
100
AcDbEntity
  8
0
100
AcDbLine
 62
7
  6
BYLAYER
 10
78.9193297142
 20
87.9483218729
 11
79.7493297142
 21
87.9483218729
  0
LINE
  5
2DB
100
AcDbEntity
  8
0
100
AcDbLine
 62
7
  6
BYLAYER
 10
80.5493297142
 20
87.9483218729
 11
81.6586076407
 21
87.9483218729
  0
LINE
  5
2DC
100
AcDbEntity
  8
0
100
AcDbLine
 62
7
  6
BYLAYER
 10
25.1264791251
 20
87.9543776916
 11
26.2357570516
 21
87.9543776916
  0
LINE
  5
2DD
100
AcDbEntity
  8
0
100
AcDbLine
 62
7
  6
BYLAYER
 10
27.0357570516
 20
87.9543776916
 11
27.8657570516
 21
87.9543776916
  0
LINE
  5
2DE
100
AcDbEntity
  8
0
100
AcDbLine
 62
7
  6
BYLAYER
 10
92.0136493065
 20
87.9784164275
 11
92.8436493065
 21
87.9784164275
  0
LINE
  5
2DF
100
AcDbEntity
  8
0
100
AcDbLine
 62
7
  6
BYLAYER
 10
93.6436493065
 20
87.9784164275
 11
94.752927233
 21
87.9784164275
  0
LINE
  5
2E0
100
AcDbEntity
  8
0
100
AcDbLine
 62
7
  6
BYLAYER
 10
70.3330294189
 20
88.3028446389
 11
68.8330294189
 21
88.3028446389
  0
LINE
  5
2E1
100
AcDbEntity
  8
0
100
AcDbLine
 62
7
  6
BYLAYER
 10
63.3330294189
 20
88.3028446389
 11
61.8330294189
 21
88.3028446389
  0
LINE
  5
2E2
100
AcDbEntity
  8
0
100
AcDbLine
 62
7
  6
BYLAYER
 10
81.3493297142
 20
89.003321873
 11
81.1586076431
 21
89.003321873
  0
LINE
  5
2E3
100
AcDbEntity
  8
0
100
AcDbLine
 62
7
  6
BYLAYER
 10
25.4357570516
 20
89.0093776916
 11
25.6264791226
 21
89.0093776916
  0
LINE
  5
2E4
100
AcDbEntity
  8
0
100
AcDbLine
 62
7
  6
BYLAYER
 10
94.4436493065
 20
89.0334164275
 11
94.2529272354
 21
89.0334164275
  0
LINE
  5
2E5
100
AcDbEntity
  8
0
100
AcDbLine
 62
7
  6
BYLAYER
 10
39.5186770931
 20
89.7528446389
 11
44.8525685693
 21
89.7528446389
  0
LINE
  5
2E6
100
AcDbEntity
  8
0
100
AcDbLine
 62
7
  6
BYLAYER
 10
81.6586076407
 20
90.0583218729
 11
80.5493297142
 21
90.0583218729
  0
LINE
  5
2E7
100
AcDbEntity
  8
0
100
AcDbLine
 62
7
  6
BYLAYER
 10
79.7493297142
 20
90.0583218729
 11
78.9193297142
 21
90.0583218729
  0
LINE
  5
2E8
100
AcDbEntity
  8
0
100
AcDbLine
 62
7
  6
BYLAYER
 10
27.8657570516
 20
90.0643776916
 11
27.0357570516
 21
90.0643776916
  0
LINE
  5
2E9
100
AcDbEntity
  8
0
100
AcDbLine
 62
7
  6
BYLAYER
 10
26.2357570516
 20
90.0643776916
 11
25.1264791251
 21
90.0643776916
  0
LINE
  5
2EA
100
AcDbEntity
  8
0
100
AcDbLine
 62
7
  6
BYLAYER
 10
94.752927233
 20
90.0884164275
 11
93.6436493065
 21
90.0884164275
  0
LINE
  5
2EB
100
AcDbEntity
  8
0
100
AcDbLine
 62
7
  6
BYLAYER
 10
92.8436493065
 20
90.0884164275
 11
92.0136493065
 21
90.0884164275
  0
LINE
  5
2EC
100
AcDbEntity
  8
0
100
AcDbLine
 62
7
  6
BYLAYER
 10
78.8193297142
 20
90.2583218729
 11
81.849769308
 21
90.2583218729
  0
LINE
  5
2ED
100
AcDbEntity
  8
0
100
AcDbLine
 62
7
  6
BYLAYER
 10
24.9353364622
 20
90.2643776916
 11
27.9657570516
 21
90.2643776916
  0
LINE
  5
2EE
100
AcDbEntity
  8
0
100
AcDbLine
 62
7
  6
BYLAYER
 10
78.6530294189
 20
90.2720380499
 11
79.9567305606
 21
90.2720380499
  0
LINE
  5
2EF
100
AcDbEntity
  8
0
100
AcDbLine
 62
7
  6
BYLAYER
 10
91.9136493065
 20
90.2884164275
 11
94.9440889003
 21
90.2884164275
  0
LINE
  5
2F0
100
AcDbEntity
  8
0
100
AcDbLine
 62
7
  6
BYLAYER
 10
26.4973907975
 20
90.3078446389
 11
28.2130294189
 21
90.3078446389
  0
LINE
  5
2F1
100
AcDbEntity
  8
0
100
AcDbLine
 62
7
  6
BYLAYER
 10
91.6563627522
 20
90.3078446389
 11
93.1062780121
 21
90.3078446389
  0
LINE
  5
2F2
100
AcDbEntity
  8
0
100
AcDbLine
 62
7
  6
BYLAYER
 10
78.6530294189
 20
90.3328446389
 11
82.0330294189
 21
90.3328446389
  0
LINE
  5
2F3
100
AcDbEntity
  8
0
100
AcDbLine
 62
7
  6
BYLAYER
 10
91.6546960856
 20
90.3328446389
 11
95.0330294189
 21
90.3328446389
  0
LINE
  5
2F4
100
AcDbEntity
  8
0
100
AcDbLine
 62
7
  6
BYLAYER
 10
24.8330294189
 20
90.3378446389
 11
28.2130294189
 21
90.3378446389
  0
LINE
  5
2F5
100
AcDbEntity
  8
0
100
AcDbLine
 62
7
  6
BYLAYER
 10
21.5452710121
 20
90.5778446389
 11
22.3908951943
 21
90.5778446389
  0
LINE
  5
2F6
100
AcDbEntity
  8
0
100
AcDbLine
 62
7
  6
BYLAYER
 10
84.4720974297
 20
90.5778446389
 11
85.3202921842
 21
90.5778446389
  0
LINE
  5
2F7
100
AcDbEntity
  8
0
100
AcDbLine
 62
7
  6
BYLAYER
 10
97.4734364547
 20
90.5778446389
 11
98.319507083
 21
90.5778446389
  0
LINE
  5
2F8
100
AcDbEntity
  8
0
100
AcDbLine
 62
7
  6
BYLAYER
 10
65.1830294189
 20
97.7278446389
 11
65.1830294189
 21
97.2778446389
  0
LINE
  5
2F9
100
AcDbEntity
  8
0
100
AcDbLine
 62
7
  6
BYLAYER
 10
65.1830294189
 20
84.0778446389
 11
65.1830294189
 21
84.5278446389
  0
LINE
  5
2FA
100
AcDbEntity
  8
0
100
AcDbLine
 62
7
  6
BYLAYER
 10
65.3330294189
 20
93.5028446389
 11
65.3330294189
 21
95.8028446389
  0
LINE
  5
2FB
100
AcDbEntity
  8
0
100
AcDbLine
 62
7
  6
BYLAYER
 10
65.5830294189
 20
95.8028446389
 11
65.5830294189
 21
93.5028446389
  0
LINE
  5
2FC
100
AcDbEntity
  8
0
100
AcDbLine
 62
7
  6
BYLAYER
 10
66.5830294189
 20
93.5028446389
 11
66.5830294189
 21
95.8028446389
  0
LINE
  5
2FD
100
AcDbEntity
  8
0
100
AcDbLine
 62
7
  6
BYLAYER
 10
66.8330294189
 20
95.8028446389
 11
66.8330294189
 21
93.5028446389
  0
LINE
  5
2FE
100
AcDbEntity
  8
0
100
AcDbLine
 62
7
  6
BYLAYER
 10
108.0370235753
 20
91.4728446389
 11
104.6530294189
 21
91.4728446389
  0
LINE
  5
2FF
100
AcDbEntity
  8
0
100
AcDbLine
 62
7
  6
BYLAYER
 10
28.2130294189
 20
91.4728446389
 11
24.8330294189
 21
91.4728446389
  0
LINE
  5
300
100
AcDbEntity
  8
0
100
AcDbLine
 62
7
  6
BYLAYER
 10
24.9315061784
 20
91.5098071574
 11
27.9619457723
 21
91.5098071574
  0
LINE
  5
301
100
AcDbEntity
  8
0
100
AcDbLine
 62
7
  6
BYLAYER
 10
104.8818127608
 20
91.5373538186
 11
107.9122333502
 21
91.5373538186
  0
LINE
  5
302
100
AcDbEntity
  8
0
100
AcDbLine
 62
7
  6
BYLAYER
 10
25.1226678457
 20
91.7098071574
 11
26.2319457723
 21
91.7098071574
  0
LINE
  5
303
100
AcDbEntity
  8
0
100
AcDbLine
 62
7
  6
BYLAYER
 10
27.0319457723
 20
91.7098071574
 11
27.8619457723
 21
91.7098071574
  0
LINE
  5
304
100
AcDbEntity
  8
0
100
AcDbLine
 62
7
  6
BYLAYER
 10
104.9818127608
 20
91.7373538186
 11
105.8118127608
 21
91.7373538186
  0
LINE
  5
305
100
AcDbEntity
  8
0
100
AcDbLine
 62
7
  6
BYLAYER
 10
106.6118127608
 20
91.7373538186
 11
107.7210906873
 21
91.7373538186
  0
LINE
  5
306
100
AcDbEntity
  8
0
100
AcDbLine
 62
7
  6
BYLAYER
 10
38.2330294189
 20
92.0528446389
 11
44.8569233469
 21
92.0528446389
  0
LINE
  5
307
100
AcDbEntity
  8
0
100
AcDbLine
 62
7
  6
BYLAYER
 10
25.4319457723
 20
92.7648071573
 11
25.6226678433
 21
92.7648071573
  0
LINE
  5
308
100
AcDbEntity
  8
0
100
AcDbLine
 62
7
  6
BYLAYER
 10
107.4118127608
 20
92.7923538186
 11
107.2210906897
 21
92.7923538186
  0
LINE
  5
309
100
AcDbEntity
  8
0
100
AcDbLine
 62
7
  6
BYLAYER
 10
65.3330294189
 20
93.5028446389
 11
66.8330294189
 21
93.5028446389
  0
LINE
  5
30A
100
AcDbEntity
  8
0
100
AcDbLine
 62
7
  6
BYLAYER
 10
27.8619457723
 20
93.8198071574
 11
27.0319457723
 21
93.8198071574
  0
LINE
  5
30B
100
AcDbEntity
  8
0
100
AcDbLine
 62
7
  6
BYLAYER
 10
26.2319457723
 20
93.8198071574
 11
25.1226678457
 21
93.8198071574
  0
LINE
  5
30C
100
AcDbEntity
  8
0
100
AcDbLine
 62
7
  6
BYLAYER
 10
107.7210906873
 20
93.8473538186
 11
106.6118127608
 21
93.8473538186
  0
LINE
  5
30D
100
AcDbEntity
  8
0
100
AcDbLine
 62
7
  6
BYLAYER
 10
105.8118127608
 20
93.8473538186
 11
104.9818127608
 21
93.8473538186
  0
LINE
  5
30E
100
AcDbEntity
  8
0
100
AcDbLine
 62
7
  6
BYLAYER
 10
24.9314977095
 20
94.0198071574
 11
27.9619457723
 21
94.0198071574
  0
LINE
  5
30F
100
AcDbEntity
  8
0
100
AcDbLine
 62
7
  6
BYLAYER
 10
104.8818127608
 20
94.0473538186
 11
107.9122422689
 21
94.0473538186
  0
LINE
  5
310
100
AcDbEntity
  8
0
100
AcDbLine
 62
7
  6
BYLAYER
 10
26.4973907975
 20
94.0478446389
 11
28.2130294189
 21
94.0478446389
  0
LINE
  5
311
100
AcDbEntity
  8
0
100
AcDbLine
 62
7
  6
BYLAYER
 10
104.6530294189
 20
94.0478446389
 11
104.7830294189
 21
94.0478446389
  0
LINE
  5
312
100
AcDbEntity
  8
0
100
AcDbLine
 62
7
  6
BYLAYER
 10
24.8330294189
 20
94.0678446389
 11
28.2130294189
 21
94.0678446389
  0
LINE
  5
313
100
AcDbEntity
  8
0
100
AcDbLine
 62
7
  6
BYLAYER
 10
104.6530294189
 20
94.0678446389
 11
108.0370235753
 21
94.0678446389
  0
LINE
  5
314
100
AcDbEntity
  8
0
100
AcDbLine
 62
7
  6
BYLAYER
 10
68.0844152819
 20
83.6528446389
 11
68.0844152819
 21
84.0778446389
  0
LINE
  5
315
100
AcDbEntity
  8
0
100
AcDbLine
 62
7
  6
BYLAYER
 10
68.0844152819
 20
97.7278446389
 11
68.0844152819
 21
98.1528446389
  0
LINE
  5
316
100
AcDbEntity
  8
0
100
AcDbLine
 62
7
  6
BYLAYER
 10
68.1830294189
 20
84.0778446389
 11
68.1830294189
 21
84.5278446389
  0
LINE
  5
317
100
AcDbEntity
  8
0
100
AcDbLine
 62
7
  6
BYLAYER
 10
68.1830294189
 20
97.2778446389
 11
68.1830294189
 21
97.7278446389
  0
LINE
  5
318
100
AcDbEntity
  8
0
100
AcDbLine
 62
7
  6
BYLAYER
 10
68.3847650304
 20
98.1528446389
 11
68.3847650304
 21
97.5528446389
  0
LINE
  5
319
100
AcDbEntity
  8
0
100
AcDbLine
 62
7
  6
BYLAYER
 10
68.3847650304
 20
84.2528446389
 11
68.3847650304
 21
83.6528446389
  0
LINE
  5
31A
100
AcDbEntity
  8
0
100
AcDbLine
 62
7
  6
BYLAYER
 10
68.8330294189
 20
86.0028446389
 11
68.8330294189
 21
88.3028446389
  0
LINE
  5
31B
100
AcDbEntity
  8
0
100
AcDbLine
 62
7
  6
BYLAYER
 10
69.0830294189
 20
88.3028446389
 11
69.0830294189
 21
86.0028446389
  0
LINE
  5
31C
100
AcDbEntity
  8
0
100
AcDbLine
 62
7
  6
BYLAYER
 10
70.0830294189
 20
86.0028446389
 11
70.0830294189
 21
88.3028446389
  0
LINE
  5
31D
100
AcDbEntity
  8
0
100
AcDbLine
 62
7
  6
BYLAYER
 10
70.3330294189
 20
88.3028446389
 11
70.3330294189
 21
86.0028446389
  0
LINE
  5
31E
100
AcDbEntity
  8
0
100
AcDbLine
 62
7
  6
BYLAYER
 10
61.8868691687
 20
83.0528446389
 11
62.4202021392
 21
83.4528446389
  0
LINE
  5
31F
100
AcDbEntity
  8
0
100
AcDbLine
 62
7
  6
BYLAYER
 10
61.8786498033
 20
83.0528446389
 11
62.4133814881
 21
83.4528446389
  0
LINE
  5
320
100
AcDbEntity
  8
0
100
AcDbLine
 62
7
  6
BYLAYER
 10
108.0370235753
 20
95.0378446389
 11
104.6530294189
 21
95.0378446389
  0
LINE
  5
321
100
AcDbEntity
  8
0
100
AcDbLine
 62
7
  6
BYLAYER
 10
28.2130294189
 20
95.0378446389
 11
24.8330294189
 21
95.0378446389
  0
LINE
  5
322
100
AcDbEntity
  8
0
100
AcDbLine
 62
7
  6
BYLAYER
 10
24.9315162641
 20
95.0798071574
 11
27.9619457723
 21
95.0798071574
  0
LINE
  5
323
100
AcDbEntity
  8
0
100
AcDbLine
 62
7
  6
BYLAYER
 10
104.8818127608
 20
95.1073538186
 11
107.9122608235
 21
95.1073538186
  0
LINE
  5
324
100
AcDbEntity
  8
0
100
AcDbLine
 62
7
  6
BYLAYER
 10
25.1226678457
 20
95.2798071574
 11
26.2319457723
 21
95.2798071574
  0
LINE
  5
325
100
AcDbEntity
  8
0
100
AcDbLine
 62
7
  6
BYLAYER
 10
27.0319457723
 20
95.2798071574
 11
27.8619457723
 21
95.2798071574
  0
LINE
  5
326
100
AcDbEntity
  8
0
100
AcDbLine
 62
7
  6
BYLAYER
 10
104.9818127608
 20
95.3073538186
 11
105.8118127608
 21
95.3073538186
  0
LINE
  5
327
100
AcDbEntity
  8
0
100
AcDbLine
 62
7
  6
BYLAYER
 10
106.6118127608
 20
95.3073538186
 11
107.7210906873
 21
95.3073538186
  0
LINE
  5
328
100
AcDbEntity
  8
0
100
AcDbLine
 62
7
  6
BYLAYER
 10
66.8330294189
 20
95.8028446389
 11
65.3330294189
 21
95.8028446389
  0
LINE
  5
329
100
AcDbEntity
  8
0
100
AcDbLine
 62
7
  6
BYLAYER
 10
25.4319457723
 20
96.3348071573
 11
25.6226678433
 21
96.3348071573
  0
LINE
  5
32A
100
AcDbEntity
  8
0
100
AcDbLine
 62
7
  6
BYLAYER
 10
107.4118127608
 20
96.3623538186
 11
107.2210906897
 21
96.3623538186
  0
LINE
  5
32B
100
AcDbEntity
  8
0
100
AcDbLine
 62
7
  6
BYLAYER
 10
73.7830294189
 20
97.0278446389
 11
58.6802222456
 21
97.0278446389
  0
LINE
  5
32C
100
AcDbEntity
  8
0
100
AcDbLine
 62
7
  6
BYLAYER
 10
56.8802234703
 20
97.0278446389
 11
52.0151115282
 21
97.0278446389
  0
LINE
  5
32D
100
AcDbEntity
  8
0
100
AcDbLine
 62
7
  6
BYLAYER
 10
44.8525685693
 20
97.0278446389
 11
43.6724442643
 21
97.0278446389
  0
LINE
  5
32E
100
AcDbEntity
  8
0
100
AcDbLine
 62
7
  6
BYLAYER
 10
43.9261328672
 20
97.2778446389
 11
44.8525685693
 21
97.2778446389
  0
LINE
  5
32F
100
AcDbEntity
  8
0
100
AcDbLine
 62
7
  6
BYLAYER
 10
52.0151115345
 20
97.2778446389
 11
56.8802234703
 21
97.2778446389
  0
LINE
  5
330
100
AcDbEntity
  8
0
100
AcDbLine
 62
7
  6
BYLAYER
 10
58.6802222456
 20
97.2778446389
 11
73.7830294189
 21
97.2778446389
  0
LINE
  5
331
100
AcDbEntity
  8
0
100
AcDbLine
 62
7
  6
BYLAYER
 10
68.1830294189
 20
97.3278446389
 11
65.1830294189
 21
97.3278446389
  0
LINE
  5
332
100
AcDbEntity
  8
0
100
AcDbLine
 62
7
  6
BYLAYER
 10
51.4667407591
 20
97.3528446389
 11
65.1830294189
 21
97.3528446389
  0
LINE
  5
333
100
AcDbEntity
  8
0
100
AcDbLine
 62
7
  6
BYLAYER
 10
27.8619457723
 20
97.3898071574
 11
27.0319457723
 21
97.3898071574
  0
LINE
  5
334
100
AcDbEntity
  8
0
100
AcDbLine
 62
7
  6
BYLAYER
 10
26.2319457723
 20
97.3898071574
 11
25.1226678457
 21
97.3898071574
  0
LINE
  5
335
100
AcDbEntity
  8
0
100
AcDbLine
 62
7
  6
BYLAYER
 10
107.7210906873
 20
97.4173538186
 11
106.6118127608
 21
97.4173538186
  0
LINE
  5
336
100
AcDbEntity
  8
0
100
AcDbLine
 62
7
  6
BYLAYER
 10
105.8118127608
 20
97.4173538186
 11
104.9818127608
 21
97.4173538186
  0
LINE
  5
337
100
AcDbEntity
  8
0
100
AcDbLine
 62
7
  6
BYLAYER
 10
64.0844180034
 20
97.5528446389
 11
65.1830294189
 21
97.5528446389
  0
LINE
  5
338
100
AcDbEntity
  8
0
100
AcDbLine
 62
7
  6
BYLAYER
 10
68.1830294189
 20
97.5528446389
 11
68.3847650304
 21
97.5528446389
  0
LINE
  5
339
100
AcDbEntity
  8
0
100
AcDbLine
 62
7
  6
BYLAYER
 10
24.9315251828
 20
97.5898071574
 11
27.9619457723
 21
97.5898071574
  0
LINE
  5
33A
100
AcDbEntity
  8
0
100
AcDbLine
 62
7
  6
BYLAYER
 10
104.8818127608
 20
97.6173538186
 11
107.9122523546
 21
97.6173538186
  0
LINE
  5
33B
100
AcDbEntity
  8
0
100
AcDbLine
 62
7
  6
BYLAYER
 10
26.4973907975
 20
97.6278446389
 11
28.2130294189
 21
97.6278446389
  0
LINE
  5
33C
100
AcDbEntity
  8
0
100
AcDbLine
 62
7
  6
BYLAYER
 10
104.6530294189
 20
97.6278446389
 11
104.8818127608
 21
97.6278446389
  0
LINE
  5
33D
100
AcDbEntity
  8
0
100
AcDbLine
 62
7
  6
BYLAYER
 10
104.6530294189
 20
97.6478446389
 11
108.0370235753
 21
97.6478496389
  0
LINE
  5
33E
100
AcDbEntity
  8
0
100
AcDbLine
 62
7
  6
BYLAYER
 10
24.8330294189
 20
97.6478446389
 11
28.2130294189
 21
97.6478446389
  0
LINE
  5
33F
100
AcDbEntity
  8
0
100
AcDbLine
 62
7
  6
BYLAYER
 10
65.1830294189
 20
97.7278446389
 11
68.1830294189
 21
97.7278446389
  0
LINE
  5
340
100
AcDbEntity
  8
0
100
AcDbLine
 62
7
  6
BYLAYER
 10
21.2925356646
 20
97.9278446389
 11
22.5946107384
 21
97.9278446389
  0
LINE
  5
341
100
AcDbEntity
  8
0
100
AcDbLine
 62
7
  6
BYLAYER
 10
110.3260908004
 20
97.9278446389
 11
111.5985849141
 21
97.9278446389
  0
LINE
  5
342
100
AcDbEntity
  8
0
100
AcDbLine
 62
7
  6
BYLAYER
 10
63.0149546336
 20
98.1528446389
 11
68.3847650304
 21
98.1528446389
  0
LINE
  5
343
100
AcDbEntity
  8
0
100
AcDbLine
 62
7
  6
BYLAYER
 10
62.4133814881
 20
98.352844639
 11
61.8786498033
 21
98.7528446389
  0
LINE
  5
344
100
AcDbEntity
  8
0
100
AcDbLine
 62
7
  6
BYLAYER
 10
62.4202021392
 20
98.3528446389
 11
61.8868691687
 21
98.7528446389
  0
LINE
  5
345
100
AcDbEntity
  8
0
100
AcDbLine
 62
7
  6
BYLAYER
 10
73.7830294189
 20
83.2278446389
 11
73.7830294189
 21
98.5778446389
  0
LINE
  5
346
100
AcDbEntity
  8
0
100
AcDbLine
 62
7
  6
BYLAYER
 10
74.5830294189
 20
98.8278446389
 11
74.5830294189
 21
82.9778446389
  0
LINE
  5
347
100
AcDbEntity
  8
0
100
AcDbLine
 62
7
  6
BYLAYER
 10
114.7830294189
 20
98.5778446389
 11
62.1202023433
 21
98.5778446389
  0
LINE
  5
348
100
AcDbEntity
  8
0
100
AcDbLine
 62
7
  6
BYLAYER
 10
44.8651744581
 20
98.5778446389
 11
16.8830294189
 21
98.5778446389
  0
LINE
  5
349
100
AcDbEntity
  8
0
100
AcDbLine
 62
7
  6
BYLAYER
 10
61.8786498033
 20
98.7528446389
 11
44.8525685693
 21
98.7528446389
  0
LINE
  5
34A
100
AcDbEntity
  8
0
100
AcDbLine
 62
7
  6
BYLAYER
 10
46.5830294189
 20
98.7778446389
 11
48.5830294189
 21
98.7778446389
  0
LINE
  5
34B
100
AcDbEntity
  8
0
100
AcDbLine
 62
7
  6
BYLAYER
 10
17.1330294189
 20
98.8278446389
 11
114.5330294189
 21
98.8278446389
  0
LINE
  5
34C
100
AcDbEntity
  8
0
100
AcDbLine
 62
7
  6
BYLAYER
 10
78.6530294189
 20
90.3328446389
 11
78.6530294189
 21
87.7378446389
  0
LINE
  5
34D
100
AcDbEntity
  8
0
100
AcDbLine
 62
7
  6
BYLAYER
 10
78.6530294189
 20
86.7678446389
 11
78.6530294189
 21
84.1578446389
  0
LINE
  5
34E
100
AcDbEntity
  8
0
100
AcDbLine
 62
7
  6
BYLAYER
 10
78.7830294189
 20
82.9778446389
 11
78.7830294189
 21
84.1578446389
  0
LINE
  5
34F
100
AcDbEntity
  8
0
100
AcDbLine
 62
7
  6
BYLAYER
 10
78.7830294189
 20
86.7678446389
 11
78.7830294189
 21
87.7378446389
  0
LINE
  5
350
100
AcDbEntity
  8
0
100
AcDbLine
 62
7
  6
BYLAYER
 10
78.7830294189
 20
90.3328446389
 11
78.7830294189
 21
98.8278446389
  0
LINE
  5
351
100
AcDbEntity
  8
0
100
AcDbLine
 62
7
  6
BYLAYER
 10
78.9193297142
 20
84.3783218729
 11
78.9193297142
 21
86.4883218729
  0
LINE
  5
352
100
AcDbEntity
  8
0
100
AcDbLine
 62
7
  6
BYLAYER
 10
78.9193297142
 20
87.9483218729
 11
78.9193297142
 21
90.0583218729
  0
LINE
  5
353
100
AcDbEntity
  8
0
100
AcDbLine
 62
7
  6
BYLAYER
 10
79.7493297142
 20
84.1783218729
 11
79.7493297142
 21
86.6883218729
  0
LINE
  5
354
100
AcDbEntity
  8
0
100
AcDbLine
 62
7
  6
BYLAYER
 10
79.7493297142
 20
87.7483218729
 11
79.7493297142
 21
90.2583218729
  0
LINE
  5
355
100
AcDbEntity
  8
0
100
AcDbLine
 62
7
  6
BYLAYER
 10
79.9493297142
 20
90.2583218729
 11
79.9493297142
 21
87.7483218729
  0
LINE
  5
356
100
AcDbEntity
  8
0
100
AcDbLine
 62
7
  6
BYLAYER
 10
79.9493297142
 20
86.6883218729
 11
79.9493297142
 21
84.1783218729
  0
LINE
  5
357
100
AcDbEntity
  8
0
100
AcDbLine
 62
7
  6
BYLAYER
 10
79.9567305606
 20
86.7020380499
 11
79.9567305606
 21
86.7678446389
  0
LINE
  5
358
100
AcDbEntity
  8
0
100
AcDbLine
 62
7
  6
BYLAYER
 10
79.9567305606
 20
90.2720380499
 11
79.9567305606
 21
90.3328446389
  0
LINE
  5
359
100
AcDbEntity
  8
0
100
AcDbLine
 62
7
  6
BYLAYER
 10
80.3493297142
 20
84.1783218729
 11
80.3493297142
 21
86.6883218729
  0
LINE
  5
35A
100
AcDbEntity
  8
0
100
AcDbLine
 62
7
  6
BYLAYER
 10
80.3493297142
 20
87.7483218729
 11
80.3493297142
 21
90.2583218729
  0
LINE
  5
35B
100
AcDbEntity
  8
0
100
AcDbLine
 62
7
  6
BYLAYER
 10
80.5493297142
 20
86.6883218729
 11
80.5493297142
 21
84.1783218729
  0
LINE
  5
35C
100
AcDbEntity
  8
0
100
AcDbLine
 62
7
  6
BYLAYER
 10
80.5493297142
 20
87.7483218729
 11
80.5493297142
 21
90.2583218729
  0
LINE
  5
35D
100
AcDbEntity
  8
0
100
AcDbLine
 62
7
  6
BYLAYER
 10
81.6586089282
 20
86.3108344853
 11
81.6586076407
 21
86.4883218729
  0
LINE
  5
35E
100
AcDbEntity
  8
0
100
AcDbLine
 62
7
  6
BYLAYER
 10
81.6586089282
 20
89.8808344853
 11
81.6586076407
 21
90.0583218729
  0
LINE
  5
35F
100
AcDbEntity
  8
0
100
AcDbLine
 62
7
  6
BYLAYER
 10
81.6586076407
 20
87.9483218729
 11
81.6586089282
 21
88.1258092606
  0
LINE
  5
360
100
AcDbEntity
  8
0
100
AcDbLine
 62
7
  6
BYLAYER
 10
81.6586076407
 20
84.3783218729
 11
81.6586089282
 21
84.5558092606
  0
LINE
  5
361
100
AcDbEntity
  8
0
100
AcDbLine
 62
7
  6
BYLAYER
 10
81.8493297142
 20
84.1783757018
 11
81.8493297142
 21
84.825426166
  0
LINE
  5
362
100
AcDbEntity
  8
0
100
AcDbLine
 62
7
  6
BYLAYER
 10
81.8493297142
 20
86.1002631119
 11
81.8493297142
 21
86.7678446389
  0
LINE
  5
363
100
AcDbEntity
  8
0
100
AcDbLine
 62
7
  6
BYLAYER
 10
81.8493297142
 20
87.7483757018
 11
81.8493297142
 21
88.4034061947
  0
LINE
  5
364
100
AcDbEntity
  8
0
100
AcDbLine
 62
7
  6
BYLAYER
 10
81.8493297142
 20
89.6672830832
 11
81.8493297142
 21
90.3328446389
  0
LINE
  5
365
100
AcDbEntity
  8
0
100
AcDbLine
 62
7
  6
BYLAYER
 10
82.0330294189
 20
84.1578446389
 11
82.0330294189
 21
84.7078446389
  0
LINE
  5
366
100
AcDbEntity
  8
0
100
AcDbLine
 62
7
  6
BYLAYER
 10
82.0330294189
 20
86.2178446389
 11
82.0330294189
 21
86.7678446389
  0
LINE
  5
367
100
AcDbEntity
  8
0
100
AcDbLine
 62
7
  6
BYLAYER
 10
82.0330294189
 20
87.7378446389
 11
82.0330294189
 21
88.2878446389
  0
LINE
  5
368
100
AcDbEntity
  8
0
100
AcDbLine
 62
7
  6
BYLAYER
 10
82.0330294189
 20
89.7828446389
 11
82.0330294189
 21
90.3328446389
  0
LINE
  5
369
100
AcDbEntity
  8
0
100
AcDbLine
 62
7
  6
BYLAYER
 10
82.9330294189
 20
89.8028446389
 11
82.9330294189
 21
84.6278446389
  0
LINE
  5
36A
100
AcDbEntity
  8
0
100
AcDbLine
 62
7
  6
BYLAYER
 10
83.5332589704
 20
98.5778446389
 11
83.5332589704
 21
90.3742753102
  0
LINE
  5
36B
100
AcDbEntity
  8
0
100
AcDbLine
 62
7
  6
BYLAYER
 10
83.5332589704
 20
84.0564136797
 11
83.5332589704
 21
83.2278446389
  0
LINE
  5
36C
100
AcDbEntity
  8
0
100
AcDbLine
 62
7
  6
BYLAYER
 10
84.3260908004
 20
98.5778446389
 11
84.3260908004
 21
90.5609183475
  0
LINE
  5
36D
100
AcDbEntity
  8
0
100
AcDbLine
 62
7
  6
BYLAYER
 10
84.3260908004
 20
83.8697709304
 11
84.3260908004
 21
83.2278446389
  0
LINE
  5
36E
100
AcDbEntity
  8
0
100
AcDbLine
 62
7
  6
BYLAYER
 10
86.9330294189
 20
89.8028446389
 11
86.9330294189
 21
84.6278446389
  0
LINE
  5
36F
100
AcDbEntity
  8
0
100
AcDbLine
 62
7
  6
BYLAYER
 10
88.6098148974
 20
83.2278446389
 11
88.6098148974
 21
98.5778446389
  0
LINE
  5
370
100
AcDbEntity
  8
0
100
AcDbLine
 62
7
  6
BYLAYER
 10
88.7830294189
 20
98.5778446389
 11
88.7830294189
 21
83.2278446389
  0
LINE
  5
371
100
AcDbEntity
  8
0
100
AcDbLine
 62
7
  6
BYLAYER
 10
91.6580294189
 20
84.1578446389
 11
91.6580294189
 21
86.7678446389
  0
LINE
  5
372
100
AcDbEntity
  8
0
100
AcDbLine
 62
7
  6
BYLAYER
 10
91.6580294189
 20
87.7378446389
 11
91.6580294189
 21
90.3328446389
  0
LINE
  5
373
100
AcDbEntity
  8
0
100
AcDbLine
 62
7
  6
BYLAYER
 10
91.7136493065
 20
84.4084164275
 11
91.7136493065
 21
86.5184164275
  0
LINE
  5
374
100
AcDbEntity
  8
0
100
AcDbLine
 62
7
  6
BYLAYER
 10
91.7136493065
 20
87.9784164275
 11
91.7136493065
 21
90.0884164275
  0
LINE
  5
375
100
AcDbEntity
  8
0
100
AcDbLine
 62
7
  6
BYLAYER
 10
91.7830294189
 20
82.9778446389
 11
91.7830294189
 21
84.1578446389
  0
LINE
  5
376
100
AcDbEntity
  8
0
100
AcDbLine
 62
7
  6
BYLAYER
 10
91.7830294189
 20
86.7678446389
 11
91.7830294189
 21
87.7378446389
  0
LINE
  5
377
100
AcDbEntity
  8
0
100
AcDbLine
 62
7
  6
BYLAYER
 10
91.7830294189
 20
90.3328446389
 11
91.7830294189
 21
98.8278446389
  0
LINE
  5
378
100
AcDbEntity
  8
0
100
AcDbLine
 62
7
  6
BYLAYER
 10
92.0136493065
 20
84.4084164275
 11
92.0136493065
 21
86.5184164275
  0
LINE
  5
379
100
AcDbEntity
  8
0
100
AcDbLine
 62
7
  6
BYLAYER
 10
92.0136493065
 20
87.9784164275
 11
92.0136493065
 21
90.0884164275
  0
LINE
  5
37A
100
AcDbEntity
  8
0
100
AcDbLine
 62
7
  6
BYLAYER
 10
92.8436493065
 20
84.2084164275
 11
92.8436493065
 21
86.7184164275
  0
LINE
  5
37B
100
AcDbEntity
  8
0
100
AcDbLine
 62
7
  6
BYLAYER
 10
92.8436493065
 20
87.7784164275
 11
92.8436493065
 21
90.2884164275
  0
LINE
  5
37C
100
AcDbEntity
  8
0
100
AcDbLine
 62
7
  6
BYLAYER
 10
93.0436493065
 20
90.2884164275
 11
93.0436493065
 21
87.7784164275
  0
LINE
  5
37D
100
AcDbEntity
  8
0
100
AcDbLine
 62
7
  6
BYLAYER
 10
93.0436493065
 20
86.7184164275
 11
93.0436493065
 21
84.2084164275
  0
LINE
  5
37E
100
AcDbEntity
  8
0
100
AcDbLine
 62
7
  6
BYLAYER
 10
93.1062780121
 20
86.7378446389
 11
93.1062780121
 21
86.7678446389
  0
LINE
  5
37F
100
AcDbEntity
  8
0
100
AcDbLine
 62
7
  6
BYLAYER
 10
93.1062780121
 20
90.3078446389
 11
93.1062780121
 21
90.3328446389
  0
LINE
  5
380
100
AcDbEntity
  8
0
100
AcDbLine
 62
7
  6
BYLAYER
 10
93.4436493065
 20
84.2084164275
 11
93.4436493065
 21
86.7184164275
  0
LINE
  5
381
100
AcDbEntity
  8
0
100
AcDbLine
 62
7
  6
BYLAYER
 10
93.4436493065
 20
87.7784164275
 11
93.4436493065
 21
90.2884164275
  0
LINE
  5
382
100
AcDbEntity
  8
0
100
AcDbLine
 62
7
  6
BYLAYER
 10
93.6436493065
 20
86.7184164275
 11
93.6436493065
 21
84.2084164275
  0
LINE
  5
383
100
AcDbEntity
  8
0
100
AcDbLine
 62
7
  6
BYLAYER
 10
93.6436493065
 20
87.7784164275
 11
93.6436493065
 21
90.2884164275
  0
LINE
  5
384
100
AcDbEntity
  8
0
100
AcDbLine
 62
7
  6
BYLAYER
 10
94.7529285205
 20
86.3409290398
 11
94.752927233
 21
86.5184164275
  0
LINE
  5
385
100
AcDbEntity
  8
0
100
AcDbLine
 62
7
  6
BYLAYER
 10
94.7529285205
 20
89.9109290398
 11
94.752927233
 21
90.0884164275
  0
LINE
  5
386
100
AcDbEntity
  8
0
100
AcDbLine
 62
7
  6
BYLAYER
 10
94.752927233
 20
87.9784164275
 11
94.7529285205
 21
88.1559038152
  0
LINE
  5
387
100
AcDbEntity
  8
0
100
AcDbLine
 62
7
  6
BYLAYER
 10
94.752927233
 20
84.4084164275
 11
94.7529285205
 21
84.5859038152
  0
LINE
  5
388
100
AcDbEntity
  8
0
100
AcDbLine
 62
7
  6
BYLAYER
 10
94.9436493065
 20
84.1578446389
 11
94.9436493065
 21
84.756590357
  0
LINE
  5
389
100
AcDbEntity
  8
0
100
AcDbLine
 62
7
  6
BYLAYER
 10
94.9436493065
 20
86.1690989209
 11
94.9436493065
 21
86.7678446389
  0
LINE
  5
38A
100
AcDbEntity
  8
0
100
AcDbLine
 62
7
  6
BYLAYER
 10
94.9436493065
 20
87.7378446389
 11
94.9436493065
 21
88.3356127628
  0
LINE
  5
38B
100
AcDbEntity
  8
0
100
AcDbLine
 62
7
  6
BYLAYER
 10
94.9436493065
 20
89.7350765151
 11
94.9436493065
 21
90.3328446389
  0
LINE
  5
38C
100
AcDbEntity
  8
0
100
AcDbLine
 62
7
  6
BYLAYER
 10
95.0330294189
 20
84.1578446389
 11
95.0330294189
 21
84.7078446389
  0
LINE
  5
38D
100
AcDbEntity
  8
0
100
AcDbLine
 62
7
  6
BYLAYER
 10
95.0330294189
 20
86.2178446389
 11
95.0330294189
 21
86.7678446389
  0
LINE
  5
38E
100
AcDbEntity
  8
0
100
AcDbLine
 62
7
  6
BYLAYER
 10
95.0330294189
 20
87.7378446389
 11
95.0330294189
 21
88.2878446389
  0
LINE
  5
38F
100
AcDbEntity
  8
0
100
AcDbLine
 62
7
  6
BYLAYER
 10
95.0330294189
 20
89.7828446389
 11
95.0330294189
 21
90.3328446389
  0
LINE
  5
390
100
AcDbEntity
  8
0
100
AcDbLine
 62
7
  6
BYLAYER
 10
95.9330294189
 20
89.8028446389
 11
95.9330294189
 21
84.6228446389
  0
LINE
  5
391
100
AcDbEntity
  8
0
100
AcDbLine
 62
7
  6
BYLAYER
 10
96.5332589704
 20
98.5778446389
 11
96.5332589704
 21
90.37416079
  0
LINE
  5
392
100
AcDbEntity
  8
0
100
AcDbLine
 62
7
  6
BYLAYER
 10
96.5332589704
 20
84.0515282145
 11
96.5332589704
 21
83.2278446389
  0
LINE
  5
393
100
AcDbEntity
  8
0
100
AcDbLine
 62
7
  6
BYLAYER
 10
97.3260908004
 20
98.5778446389
 11
97.3260908004
 21
90.560766747
  0
LINE
  5
394
100
AcDbEntity
  8
0
100
AcDbLine
 62
7
  6
BYLAYER
 10
97.3260908004
 20
83.8649225309
 11
97.3260908004
 21
83.2278446389
  0
LINE
  5
395
100
AcDbEntity
  8
0
100
AcDbLine
 62
7
  6
BYLAYER
 10
99.9330294189
 20
89.8028446389
 11
99.9330294189
 21
84.6228446389
  0
LINE
  5
396
100
AcDbEntity
  8
0
100
AcDbLine
 62
7
  6
BYLAYER
 10
101.6098148974
 20
83.2278446389
 11
101.6098148974
 21
98.5778446389
  0
LINE
  5
397
100
AcDbEntity
  8
0
100
AcDbLine
 62
7
  6
BYLAYER
 10
101.7830294189
 20
98.5778446389
 11
101.7830294189
 21
83.2278446389
  0
LINE
  5
398
100
AcDbEntity
  8
0
100
AcDbLine
 62
7
  6
BYLAYER
 10
104.6530294189
 20
91.4695113056
 11
104.6530294189
 21
94.0678446389
  0
LINE
  5
399
100
AcDbEntity
  8
0
100
AcDbLine
 62
7
  6
BYLAYER
 10
104.6530294189
 20
95.0378446389
 11
104.6530294189
 21
97.6478446389
  0
LINE
  5
39A
100
AcDbEntity
  8
0
100
AcDbLine
 62
7
  6
BYLAYER
 10
104.6818127608
 20
91.7373538186
 11
104.6818127608
 21
93.8473538186
  0
LINE
  5
39B
100
AcDbEntity
  8
0
100
AcDbLine
 62
7
  6
BYLAYER
 10
104.6818127608
 20
95.3073538186
 11
104.6818127608
 21
97.4173538186
  0
LINE
  5
39C
100
AcDbEntity
  8
0
100
AcDbLine
 62
7
  6
BYLAYER
 10
104.7830294189
 20
82.9778446389
 11
104.7830294189
 21
91.4695113056
  0
LINE
  5
39D
100
AcDbEntity
  8
0
100
AcDbLine
 62
7
  6
BYLAYER
 10
104.7830294189
 20
94.0678446389
 11
104.7830294189
 21
95.0378446389
  0
LINE
  5
39E
100
AcDbEntity
  8
0
100
AcDbLine
 62
7
  6
BYLAYER
 10
104.7830294189
 20
97.6478456333
 11
104.7830294189
 21
98.8278446389
  0
LINE
  5
39F
100
AcDbEntity
  8
0
100
AcDbLine
 62
7
  6
BYLAYER
 10
104.9818127608
 20
91.7373538186
 11
104.9818127608
 21
93.8473538186
  0
LINE
  5
3A0
100
AcDbEntity
  8
0
100
AcDbLine
 62
7
  6
BYLAYER
 10
104.9818127608
 20
95.3073538186
 11
104.9818127608
 21
97.4173538186
  0
LINE
  5
3A1
100
AcDbEntity
  8
0
100
AcDbLine
 62
7
  6
BYLAYER
 10
105.8118127608
 20
91.5373538186
 11
105.8118127608
 21
94.0473538186
  0
LINE
  5
3A2
100
AcDbEntity
  8
0
100
AcDbLine
 62
7
  6
BYLAYER
 10
105.8118127608
 20
95.1073538186
 11
105.8118127608
 21
97.6173538186
  0
LINE
  5
3A3
100
AcDbEntity
  8
0
100
AcDbLine
 62
7
  6
BYLAYER
 10
106.0118127608
 20
97.6173538186
 11
106.0118127608
 21
95.1073538186
  0
LINE
  5
3A4
100
AcDbEntity
  8
0
100
AcDbLine
 62
7
  6
BYLAYER
 10
106.0118127608
 20
94.0473538186
 11
106.0118127608
 21
91.5373538186
  0
LINE
  5
3A5
100
AcDbEntity
  8
0
100
AcDbLine
 62
7
  6
BYLAYER
 10
106.1211936299
 20
97.6225992288
 11
106.1211936299
 21
97.6478468082
  0
LINE
  5
3A6
100
AcDbEntity
  8
0
100
AcDbLine
 62
7
  6
BYLAYER
 10
106.4118127608
 20
91.5373538186
 11
106.4118127608
 21
94.0473538186
  0
LINE
  5
3A7
100
AcDbEntity
  8
0
100
AcDbLine
 62
7
  6
BYLAYER
 10
106.4118127608
 20
95.1073538186
 11
106.4118127608
 21
97.6173538186
  0
LINE
  5
3A8
100
AcDbEntity
  8
0
100
AcDbLine
 62
7
  6
BYLAYER
 10
106.6118127608
 20
94.0473538186
 11
106.6118127608
 21
91.5373538186
  0
LINE
  5
3A9
100
AcDbEntity
  8
0
100
AcDbLine
 62
7
  6
BYLAYER
 10
106.6118127608
 20
95.1073538186
 11
106.6118127608
 21
97.6173538186
  0
LINE
  5
3AA
100
AcDbEntity
  8
0
100
AcDbLine
 62
7
  6
BYLAYER
 10
107.7210906873
 20
95.3073538186
 11
107.7210919748
 21
95.4848412062
  0
LINE
  5
3AB
100
AcDbEntity
  8
0
100
AcDbLine
 62
7
  6
BYLAYER
 10
107.7210906873
 20
91.7373538186
 11
107.7210919748
 21
91.9148412062
  0
LINE
  5
3AC
100
AcDbEntity
  8
0
100
AcDbLine
 62
7
  6
BYLAYER
 10
107.7210919748
 20
93.6698664309
 11
107.7210906873
 21
93.8473538186
  0
LINE
  5
3AD
100
AcDbEntity
  8
0
100
AcDbLine
 62
7
  6
BYLAYER
 10
107.7210919748
 20
97.2398664309
 11
107.7210906873
 21
97.4173538186
  0
LINE
  5
3AE
100
AcDbEntity
  8
0
100
AcDbLine
 62
7
  6
BYLAYER
 10
107.9118127608
 20
97.6172999896
 11
107.9118127608
 21
97.1174424566
  0
LINE
  5
3AF
100
AcDbEntity
  8
0
100
AcDbLine
 62
7
  6
BYLAYER
 10
107.9118127608
 20
95.6072678909
 11
107.9118127608
 21
95.1074076475
  0
LINE
  5
3B0
100
AcDbEntity
  8
0
100
AcDbLine
 62
7
  6
BYLAYER
 10
107.9118127608
 20
94.0472999896
 11
107.9118127608
 21
93.5474424566
  0
LINE
  5
3B1
100
AcDbEntity
  8
0
100
AcDbLine
 62
7
  6
BYLAYER
 10
107.9118127608
 20
92.0372678909
 11
107.9118127608
 21
91.5374076475
  0
LINE
  5
3B2
100
AcDbEntity
  8
0
100
AcDbLine
 62
7
  6
BYLAYER
 10
108.0370235753
 20
91.4728446389
 11
108.0370235753
 21
92.0228446389
  0
LINE
  5
3B3
100
AcDbEntity
  8
0
100
AcDbLine
 62
7
  6
BYLAYER
 10
108.0370235753
 20
93.5178446389
 11
108.0370235753
 21
94.0678446389
  0
LINE
  5
3B4
100
AcDbEntity
  8
0
100
AcDbLine
 62
7
  6
BYLAYER
 10
108.0370235753
 20
95.0378446389
 11
108.0370235753
 21
95.5860814287
  0
LINE
  5
3B5
100
AcDbEntity
  8
0
100
AcDbLine
 62
7
  6
BYLAYER
 10
108.0370235753
 20
97.0978445583
 11
108.0370235753
 21
97.6478488385
  0
LINE
  5
3B6
100
AcDbEntity
  8
0
100
AcDbLine
 62
7
  6
BYLAYER
 10
108.9330294189
 20
97.1828446389
 11
108.9330294189
 21
92.0028446389
  0
LINE
  5
3B7
100
AcDbEntity
  8
0
100
AcDbLine
 62
7
  6
BYLAYER
 10
109.5332589704
 20
98.5778446389
 11
109.5332589704
 21
97.75416079
  0
LINE
  5
3B8
100
AcDbEntity
  8
0
100
AcDbLine
 62
7
  6
BYLAYER
 10
109.5332589704
 20
91.4315282145
 11
109.5332589704
 21
83.2278446389
  0
LINE
  5
3B9
100
AcDbEntity
  8
0
100
AcDbLine
 62
7
  6
BYLAYER
 10
110.3260908004
 20
98.5778446389
 11
110.3260908004
 21
97.940766747
  0
LINE
  5
3BA
100
AcDbEntity
  8
0
100
AcDbLine
 62
7
  6
BYLAYER
 10
110.3260908004
 20
91.2449225309
 11
110.3260908004
 21
83.2278446389
  0
LINE
  5
3BB
100
AcDbEntity
  8
0
100
AcDbLine
 62
7
  6
BYLAYER
 10
112.9330294189
 20
92.0028446389
 11
112.9330294189
 21
97.1828446389
  0
LINE
  5
3BC
100
AcDbEntity
  8
0
100
AcDbLine
 62
7
  6
BYLAYER
 10
114.6098148974
 20
83.2278446389
 11
114.6098148974
 21
98.5778446389
  0
LINE
  5
3BD
100
AcDbEntity
  8
0
100
AcDbLine
 62
7
  6
BYLAYER
 10
114.7830294189
 20
98.5778446389
 11
114.7830294189
 21
83.2278446389
  0
ARC
  5
3BE
100
AcDbEntity
  8
0
100
AcDbCircle
 62
7
  6
BYLAYER
 10
21.9330638509
 20
86.2053466941
 40
4.3976608227
100
AcDbArc
 50
67.4225953128
 51
112.5437758452
  0
ARC
  5
3BF
100
AcDbEntity
  8
0
100
AcDbCircle
 62
7
  6
BYLAYER
 10
17.2043497625
 20
86.6278446389
 40
1.5
100
AcDbArc
 50
224.9999999999
 51
257.6424333266
  0
CIRCLE
  5
3C0
100
AcDbEntity
  8
0
100
AcDbCircle
 62
7
  6
BYLAYER
 10
29.8830294189
 20
85.6628446389
 40
1.05
  0
ARC
  5
3C1
100
AcDbEntity
  8
0
100
AcDbCircle
 62
7
  6
BYLAYER
 10
26.6549845281
 20
85.4393776916
 40
0.8781050557
100
AcDbArc
 50
295.698961141
 51
64.301038859
  0
ARC
  5
3C2
100
AcDbEntity
  8
0
100
AcDbCircle
 62
7
  6
BYLAYER
 10
24.4792533772
 20
85.4628446389
 40
0.8337760417
100
AcDbArc
 50
295.1067331003
 51
64.8932668997
  0
ARC
  5
3C3
100
AcDbEntity
  8
0
100
AcDbCircle
 62
7
  6
BYLAYER
 10
24.6157320516
 20
85.4393776916
 40
0.820025
100
AcDbArc
 50
292.9582358888
 51
67.0412780979
  0
ARC
  5
3C4
100
AcDbEntity
  8
0
100
AcDbCircle
 62
7
  6
BYLAYER
 10
26.6357570516
 20
85.4393776916
 40
0.6
100
AcDbArc
 50
311.8103148958
 51
48.1896851042
  0
ARC
  5
3C5
100
AcDbEntity
  8
0
100
AcDbCircle
 62
7
  6
BYLAYER
 10
26.6357570516
 20
85.4393776916
 40
0.6
100
AcDbArc
 50
131.8103148958
 51
228.1896851042
  0
ARC
  5
3C6
100
AcDbEntity
  8
0
100
AcDbCircle
 62
7
  6
BYLAYER
 10
23.4330294189
 20
84.6278446389
 40
0.5
100
AcDbArc
 50
292.139775073
 51
360.0
  0
ARC
  5
3C7
100
AcDbEntity
  8
0
100
AcDbCircle
 62
7
  6
BYLAYER
 10
20.4330294189
 20
84.6278446389
 40
0.5
100
AcDbArc
 50
180.0
 51
248.1633042497
  0
ARC
  5
3C8
100
AcDbEntity
  8
0
100
AcDbCircle
 62
7
  6
BYLAYER
 10
17.1330294189
 20
83.2278446389
 40
0.25
100
AcDbArc
 50
180.0
 51
270.0
  0
ARC
  5
3C9
100
AcDbEntity
  8
0
100
AcDbCircle
 62
7
  6
BYLAYER
 10
18.3330294189
 20
83.2278446389
 40
0.25
100
AcDbArc
 50
180.0
 51
270.0
  0
ARC
  5
3CA
100
AcDbEntity
  8
0
100
AcDbCircle
 62
7
  6
BYLAYER
 10
31.3330294189
 20
83.2278446389
 40
0.25
100
AcDbArc
 50
270.0
 51
360.0
  0
ARC
  5
3CB
100
AcDbEntity
  8
0
100
AcDbCircle
 62
7
  6
BYLAYER
 10
27.9657570516
 20
84.3843776916
 40
0.2
100
AcDbArc
 50
270.0
 51
360.0
  0
ARC
  5
3CC
100
AcDbEntity
  8
0
100
AcDbCircle
 62
7
  6
BYLAYER
 10
27.9657570516
 20
86.4943776916
 40
0.2
100
AcDbArc
 50
0.0
 51
90.0
  0
ARC
  5
3CD
100
AcDbEntity
  8
0
100
AcDbCircle
 62
7
  6
BYLAYER
 10
21.9330638509
 20
88.2253425838
 40
4.3976608227
100
AcDbArc
 50
247.4562241548
 51
292.5774046899
  0
ARC
  5
3CE
100
AcDbEntity
  8
0
100
AcDbCircle
 62
7
  6
BYLAYER
 10
35.0830294189
 20
89.5528446389
 40
2.2
100
AcDbArc
 50
59.9586360744
 51
239.9586360733
  0
ARC
  5
3CF
100
AcDbEntity
  8
0
100
AcDbCircle
 62
7
  6
BYLAYER
 10
16.8830294189
 20
90.877844639
 40
2.1
100
AcDbArc
 50
90.0
 51
270.0
  0
ARC
  5
3D0
100
AcDbEntity
  8
0
100
AcDbCircle
 62
7
  6
BYLAYER
 10
35.0830294189
 20
89.5528446389
 40
1.9
100
AcDbArc
 50
59.9586360737
 51
239.9586360737
  0
ARC
  5
3D1
100
AcDbEntity
  8
0
100
AcDbCircle
 62
7
  6
BYLAYER
 10
15.0830294189
 20
88.7491649825
 40
1.5
100
AcDbArc
 50
180.0
 51
225.0000000001
  0
ARC
  5
3D2
100
AcDbEntity
  8
0
100
AcDbCircle
 62
7
  6
BYLAYER
 10
26.6549845282
 20
89.0093776916
 40
0.8781050556
100
AcDbArc
 50
295.6989611376
 51
64.3010388624
  0
ARC
  5
3D3
100
AcDbEntity
  8
0
100
AcDbCircle
 62
7
  6
BYLAYER
 10
24.4870919189
 20
89.0378446389
 40
0.8259375
100
AcDbArc
 50
294.7615138576
 51
65.2384861424
  0
ARC
  5
3D4
100
AcDbEntity
  8
0
100
AcDbCircle
 62
7
  6
BYLAYER
 10
24.6157320516
 20
89.0093776916
 40
0.820025
100
AcDbArc
 50
292.9582358888
 51
67.0412780979
  0
ARC
  5
3D5
100
AcDbEntity
  8
0
100
AcDbCircle
 62
7
  6
BYLAYER
 10
26.6357570516
 20
89.0093776916
 40
0.6
100
AcDbArc
 50
311.8103148958
 51
48.1896851042
  0
ARC
  5
3D6
100
AcDbEntity
  8
0
100
AcDbCircle
 62
7
  6
BYLAYER
 10
26.6357570516
 20
89.0093776916
 40
0.6
100
AcDbArc
 50
131.8103148958
 51
228.1896851042
  0
ARC
  5
3D7
100
AcDbEntity
  8
0
100
AcDbCircle
 62
7
  6
BYLAYER
 10
20.4330294189
 20
89.8028446389
 40
0.5
100
AcDbArc
 50
111.8366957503
 51
180.0
  0
ARC
  5
3D8
100
AcDbEntity
  8
0
100
AcDbCircle
 62
7
  6
BYLAYER
 10
23.4330294189
 20
89.8028446389
 40
0.5
100
AcDbArc
 50
0.0
 51
67.8602249505
  0
ARC
  5
3D9
100
AcDbEntity
  8
0
100
AcDbCircle
 62
7
  6
BYLAYER
 10
27.9657570516
 20
90.0643776916
 40
0.2
100
AcDbArc
 50
0.0
 51
90.0
  0
ARC
  5
3DA
100
AcDbEntity
  8
0
100
AcDbCircle
 62
7
  6
BYLAYER
 10
27.9657570516
 20
87.9543776916
 40
0.2
100
AcDbArc
 50
270.0
 51
360.0
  0
ARC
  5
3DB
100
AcDbEntity
  8
0
100
AcDbCircle
 62
7
  6
BYLAYER
 10
63.0141436069
 20
82.6528446389
 40
1.0
100
AcDbArc
 50
90.0436895666
 51
126.9048146235
  0
ARC
  5
3DC
100
AcDbEntity
  8
0
100
AcDbCircle
 62
7
  6
BYLAYER
 10
44.1330294189
 20
83.2278446389
 40
0.25
100
AcDbArc
 50
270.0
 51
360.0
  0
ARC
  5
3DD
100
AcDbEntity
  8
0
100
AcDbCircle
 62
7
  6
BYLAYER
 10
59.0330294189
 20
84.7778446389
 40
0.25
100
AcDbArc
 50
180.0
 51
270.0
  0
ARC
  5
3DE
100
AcDbEntity
  8
0
100
AcDbCircle
 62
7
  6
BYLAYER
 10
42.8330294189
 20
83.2278446389
 40
0.25
100
AcDbArc
 50
180.0
 51
270.0
  0
ARC
  5
3DF
100
AcDbEntity
  8
0
100
AcDbCircle
 62
7
  6
BYLAYER
 10
39.2330294189
 20
87.1528446389
 40
2.2
100
AcDbArc
 50
239.9586360744
 51
59.9586360733
  0
ARC
  5
3E0
100
AcDbEntity
  8
0
100
AcDbCircle
 62
7
  6
BYLAYER
 10
39.2330294189
 20
87.1528446389
 40
1.9
100
AcDbArc
 50
239.9586360737
 51
59.9586360737
  0
ARC
  5
3E1
100
AcDbEntity
  8
0
100
AcDbCircle
 62
7
  6
BYLAYER
 10
21.9330638509
 20
93.5802273114
 40
4.3976608227
100
AcDbArc
 50
67.5228601507
 51
112.4625568423
  0
ARC
  5
3E2
100
AcDbEntity
  8
0
100
AcDbCircle
 62
7
  6
BYLAYER
 10
17.2043497625
 20
95.1278446389
 40
1.5
100
AcDbArc
 50
102.1100901919
 51
135.0000000001
  0
ARC
  5
3E3
100
AcDbEntity
  8
0
100
AcDbCircle
 62
7
  6
BYLAYER
 10
15.0830294189
 20
93.0065242954
 40
1.5
100
AcDbArc
 50
135.0000000001
 51
180.0
  0
ARC
  5
3E4
100
AcDbEntity
  8
0
100
AcDbCircle
 62
7
  6
BYLAYER
 10
26.6511732487
 20
92.7648071574
 40
0.8781050558
100
AcDbArc
 50
295.698961146
 51
64.301038854
  0
ARC
  5
3E5
100
AcDbEntity
  8
0
100
AcDbCircle
 62
7
  6
BYLAYER
 10
24.4909916585
 20
92.7703446389
 40
0.8220377604
100
AcDbArc
 50
294.5876764121
 51
65.4123235879
  0
ARC
  5
3E6
100
AcDbEntity
  8
0
100
AcDbCircle
 62
7
  6
BYLAYER
 10
24.6119207723
 20
92.7648071574
 40
0.820025
100
AcDbArc
 50
292.9582358888
 51
67.0412780979
  0
ARC
  5
3E7
100
AcDbEntity
  8
0
100
AcDbCircle
 62
7
  6
BYLAYER
 10
26.6319457723
 20
92.7648071574
 40
0.6
100
AcDbArc
 50
311.8103148958
 51
48.1896851042
  0
ARC
  5
3E8
100
AcDbEntity
  8
0
100
AcDbCircle
 62
7
  6
BYLAYER
 10
26.6319457723
 20
92.7648071574
 40
0.6
100
AcDbArc
 50
131.8103148958
 51
228.1896851042
  0
ARC
  5
3E9
100
AcDbEntity
  8
0
100
AcDbCircle
 62
7
  6
BYLAYER
 10
20.4330294189
 20
92.0028446389
 40
0.5
100
AcDbArc
 50
180.0
 51
248.872532688
  0
ARC
  5
3EA
100
AcDbEntity
  8
0
100
AcDbCircle
 62
7
  6
BYLAYER
 10
23.4330294189
 20
92.0028446389
 40
0.5
100
AcDbArc
 50
291.263055257
 51
360.0
  0
ARC
  5
3EB
100
AcDbEntity
  8
0
100
AcDbCircle
 62
7
  6
BYLAYER
 10
27.9619457723
 20
91.7098071574
 40
0.2
100
AcDbArc
 50
270.0
 51
360.0
  0
ARC
  5
3EC
100
AcDbEntity
  8
0
100
AcDbCircle
 62
7
  6
BYLAYER
 10
27.9619457723
 20
93.8198071574
 40
0.2
100
AcDbArc
 50
0.0
 51
90.0
  0
ARC
  5
3ED
100
AcDbEntity
  8
0
100
AcDbCircle
 62
7
  6
BYLAYER
 10
27.9619457723
 20
95.2798071574
 40
0.2
100
AcDbArc
 50
270.0
 51
360.0
  0
ARC
  5
3EE
100
AcDbEntity
  8
0
100
AcDbCircle
 62
7
  6
BYLAYER
 10
21.9330638509
 20
95.6004619665
 40
4.3976608227
100
AcDbArc
 50
247.5374431577
 51
292.477139849
  0
CIRCLE
  5
3EF
100
AcDbEntity
  8
0
100
AcDbCircle
 62
7
  6
BYLAYER
 10
29.8830294189
 20
96.1428446389
 40
1.05
  0
ARC
  5
3F0
100
AcDbEntity
  8
0
100
AcDbCircle
 62
7
  6
BYLAYER
 10
26.6511732488
 20
96.3348071574
 40
0.8781050557
100
AcDbArc
 50
295.6989611397
 51
64.3010388603
  0
ARC
  5
3F1
100
AcDbEntity
  8
0
100
AcDbCircle
 62
7
  6
BYLAYER
 10
24.4792533772
 20
96.3428446389
 40
0.8337760417
100
AcDbArc
 50
295.1067331003
 51
64.8932668997
  0
ARC
  5
3F2
100
AcDbEntity
  8
0
100
AcDbCircle
 62
7
  6
BYLAYER
 10
24.6119207723
 20
96.3348071574
 40
0.820025
100
AcDbArc
 50
292.9582358888
 51
67.0412780979
  0
ARC
  5
3F3
100
AcDbEntity
  8
0
100
AcDbCircle
 62
7
  6
BYLAYER
 10
26.6319457723
 20
96.3348071574
 40
0.6
100
AcDbArc
 50
131.8103148958
 51
228.1896851042
  0
ARC
  5
3F4
100
AcDbEntity
  8
0
100
AcDbCircle
 62
7
  6
BYLAYER
 10
26.6319457723
 20
96.3348071574
 40
0.6
100
AcDbArc
 50
311.8103148958
 51
48.1896851042
  0
ARC
  5
3F5
100
AcDbEntity
  8
0
100
AcDbCircle
 62
7
  6
BYLAYER
 10
23.4330294189
 20
97.1778446389
 40
0.5
100
AcDbArc
 50
0.0
 51
68.7369447405
  0
ARC
  5
3F6
100
AcDbEntity
  8
0
100
AcDbCircle
 62
7
  6
BYLAYER
 10
20.4330294189
 20
97.1778446389
 40
0.5
100
AcDbArc
 50
111.127467312
 51
180.0
  0
ARC
  5
3F7
100
AcDbEntity
  8
0
100
AcDbCircle
 62
7
  6
BYLAYER
 10
17.1330294189
 20
98.5778446389
 40
0.25
100
AcDbArc
 50
90.0
 51
180.0
  0
ARC
  5
3F8
100
AcDbEntity
  8
0
100
AcDbCircle
 62
7
  6
BYLAYER
 10
18.3330294189
 20
98.5778446389
 40
0.25
100
AcDbArc
 50
90.0
 51
180.0
  0
ARC
  5
3F9
100
AcDbEntity
  8
0
100
AcDbCircle
 62
7
  6
BYLAYER
 10
31.3330294189
 20
98.5778446389
 40
0.25
100
AcDbArc
 50
0.0
 51
90.0
  0
ARC
  5
3FA
100
AcDbEntity
  8
0
100
AcDbCircle
 62
7
  6
BYLAYER
 10
27.9619457723
 20
97.3898071574
 40
0.2
100
AcDbArc
 50
0.0
 51
90.0
  0
ARC
  5
3FB
100
AcDbEntity
  8
0
100
AcDbCircle
 62
7
  6
BYLAYER
 10
37.5875811517
 20
95.6028446389
 40
0.15
100
AcDbArc
 50
242.2622632672
 51
57.737736733
  0
CIRCLE
  5
3FC
100
AcDbEntity
  8
0
100
AcDbCircle
 62
7
  6
BYLAYER
 10
39.2330294189
 20
94.6528446389
 40
2.2
  0
CIRCLE
  5
3FD
100
AcDbEntity
  8
0
100
AcDbCircle
 62
7
  6
BYLAYER
 10
39.2330294189
 20
94.6528446389
 40
1.9
  0
ARC
  5
3FE
100
AcDbEntity
  8
0
100
AcDbCircle
 62
7
  6
BYLAYER
 10
39.2330294189
 20
92.7528446389
 40
0.15
100
AcDbArc
 50
2.262263266
 51
177.737736734
  0
ARC
  5
3FF
100
AcDbEntity
  8
0
100
AcDbCircle
 62
7
  6
BYLAYER
 10
63.0141436158
 20
99.1528446389
 40
1.0
100
AcDbArc
 50
233.0951849689
 51
269.9563099234
  0
ARC
  5
400
100
AcDbEntity
  8
0
100
AcDbCircle
 62
7
  6
BYLAYER
 10
59.0330294189
 20
97.0278446389
 40
0.25
100
AcDbArc
 50
90.0
 51
180.0
  0
ARC
  5
401
100
AcDbEntity
  8
0
100
AcDbCircle
 62
7
  6
BYLAYER
 10
44.1330294189
 20
98.5778446389
 40
0.25
100
AcDbArc
 50
0.0
 51
90.0
  0
ARC
  5
402
100
AcDbEntity
  8
0
100
AcDbCircle
 62
7
  6
BYLAYER
 10
42.8330294189
 20
98.5778446389
 40
0.25
100
AcDbArc
 50
90.0
 51
180.0
  0
ARC
  5
403
100
AcDbEntity
  8
0
100
AcDbCircle
 62
7
  6
BYLAYER
 10
40.8784776861
 20
95.6028446389
 40
0.15
100
AcDbArc
 50
122.262263267
 51
297.7377367328
  0
ARC
  5
404
100
AcDbEntity
  8
0
100
AcDbCircle
 62
7
  6
BYLAYER
 10
84.9330638509
 20
86.2053466941
 40
4.3976608227
100
AcDbArc
 50
67.42259531
 51
112.5437758451
  0
CIRCLE
  5
405
100
AcDbEntity
  8
0
100
AcDbCircle
 62
7
  6
BYLAYER
 10
76.9830294189
 20
85.6628446389
 40
1.05
  0
CIRCLE
  5
406
100
AcDbEntity
  8
0
100
AcDbCircle
 62
7
  6
BYLAYER
 10
89.9830294189
 20
85.6628446389
 40
1.05
  0
ARC
  5
407
100
AcDbEntity
  8
0
100
AcDbCircle
 62
7
  6
BYLAYER
 10
80.1301071706
 20
85.4333218729
 40
0.8781089906
100
AcDbArc
 50
115.6991944003
 51
244.3008055997
  0
ARC
  5
408
100
AcDbEntity
  8
0
100
AcDbCircle
 62
7
  6
BYLAYER
 10
82.3868054606
 20
85.4628446389
 40
0.8337760417
100
AcDbArc
 50
115.1067331005
 51
244.8932668995
  0
ARC
  5
409
100
AcDbEntity
  8
0
100
AcDbCircle
 62
7
  6
BYLAYER
 10
82.1693547142
 20
85.4333218729
 40
0.820025
100
AcDbArc
 50
112.9582358888
 51
247.0412780976
  0
ARC
  5
40A
100
AcDbEntity
  8
0
100
AcDbCircle
 62
7
  6
BYLAYER
 10
80.1493297142
 20
85.4333218729
 40
0.6
100
AcDbArc
 50
311.8103148958
 51
48.1896851042
  0
ARC
  5
40B
100
AcDbEntity
  8
0
100
AcDbCircle
 62
7
  6
BYLAYER
 10
80.1493297142
 20
85.4333218729
 40
0.6
100
AcDbArc
 50
131.8103148958
 51
228.1896851042
  0
ARC
  5
40C
100
AcDbEntity
  8
0
100
AcDbCircle
 62
7
  6
BYLAYER
 10
83.4330294189
 20
84.6278446389
 40
0.5
100
AcDbArc
 50
180.0
 51
248.1633042498
  0
ARC
  5
40D
100
AcDbEntity
  8
0
100
AcDbCircle
 62
7
  6
BYLAYER
 10
86.4330294189
 20
84.6278446389
 40
0.5
100
AcDbArc
 50
292.1397750734
 51
360.0
  0
ARC
  5
40E
100
AcDbEntity
  8
0
100
AcDbCircle
 62
7
  6
BYLAYER
 10
88.5330294189
 20
83.2278446389
 40
0.25
100
AcDbArc
 50
270.0000000002
 51
360.0
  0
ARC
  5
40F
100
AcDbEntity
  8
0
100
AcDbCircle
 62
7
  6
BYLAYER
 10
74.0330294189
 20
83.2278446389
 40
0.25
100
AcDbArc
 50
180.0
 51
270.0
  0
ARC
  5
410
100
AcDbEntity
  8
0
100
AcDbCircle
 62
7
  6
BYLAYER
 10
68.1847651665
 20
84.2528446389
 40
0.2
100
AcDbArc
 50
0.0000000006
 51
89.9999999998
  0
ARC
  5
411
100
AcDbEntity
  8
0
100
AcDbCircle
 62
7
  6
BYLAYER
 10
78.8193297142
 20
86.4883218729
 40
0.2
100
AcDbArc
 50
90.0000000004
 51
146.2532862727
  0
ARC
  5
412
100
AcDbEntity
  8
0
100
AcDbCircle
 62
7
  6
BYLAYER
 10
78.8193297142
 20
84.3783218729
 40
0.2
100
AcDbArc
 50
213.7467137273
 51
269.9999999996
  0
ARC
  5
413
100
AcDbEntity
  8
0
100
AcDbCircle
 62
7
  6
BYLAYER
 10
84.9330638509
 20
88.2253425838
 40
4.3976608227
100
AcDbArc
 50
247.4562241549
 51
292.57740469
  0
ARC
  5
414
100
AcDbEntity
  8
0
100
AcDbCircle
 62
7
  6
BYLAYER
 10
80.1301071707
 20
89.0033218729
 40
0.8781089906
100
AcDbArc
 50
115.6991944063
 51
244.3008055937
  0
ARC
  5
415
100
AcDbEntity
  8
0
100
AcDbCircle
 62
7
  6
BYLAYER
 10
82.3750671793
 20
89.0353446389
 40
0.8220377604
100
AcDbArc
 50
114.5876764123
 51
245.4123235877
  0
ARC
  5
416
100
AcDbEntity
  8
0
100
AcDbCircle
 62
7
  6
BYLAYER
 10
82.1693547142
 20
89.0033218729
 40
0.820025
100
AcDbArc
 50
112.9582358888
 51
247.0412780976
  0
ARC
  5
417
100
AcDbEntity
  8
0
100
AcDbCircle
 62
7
  6
BYLAYER
 10
80.1493297142
 20
89.0033218729
 40
0.6
100
AcDbArc
 50
311.8103148958
 51
48.1896851042
  0
ARC
  5
418
100
AcDbEntity
  8
0
100
AcDbCircle
 62
7
  6
BYLAYER
 10
80.1493297142
 20
89.0033218729
 40
0.6
100
AcDbArc
 50
131.8103148958
 51
228.1896851042
  0
ARC
  5
419
100
AcDbEntity
  8
0
100
AcDbCircle
 62
7
  6
BYLAYER
 10
83.4330294189
 20
89.8028446389
 40
0.5
100
AcDbArc
 50
111.8366957502
 51
180.0
  0
ARC
  5
41A
100
AcDbEntity
  8
0
100
AcDbCircle
 62
7
  6
BYLAYER
 10
86.4330294189
 20
89.8028446389
 40
0.5
100
AcDbArc
 50
0.0
 51
67.8602249266
  0
ARC
  5
41B
100
AcDbEntity
  8
0
100
AcDbCircle
 62
7
  6
BYLAYER
 10
78.8193297142
 20
90.0583218729
 40
0.2
100
AcDbArc
 50
90.0000000004
 51
146.2532862727
  0
ARC
  5
41C
100
AcDbEntity
  8
0
100
AcDbCircle
 62
7
  6
BYLAYER
 10
78.8193297142
 20
87.9483218729
 40
0.2
100
AcDbArc
 50
213.7467137273
 51
269.9999999996
  0
ARC
  5
41D
100
AcDbEntity
  8
0
100
AcDbCircle
 62
7
  6
BYLAYER
 10
97.9330294189
 20
86.2045131377
 40
4.3983315013
100
AcDbArc
 50
67.5274814724
 51
112.4725185273
  0
ARC
  5
41E
100
AcDbEntity
  8
0
100
AcDbCircle
 62
7
  6
BYLAYER
 10
93.224426763
 20
85.4634164275
 40
0.8781089906
100
AcDbArc
 50
115.6991944071
 51
244.3008055929
  0
ARC
  5
41F
100
AcDbEntity
  8
0
100
AcDbCircle
 62
7
  6
BYLAYER
 10
95.3868054606
 20
85.4628446389
 40
0.8337760417
100
AcDbArc
 50
115.1067331005
 51
244.8932668995
  0
ARC
  5
420
100
AcDbEntity
  8
0
100
AcDbCircle
 62
7
  6
BYLAYER
 10
95.2636743065
 20
85.4634164275
 40
0.820025
100
AcDbArc
 50
112.9582358888
 51
247.0412780982
  0
ARC
  5
421
100
AcDbEntity
  8
0
100
AcDbCircle
 62
7
  6
BYLAYER
 10
93.2436493065
 20
85.4634164275
 40
0.6
100
AcDbArc
 50
131.8103148958
 51
228.1896851042
  0
ARC
  5
422
100
AcDbEntity
  8
0
100
AcDbCircle
 62
7
  6
BYLAYER
 10
93.2436493065
 20
85.4634164275
 40
0.6
100
AcDbArc
 50
311.8103148958
 51
48.1896851042
  0
ARC
  5
423
100
AcDbEntity
  8
0
100
AcDbCircle
 62
7
  6
BYLAYER
 10
96.4330294189
 20
84.6228446389
 40
0.5
100
AcDbArc
 50
180.0
 51
248.7499577947
  0
ARC
  5
424
100
AcDbEntity
  8
0
100
AcDbCircle
 62
7
  6
BYLAYER
 10
99.4330294189
 20
84.6228446389
 40
0.5
100
AcDbArc
 50
291.2500422053
 51
360.0
  0
ARC
  5
425
100
AcDbEntity
  8
0
100
AcDbCircle
 62
7
  6
BYLAYER
 10
114.5330294189
 20
83.2278446389
 40
0.25
100
AcDbArc
 50
270.0000000003
 51
360.0
  0
ARC
  5
426
100
AcDbEntity
  8
0
100
AcDbCircle
 62
7
  6
BYLAYER
 10
101.5330294189
 20
83.2278446389
 40
0.25
100
AcDbArc
 50
270.0000000002
 51
360.0
  0
ARC
  5
427
100
AcDbEntity
  8
0
100
AcDbCircle
 62
7
  6
BYLAYER
 10
91.9136493065
 20
86.5184164275
 40
0.2
100
AcDbArc
 50
90.0
 51
180.0000000007
  0
ARC
  5
428
100
AcDbEntity
  8
0
100
AcDbCircle
 62
7
  6
BYLAYER
 10
91.9136493065
 20
84.4084164275
 40
0.2
100
AcDbArc
 50
179.9999999993
 51
270.0
  0
ARC
  5
429
100
AcDbEntity
  8
0
100
AcDbCircle
 62
7
  6
BYLAYER
 10
97.9330294189
 20
88.2211761402
 40
4.3983315013
100
AcDbArc
 50
247.5274814724
 51
292.4725185276
  0
ARC
  5
42A
100
AcDbEntity
  8
0
100
AcDbCircle
 62
7
  6
BYLAYER
 10
93.224426763
 20
89.0334164275
 40
0.8781089906
100
AcDbArc
 50
115.699194409
 51
244.300805591
  0
ARC
  5
42B
100
AcDbEntity
  8
0
100
AcDbCircle
 62
7
  6
BYLAYER
 10
95.3750671793
 20
89.0353446389
 40
0.8220377604
100
AcDbArc
 50
114.5876764123
 51
245.4123235877
  0
ARC
  5
42C
100
AcDbEntity
  8
0
100
AcDbCircle
 62
7
  6
BYLAYER
 10
95.2636743065
 20
89.0334164275
 40
0.820025
100
AcDbArc
 50
112.9582358888
 51
247.0412780982
  0
ARC
  5
42D
100
AcDbEntity
  8
0
100
AcDbCircle
 62
7
  6
BYLAYER
 10
93.2436493065
 20
89.0334164275
 40
0.6
100
AcDbArc
 50
311.8103148958
 51
48.1896851042
  0
ARC
  5
42E
100
AcDbEntity
  8
0
100
AcDbCircle
 62
7
  6
BYLAYER
 10
93.2436493065
 20
89.0334164275
 40
0.6
100
AcDbArc
 50
131.8103148958
 51
228.1896851042
  0
ARC
  5
42F
100
AcDbEntity
  8
0
100
AcDbCircle
 62
7
  6
BYLAYER
 10
96.4330294189
 20
89.8028446389
 40
0.5
100
AcDbArc
 50
111.250042203
 51
180.0
  0
ARC
  5
430
100
AcDbEntity
  8
0
100
AcDbCircle
 62
7
  6
BYLAYER
 10
99.4330294189
 20
89.8028446389
 40
0.5
100
AcDbArc
 50
0.0
 51
68.7499577947
  0
ARC
  5
431
100
AcDbEntity
  8
0
100
AcDbCircle
 62
7
  6
BYLAYER
 10
91.9136493065
 20
87.9784164275
 40
0.2
100
AcDbArc
 50
179.9999999993
 51
270.0
  0
ARC
  5
432
100
AcDbEntity
  8
0
100
AcDbCircle
 62
7
  6
BYLAYER
 10
91.9136493065
 20
90.0884164275
 40
0.2
100
AcDbArc
 50
90.0
 51
180.0000000007
  0
ARC
  5
433
100
AcDbEntity
  8
0
100
AcDbCircle
 62
7
  6
BYLAYER
 10
88.5330294189
 20
98.577844639
 40
0.25
100
AcDbArc
 50
0.0
 51
89.9999999999
  0
ARC
  5
434
100
AcDbEntity
  8
0
100
AcDbCircle
 62
7
  6
BYLAYER
 10
74.0330294189
 20
98.5778446389
 40
0.25
100
AcDbArc
 50
90.0
 51
180.0
  0
ARC
  5
435
100
AcDbEntity
  8
0
100
AcDbCircle
 62
7
  6
BYLAYER
 10
68.1859316753
 20
97.5528446389
 40
0.2
100
AcDbArc
 50
270.0
 51
360.0
  0
ARC
  5
436
100
AcDbEntity
  8
0
100
AcDbCircle
 62
7
  6
BYLAYER
 10
110.9330294189
 20
93.5845131377
 40
4.3983315013
100
AcDbArc
 50
67.5274814724
 51
112.4725185276
  0
ARC
  5
437
100
AcDbEntity
  8
0
100
AcDbCircle
 62
7
  6
BYLAYER
 10
106.1925902172
 20
92.7923538186
 40
0.8781089905
100
AcDbArc
 50
115.6991944021
 51
244.3008055979
  0
ARC
  5
438
100
AcDbEntity
  8
0
100
AcDbCircle
 62
7
  6
BYLAYER
 10
108.3790613357
 20
92.7703446389
 40
0.8220377604
100
AcDbArc
 50
114.5876764117
 51
245.4123235883
  0
ARC
  5
439
100
AcDbEntity
  8
0
100
AcDbCircle
 62
7
  6
BYLAYER
 10
108.2318377608
 20
92.7923538186
 40
0.820025
100
AcDbArc
 50
112.9582358888
 51
247.0412780976
  0
ARC
  5
43A
100
AcDbEntity
  8
0
100
AcDbCircle
 62
7
  6
BYLAYER
 10
106.2118127608
 20
92.7923538186
 40
0.6
100
AcDbArc
 50
311.8103148958
 51
48.1896851042
  0
ARC
  5
43B
100
AcDbEntity
  8
0
100
AcDbCircle
 62
7
  6
BYLAYER
 10
106.2118127608
 20
92.7923538186
 40
0.6
100
AcDbArc
 50
131.8103148958
 51
228.1896851042
  0
ARC
  5
43C
100
AcDbEntity
  8
0
100
AcDbCircle
 62
7
  6
BYLAYER
 10
109.4330294189
 20
92.0028446389
 40
0.5
100
AcDbArc
 50
180.0
 51
248.749957797
  0
ARC
  5
43D
100
AcDbEntity
  8
0
100
AcDbCircle
 62
7
  6
BYLAYER
 10
112.4330294189
 20
92.0028446389
 40
0.5
100
AcDbArc
 50
291.2500422053
 51
360.0
  0
ARC
  5
43E
100
AcDbEntity
  8
0
100
AcDbCircle
 62
7
  6
BYLAYER
 10
104.8818127608
 20
93.8473538186
 40
0.2
100
AcDbArc
 50
90.0000000001
 51
180.0
  0
ARC
  5
43F
100
AcDbEntity
  8
0
100
AcDbCircle
 62
7
  6
BYLAYER
 10
104.8818127608
 20
91.7373538186
 40
0.2
100
AcDbArc
 50
180.0
 51
269.9999999999
  0
ARC
  5
440
100
AcDbEntity
  8
0
100
AcDbCircle
 62
7
  6
BYLAYER
 10
110.9330294189
 20
95.6011761402
 40
4.3983315013
100
AcDbArc
 50
247.5274814727
 51
292.4725185276
  0
CIRCLE
  5
441
100
AcDbEntity
  8
0
100
AcDbCircle
 62
7
  6
BYLAYER
 10
102.9830294189
 20
96.1407567153
 40
1.05
  0
ARC
  5
442
100
AcDbEntity
  8
0
100
AcDbCircle
 62
7
  6
BYLAYER
 10
106.1925902173
 20
96.3623538186
 40
0.8781089906
100
AcDbArc
 50
115.6991944065
 51
244.3008055935
  0
ARC
  5
443
100
AcDbEntity
  8
0
100
AcDbCircle
 62
7
  6
BYLAYER
 10
108.3907996169
 20
96.3428446389
 40
0.8337786584
100
AcDbArc
 50
115.1067430659
 51
245.0621652998
  0
ARC
  5
444
100
AcDbEntity
  8
0
100
AcDbCircle
 62
7
  6
BYLAYER
 10
108.2318377608
 20
96.3623538186
 40
0.820025
100
AcDbArc
 50
112.9582358888
 51
247.0412780976
  0
ARC
  5
445
100
AcDbEntity
  8
0
100
AcDbCircle
 62
7
  6
BYLAYER
 10
106.2118127608
 20
96.3623538186
 40
0.6
100
AcDbArc
 50
131.8103148958
 51
228.1896851042
  0
ARC
  5
446
100
AcDbEntity
  8
0
100
AcDbCircle
 62
7
  6
BYLAYER
 10
106.2118127608
 20
96.3623538186
 40
0.6
100
AcDbArc
 50
311.8103148958
 51
48.1896851042
  0
ARC
  5
447
100
AcDbEntity
  8
0
100
AcDbCircle
 62
7
  6
BYLAYER
 10
109.4330294189
 20
97.1828446389
 40
0.5
100
AcDbArc
 50
111.2500422054
 51
180.0
  0
ARC
  5
448
100
AcDbEntity
  8
0
100
AcDbCircle
 62
7
  6
BYLAYER
 10
112.4330294189
 20
97.1828446389
 40
0.5
100
AcDbArc
 50
0.0
 51
68.7499577947
  0
ARC
  5
449
100
AcDbEntity
  8
0
100
AcDbCircle
 62
7
  6
BYLAYER
 10
114.5330294189
 20
98.5778446389
 40
0.25
100
AcDbArc
 50
0.0
 51
89.9999999997
  0
ARC
  5
44A
100
AcDbEntity
  8
0
100
AcDbCircle
 62
7
  6
BYLAYER
 10
101.5330294189
 20
98.577844639
 40
0.25
100
AcDbArc
 50
0.0
 51
89.9999999998
  0
ARC
  5
44B
100
AcDbEntity
  8
0
100
AcDbCircle
 62
7
  6
BYLAYER
 10
104.8818127608
 20
97.4173538186
 40
0.2
100
AcDbArc
 50
90.0000000001
 51
180.0
  0
ARC
  5
44C
100
AcDbEntity
  8
0
100
AcDbCircle
 62
7
  6
BYLAYER
 10
104.8818127608
 20
95.3073538186
 40
0.2
100
AcDbArc
 50
180.0
 51
269.9999999999
  0
SPLINE
  5
44D
100
AcDbEntity
  8
0
100
AcDbSpline
 62
7
  6
BYLAYER
 70
0
 71
3
 72
12
 73
8
 74
0
 42
0.0000001
 43
0.0000001
 44
0.0000000001
 40
0.0
 40
0.0
 40
0.0
 40
0.0
 40
0.0877759002
 40
0.190142059
 40
0.4307988903
 40
0.706338163
 40
1.0
 40
1.0
 40
1.0
 40
1.0
 10
52.0868087674
 20
93.1462328482
 30
0.0
 10
52.0861994486
 20
93.1709580393
 30
0.0
 10
52.0823667161
 20
93.2244453046
 30
0.0
 10
52.0686198917
 20
93.3450520567
 30
0.0
 10
52.0447709738
 20
93.5177163404
 30
0.0
 10
52.0212567757
 20
93.7447815273
 30
0.0
 10
52.0151114595
 20
93.9052236482
 30
0.0
 10
52.0151114382
 20
93.98796902
 30
0.0
  0
SPLINE
  5
44E
100
AcDbEntity
  8
0
100
AcDbSpline
 62
7
  6
BYLAYER
 70
0
 71
3
 72
12
 73
8
 74
0
 42
0.0000001
 43
0.0000001
 44
0.0000000001
 40
0.0
 40
0.0
 40
0.0
 40
0.0
 40
0.2936616558
 40
0.5692005235
 40
0.8098578599
 40
0.9122241152
 40
1.0
 40
1.0
 40
1.0
 40
1.0
 10
52.0151114382
 20
87.8177202577
 30
0.0
 10
52.0151114595
 20
87.9004655796
 30
0.0
 10
52.021256756
 20
88.0609075301
 30
0.0
 10
52.0447705379
 20
88.2879727444
 30
0.0
 10
52.0686197965
 20
88.4606370432
 30
0.0
 10
52.0823667062
 20
88.5812439539
 30
0.0
 10
52.0861994487
 20
88.6347312426
 30
0.0
 10
52.0868087674
 20
88.6594564297
 30
0.0
  0
SPLINE
  5
44F
100
AcDbEntity
  8
0
100
AcDbSpline
 62
7
  6
BYLAYER
 70
0
 71
3
 72
11
 73
7
 74
0
 42
0.0000001
 43
0.0000001
 44
0.0000000001
 40
0.0
 40
0.0
 40
0.0
 40
0.0
 40
0.3188765446
 40
0.6055011477
 40
0.8346172253
 40
1.0
 40
1.0
 40
1.0
 40
1.0
 10
114.6098148974
 20
98.5778446389
 30
0.0
 10
114.6098148974
 20
98.6070135176
 30
0.0
 10
114.605869667
 20
98.6624911388
 30
0.0
 10
114.5880512717
 20
98.737233193
 30
0.0
 10
114.5617208236
 20
98.7940241638
 30
0.0
 10
114.5336002284
 20
98.8203058285
 30
0.0
 10
114.519297415
 20
98.825234535
 30
0.0
  0
SPLINE
  5
450
100
AcDbEntity
  8
0
100
AcDbSpline
 62
7
  6
BYLAYER
 70
0
 71
3
 72
8
 73
4
 74
0
 42
0.0000001
 43
0.0000001
 44
0.0000000001
 40
0.0
 40
0.0
 40
0.0
 40
0.0
 40
1.0
 40
1.0
 40
1.0
 40
1.0
 10
114.519297415
 20
98.825234535
 30
0.0
 10
114.5144566145
 20
98.8269026603
 30
0.0
 10
114.5092804874
 20
98.8278446389
 30
0.0
 10
114.504160332
 20
98.8278446389
 30
0.0
  0
SPLINE
  5
451
100
AcDbEntity
  8
0
100
AcDbSpline
 62
7
  6
BYLAYER
 70
0
 71
3
 72
11
 73
7
 74
0
 42
0.0000001
 43
0.0000001
 44
0.0000000001
 40
0.0
 40
0.0
 40
0.0
 40
0.0
 40
0.3670165724
 40
0.5076318286
 40
0.6631594479
 40
1.0
 40
1.0
 40
1.0
 40
1.0
 10
110.220436235
 20
98.8278446389
 30
0.0
 10
110.2553059862
 20
98.8278446389
 30
0.0
 10
110.2902354645
 20
98.7734771866
 30
0.0
 10
110.3092041033
 20
98.7159276295
 30
0.0
 10
110.3225568362
 20
98.656566221
 30
0.0
 10
110.3260908004
 20
98.609847407
 30
0.0
 10
110.3260908004
 20
98.5778446389
 30
0.0
  0
SPLINE
  5
452
100
AcDbEntity
  8
0
100
AcDbSpline
 62
7
  6
BYLAYER
 70
0
 71
3
 72
12
 73
8
 74
0
 42
0.0000001
 43
0.0000001
 44
0.0000000001
 40
0.0
 40
0.0
 40
0.0
 40
0.0
 40
0.0352142368
 40
0.0973700376
 40
0.3131529269
 40
0.6291458871
 40
1.0
 40
1.0
 40
1.0
 40
1.0
 10
109.4936737241
 20
98.8278446389
 30
0.0
 10
109.4967033492
 20
98.8278446389
 30
0.0
 10
109.5039068355
 20
98.8213938802
 30
0.0
 10
109.5139624023
 20
98.7969050259
 30
0.0
 10
109.5241897928
 20
98.7460029338
 30
0.0
 10
109.5314913614
 20
98.6689538978
 30
0.0
 10
109.5332589704
 20
98.6097507386
 30
0.0
 10
109.5332589704
 20
98.5778446389
 30
0.0
  0
SPLINE
  5
453
100
AcDbEntity
  8
0
100
AcDbSpline
 62
7
  6
BYLAYER
 70
0
 71
3
 72
11
 73
7
 74
0
 42
0.0000001
 43
0.0000001
 44
0.0000000001
 40
0.0
 40
0.0
 40
0.0
 40
0.0
 40
0.3188765446
 40
0.6055011477
 40
0.8346172253
 40
1.0
 40
1.0
 40
1.0
 40
1.0
 10
101.6098148974
 20
98.5778446389
 30
0.0
 10
101.6098148974
 20
98.6070135176
 30
0.0
 10
101.605869667
 20
98.6624911388
 30
0.0
 10
101.5880512717
 20
98.737233193
 30
0.0
 10
101.5617208236
 20
98.7940241638
 30
0.0
 10
101.5336002284
 20
98.8203058285
 30
0.0
 10
101.519297415
 20
98.825234535
 30
0.0
  0
SPLINE
  5
454
100
AcDbEntity
  8
0
100
AcDbSpline
 62
7
  6
BYLAYER
 70
0
 71
3
 72
8
 73
4
 74
0
 42
0.0000001
 43
0.0000001
 44
0.0000000001
 40
0.0
 40
0.0
 40
0.0
 40
0.0
 40
1.0
 40
1.0
 40
1.0
 40
1.0
 10
101.519297415
 20
98.825234535
 30
0.0
 10
101.5144566145
 20
98.8269026603
 30
0.0
 10
101.5092804874
 20
98.8278446389
 30
0.0
 10
101.504160332
 20
98.8278446389
 30
0.0
  0
SPLINE
  5
455
100
AcDbEntity
  8
0
100
AcDbSpline
 62
7
  6
BYLAYER
 70
0
 71
3
 72
11
 73
7
 74
0
 42
0.0000001
 43
0.0000001
 44
0.0000000001
 40
0.0
 40
0.0
 40
0.0
 40
0.0
 40
0.3670165724
 40
0.5076318286
 40
0.6631594479
 40
1.0
 40
1.0
 40
1.0
 40
1.0
 10
97.220436235
 20
98.8278446389
 30
0.0
 10
97.2553059862
 20
98.8278446389
 30
0.0
 10
97.2902354645
 20
98.7734771866
 30
0.0
 10
97.3092041033
 20
98.7159276295
 30
0.0
 10
97.3225568362
 20
98.656566221
 30
0.0
 10
97.3260908004
 20
98.609847407
 30
0.0
 10
97.3260908004
 20
98.5778446389
 30
0.0
  0
SPLINE
  5
456
100
AcDbEntity
  8
0
100
AcDbSpline
 62
7
  6
BYLAYER
 70
0
 71
3
 72
12
 73
8
 74
0
 42
0.0000001
 43
0.0000001
 44
0.0000000001
 40
0.0
 40
0.0
 40
0.0
 40
0.0
 40
0.0352142368
 40
0.0973700376
 40
0.3131529269
 40
0.6291458871
 40
1.0
 40
1.0
 40
1.0
 40
1.0
 10
96.4936737241
 20
98.8278446389
 30
0.0
 10
96.4967033492
 20
98.8278446389
 30
0.0
 10
96.5039068355
 20
98.8213938802
 30
0.0
 10
96.5139624023
 20
98.7969050259
 30
0.0
 10
96.5241897928
 20
98.7460029338
 30
0.0
 10
96.5314913614
 20
98.6689538978
 30
0.0
 10
96.5332589704
 20
98.6097507386
 30
0.0
 10
96.5332589704
 20
98.5778446389
 30
0.0
  0
SPLINE
  5
457
100
AcDbEntity
  8
0
100
AcDbSpline
 62
7
  6
BYLAYER
 70
0
 71
3
 72
11
 73
7
 74
0
 42
0.0000001
 43
0.0000001
 44
0.0000000001
 40
0.0
 40
0.0
 40
0.0
 40
0.0
 40
0.3188765446
 40
0.6055011477
 40
0.8346172253
 40
1.0
 40
1.0
 40
1.0
 40
1.0
 10
88.6098148974
 20
98.5778446389
 30
0.0
 10
88.6098148974
 20
98.6070135176
 30
0.0
 10
88.605869667
 20
98.6624911388
 30
0.0
 10
88.5880512717
 20
98.737233193
 30
0.0
 10
88.5617208236
 20
98.7940241638
 30
0.0
 10
88.5336002284
 20
98.8203058285
 30
0.0
 10
88.519297415
 20
98.825234535
 30
0.0
  0
SPLINE
  5
458
100
AcDbEntity
  8
0
100
AcDbSpline
 62
7
  6
BYLAYER
 70
0
 71
3
 72
8
 73
4
 74
0
 42
0.0000001
 43
0.0000001
 44
0.0000000001
 40
0.0
 40
0.0
 40
0.0
 40
0.0
 40
1.0
 40
1.0
 40
1.0
 40
1.0
 10
88.519297415
 20
98.825234535
 30
0.0
 10
88.5144566145
 20
98.8269026603
 30
0.0
 10
88.5092804874
 20
98.8278446389
 30
0.0
 10
88.504160332
 20
98.8278446389
 30
0.0
  0
SPLINE
  5
459
100
AcDbEntity
  8
0
100
AcDbSpline
 62
7
  6
BYLAYER
 70
0
 71
3
 72
11
 73
7
 74
0
 42
0.0000001
 43
0.0000001
 44
0.0000000001
 40
0.0
 40
0.0
 40
0.0
 40
0.0
 40
0.3670165724
 40
0.5076318286
 40
0.6631594479
 40
1.0
 40
1.0
 40
1.0
 40
1.0
 10
84.220436235
 20
98.8278446389
 30
0.0
 10
84.2553059862
 20
98.8278446389
 30
0.0
 10
84.2902354645
 20
98.7734771866
 30
0.0
 10
84.3092041033
 20
98.7159276295
 30
0.0
 10
84.3225568362
 20
98.656566221
 30
0.0
 10
84.3260908004
 20
98.609847407
 30
0.0
 10
84.3260908004
 20
98.5778446389
 30
0.0
  0
SPLINE
  5
45A
100
AcDbEntity
  8
0
100
AcDbSpline
 62
7
  6
BYLAYER
 70
0
 71
3
 72
12
 73
8
 74
0
 42
0.0000001
 43
0.0000001
 44
0.0000000001
 40
0.0
 40
0.0
 40
0.0
 40
0.0
 40
0.0352142368
 40
0.0973700376
 40
0.3131529269
 40
0.6291458871
 40
1.0
 40
1.0
 40
1.0
 40
1.0
 10
83.4936737241
 20
98.8278446389
 30
0.0
 10
83.4967033492
 20
98.8278446389
 30
0.0
 10
83.5039068355
 20
98.8213938802
 30
0.0
 10
83.5139624023
 20
98.7969050259
 30
0.0
 10
83.5241897928
 20
98.7460029338
 30
0.0
 10
83.5314913614
 20
98.6689538978
 30
0.0
 10
83.5332589704
 20
98.6097507386
 30
0.0
 10
83.5332589704
 20
98.5778446389
 30
0.0
  0
SPLINE
  5
45B
100
AcDbEntity
  8
0
100
AcDbSpline
 62
7
  6
BYLAYER
 70
0
 71
3
 72
17
 73
13
 74
0
 42
0.0000001
 43
0.0000001
 44
0.0000000001
 40
0.0
 40
0.0
 40
0.0
 40
0.0
 40
0.0064647096
 40
0.0240260713
 40
0.0521462221
 40
0.0900950487
 40
0.1370386443
 40
0.192006798
 40
0.3220835992
 40
0.4733438307
 40
0.6403289996
 40
1.0
 40
1.0
 40
1.0
 40
1.0
 10
107.9117926417
 20
97.1170440814
 30
0.0
 10
107.9120605255
 20
97.117453746
 30
0.0
 10
107.9098797189
 20
97.1190208579
 30
0.0
 10
107.9077282605
 20
97.1213860438
 30
0.0
 10
107.9022970382
 20
97.1254186448
 30
0.0
 10
107.8956168802
 20
97.1304707079
 30
0.0
 10
107.8869218213
 20
97.1366334086
 30
0.0
 10
107.8725037032
 20
97.1466144019
 30
0.0
 10
107.8512787334
 20
97.1607175689
 30
0.0
 10
107.8226960044
 20
97.1790178578
 30
0.0
 10
107.7791404055
 20
97.206177427
 30
0.0
 10
107.7448959386
 20
97.2266398998
 30
0.0
 10
107.721091331
 20
97.239866798
 30
0.0
  0
SPLINE
  5
45C
100
AcDbEntity
  8
0
100
AcDbSpline
 62
7
  6
BYLAYER
 70
0
 71
3
 72
9
 73
5
 74
0
 42
0.0000001
 43
0.0000001
 44
0.0000000001
 40
0.0
 40
0.0
 40
0.0
 40
0.0
 40
0.2653719095
 40
1.0
 40
1.0
 40
1.0
 40
1.0
 10
25.122667202
 20
95.2798065318
 30
0.0
 10
25.110237363
 20
95.2673632958
 30
0.0
 10
25.0633283329
 20
95.2205424909
 30
0.0
 10
25.0172357088
 20
95.1729111586
 30
0.0
 10
24.983520662
 20
95.1377846212
 30
0.0
  0
SPLINE
  5
45D
100
AcDbEntity
  8
0
100
AcDbSpline
 62
7
  6
BYLAYER
 70
0
 71
3
 72
14
 73
10
 74
0
 42
0.0000001
 43
0.0000001
 44
0.0000000001
 40
0.0
 40
0.0
 40
0.0
 40
0.0
 40
0.3894145672
 40
0.5577595504
 40
0.7042983648
 40
0.8257976541
 40
0.9182880872
 40
0.9775340382
 40
1.0
 40
1.0
 40
1.0
 40
1.0
 10
24.983520662
 20
95.1377846212
 30
0.0
 10
24.9765359883
 20
95.130507532
 30
0.0
 10
24.9665015339
 20
95.1200961094
 30
0.0
 10
24.9540107775
 20
95.1068399048
 30
0.0
 10
24.9463014561
 20
95.0984806541
 30
0.0
 10
24.9403389308
 20
95.0915375968
 30
0.0
 10
24.9354307737
 20
95.0858148789
 30
0.0
 10
24.9335978188
 20
95.0826183158
 30
0.0
 10
24.9315878133
 20
95.0802718584
 30
0.0
 10
24.9319998976
 20
95.0798609863
 30
0.0
  0
SPLINE
  5
45E
100
AcDbEntity
  8
0
100
AcDbSpline
 62
7
  6
BYLAYER
 70
0
 71
3
 72
18
 73
14
 74
0
 42
0.0000001
 43
0.0000001
 44
0.0000000001
 40
0.0
 40
0.0
 40
0.0
 40
0.0
 40
0.0062602462
 40
0.0234543577
 40
0.0512175859
 40
0.0889732937
 40
0.1359114663
 40
0.1909846969
 40
0.3213243785
 40
0.4727755616
 40
0.6399350766
 40
0.8174742606
 40
1.0
 40
1.0
 40
1.0
 40
1.0
 10
107.9117926212
 20
93.5474424566
 30
0.0
 10
107.9120518052
 20
93.5478386711
 30
0.0
 10
107.9098744614
 20
93.5493335486
 30
0.0
 10
107.9077177412
 20
93.5515771542
 30
0.0
 10
107.9022750808
 20
93.5554751422
 30
0.0
 10
107.8955982818
 20
93.5604379085
 30
0.0
 10
107.8869090764
 20
93.5665785593
 30
0.0
 10
107.872500232
 20
93.5765844198
 30
0.0
 10
107.8512898966
 20
93.5907352632
 30
0.0
 10
107.822692765
 20
93.6090290595
 30
0.0
 10
107.7908432064
 20
93.628874286
 30
0.0
 10
107.7567514028
 20
93.6495554051
 30
0.0
 10
107.7331579935
 20
93.6631620239
 30
0.0
 10
107.721091331
 20
93.6698667979
 30
0.0
  0
SPLINE
  5
45F
100
AcDbEntity
  8
0
100
AcDbSpline
 62
7
  6
BYLAYER
 70
0
 71
3
 72
17
 73
13
 74
0
 42
0.0000001
 43
0.0000001
 44
0.0000000001
 40
0.0
 40
0.0
 40
0.0
 40
0.0
 40
0.3352407674
 40
0.4958503353
 40
0.6464483905
 40
0.7815573449
 40
0.8409417665
 40
0.8931082881
 40
0.9367075621
 40
0.9702249918
 40
0.9918645855
 40
1.0
 40
1.0
 40
1.0
 40
1.0
 10
107.721091331
 20
93.8473544442
 30
0.0
 10
107.7429301731
 20
93.8692168244
 30
0.0
 10
107.7752670251
 20
93.9015177588
 30
0.0
 10
107.8168741454
 20
93.9441791532
 30
0.0
 10
107.845347313
 20
93.9738633366
 30
0.0
 10
107.8674066712
 20
93.9968106771
 30
0.0
 10
107.8830794812
 20
94.0132306433
 30
0.0
 10
107.8929489795
 20
94.0237041718
 30
0.0
 10
107.9006732664
 20
94.0324468773
 30
0.0
 10
107.9071535592
 20
94.039705817
 30
0.0
 10
107.9094795692
 20
94.0438064908
 30
0.0
 10
107.912289673
 20
94.0467705141
 30
0.0
 10
107.9117586354
 20
94.0472999896
 30
0.0
  0
SPLINE
  5
460
100
AcDbEntity
  8
0
100
AcDbSpline
 62
7
  6
BYLAYER
 70
0
 71
3
 72
14
 73
10
 74
0
 42
0.0000001
 43
0.0000001
 44
0.0000000001
 40
0.0
 40
0.0
 40
0.0
 40
0.0
 40
0.0193853188
 40
0.072121459
 40
0.157385263
 40
0.2736181961
 40
0.418867192
 40
0.5903180281
 40
1.0
 40
1.0
 40
1.0
 40
1.0
 10
24.9319659119
 20
95.5797185193
 30
0.0
 10
24.9317458522
 20
95.5793821143
 30
0.0
 10
24.9335125795
 20
95.5780750559
 30
0.0
 10
24.9353551027
 20
95.5761806707
 30
0.0
 10
24.9398947411
 20
95.5728546565
 30
0.0
 10
24.9455300883
 20
95.5686367373
 30
0.0
 10
24.9528808729
 20
95.5633840935
 30
0.0
 10
24.9651878224
 20
95.55474378
 30
0.0
 10
24.9751751261
 20
95.5479780307
 30
0.0
 10
24.9822509479
 20
95.5432763601
 30
0.0
  0
SPLINE
  5
461
100
AcDbEntity
  8
0
100
AcDbSpline
 62
7
  6
BYLAYER
 70
0
 71
3
 72
9
 73
5
 74
0
 42
0.0000001
 43
0.0000001
 44
0.0000000001
 40
0.0
 40
0.0
 40
0.0
 40
0.0
 40
0.4634190135
 40
1.0
 40
1.0
 40
1.0
 40
1.0
 10
24.9822509479
 20
95.5432763601
 30
0.0
 10
25.0034376924
 20
95.529198406
 30
0.0
 10
25.0498753281
 20
95.4999197346
 30
0.0
 10
25.0969212342
 20
95.4715997821
 30
0.0
 10
25.122667202
 20
95.457294178
 30
0.0
  0
SPLINE
  5
462
100
AcDbEntity
  8
0
100
AcDbSpline
 62
7
  6
BYLAYER
 70
0
 71
3
 72
10
 73
6
 74
0
 42
0.0000001
 43
0.0000001
 44
0.0000000001
 40
0.0
 40
0.0
 40
0.0
 40
0.0
 40
0.4116204027
 40
0.6810456753
 40
1.0
 40
1.0
 40
1.0
 40
1.0
 10
114.504160332
 20
82.9778446389
 30
0.0
 10
114.5186747783
 20
82.9778446389
 30
0.0
 10
114.5421159709
 20
82.9911708523
 30
0.0
 10
114.5633217585
 20
83.0190986291
 30
0.0
 10
114.5730168614
 20
83.0376482784
 30
0.0
 10
114.5775283185
 20
83.0479506603
 30
0.0
  0
SPLINE
  5
463
100
AcDbEntity
  8
0
100
AcDbSpline
 62
7
  6
BYLAYER
 70
0
 71
3
 72
9
 73
5
 74
0
 42
0.0000001
 43
0.0000001
 44
0.0000000001
 40
0.0
 40
0.0
 40
0.0
 40
0.0
 40
0.4658651864
 40
1.0
 40
1.0
 40
1.0
 40
1.0
 10
114.5775283185
 20
83.0479506603
 30
0.0
 10
114.5889683009
 20
83.0740750506
 30
0.0
 10
114.6048692924
 20
83.1338704221
 30
0.0
 10
114.6098148974
 20
83.1951458835
 30
0.0
 10
114.6098148974
 20
83.2278446389
 30
0.0
  0
SPLINE
  5
464
100
AcDbEntity
  8
0
100
AcDbSpline
 62
7
  6
BYLAYER
 70
0
 71
3
 72
11
 73
7
 74
0
 42
0.0000001
 43
0.0000001
 44
0.0000000001
 40
0.0
 40
0.0
 40
0.0
 40
0.0
 40
0.2499796546
 40
0.5001111783
 40
0.7501823666
 40
1.0
 40
1.0
 40
1.0
 40
1.0
 10
25.6226678432
 20
96.3348071574
 30
0.0
 10
25.6218619695
 20
96.4225871296
 30
0.0
 10
25.5992937528
 20
96.5988661103
 30
0.0
 10
25.49928013
 20
96.8458244658
 30
0.0
 10
25.3378538483
 20
97.0577290274
 30
0.0
 10
25.197742619
 20
97.1669372595
 30
0.0
 10
25.1226665582
 20
97.2123197697
 30
0.0
  0
SPLINE
  5
465
100
AcDbEntity
  8
0
100
AcDbSpline
 62
7
  6
BYLAYER
 70
0
 71
3
 72
11
 73
7
 74
0
 42
0.0000001
 43
0.0000001
 44
0.0000000001
 40
0.0
 40
0.0
 40
0.0
 40
0.0
 40
0.2498176334
 40
0.4998888217
 40
0.7500203454
 40
1.0
 40
1.0
 40
1.0
 40
1.0
 10
25.1226665582
 20
95.457294545
 30
0.0
 10
25.197742619
 20
95.5026770553
 30
0.0
 10
25.3378538483
 20
95.6118852873
 30
0.0
 10
25.49928013
 20
95.8237898489
 30
0.0
 10
25.5992937528
 20
96.0707482044
 30
0.0
 10
25.6218619695
 20
96.2470271851
 30
0.0
 10
25.6226678432
 20
96.3348071574
 30
0.0
  0
SPLINE
  5
466
100
AcDbEntity
  8
0
100
AcDbSpline
 62
7
  6
BYLAYER
 70
0
 71
3
 72
17
 73
13
 74
0
 42
0.0000001
 43
0.0000001
 44
0.0000000001
 40
0.0
 40
0.0
 40
0.0
 40
0.0
 40
0.0081333354
 40
0.0297629141
 40
0.063264336
 40
0.1068493495
 40
0.1590149368
 40
0.2184032174
 40
0.3535114209
 40
0.5041261843
 40
0.6647499375
 40
1.0
 40
1.0
 40
1.0
 40
1.0
 10
24.9319998928
 20
97.5897533284
 30
0.0
 10
24.9314690013
 20
97.5892239751
 30
0.0
 10
24.9342747136
 20
97.5862598487
 30
0.0
 10
24.9365995079
 20
97.5821597868
 30
0.0
 10
24.943076809
 20
97.5749040108
 30
0.0
 10
24.9508033774
 20
97.5661668632
 30
0.0
 10
24.9606728636
 20
97.5556948258
 30
0.0
 10
24.9763454542
 20
97.5392742607
 30
0.0
 10
24.9984014549
 20
97.5163210785
 30
0.0
 10
25.0268780801
 20
97.4866362048
 30
0.0
 10
25.0684905522
 20
97.4439746633
 30
0.0
 10
25.1008277
 20
97.4116708238
 30
0.0
 10
25.122667202
 20
97.3898077829
 30
0.0
  0
SPLINE
  5
467
100
AcDbEntity
  8
0
100
AcDbSpline
 62
7
  6
BYLAYER
 70
0
 71
3
 72
18
 73
14
 74
0
 42
0.0000001
 43
0.0000001
 44
0.0000000001
 40
0.0
 40
0.0
 40
0.0
 40
0.0
 40
0.1824475613
 40
0.3599119957
 40
0.5270604767
 40
0.6784687532
 40
0.8085847014
 40
0.8635345632
 40
0.9104240298
 40
0.9482658489
 40
0.9762176794
 40
0.9936156888
 40
1.0
 40
1.0
 40
1.0
 40
1.0
 10
107.721091331
 20
91.9148408386
 30
0.0
 10
107.7331542376
 20
91.9215435257
 30
0.0
 10
107.7567315391
 20
91.935161816
 30
0.0
 10
107.7907986362
 20
91.9558683849
 30
0.0
 10
107.8226497003
 20
91.9757008394
 30
0.0
 10
107.8512597528
 20
91.993942266
 30
0.0
 10
107.8725085805
 20
92.0079859054
 30
0.0
 10
107.8869394661
 20
92.0179121169
 30
0.0
 10
107.8956377024
 20
92.0240286289
 30
0.0
 10
107.9023179586
 20
92.0290233034
 30
0.0
 10
107.9077414533
 20
92.0329997804
 30
0.0
 10
107.9098914559
 20
92.0353196528
 30
0.0
 10
107.9120569618
 20
92.0368637673
 30
0.0
 10
107.9117926251
 20
92.0372678909
 30
0.0
  0
SPLINE
  5
468
100
AcDbEntity
  8
0
100
AcDbSpline
 62
7
  6
BYLAYER
 70
0
 71
3
 72
9
 73
5
 74
0
 42
0.0000001
 43
0.0000001
 44
0.0000000001
 40
0.0
 40
0.0
 40
0.0
 40
0.0
 40
0.5365974318
 40
1.0
 40
1.0
 40
1.0
 40
1.0
 10
25.122667202
 20
97.2123201374
 30
0.0
 10
25.0969151613
 20
97.1980111588
 30
0.0
 10
25.0498982838
 20
97.1696186826
 30
0.0
 10
25.0034293614
 20
97.1403744015
 30
0.0
 10
24.982187325
 20
97.1263721698
 30
0.0
  0
SPLINE
  5
469
100
AcDbEntity
  8
0
100
AcDbSpline
 62
7
  6
BYLAYER
 70
0
 71
3
 72
14
 73
10
 74
0
 42
0.0000001
 43
0.0000001
 44
0.0000000001
 40
0.0
 40
0.0
 40
0.0
 40
0.0
 40
0.4084503158
 40
0.5794155496
 40
0.7245119895
 40
0.8410484139
 40
0.9268899937
 40
0.9802380751
 40
1.0
 40
1.0
 40
1.0
 40
1.0
 10
24.982187325
 20
97.1263721698
 30
0.0
 10
24.9751163286
 20
97.1217111417
 30
0.0
 10
24.9651258089
 20
97.1150167395
 30
0.0
 10
24.9528202948
 20
97.106443604
 30
0.0
 10
24.9454727999
 20
97.1012017977
 30
0.0
 10
24.9398472362
 20
97.0969415529
 30
0.0
 10
24.9353297533
 20
97.0935440102
 30
0.0
 10
24.9334966128
 20
97.0915825975
 30
0.0
 10
24.9317416098
 20
97.0902359967
 30
0.0
 10
24.9319659079
 20
97.089893085
 30
0.0
  0
SPLINE
  5
46A
100
AcDbEntity
  8
0
100
AcDbSpline
 62
7
  6
BYLAYER
 70
0
 71
3
 72
12
 73
8
 74
0
 42
0.0000001
 43
0.0000001
 44
0.0000000001
 40
0.0
 40
0.0
 40
0.0
 40
0.0
 40
0.3708541129
 40
0.6868470731
 40
0.9026299624
 40
0.9647857632
 40
1.0
 40
1.0
 40
1.0
 40
1.0
 10
109.5332589704
 20
83.2278446389
 30
0.0
 10
109.5332589704
 20
83.1959385393
 30
0.0
 10
109.5314913614
 20
83.1367353801
 30
0.0
 10
109.5241897928
 20
83.0596863441
 30
0.0
 10
109.5139624023
 20
83.008784252
 30
0.0
 10
109.5039068355
 20
82.9842953977
 30
0.0
 10
109.4967033492
 20
82.9778446389
 30
0.0
 10
109.4936737241
 20
82.9778446389
 30
0.0
  0
SPLINE
  5
46B
100
AcDbEntity
  8
0
100
AcDbSpline
 62
7
  6
BYLAYER
 70
0
 71
3
 72
17
 73
13
 74
0
 42
0.0000001
 43
0.0000001
 44
0.0000000001
 40
0.0
 40
0.0
 40
0.0
 40
0.0
 40
0.0081333354
 40
0.0297629141
 40
0.063264336
 40
0.1068493495
 40
0.1590149368
 40
0.2184032174
 40
0.3535114209
 40
0.5041261843
 40
0.6647499375
 40
1.0
 40
1.0
 40
1.0
 40
1.0
 10
107.9117586402
 20
91.5374076475
 30
0.0
 10
107.9122895317
 20
91.5379370008
 30
0.0
 10
107.9094838195
 20
91.5409011272
 30
0.0
 10
107.9071590251
 20
91.5450011892
 30
0.0
 10
107.900681724
 20
91.5522569651
 30
0.0
 10
107.8929551556
 20
91.5609941127
 30
0.0
 10
107.8830856694
 20
91.5714661501
 30
0.0
 10
107.8674130788
 20
91.5878867153
 30
0.0
 10
107.8453570781
 20
91.6108398974
 30
0.0
 10
107.8168804529
 20
91.6405247711
 30
0.0
 10
107.7752679808
 20
91.6831863126
 30
0.0
 10
107.742930833
 20
91.7154901521
 30
0.0
 10
107.721091331
 20
91.7373531931
 30
0.0
  0
SPLINE
  5
46C
100
AcDbEntity
  8
0
100
AcDbSpline
 62
7
  6
BYLAYER
 70
0
 71
3
 72
10
 73
6
 74
0
 42
0.0000001
 43
0.0000001
 44
0.0000000001
 40
0.0
 40
0.0
 40
0.0
 40
0.0
 40
0.4116204027
 40
0.6810456753
 40
1.0
 40
1.0
 40
1.0
 40
1.0
 10
101.504160332
 20
82.9778446389
 30
0.0
 10
101.5186747783
 20
82.9778446389
 30
0.0
 10
101.5421159709
 20
82.9911708523
 30
0.0
 10
101.5633217585
 20
83.0190986291
 30
0.0
 10
101.5730168614
 20
83.0376482784
 30
0.0
 10
101.5775283185
 20
83.0479506603
 30
0.0
  0
SPLINE
  5
46D
100
AcDbEntity
  8
0
100
AcDbSpline
 62
7
  6
BYLAYER
 70
0
 71
3
 72
9
 73
5
 74
0
 42
0.0000001
 43
0.0000001
 44
0.0000000001
 40
0.0
 40
0.0
 40
0.0
 40
0.0
 40
0.4658651864
 40
1.0
 40
1.0
 40
1.0
 40
1.0
 10
101.5775283185
 20
83.0479506603
 30
0.0
 10
101.5889683009
 20
83.0740750506
 30
0.0
 10
101.6048692924
 20
83.1338704221
 30
0.0
 10
101.6098148974
 20
83.1951458835
 30
0.0
 10
101.6098148974
 20
83.2278446389
 30
0.0
  0
SPLINE
  5
46E
100
AcDbEntity
  8
0
100
AcDbSpline
 62
7
  6
BYLAYER
 70
0
 71
3
 72
14
 73
10
 74
0
 42
0.0000001
 43
0.0000001
 44
0.0000000001
 40
0.0
 40
0.0
 40
0.0
 40
0.0
 40
0.0201900528
 40
0.0744333007
 40
0.1611873814
 40
0.278258723
 40
0.4233189091
 40
0.5937592221
 40
1.0
 40
1.0
 40
1.0
 40
1.0
 10
24.9357771664
 20
86.1940595901
 30
0.0
 10
24.9355411092
 20
86.1944206142
 30
0.0
 10
24.9373714184
 20
86.1958388494
 30
0.0
 10
24.939251059
 20
86.1979323738
 30
0.0
 10
24.9439097085
 20
86.2015111147
 30
0.0
 10
24.9496944257
 20
86.205967868
 30
0.0
 10
24.9572472458
 20
86.2113922843
 30
0.0
 10
24.9698718288
 20
86.2202017511
 30
0.0
 10
24.9801260343
 20
86.2270539472
 30
0.0
 10
24.9873775304
 20
86.2318228502
 30
0.0
  0
SPLINE
  5
46F
100
AcDbEntity
  8
0
100
AcDbSpline
 62
7
  6
BYLAYER
 70
0
 71
3
 72
9
 73
5
 74
0
 42
0.0000001
 43
0.0000001
 44
0.0000000001
 40
0.0
 40
0.0
 40
0.0
 40
0.0
 40
0.4642705416
 40
1.0
 40
1.0
 40
1.0
 40
1.0
 10
24.9873775304
 20
86.2318228502
 30
0.0
 10
25.0084627605
 20
86.2456894253
 30
0.0
 10
25.0544725807
 20
86.274637961
 30
0.0
 10
25.1010235117
 20
86.302746759
 30
0.0
 10
25.1264784813
 20
86.3168906716
 30
0.0
  0
SPLINE
  5
470
100
AcDbEntity
  8
0
100
AcDbSpline
 62
7
  6
BYLAYER
 70
0
 71
3
 72
18
 73
14
 74
0
 42
0.0000001
 43
0.0000001
 44
0.0000000001
 40
0.0
 40
0.0
 40
0.0
 40
0.0
 40
0.1688805892
 40
0.3350576786
 40
0.4955981167
 40
0.6460897155
 40
0.7810096439
 40
0.8403308811
 40
0.8925402863
 40
0.936336143
 40
0.970135582
 40
0.9919588294
 40
1.0
 40
1.0
 40
1.0
 40
1.0
 10
25.1264791251
 20
86.4943776916
 30
0.0
 10
25.1154687769
 20
86.5053999069
 30
0.0
 10
25.0937140351
 20
86.5273577378
 30
0.0
 10
25.0616894753
 20
86.5599863014
 30
0.0
 10
25.0308379979
 20
86.5913935585
 30
0.0
 10
25.0020986598
 20
86.6208190129
 30
0.0
 10
24.9802341004
 20
86.6439469803
 30
0.0
 10
24.96491515
 20
86.6606929706
 30
0.0
 10
24.955184617
 20
86.6713413959
 30
0.0
 10
24.9474148837
 20
86.6800904971
 30
0.0
 10
24.9405051562
 20
86.6871325971
 30
0.0
 10
24.9379960461
 20
86.6910037919
 30
0.0
 10
24.9347834548
 20
86.6938003499
 30
0.0
 10
24.9353089888
 20
86.6943238844
 30
0.0
  0
SPLINE
  5
471
100
AcDbEntity
  8
0
100
AcDbSpline
 62
7
  6
BYLAYER
 70
0
 71
3
 72
11
 73
7
 74
0
 42
0.0000001
 43
0.0000001
 44
0.0000000001
 40
0.0
 40
0.0
 40
0.0
 40
0.0
 40
0.3368405521
 40
0.4923681714
 40
0.6329834276
 40
1.0
 40
1.0
 40
1.0
 40
1.0
 10
97.3260908004
 20
83.2278446389
 30
0.0
 10
97.3260908004
 20
83.1958418709
 30
0.0
 10
97.3225568362
 20
83.1491230569
 30
0.0
 10
97.3092041033
 20
83.0897616484
 30
0.0
 10
97.2902354645
 20
83.0322120913
 30
0.0
 10
97.2553059862
 20
82.9778446389
 30
0.0
 10
97.220436235
 20
82.9778446389
 30
0.0
  0
SPLINE
  5
472
100
AcDbEntity
  8
0
100
AcDbSpline
 62
7
  6
BYLAYER
 70
0
 71
3
 72
12
 73
8
 74
0
 42
0.0000001
 43
0.0000001
 44
0.0000000001
 40
0.0
 40
0.0
 40
0.0
 40
0.0
 40
0.3708541129
 40
0.6868470731
 40
0.9026299624
 40
0.9647857632
 40
1.0
 40
1.0
 40
1.0
 40
1.0
 10
96.5332589704
 20
83.2278446389
 30
0.0
 10
96.5332589704
 20
83.1959385393
 30
0.0
 10
96.5314913614
 20
83.1367353801
 30
0.0
 10
96.5241897928
 20
83.0596863441
 30
0.0
 10
96.5139624023
 20
83.008784252
 30
0.0
 10
96.5039068355
 20
82.9842953977
 30
0.0
 10
96.4967033492
 20
82.9778446389
 30
0.0
 10
96.4936737241
 20
82.9778446389
 30
0.0
  0
SPLINE
  5
473
100
AcDbEntity
  8
0
100
AcDbSpline
 62
7
  6
BYLAYER
 70
0
 71
3
 72
11
 73
7
 74
0
 42
0.0000001
 43
0.0000001
 44
0.0000000001
 40
0.0
 40
0.0
 40
0.0
 40
0.0
 40
0.3368405521
 40
0.4923681714
 40
0.6329834276
 40
1.0
 40
1.0
 40
1.0
 40
1.0
 10
110.3260908004
 20
83.2278446389
 30
0.0
 10
110.3260908004
 20
83.1958418709
 30
0.0
 10
110.3225568362
 20
83.1491230569
 30
0.0
 10
110.3092041033
 20
83.0897616484
 30
0.0
 10
110.2902354645
 20
83.0322120913
 30
0.0
 10
110.2553059862
 20
82.977844639
 30
0.0
 10
110.220436235
 20
82.9778446389
 30
0.0
  0
SPLINE
  5
474
100
AcDbEntity
  8
0
100
AcDbSpline
 62
7
  6
BYLAYER
 70
0
 71
3
 72
11
 73
7
 74
0
 42
0.0000001
 43
0.0000001
 44
0.0000000001
 40
0.0
 40
0.0
 40
0.0
 40
0.0
 40
0.2499796546
 40
0.5001111783
 40
0.7501823666
 40
1.0
 40
1.0
 40
1.0
 40
1.0
 10
25.6264791225
 20
85.4393776916
 30
0.0
 10
25.6256732488
 20
85.5271576639
 30
0.0
 10
25.6031050322
 20
85.7034366446
 30
0.0
 10
25.5030914093
 20
85.9503950001
 30
0.0
 10
25.3416651277
 20
86.1622995617
 30
0.0
 10
25.2015538983
 20
86.2715077937
 30
0.0
 10
25.1264778376
 20
86.316890304
 30
0.0
  0
SPLINE
  5
475
100
AcDbEntity
  8
0
100
AcDbSpline
 62
7
  6
BYLAYER
 70
0
 71
3
 72
11
 73
7
 74
0
 42
0.0000001
 43
0.0000001
 44
0.0000000001
 40
0.0
 40
0.0
 40
0.0
 40
0.0
 40
0.2498176334
 40
0.4998888217
 40
0.7500203454
 40
1.0
 40
1.0
 40
1.0
 40
1.0
 10
25.1264778376
 20
84.5618650793
 30
0.0
 10
25.2015538983
 20
84.6072475895
 30
0.0
 10
25.3416651277
 20
84.7164558216
 30
0.0
 10
25.5030914093
 20
84.9283603832
 30
0.0
 10
25.6031050322
 20
85.1753187387
 30
0.0
 10
25.6256732488
 20
85.3515977194
 30
0.0
 10
25.6264791225
 20
85.4393776916
 30
0.0
  0
SPLINE
  5
476
100
AcDbEntity
  8
0
100
AcDbSpline
 62
7
  6
BYLAYER
 70
0
 71
3
 72
9
 73
5
 74
0
 42
0.0000001
 43
0.0000001
 44
0.0000000001
 40
0.0
 40
0.0
 40
0.0
 40
0.0
 40
0.5251777266
 40
1.0
 40
1.0
 40
1.0
 40
1.0
 10
94.752927233
 20
87.9784164275
 30
0.0
 10
94.7774870772
 20
87.9538301124
 30
0.0
 10
94.8237622484
 20
87.9065327348
 30
0.0
 10
94.8702730778
 20
87.8594540458
 30
0.0
 10
94.8918210977
 20
87.8365877264
 30
0.0
  0
SPLINE
  5
477
100
AcDbEntity
  8
0
100
AcDbSpline
 62
7
  6
BYLAYER
 70
0
 71
3
 72
14
 73
10
 74
0
 42
0.0000001
 43
0.0000001
 44
0.0000000001
 40
0.0
 40
0.0
 40
0.0
 40
0.0
 40
0.3881199484
 40
0.5562079812
 40
0.7029273289
 40
0.8250592623
 40
0.9182864612
 40
0.9779182576
 40
1.0
 40
1.0
 40
1.0
 40
1.0
 10
94.8918210977
 20
87.8365877264
 30
0.0
 10
94.8987635249
 20
87.8292205641
 30
0.0
 10
94.9086249227
 20
87.8185614403
 30
0.0
 10
94.920933901
 20
87.8050173001
 30
0.0
 10
94.9286601387
 20
87.7965395748
 30
0.0
 10
94.9348270892
 20
87.789666486
 30
0.0
 10
94.9401595757
 20
87.7841209721
 30
0.0
 10
94.9421710903
 20
87.781115953
 30
0.0
 10
94.9445053897
 20
87.7788767028
 30
0.0
 10
94.9440973692
 20
87.7784702347
 30
0.0
  0
SPLINE
  5
478
100
AcDbEntity
  8
0
100
AcDbSpline
 62
7
  6
BYLAYER
 70
0
 71
3
 72
14
 73
10
 74
0
 42
0.0000001
 43
0.0000001
 44
0.0000000001
 40
0.0
 40
0.0
 40
0.0
 40
0.0
 40
0.0220576896
 40
0.0816174975
 40
0.1747510836
 40
0.2967900153
 40
0.4434694956
 40
0.6115918796
 40
1.0
 40
1.0
 40
1.0
 40
1.0
 10
24.9353174577
 20
84.1844314988
 30
0.0
 10
24.934913144
 20
84.1848342947
 30
0.0
 10
24.937223412
 20
84.1870543604
 30
0.0
 10
24.9392197941
 20
84.1900305463
 30
0.0
 10
24.9445034582
 20
84.1955272441
 30
0.0
 10
24.9506147765
 20
84.2023438163
 30
0.0
 10
24.9582737995
 20
84.2107554265
 30
0.0
 10
24.9704850603
 20
84.2242009313
 30
0.0
 10
24.9802705778
 20
84.234783792
 30
0.0
 10
24.9871607902
 20
84.2420994198
 30
0.0
  0
SPLINE
  5
479
100
AcDbEntity
  8
0
100
AcDbSpline
 62
7
  6
BYLAYER
 70
0
 71
3
 72
9
 73
5
 74
0
 42
0.0000001
 43
0.0000001
 44
0.0000000001
 40
0.0
 40
0.0
 40
0.0
 40
0.0
 40
0.4746026322
 40
1.0
 40
1.0
 40
1.0
 40
1.0
 10
24.9871607902
 20
84.2420994198
 30
0.0
 10
25.008759856
 20
84.2650320549
 30
0.0
 10
25.0554133816
 20
84.3122597203
 30
0.0
 10
25.1018324896
 20
84.3597044916
 30
0.0
 10
25.1264791251
 20
84.3843776916
 30
0.0
  0
SPLINE
  5
47A
100
AcDbEntity
  8
0
100
AcDbSpline
 62
7
  6
BYLAYER
 70
0
 71
3
 72
14
 73
10
 74
0
 42
0.0000001
 43
0.0000001
 44
0.0000000001
 40
0.0
 40
0.0
 40
0.0
 40
0.0
 40
0.0220576895
 40
0.0816174975
 40
0.1747510836
 40
0.2967900153
 40
0.4434694956
 40
0.6115918795
 40
1.0
 40
1.0
 40
1.0
 40
1.0
 10
94.9440889004
 20
90.2883626203
 30
0.0
 10
94.9444932141
 20
90.2879598244
 30
0.0
 10
94.9421829461
 20
90.2857397588
 30
0.0
 10
94.940186564
 20
90.2827635728
 30
0.0
 10
94.9349028998
 20
90.277266875
 30
0.0
 10
94.9287915816
 20
90.2704503028
 30
0.0
 10
94.9211325585
 20
90.2620386926
 30
0.0
 10
94.9089212978
 20
90.2485931878
 30
0.0
 10
94.8991357802
 20
90.2380103272
 30
0.0
 10
94.8922455678
 20
90.2306946993
 30
0.0
  0
SPLINE
  5
47B
100
AcDbEntity
  8
0
100
AcDbSpline
 62
7
  6
BYLAYER
 70
0
 71
3
 72
9
 73
5
 74
0
 42
0.0000001
 43
0.0000001
 44
0.0000000001
 40
0.0
 40
0.0
 40
0.0
 40
0.0
 40
0.4746026322
 40
1.0
 40
1.0
 40
1.0
 40
1.0
 10
94.8922455678
 20
90.2306946993
 30
0.0
 10
94.870646502
 20
90.2077620643
 30
0.0
 10
94.8239929764
 20
90.1605343988
 30
0.0
 10
94.7775738685
 20
90.1130896275
 30
0.0
 10
94.752927233
 20
90.0884164275
 30
0.0
  0
SPLINE
  5
47C
100
AcDbEntity
  8
0
100
AcDbSpline
 62
7
  6
BYLAYER
 70
0
 71
3
 72
14
 73
10
 74
0
 42
0.0000001
 43
0.0000001
 44
0.0000000001
 40
0.0
 40
0.0
 40
0.0
 40
0.0
 40
0.0199801506
 40
0.0738438005
 40
0.1602287339
 40
0.2771001017
 40
0.4222295541
 40
0.5929445424
 40
1.0
 40
1.0
 40
1.0
 40
1.0
 10
94.9436291874
 20
89.7881066903
 30
0.0
 10
94.9438619655
 20
89.7884626691
 30
0.0
 10
94.9420383026
 20
89.7898561814
 30
0.0
 10
94.9401609053
 20
89.7919062262
 30
0.0
 10
94.9355126438
 20
89.7954334902
 30
0.0
 10
94.9297438203
 20
89.7998481341
 30
0.0
 10
94.9222152374
 20
89.8052549658
 30
0.0
 10
94.9096305659
 20
89.8140674938
 30
0.0
 10
94.8994134113
 20
89.8209371495
 30
0.0
 10
94.8921856356
 20
89.8257169103
 30
0.0
  0
SPLINE
  5
47D
100
AcDbEntity
  8
0
100
AcDbSpline
 62
7
  6
BYLAYER
 70
0
 71
3
 72
9
 73
5
 74
0
 42
0.0000001
 43
0.0000001
 44
0.0000000001
 40
0.0
 40
0.0
 40
0.0
 40
0.0
 40
0.2185657459
 40
1.0
 40
1.0
 40
1.0
 40
1.0
 10
94.8921856356
 20
89.8257169103
 30
0.0
 10
94.8822635367
 20
89.8322784393
 30
0.0
 10
94.8365093557
 20
89.8617468625
 30
0.0
 10
94.7901040236
 20
89.8902726871
 30
0.0
 10
94.7529278768
 20
89.9109294069
 30
0.0
  0
SPLINE
  5
47E
100
AcDbEntity
  8
0
100
AcDbSpline
 62
7
  6
BYLAYER
 70
0
 71
3
 72
14
 73
10
 74
0
 42
0.0000001
 43
0.0000001
 44
0.0000000001
 40
0.0
 40
0.0
 40
0.0
 40
0.0
 40
0.0201900528
 40
0.0744333007
 40
0.1611873814
 40
0.278258723
 40
0.4233189091
 40
0.5937592221
 40
1.0
 40
1.0
 40
1.0
 40
1.0
 10
94.9436291916
 20
88.278734529
 30
0.0
 10
94.9438652489
 20
88.2783735049
 30
0.0
 10
94.9420349396
 20
88.2769552697
 30
0.0
 10
94.940155299
 20
88.2748617453
 30
0.0
 10
94.9354966496
 20
88.2712830044
 30
0.0
 10
94.9297119324
 20
88.2668262511
 30
0.0
 10
94.9221591123
 20
88.2614018348
 30
0.0
 10
94.9095345293
 20
88.252592368
 30
0.0
 10
94.8992803237
 20
88.2457401719
 30
0.0
 10
94.8920288276
 20
88.2409712689
 30
0.0
  0
SPLINE
  5
47F
100
AcDbEntity
  8
0
100
AcDbSpline
 62
7
  6
BYLAYER
 70
0
 71
3
 72
9
 73
5
 74
0
 42
0.0000001
 43
0.0000001
 44
0.0000000001
 40
0.0
 40
0.0
 40
0.0
 40
0.0
 40
0.4642705416
 40
1.0
 40
1.0
 40
1.0
 40
1.0
 10
94.8920288276
 20
88.2409712689
 30
0.0
 10
94.8709435976
 20
88.2271046938
 30
0.0
 10
94.8249337774
 20
88.1981561581
 30
0.0
 10
94.7783828464
 20
88.1700473601
 30
0.0
 10
94.7529278768
 20
88.1559034475
 30
0.0
  0
SPLINE
  5
480
100
AcDbEntity
  8
0
100
AcDbSpline
 62
7
  6
BYLAYER
 70
0
 71
3
 72
14
 73
10
 74
0
 42
0.0000001
 43
0.0000001
 44
0.0000000001
 40
0.0
 40
0.0
 40
0.0
 40
0.0
 40
0.0199801506
 40
0.0738438005
 40
0.1602287339
 40
0.2771001017
 40
0.4222295541
 40
0.5929445424
 40
1.0
 40
1.0
 40
1.0
 40
1.0
 10
24.9357771707
 20
84.6846874288
 30
0.0
 10
24.9355443925
 20
84.68433145
 30
0.0
 10
24.9373680555
 20
84.6829379377
 30
0.0
 10
24.9392454528
 20
84.6808878929
 30
0.0
 10
24.9438937143
 20
84.677360629
 30
0.0
 10
24.9496625377
 20
84.672945985
 30
0.0
 10
24.9571911207
 20
84.6675391533
 30
0.0
 10
24.9697757921
 20
84.6587266253
 30
0.0
 10
24.9799929468
 20
84.6518569696
 30
0.0
 10
24.9872207224
 20
84.6470772088
 30
0.0
  0
SPLINE
  5
481
100
AcDbEntity
  8
0
100
AcDbSpline
 62
7
  6
BYLAYER
 70
0
 71
3
 72
9
 73
5
 74
0
 42
0.0000001
 43
0.0000001
 44
0.0000000001
 40
0.0
 40
0.0
 40
0.0
 40
0.0
 40
0.2185657459
 40
1.0
 40
1.0
 40
1.0
 40
1.0
 10
24.9872207224
 20
84.6470772088
 30
0.0
 10
24.9971428214
 20
84.6405156798
 30
0.0
 10
25.0428970023
 20
84.6110472566
 30
0.0
 10
25.0893023344
 20
84.582521432
 30
0.0
 10
25.1264784813
 20
84.5618647122
 30
0.0
  0
SPLINE
  5
482
100
AcDbEntity
  8
0
100
AcDbSpline
 62
7
  6
BYLAYER
 70
0
 71
3
 72
11
 73
7
 74
0
 42
0.0000001
 43
0.0000001
 44
0.0000000001
 40
0.0
 40
0.0
 40
0.0
 40
0.0
 40
0.2499796546
 40
0.5001111783
 40
0.7501823666
 40
1.0
 40
1.0
 40
1.0
 40
1.0
 10
25.6264791225
 20
89.0093776916
 30
0.0
 10
25.6256732488
 20
89.0971576639
 30
0.0
 10
25.6031050322
 20
89.2734366446
 30
0.0
 10
25.5030914093
 20
89.5203950001
 30
0.0
 10
25.3416651277
 20
89.7322995617
 30
0.0
 10
25.2015538983
 20
89.8415077937
 30
0.0
 10
25.1264778376
 20
89.886890304
 30
0.0
  0
SPLINE
  5
483
100
AcDbEntity
  8
0
100
AcDbSpline
 62
7
  6
BYLAYER
 70
0
 71
3
 72
11
 73
7
 74
0
 42
0.0000001
 43
0.0000001
 44
0.0000000001
 40
0.0
 40
0.0
 40
0.0
 40
0.0
 40
0.2498176334
 40
0.4998888217
 40
0.7500203454
 40
1.0
 40
1.0
 40
1.0
 40
1.0
 10
25.1264778376
 20
88.1318650793
 30
0.0
 10
25.2015538983
 20
88.1772475895
 30
0.0
 10
25.3416651277
 20
88.2864558216
 30
0.0
 10
25.5030914093
 20
88.4983603832
 30
0.0
 10
25.6031050322
 20
88.7453187387
 30
0.0
 10
25.6256732488
 20
88.9215977194
 30
0.0
 10
25.6264791225
 20
89.0093776916
 30
0.0
  0
SPLINE
  5
484
100
AcDbEntity
  8
0
100
AcDbSpline
 62
7
  6
BYLAYER
 70
0
 71
3
 72
11
 73
7
 74
0
 42
0.0000001
 43
0.0000001
 44
0.0000000001
 40
0.0
 40
0.0
 40
0.0
 40
0.0
 40
0.2498176334
 40
0.4998888217
 40
0.7500203454
 40
1.0
 40
1.0
 40
1.0
 40
1.0
 10
94.7529285205
 20
89.9109290398
 30
0.0
 10
94.6778524597
 20
89.8655465296
 30
0.0
 10
94.5377412304
 20
89.7563382975
 30
0.0
 10
94.3763149488
 20
89.5444337359
 30
0.0
 10
94.2763013259
 20
89.2974753804
 30
0.0
 10
94.2537331093
 20
89.1211963997
 30
0.0
 10
94.2529272355
 20
89.0334164275
 30
0.0
  0
SPLINE
  5
485
100
AcDbEntity
  8
0
100
AcDbSpline
 62
7
  6
BYLAYER
 70
0
 71
3
 72
11
 73
7
 74
0
 42
0.0000001
 43
0.0000001
 44
0.0000000001
 40
0.0
 40
0.0
 40
0.0
 40
0.0
 40
0.2499796546
 40
0.5001111783
 40
0.7501823666
 40
1.0
 40
1.0
 40
1.0
 40
1.0
 10
94.2529272355
 20
89.0334164275
 30
0.0
 10
94.2537331093
 20
88.9456364552
 30
0.0
 10
94.2763013259
 20
88.7693574746
 30
0.0
 10
94.3763149488
 20
88.5223991191
 30
0.0
 10
94.5377412304
 20
88.3104945574
 30
0.0
 10
94.6778524597
 20
88.2012863254
 30
0.0
 10
94.7529285205
 20
88.1559038152
 30
0.0
  0
SPLINE
  5
486
100
AcDbEntity
  8
0
100
AcDbSpline
 62
7
  6
BYLAYER
 70
0
 71
3
 72
9
 73
5
 74
0
 42
0.0000001
 43
0.0000001
 44
0.0000000001
 40
0.0
 40
0.0
 40
0.0
 40
0.0
 40
0.2653719095
 40
1.0
 40
1.0
 40
1.0
 40
1.0
 10
25.1264784813
 20
87.954377066
 30
0.0
 10
25.1140486424
 20
87.94193383
 30
0.0
 10
25.0671396122
 20
87.8951130251
 30
0.0
 10
25.0210469881
 20
87.8474816928
 30
0.0
 10
24.9873319414
 20
87.8123551554
 30
0.0
  0
SPLINE
  5
487
100
AcDbEntity
  8
0
100
AcDbSpline
 62
7
  6
BYLAYER
 70
0
 71
3
 72
14
 73
10
 74
0
 42
0.0000001
 43
0.0000001
 44
0.0000000001
 40
0.0
 40
0.0
 40
0.0
 40
0.0
 40
0.3894145672
 40
0.5577595504
 40
0.7042983648
 40
0.8257976541
 40
0.9182880872
 40
0.9775340382
 40
1.0
 40
1.0
 40
1.0
 40
1.0
 10
24.9873319414
 20
87.8123551554
 30
0.0
 10
24.9803472676
 20
87.8050780662
 30
0.0
 10
24.9703128133
 20
87.7946666436
 30
0.0
 10
24.9578220569
 20
87.7814104391
 30
0.0
 10
24.9501127354
 20
87.7730511884
 30
0.0
 10
24.9441502101
 20
87.7661081311
 30
0.0
 10
24.939242053
 20
87.7603854132
 30
0.0
 10
24.9374090981
 20
87.75718885
 30
0.0
 10
24.9353990926
 20
87.7548423927
 30
0.0
 10
24.9358111769
 20
87.7544315205
 30
0.0
  0
SPLINE
  5
488
100
AcDbEntity
  8
0
100
AcDbSpline
 62
7
  6
BYLAYER
 70
0
 71
3
 72
14
 73
10
 74
0
 42
0.0000001
 43
0.0000001
 44
0.0000000001
 40
0.0
 40
0.0
 40
0.0
 40
0.0
 40
0.0193853188
 40
0.072121459
 40
0.157385263
 40
0.2736181961
 40
0.418867192
 40
0.5903180281
 40
1.0
 40
1.0
 40
1.0
 40
1.0
 10
24.9357771912
 20
88.2542890535
 30
0.0
 10
24.9355571315
 20
88.2539526486
 30
0.0
 10
24.9373238589
 20
88.2526455901
 30
0.0
 10
24.939166382
 20
88.250751205
 30
0.0
 10
24.9437060204
 20
88.2474251908
 30
0.0
 10
24.9493413676
 20
88.2432072715
 30
0.0
 10
24.9566921522
 20
88.2379546278
 30
0.0
 10
24.9689991018
 20
88.2293143143
 30
0.0
 10
24.9789864055
 20
88.222548565
 30
0.0
 10
24.9860622272
 20
88.2178468944
 30
0.0
  0
SPLINE
  5
489
100
AcDbEntity
  8
0
100
AcDbSpline
 62
7
  6
BYLAYER
 70
0
 71
3
 72
9
 73
5
 74
0
 42
0.0000001
 43
0.0000001
 44
0.0000000001
 40
0.0
 40
0.0
 40
0.0
 40
0.0
 40
0.4634190135
 40
1.0
 40
1.0
 40
1.0
 40
1.0
 10
24.9860622272
 20
88.2178468944
 30
0.0
 10
25.0072489717
 20
88.2037689403
 30
0.0
 10
25.0536866074
 20
88.1744902689
 30
0.0
 10
25.1007325136
 20
88.1461703164
 30
0.0
 10
25.1264784813
 20
88.1318647122
 30
0.0
  0
SPLINE
  5
48A
100
AcDbEntity
  8
0
100
AcDbSpline
 62
7
  6
BYLAYER
 70
0
 71
3
 72
10
 73
6
 74
0
 42
0.0000001
 43
0.0000001
 44
0.0000000001
 40
0.0
 40
0.0
 40
0.0
 40
0.0
 40
0.4116204027
 40
0.6810456753
 40
1.0
 40
1.0
 40
1.0
 40
1.0
 10
88.504160332
 20
82.9778446389
 30
0.0
 10
88.5186747783
 20
82.9778446389
 30
0.0
 10
88.5421159709
 20
82.9911708523
 30
0.0
 10
88.5633217585
 20
83.0190986291
 30
0.0
 10
88.5730168614
 20
83.0376482784
 30
0.0
 10
88.5775283185
 20
83.0479506603
 30
0.0
  0
SPLINE
  5
48B
100
AcDbEntity
  8
0
100
AcDbSpline
 62
7
  6
BYLAYER
 70
0
 71
3
 72
9
 73
5
 74
0
 42
0.0000001
 43
0.0000001
 44
0.0000000001
 40
0.0
 40
0.0
 40
0.0
 40
0.0
 40
0.4658651864
 40
1.0
 40
1.0
 40
1.0
 40
1.0
 10
88.5775283185
 20
83.0479506603
 30
0.0
 10
88.5889683009
 20
83.0740750506
 30
0.0
 10
88.6048692924
 20
83.1338704221
 30
0.0
 10
88.6098148974
 20
83.1951458835
 30
0.0
 10
88.6098148974
 20
83.2278446389
 30
0.0
  0
SPLINE
  5
48C
100
AcDbEntity
  8
0
100
AcDbSpline
 62
7
  6
BYLAYER
 70
0
 71
3
 72
11
 73
7
 74
0
 42
0.0000001
 43
0.0000001
 44
0.0000000001
 40
0.0
 40
0.0
 40
0.0
 40
0.0
 40
0.3368405521
 40
0.4923681714
 40
0.6329834276
 40
1.0
 40
1.0
 40
1.0
 40
1.0
 10
84.3260908004
 20
83.2278446389
 30
0.0
 10
84.3260908004
 20
83.1958418709
 30
0.0
 10
84.3225568362
 20
83.1491230569
 30
0.0
 10
84.3092041033
 20
83.0897616484
 30
0.0
 10
84.2902354645
 20
83.0322120913
 30
0.0
 10
84.2553059862
 20
82.9778446389
 30
0.0
 10
84.220436235
 20
82.9778446389
 30
0.0
  0
SPLINE
  5
48D
100
AcDbEntity
  8
0
100
AcDbSpline
 62
7
  6
BYLAYER
 70
0
 71
3
 72
12
 73
8
 74
0
 42
0.0000001
 43
0.0000001
 44
0.0000000001
 40
0.0
 40
0.0
 40
0.0
 40
0.0
 40
0.3708541129
 40
0.6868470731
 40
0.9026299624
 40
0.9647857632
 40
1.0
 40
1.0
 40
1.0
 40
1.0
 10
83.5332589704
 20
83.2278446389
 30
0.0
 10
83.5332589704
 20
83.1959385393
 30
0.0
 10
83.5314913614
 20
83.1367353801
 30
0.0
 10
83.5241897928
 20
83.0596863441
 30
0.0
 10
83.5139624023
 20
83.008784252
 30
0.0
 10
83.5039068355
 20
82.9842953977
 30
0.0
 10
83.4967033492
 20
82.9778446389
 30
0.0
 10
83.4936737241
 20
82.9778446389
 30
0.0
  0
SPLINE
  5
48E
100
AcDbEntity
  8
0
100
AcDbSpline
 62
7
  6
BYLAYER
 70
0
 71
3
 72
11
 73
7
 74
0
 42
0.0000001
 43
0.0000001
 44
0.0000000001
 40
0.0
 40
0.0
 40
0.0
 40
0.0
 40
0.3368405521
 40
0.4923681714
 40
0.6329834276
 40
1.0
 40
1.0
 40
1.0
 40
1.0
 10
18.2273748535
 20
83.2278446389
 30
0.0
 10
18.2273748535
 20
83.1958418709
 30
0.0
 10
18.2309088177
 20
83.1491230569
 30
0.0
 10
18.2442615506
 20
83.0897616484
 30
0.0
 10
18.2632301894
 20
83.0322120913
 30
0.0
 10
18.2981596677
 20
82.9778446389
 30
0.0
 10
18.3330294189
 20
82.9778446389
 30
0.0
  0
SPLINE
  5
48F
100
AcDbEntity
  8
0
100
AcDbSpline
 62
7
  6
BYLAYER
 70
0
 71
3
 72
12
 73
8
 74
0
 42
0.0000001
 43
0.0000001
 44
0.0000000001
 40
0.0
 40
0.0
 40
0.0
 40
0.0
 40
0.3715915957
 40
0.6880944346
 40
0.9038871366
 40
0.9656692485
 40
1.0
 40
1.0
 40
1.0
 40
1.0
 10
23.5125605209
 20
83.2278446389
 30
0.0
 10
23.5125605209
 20
83.1959397132
 30
0.0
 10
23.5142691452
 20
83.1367417177
 30
0.0
 10
23.5212602848
 20
83.0597509464
 30
0.0
 10
23.5311483945
 20
83.0088182025
 30
0.0
 10
23.540728736
 20
82.9844208226
 30
0.0
 10
23.5477001168
 20
82.9778446389
 30
0.0
 10
23.5506477617
 20
82.9778446389
 30
0.0
  0
SPLINE
  5
490
100
AcDbEntity
  8
0
100
AcDbSpline
 62
7
  6
BYLAYER
 70
0
 71
3
 72
17
 73
13
 74
0
 42
0.0000001
 43
0.0000001
 44
0.0000000001
 40
0.0
 40
0.0
 40
0.0
 40
0.0
 40
0.0081333354
 40
0.0297629141
 40
0.063264336
 40
0.1068493495
 40
0.1590149368
 40
0.2184032174
 40
0.3535114209
 40
0.5041261843
 40
0.6647499375
 40
1.0
 40
1.0
 40
1.0
 40
1.0
 10
24.9358111721
 20
90.2643238627
 30
0.0
 10
24.9352802807
 20
90.2637945094
 30
0.0
 10
24.9380859929
 20
90.2608303829
 30
0.0
 10
24.9404107872
 20
90.256730321
 30
0.0
 10
24.9468880883
 20
90.2494745451
 30
0.0
 10
24.9546146568
 20
90.2407373975
 30
0.0
 10
24.9644841429
 20
90.2302653601
 30
0.0
 10
24.9801567335
 20
90.2138447949
 30
0.0
 10
25.0022127342
 20
90.1908916127
 30
0.0
 10
25.0306893594
 20
90.161206739
 30
0.0
 10
25.0723018315
 20
90.1185451976
 30
0.0
 10
25.1046389793
 20
90.086241358
 30
0.0
 10
25.1264784813
 20
90.0643783171
 30
0.0
  0
SPLINE
  5
491
100
AcDbEntity
  8
0
100
AcDbSpline
 62
7
  6
BYLAYER
 70
0
 71
3
 72
11
 73
7
 74
0
 42
0.0000001
 43
0.0000001
 44
0.0000000001
 40
0.0
 40
0.0
 40
0.0
 40
0.0
 40
0.2498176334
 40
0.4998888217
 40
0.7500203454
 40
1.0
 40
1.0
 40
1.0
 40
1.0
 10
107.7210919748
 20
93.6698664309
 30
0.0
 10
107.646015914
 20
93.6244839207
 30
0.0
 10
107.5059046847
 20
93.5152756886
 30
0.0
 10
107.344478403
 20
93.303371127
 30
0.0
 10
107.2444647802
 20
93.0564127715
 30
0.0
 10
107.2218965635
 20
92.8801337908
 30
0.0
 10
107.2210906898
 20
92.7923538186
 30
0.0
  0
SPLINE
  5
492
100
AcDbEntity
  8
0
100
AcDbSpline
 62
7
  6
BYLAYER
 70
0
 71
3
 72
11
 73
7
 74
0
 42
0.0000001
 43
0.0000001
 44
0.0000000001
 40
0.0
 40
0.0
 40
0.0
 40
0.0
 40
0.2499796546
 40
0.5001111783
 40
0.7501823666
 40
1.0
 40
1.0
 40
1.0
 40
1.0
 10
107.2210906898
 20
92.7923538186
 30
0.0
 10
107.2218965635
 20
92.7045738463
 30
0.0
 10
107.2444647802
 20
92.5282948656
 30
0.0
 10
107.344478403
 20
92.2813365101
 30
0.0
 10
107.5059046847
 20
92.0694319485
 30
0.0
 10
107.646015914
 20
91.9602237165
 30
0.0
 10
107.7210919748
 20
91.9148412062
 30
0.0
  0
SPLINE
  5
493
100
AcDbEntity
  8
0
100
AcDbSpline
 62
7
  6
BYLAYER
 70
0
 71
3
 72
11
 73
7
 74
0
 42
0.0000001
 43
0.0000001
 44
0.0000000001
 40
0.0
 40
0.0
 40
0.0
 40
0.0
 40
0.3670165724
 40
0.5076318286
 40
0.6631594479
 40
1.0
 40
1.0
 40
1.0
 40
1.0
 10
22.8074071909
 20
82.9778446389
 30
0.0
 10
22.7725374397
 20
82.9778446389
 30
0.0
 10
22.7376079614
 20
83.0322120913
 30
0.0
 10
22.7186393226
 20
83.0897616484
 30
0.0
 10
22.7052865897
 20
83.1491230569
 30
0.0
 10
22.7017526255
 20
83.1958418709
 30
0.0
 10
22.7017526255
 20
83.2278446389
 30
0.0
  0
SPLINE
  5
494
100
AcDbEntity
  8
0
100
AcDbSpline
 62
7
  6
BYLAYER
 70
0
 71
3
 72
9
 73
5
 74
0
 42
0.0000001
 43
0.0000001
 44
0.0000000001
 40
0.0
 40
0.0
 40
0.0
 40
0.0
 40
0.5365974318
 40
1.0
 40
1.0
 40
1.0
 40
1.0
 10
25.1264784813
 20
89.8868906716
 30
0.0
 10
25.1007264407
 20
89.8725816931
 30
0.0
 10
25.0537095632
 20
89.8441892169
 30
0.0
 10
25.0072406407
 20
89.8149449358
 30
0.0
 10
24.9859986043
 20
89.8009427041
 30
0.0
  0
SPLINE
  5
495
100
AcDbEntity
  8
0
100
AcDbSpline
 62
7
  6
BYLAYER
 70
0
 71
3
 72
14
 73
10
 74
0
 42
0.0000001
 43
0.0000001
 44
0.0000000001
 40
0.0
 40
0.0
 40
0.0
 40
0.0
 40
0.4084503158
 40
0.5794155496
 40
0.7245119895
 40
0.8410484139
 40
0.9268899937
 40
0.9802380751
 40
1.0
 40
1.0
 40
1.0
 40
1.0
 10
24.9859986043
 20
89.8009427041
 30
0.0
 10
24.978927608
 20
89.7962816759
 30
0.0
 10
24.9689370883
 20
89.7895872737
 30
0.0
 10
24.9566315742
 20
89.7810141383
 30
0.0
 10
24.9492840792
 20
89.7757723319
 30
0.0
 10
24.9436585156
 20
89.7715120871
 30
0.0
 10
24.9391410326
 20
89.7681145444
 30
0.0
 10
24.9373078921
 20
89.7661531317
 30
0.0
 10
24.9355528892
 20
89.7648065309
 30
0.0
 10
24.9357771872
 20
89.7644636193
 30
0.0
  0
SPLINE
  5
496
100
AcDbEntity
  8
0
100
AcDbSpline
 62
7
  6
BYLAYER
 70
0
 71
3
 72
18
 73
14
 74
0
 42
0.0000001
 43
0.0000001
 44
0.0000000001
 40
0.0
 40
0.0
 40
0.0
 40
0.0
 40
0.1946873179
 40
0.3826835954
 40
0.5556383087
 40
0.7071045137
 40
0.8313845078
 40
0.8818737527
 40
0.9238740019
 40
0.9569038793
 40
0.9807219378
 40
0.9951469417
 40
1.0
 40
1.0
 40
1.0
 40
1.0
 10
28.3478273383
 20
83.2278446389
 30
0.0
 10
28.3478258
 20
83.2116205628
 30
0.0
 10
28.3478195677
 20
83.1797297532
 30
0.0
 10
28.3477947012
 20
83.1334272446
 30
0.0
 10
28.347755457
 20
83.0907220687
 30
0.0
 10
28.3476876078
 20
83.0533404334
 30
0.0
 10
28.3476475276
 20
83.0261286068
 30
0.0
 10
28.3475529989
 20
83.0081048521
 30
0.0
 10
28.3475923301
 20
82.997557217
 30
0.0
 10
28.347341626
 20
82.9895499321
 30
0.0
 10
28.3477831872
 20
82.9830834538
 30
0.0
 10
28.3468891732
 20
82.9804270068
 30
0.0
 10
28.3477459234
 20
82.9778451838
 30
0.0
 10
28.3473414989
 20
82.977844639
 30
0.0
  0
SPLINE
  5
497
100
AcDbEntity
  8
0
100
AcDbSpline
 62
7
  6
BYLAYER
 70
0
 71
3
 72
14
 73
10
 74
0
 42
0.0000001
 43
0.0000001
 44
0.0000000001
 40
0.0
 40
0.0
 40
0.0
 40
0.0
 40
0.0193853188
 40
0.072121459
 40
0.157385263
 40
0.2736181961
 40
0.418867192
 40
0.5903180281
 40
1.0
 40
1.0
 40
1.0
 40
1.0
 10
94.9436291669
 20
86.2185050656
 30
0.0
 10
94.9438492265
 20
86.2188414705
 30
0.0
 10
94.9420824992
 20
86.220148529
 30
0.0
 10
94.940239976
 20
86.2220429141
 30
0.0
 10
94.9357003377
 20
86.2253689283
 30
0.0
 10
94.9300649904
 20
86.2295868476
 30
0.0
 10
94.9227142059
 20
86.2348394913
 30
0.0
 10
94.9104072563
 20
86.2434798048
 30
0.0
 10
94.9004199526
 20
86.2502455541
 30
0.0
 10
94.8933441308
 20
86.2549472248
 30
0.0
  0
SPLINE
  5
498
100
AcDbEntity
  8
0
100
AcDbSpline
 62
7
  6
BYLAYER
 70
0
 71
3
 72
9
 73
5
 74
0
 42
0.0000001
 43
0.0000001
 44
0.0000000001
 40
0.0
 40
0.0
 40
0.0
 40
0.0
 40
0.4634190135
 40
1.0
 40
1.0
 40
1.0
 40
1.0
 10
94.8933441308
 20
86.2549472248
 30
0.0
 10
94.8721573864
 20
86.2690251788
 30
0.0
 10
94.8257197506
 20
86.2983038502
 30
0.0
 10
94.7786738445
 20
86.3266238027
 30
0.0
 10
94.7529278768
 20
86.3409294069
 30
0.0
  0
SPLINE
  5
499
100
AcDbEntity
  8
0
100
AcDbSpline
 62
7
  6
BYLAYER
 70
0
 71
3
 72
9
 73
5
 74
0
 42
0.0000001
 43
0.0000001
 44
0.0000000001
 40
0.0
 40
0.0
 40
0.0
 40
0.0
 40
0.2653719095
 40
1.0
 40
1.0
 40
1.0
 40
1.0
 10
94.7529278768
 20
86.5184170531
 30
0.0
 10
94.7653577157
 20
86.5308602891
 30
0.0
 10
94.8122667459
 20
86.577681094
 30
0.0
 10
94.85835937
 20
86.6253124263
 30
0.0
 10
94.8920744167
 20
86.6604389637
 30
0.0
  0
SPLINE
  5
49A
100
AcDbEntity
  8
0
100
AcDbSpline
 62
7
  6
BYLAYER
 70
0
 71
3
 72
14
 73
10
 74
0
 42
0.0000001
 43
0.0000001
 44
0.0000000001
 40
0.0
 40
0.0
 40
0.0
 40
0.0
 40
0.3894145672
 40
0.5577595504
 40
0.7042983648
 40
0.8257976541
 40
0.9182880872
 40
0.9775340382
 40
1.0
 40
1.0
 40
1.0
 40
1.0
 10
94.8920744167
 20
86.6604389637
 30
0.0
 10
94.8990590904
 20
86.6677160529
 30
0.0
 10
94.9090935448
 20
86.6781274755
 30
0.0
 10
94.9215843012
 20
86.69138368
 30
0.0
 10
94.9292936226
 20
86.6997429307
 30
0.0
 10
94.9352561479
 20
86.706685988
 30
0.0
 10
94.9401643051
 20
86.7124087059
 30
0.0
 10
94.9419972599
 20
86.7156052691
 30
0.0
 10
94.9440072654
 20
86.7179517264
 30
0.0
 10
94.9435951812
 20
86.7183625986
 30
0.0
  0
SPLINE
  5
49B
100
AcDbEntity
  8
0
100
AcDbSpline
 62
7
  6
BYLAYER
 70
0
 71
3
 72
9
 73
5
 74
0
 42
0.0000001
 43
0.0000001
 44
0.0000000001
 40
0.0
 40
0.0
 40
0.0
 40
0.0
 40
0.5365974318
 40
1.0
 40
1.0
 40
1.0
 40
1.0
 10
94.7529278768
 20
84.5859034475
 30
0.0
 10
94.7786799174
 20
84.600212426
 30
0.0
 10
94.8256967949
 20
84.6286049022
 30
0.0
 10
94.8721657173
 20
84.6578491833
 30
0.0
 10
94.8934077538
 20
84.671851415
 30
0.0
  0
SPLINE
  5
49C
100
AcDbEntity
  8
0
100
AcDbSpline
 62
7
  6
BYLAYER
 70
0
 71
3
 72
14
 73
10
 74
0
 42
0.0000001
 43
0.0000001
 44
0.0000000001
 40
0.0
 40
0.0
 40
0.0
 40
0.0
 40
0.4084503158
 40
0.5794155496
 40
0.7245119895
 40
0.8410484139
 40
0.9268899937
 40
0.9802380751
 40
1.0
 40
1.0
 40
1.0
 40
1.0
 10
94.8934077538
 20
84.671851415
 30
0.0
 10
94.9004787501
 20
84.6765124432
 30
0.0
 10
94.9104692698
 20
84.6832068454
 30
0.0
 10
94.9227747839
 20
84.6917799808
 30
0.0
 10
94.9301222789
 20
84.6970217872
 30
0.0
 10
94.9357478425
 20
84.701282032
 30
0.0
 10
94.9402653254
 20
84.7046795747
 30
0.0
 10
94.942098466
 20
84.7066409874
 30
0.0
 10
94.9438534689
 20
84.7079875882
 30
0.0
 10
94.9436291708
 20
84.7083304998
 30
0.0
  0
SPLINE
  5
49D
100
AcDbEntity
  8
0
100
AcDbSpline
 62
7
  6
BYLAYER
 70
0
 71
3
 72
14
 73
10
 74
0
 42
0.0000001
 43
0.0000001
 44
0.0000000001
 40
0.0
 40
0.0
 40
0.0
 40
0.0
 40
0.0224491492
 40
0.0816122192
 40
0.1739934672
 40
0.2953932298
 40
0.4418940764
 40
0.6102781346
 40
1.0
 40
1.0
 40
1.0
 40
1.0
 10
94.943595186
 20
84.2084702564
 30
0.0
 10
94.9440033956
 20
84.2088772834
 30
0.0
 10
94.9420218005
 20
84.2112036864
 30
0.0
 10
94.9402060383
 20
84.21437111
 30
0.0
 10
94.935351667
 20
84.220041787
 30
0.0
 10
94.9294451831
 20
84.2269213133
 30
0.0
 10
94.9218061102
 20
84.2352079998
 30
0.0
 10
94.9094206078
 20
84.2483581602
 30
0.0
 10
94.8994686874
 20
84.2586879681
 30
0.0
 10
94.8925398413
 20
84.2659088013
 30
0.0
  0
SPLINE
  5
49E
100
AcDbEntity
  8
0
100
AcDbSpline
 62
7
  6
BYLAYER
 70
0
 71
3
 72
9
 73
5
 74
0
 42
0.0000001
 43
0.0000001
 44
0.0000000001
 40
0.0
 40
0.0
 40
0.0
 40
0.0
 40
0.2263911529
 40
1.0
 40
1.0
 40
1.0
 40
1.0
 10
94.8925398413
 20
84.2659088013
 30
0.0
 10
94.8821161409
 20
84.2767717647
 30
0.0
 10
94.8361729339
 20
84.3248512613
 30
0.0
 10
94.7892857093
 20
84.3720187825
 30
0.0
 10
94.7529278768
 20
84.408415802
 30
0.0
  0
SPLINE
  5
49F
100
AcDbEntity
  8
0
100
AcDbSpline
 62
7
  6
BYLAYER
 70
0
 71
3
 72
17
 73
13
 74
0
 42
0.0000001
 43
0.0000001
 44
0.0000000001
 40
0.0
 40
0.0
 40
0.0
 40
0.0
 40
0.0065348107
 40
0.0242198517
 40
0.052456837
 40
0.0904620518
 40
0.1373852702
 40
0.1922873443
 40
0.3222195134
 40
0.4734112791
 40
0.6403723694
 40
1.0
 40
1.0
 40
1.0
 40
1.0
 10
107.9117926459
 20
95.6076719201
 30
0.0
 10
107.9120634397
 20
95.6072577702
 30
0.0
 10
107.9098836716
 20
95.6056659709
 30
0.0
 10
107.9077353515
 20
95.6032601997
 30
0.0
 10
107.9023107863
 20
95.5991844043
 30
0.0
 10
107.8956312808
 20
95.5941083171
 30
0.0
 10
107.8869340051
 20
95.5879521379
 30
0.0
 10
107.8725090347
 20
95.578008784
 30
0.0
 10
107.8512621457
 20
95.5639736461
 30
0.0
 10
107.8226582935
 20
95.5457350661
 30
0.0
 10
107.7790994743
 20
95.518593585
 30
0.0
 10
107.7448949358
 20
95.4980671795
 30
0.0
 10
107.721091331
 20
95.4848408386
 30
0.0
  0
SPLINE
  5
4A0
100
AcDbEntity
  8
0
100
AcDbSpline
 62
7
  6
BYLAYER
 70
0
 71
3
 72
18
 73
14
 74
0
 42
0.0000001
 43
0.0000001
 44
0.0000000001
 40
0.0
 40
0.0
 40
0.0
 40
0.0
 40
0.1946804151
 40
0.3826700103
 40
0.5556192871
 40
0.7070816718
 40
0.831359709
 40
0.8818486863
 40
0.9238492108
 40
0.9568800907
 40
0.9807003159
 40
0.9951300238
 40
1.0
 40
1.0
 40
1.0
 40
1.0
 10
28.5830294472
 20
83.2278446389
 30
0.0
 10
28.5829449516
 20
83.2116209082
 30
0.0
 10
28.5828008302
 20
83.1797306627
 30
0.0
 10
28.5826453304
 20
83.1334286977
 30
0.0
 10
28.5825419947
 20
83.0907237863
 30
0.0
 10
28.5825109834
 20
83.0533419215
 30
0.0
 10
28.5825114891
 20
83.0261299834
 30
0.0
 10
28.5826014659
 20
83.0081055126
 30
0.0
 10
28.5825857686
 20
82.9975583572
 30
0.0
 10
28.5828424898
 20
82.9895486554
 30
0.0
 10
28.5824961025
 20
82.9830864554
 30
0.0
 10
28.5833395829
 20
82.9804207709
 30
0.0
 10
28.5826235931
 20
82.9778448948
 30
0.0
 10
28.5830294389
 20
82.977844639
 30
0.0
  0
SPLINE
  5
4A1
100
AcDbEntity
  8
0
100
AcDbSpline
 62
7
  6
BYLAYER
 70
0
 71
3
 72
11
 73
7
 74
0
 42
0.0000001
 43
0.0000001
 44
0.0000000001
 40
0.0
 40
0.0
 40
0.0
 40
0.0
 40
0.2516887388
 40
0.5023918189
 40
0.7516938217
 40
1.0
 40
1.0
 40
1.0
 40
1.0
 10
43.9188092932
 20
83.2278446389
 30
0.0
 10
43.9188092932
 20
83.195347491
 30
0.0
 10
43.9060531897
 20
83.1297845909
 30
0.0
 10
43.8513635685
 20
83.046698032
 30
0.0
 10
43.7694710467
 20
82.9909217379
 30
0.0
 10
43.7045046682
 20
82.9778446389
 30
0.0
 10
43.6724442643
 20
82.9778446389
 30
0.0
  0
SPLINE
  5
4A2
100
AcDbEntity
  8
0
100
AcDbSpline
 62
7
  6
BYLAYER
 70
0
 71
3
 72
11
 73
7
 74
0
 42
0.0000001
 43
0.0000001
 44
0.0000000001
 40
0.0
 40
0.0
 40
0.0
 40
0.0
 40
0.248306225
 40
0.4976080054
 40
0.748310965
 40
1.0
 40
1.0
 40
1.0
 40
1.0
 10
44.1330294189
 20
82.9778446389
 30
0.0
 10
44.1650898286
 20
82.977844639
 30
0.0
 10
44.2300561833
 20
82.9909217379
 30
0.0
 10
44.3119486777
 20
83.0466979949
 30
0.0
 10
44.3666383144
 20
83.1297845309
 30
0.0
 10
44.3793944478
 20
83.1953474529
 30
0.0
 10
44.3793944478
 20
83.2278446389
 30
0.0
  0
SPLINE
  5
4A3
100
AcDbEntity
  8
0
100
AcDbSpline
 62
7
  6
BYLAYER
 70
0
 71
3
 72
18
 73
14
 74
0
 42
0.0000001
 43
0.0000001
 44
0.0000000001
 40
0.0
 40
0.0
 40
0.0
 40
0.0
 40
0.0062602462
 40
0.0234543577
 40
0.0512175859
 40
0.0889732937
 40
0.1359114663
 40
0.1909846969
 40
0.3213243785
 40
0.4727755616
 40
0.6399350766
 40
0.8174742606
 40
1.0
 40
1.0
 40
1.0
 40
1.0
 10
81.8493095746
 20
86.188410511
 30
0.0
 10
81.8495687587
 20
86.1888067254
 30
0.0
 10
81.8473914148
 20
86.1903016029
 30
0.0
 10
81.8452346946
 20
86.1925452086
 30
0.0
 10
81.8397920342
 20
86.1964431966
 30
0.0
 10
81.8331152353
 20
86.2014059628
 30
0.0
 10
81.8244260298
 20
86.2075466136
 30
0.0
 10
81.8100171855
 20
86.2175524742
 30
0.0
 10
81.78880685
 20
86.2317033176
 30
0.0
 10
81.7602097185
 20
86.2499971139
 30
0.0
 10
81.7283601598
 20
86.2698423404
 30
0.0
 10
81.6942683562
 20
86.2905234595
 30
0.0
 10
81.6706749469
 20
86.3041300783
 30
0.0
 10
81.6586082845
 20
86.3108348523
 30
0.0
  0
SPLINE
  5
4A4
100
AcDbEntity
  8
0
100
AcDbSpline
 62
7
  6
BYLAYER
 70
0
 71
3
 72
17
 73
13
 74
0
 42
0.0000001
 43
0.0000001
 44
0.0000000001
 40
0.0
 40
0.0
 40
0.0
 40
0.0
 40
0.3352407674
 40
0.4958503353
 40
0.6464483905
 40
0.7815573449
 40
0.8409417665
 40
0.8931082881
 40
0.9367075621
 40
0.9702249919
 40
0.9918645855
 40
1.0
 40
1.0
 40
1.0
 40
1.0
 10
81.6586082845
 20
86.4883224985
 30
0.0
 10
81.6804471265
 20
86.5101848788
 30
0.0
 10
81.7127839785
 20
86.5424858132
 30
0.0
 10
81.7543910989
 20
86.5851472076
 30
0.0
 10
81.7828642664
 20
86.6148313909
 30
0.0
 10
81.8049236246
 20
86.6377787315
 30
0.0
 10
81.8205964346
 20
86.6541986977
 30
0.0
 10
81.8304659329
 20
86.6646722261
 30
0.0
 10
81.8381902199
 20
86.6734149317
 30
0.0
 10
81.8446705126
 20
86.6806738714
 30
0.0
 10
81.8469965226
 20
86.6847745451
 30
0.0
 10
81.8498066264
 20
86.6877385684
 30
0.0
 10
81.8492755889
 20
86.688268044
 30
0.0
  0
SPLINE
  5
4A5
100
AcDbEntity
  8
0
100
AcDbSpline
 62
7
  6
BYLAYER
 70
0
 71
3
 72
18
 73
14
 74
0
 42
0.0000001
 43
0.0000001
 44
0.0000000001
 40
0.0
 40
0.0
 40
0.0
 40
0.0
 40
0.0080377671
 40
0.0298537366
 40
0.0636380333
 40
0.1074145289
 40
0.1596176488
 40
0.2189393491
 40
0.353859875
 40
0.5043711764
 40
0.6649288781
 40
0.8311138775
 40
1.0
 40
1.0
 40
1.0
 40
1.0
 10
107.9122523546
 20
97.6173000114
 30
0.0
 10
107.9127776409
 20
97.616776697
 30
0.0
 10
107.9095627016
 20
97.6139831004
 30
0.0
 10
107.9070540068
 20
97.6101152409
 30
0.0
 10
107.9001471152
 20
97.6030759654
 30
0.0
 10
107.8923861031
 20
97.5943244428
 30
0.0
 10
107.882660037
 20
97.5836754814
 30
0.0
 10
107.867344123
 20
97.5669280802
 30
0.0
 10
107.8454752164
 20
97.5438025225
 30
0.0
 10
107.816734938
 20
97.5143745151
 30
0.0
 10
107.7858825652
 20
97.4829637192
 30
0.0
 10
107.7538565576
 20
97.4503340681
 30
0.0
 10
107.7321011459
 20
97.4283761444
 30
0.0
 10
107.7210906873
 20
97.4173538186
 30
0.0
  0
SPLINE
  5
4A6
100
AcDbEntity
  8
0
100
AcDbSpline
 62
7
  6
BYLAYER
 70
0
 71
3
 72
18
 73
14
 74
0
 42
0.0000001
 43
0.0000001
 44
0.0000000001
 40
0.0
 40
0.0
 40
0.0
 40
0.0
 40
0.1824475613
 40
0.3599119957
 40
0.5270604767
 40
0.6784687532
 40
0.8085847014
 40
0.8635345632
 40
0.9104240298
 40
0.9482658489
 40
0.9762176794
 40
0.9936156888
 40
1.0
 40
1.0
 40
1.0
 40
1.0
 10
81.6586082845
 20
84.5558088929
 30
0.0
 10
81.670671191
 20
84.5625115801
 30
0.0
 10
81.6942484925
 20
84.5761298704
 30
0.0
 10
81.7283155896
 20
84.5968364393
 30
0.0
 10
81.7601666538
 20
84.6166688938
 30
0.0
 10
81.7887767063
 20
84.6349103204
 30
0.0
 10
81.810025534
 20
84.6489539598
 30
0.0
 10
81.8244564195
 20
84.6588801712
 30
0.0
 10
81.8331546559
 20
84.6649966832
 30
0.0
 10
81.839834912
 20
84.6699913578
 30
0.0
 10
81.8452584067
 20
84.6739678348
 30
0.0
 10
81.8474084093
 20
84.6762877072
 30
0.0
 10
81.8495739153
 20
84.6778318217
 30
0.0
 10
81.8493095785
 20
84.6782359453
 30
0.0
  0
SPLINE
  5
4A7
100
AcDbEntity
  8
0
100
AcDbSpline
 62
7
  6
BYLAYER
 70
0
 71
3
 72
17
 73
13
 74
0
 42
0.0000001
 43
0.0000001
 44
0.0000000001
 40
0.0
 40
0.0
 40
0.0
 40
0.0
 40
0.0081333354
 40
0.0297629141
 40
0.063264336
 40
0.1068493495
 40
0.1590149368
 40
0.2184032174
 40
0.3535114209
 40
0.5041261843
 40
0.6647499375
 40
1.0
 40
1.0
 40
1.0
 40
1.0
 10
81.8492755937
 20
84.1783757018
 30
0.0
 10
81.8498064851
 20
84.1789050552
 30
0.0
 10
81.8470007729
 20
84.1818691816
 30
0.0
 10
81.8446759785
 20
84.1859692435
 30
0.0
 10
81.8381986774
 20
84.1932250195
 30
0.0
 10
81.830472109
 20
84.2019621671
 30
0.0
 10
81.8206026228
 20
84.2124342045
 30
0.0
 10
81.8049300323
 20
84.2288547696
 30
0.0
 10
81.7828740316
 20
84.2518079518
 30
0.0
 10
81.7543974064
 20
84.2814928255
 30
0.0
 10
81.7127849342
 20
84.324154367
 30
0.0
 10
81.6804477865
 20
84.3564582065
 30
0.0
 10
81.6586082845
 20
84.3783212474
 30
0.0
  0
SPLINE
  5
4A8
100
AcDbEntity
  8
0
100
AcDbSpline
 62
7
  6
BYLAYER
 70
0
 71
3
 72
11
 73
7
 74
0
 42
0.0000001
 43
0.0000001
 44
0.0000000001
 40
0.0
 40
0.0
 40
0.0
 40
0.0
 40
0.2498176334
 40
0.4998888217
 40
0.7500203454
 40
1.0
 40
1.0
 40
1.0
 40
1.0
 10
94.7529285205
 20
86.3409290398
 30
0.0
 10
94.6778524597
 20
86.2955465296
 30
0.0
 10
94.5377412304
 20
86.1863382975
 30
0.0
 10
94.3763149488
 20
85.9744337359
 30
0.0
 10
94.2763013259
 20
85.7274753804
 30
0.0
 10
94.2537331093
 20
85.5511963997
 30
0.0
 10
94.2529272355
 20
85.4634164275
 30
0.0
  0
SPLINE
  5
4A9
100
AcDbEntity
  8
0
100
AcDbSpline
 62
7
  6
BYLAYER
 70
0
 71
3
 72
11
 73
7
 74
0
 42
0.0000001
 43
0.0000001
 44
0.0000000001
 40
0.0
 40
0.0
 40
0.0
 40
0.0
 40
0.2499796546
 40
0.5001111783
 40
0.7501823666
 40
1.0
 40
1.0
 40
1.0
 40
1.0
 10
94.2529272355
 20
85.4634164275
 30
0.0
 10
94.2537331093
 20
85.3756364552
 30
0.0
 10
94.2763013259
 20
85.1993574746
 30
0.0
 10
94.3763149488
 20
84.9523991191
 30
0.0
 10
94.5377412304
 20
84.7404945574
 30
0.0
 10
94.6778524597
 20
84.6312863254
 30
0.0
 10
94.7529285205
 20
84.5859038152
 30
0.0
  0
SPLINE
  5
4AA
100
AcDbEntity
  8
0
100
AcDbSpline
 62
7
  6
BYLAYER
 70
0
 71
3
 72
11
 73
7
 74
0
 42
0.0000001
 43
0.0000001
 44
0.0000000001
 40
0.0
 40
0.0
 40
0.0
 40
0.0
 40
0.2498176334
 40
0.4998888217
 40
0.7500203454
 40
1.0
 40
1.0
 40
1.0
 40
1.0
 10
81.6586089282
 20
86.3108344853
 30
0.0
 10
81.5835328674
 20
86.265451975
 30
0.0
 10
81.4434216381
 20
86.156243743
 30
0.0
 10
81.2819953565
 20
85.9443391814
 30
0.0
 10
81.1819817336
 20
85.6973808259
 30
0.0
 10
81.159413517
 20
85.5211018452
 30
0.0
 10
81.1586076432
 20
85.4333218729
 30
0.0
  0
SPLINE
  5
4AB
100
AcDbEntity
  8
0
100
AcDbSpline
 62
7
  6
BYLAYER
 70
0
 71
3
 72
11
 73
7
 74
0
 42
0.0000001
 43
0.0000001
 44
0.0000000001
 40
0.0
 40
0.0
 40
0.0
 40
0.0
 40
0.2499796546
 40
0.5001111783
 40
0.7501823666
 40
1.0
 40
1.0
 40
1.0
 40
1.0
 10
81.1586076432
 20
85.4333218729
 30
0.0
 10
81.159413517
 20
85.3455419007
 30
0.0
 10
81.1819817336
 20
85.16926292
 30
0.0
 10
81.2819953565
 20
84.9223045645
 30
0.0
 10
81.4434216381
 20
84.7104000029
 30
0.0
 10
81.5835328674
 20
84.6011917708
 30
0.0
 10
81.6586089282
 20
84.5558092606
 30
0.0
  0
SPLINE
  5
4AC
100
AcDbEntity
  8
0
100
AcDbSpline
 62
7
  6
BYLAYER
 70
0
 71
3
 72
11
 73
7
 74
0
 42
0.0000001
 43
0.0000001
 44
0.0000000001
 40
0.0
 40
0.0
 40
0.0
 40
0.0
 40
0.2499796546
 40
0.5001111783
 40
0.7501823666
 40
1.0
 40
1.0
 40
1.0
 40
1.0
 10
25.6226678432
 20
92.7648071574
 30
0.0
 10
25.6218619695
 20
92.8525871296
 30
0.0
 10
25.5992937528
 20
93.0288661103
 30
0.0
 10
25.49928013
 20
93.2758244658
 30
0.0
 10
25.3378538483
 20
93.4877290274
 30
0.0
 10
25.197742619
 20
93.5969372595
 30
0.0
 10
25.1226665582
 20
93.6423197697
 30
0.0
  0
SPLINE
  5
4AD
100
AcDbEntity
  8
0
100
AcDbSpline
 62
7
  6
BYLAYER
 70
0
 71
3
 72
11
 73
7
 74
0
 42
0.0000001
 43
0.0000001
 44
0.0000000001
 40
0.0
 40
0.0
 40
0.0
 40
0.0
 40
0.2498176334
 40
0.4998888217
 40
0.7500203454
 40
1.0
 40
1.0
 40
1.0
 40
1.0
 10
25.1226665582
 20
91.887294545
 30
0.0
 10
25.197742619
 20
91.9326770553
 30
0.0
 10
25.3378538483
 20
92.0418852873
 30
0.0
 10
25.49928013
 20
92.2537898489
 30
0.0
 10
25.5992937528
 20
92.5007482044
 30
0.0
 10
25.6218619695
 20
92.6770271851
 30
0.0
 10
25.6226678432
 20
92.7648071574
 30
0.0
  0
SPLINE
  5
4AE
100
AcDbEntity
  8
0
100
AcDbSpline
 62
7
  6
BYLAYER
 70
0
 71
3
 72
14
 73
10
 74
0
 42
0.0000001
 43
0.0000001
 44
0.0000000001
 40
0.0
 40
0.0
 40
0.0
 40
0.0
 40
0.0201900528
 40
0.0744333007
 40
0.1611873814
 40
0.278258723
 40
0.4233189091
 40
0.5937592221
 40
1.0
 40
1.0
 40
1.0
 40
1.0
 10
24.9319658871
 20
93.5194890558
 30
0.0
 10
24.9317298299
 20
93.51985008
 30
0.0
 10
24.9335601391
 20
93.5212683152
 30
0.0
 10
24.9354397797
 20
93.5233618396
 30
0.0
 10
24.9400984292
 20
93.5269405805
 30
0.0
 10
24.9458831463
 20
93.5313973337
 30
0.0
 10
24.9534359664
 20
93.5368217501
 30
0.0
 10
24.9660605494
 20
93.5456312169
 30
0.0
 10
24.976314755
 20
93.552483413
 30
0.0
 10
24.9835662511
 20
93.5572523159
 30
0.0
  0
SPLINE
  5
4AF
100
AcDbEntity
  8
0
100
AcDbSpline
 62
7
  6
BYLAYER
 70
0
 71
3
 72
9
 73
5
 74
0
 42
0.0000001
 43
0.0000001
 44
0.0000000001
 40
0.0
 40
0.0
 40
0.0
 40
0.0
 40
0.4642705416
 40
1.0
 40
1.0
 40
1.0
 40
1.0
 10
24.9835662511
 20
93.5572523159
 30
0.0
 10
25.0046514811
 20
93.571118891
 30
0.0
 10
25.0506613014
 20
93.6000674268
 30
0.0
 10
25.0972122324
 20
93.6281762247
 30
0.0
 10
25.122667202
 20
93.6423201374
 30
0.0
  0
SPLINE
  5
4B0
100
AcDbEntity
  8
0
100
AcDbSpline
 62
7
  6
BYLAYER
 70
0
 71
3
 72
14
 73
10
 74
0
 42
0.0000001
 43
0.0000001
 44
0.0000000001
 40
0.0
 40
0.0
 40
0.0
 40
0.0
 40
0.0199801506
 40
0.0738438005
 40
0.1602287339
 40
0.2771001017
 40
0.4222295541
 40
0.5929445424
 40
1.0
 40
1.0
 40
1.0
 40
1.0
 10
24.9319658913
 20
92.0101168945
 30
0.0
 10
24.9317331132
 20
92.0097609158
 30
0.0
 10
24.9335567762
 20
92.0083674035
 30
0.0
 10
24.9354341734
 20
92.0063173587
 30
0.0
 10
24.9400824349
 20
92.0027900947
 30
0.0
 10
24.9458512584
 20
91.9983754508
 30
0.0
 10
24.9533798413
 20
91.992968619
 30
0.0
 10
24.9659645128
 20
91.9841560911
 30
0.0
 10
24.9761816675
 20
91.9772864353
 30
0.0
 10
24.9834094431
 20
91.9725066745
 30
0.0
  0
SPLINE
  5
4B1
100
AcDbEntity
  8
0
100
AcDbSpline
 62
7
  6
BYLAYER
 70
0
 71
3
 72
9
 73
5
 74
0
 42
0.0000001
 43
0.0000001
 44
0.0000000001
 40
0.0
 40
0.0
 40
0.0
 40
0.0
 40
0.2185657459
 40
1.0
 40
1.0
 40
1.0
 40
1.0
 10
24.9834094431
 20
91.9725066745
 30
0.0
 10
24.9933315421
 20
91.9659451456
 30
0.0
 10
25.039085723
 20
91.9364767224
 30
0.0
 10
25.0854910551
 20
91.9079508977
 30
0.0
 10
25.122667202
 20
91.8872941779
 30
0.0
  0
SPLINE
  5
4B2
100
AcDbEntity
  8
0
100
AcDbSpline
 62
7
  6
BYLAYER
 70
0
 71
3
 72
14
 73
10
 74
0
 42
0.0000001
 43
0.0000001
 44
0.0000000001
 40
0.0
 40
0.0
 40
0.0
 40
0.0
 40
0.0220576896
 40
0.0816174975
 40
0.1747510836
 40
0.2967900153
 40
0.4434694956
 40
0.6115918796
 40
1.0
 40
1.0
 40
1.0
 40
1.0
 10
24.9315061784
 20
91.5098609646
 30
0.0
 10
24.9311018647
 20
91.5102637605
 30
0.0
 10
24.9334121326
 20
91.5124838261
 30
0.0
 10
24.9354085147
 20
91.515460012
 30
0.0
 10
24.9406921789
 20
91.5209567099
 30
0.0
 10
24.9468034971
 20
91.5277732821
 30
0.0
 10
24.9544625202
 20
91.5361848922
 30
0.0
 10
24.9666737809
 20
91.5496303971
 30
0.0
 10
24.9764592985
 20
91.5602132577
 30
0.0
 10
24.9833495109
 20
91.5675288855
 30
0.0
  0
SPLINE
  5
4B3
100
AcDbEntity
  8
0
100
AcDbSpline
 62
7
  6
BYLAYER
 70
0
 71
3
 72
9
 73
5
 74
0
 42
0.0000001
 43
0.0000001
 44
0.0000000001
 40
0.0
 40
0.0
 40
0.0
 40
0.0
 40
0.4746026322
 40
1.0
 40
1.0
 40
1.0
 40
1.0
 10
24.9833495109
 20
91.5675288855
 30
0.0
 10
25.0049485767
 20
91.5904615206
 30
0.0
 10
25.0516021023
 20
91.637689186
 30
0.0
 10
25.0980212102
 20
91.6851339574
 30
0.0
 10
25.1226678457
 20
91.7098071574
 30
0.0
  0
SPLINE
  5
4B4
100
AcDbEntity
  8
0
100
AcDbSpline
 62
7
  6
BYLAYER
 70
0
 71
3
 72
18
 73
14
 74
0
 42
0.0000001
 43
0.0000001
 44
0.0000000001
 40
0.0
 40
0.0
 40
0.0
 40
0.0
 40
0.1688805892
 40
0.3350576786
 40
0.4955981167
 40
0.6460897155
 40
0.7810096439
 40
0.8403308811
 40
0.8925402863
 40
0.936336143
 40
0.970135582
 40
0.9919588294
 40
1.0
 40
1.0
 40
1.0
 40
1.0
 10
107.7210906873
 20
95.3073538186
 30
0.0
 10
107.7321010355
 20
95.2963316032
 30
0.0
 10
107.7538557773
 20
95.2743737724
 30
0.0
 10
107.7858803371
 20
95.2417452088
 30
0.0
 10
107.8167318145
 20
95.2103379516
 30
0.0
 10
107.8454711525
 20
95.1809124973
 30
0.0
 10
107.867335712
 20
95.1577845299
 30
0.0
 10
107.8826546623
 20
95.1410385396
 30
0.0
 10
107.8923851953
 20
95.1303901143
 30
0.0
 10
107.9001549286
 20
95.121641013
 30
0.0
 10
107.9070646561
 20
95.114598913
 30
0.0
 10
107.9095737662
 20
95.1107277183
 30
0.0
 10
107.9127863575
 20
95.1079311603
 30
0.0
 10
107.9122608235
 20
95.1074076258
 30
0.0
  0
SPLINE
  5
4B5
100
AcDbEntity
  8
0
100
AcDbSpline
 62
7
  6
BYLAYER
 70
0
 71
3
 72
9
 73
5
 74
0
 42
0.0000001
 43
0.0000001
 44
0.0000000001
 40
0.0
 40
0.0
 40
0.0
 40
0.0
 40
0.5251777266
 40
1.0
 40
1.0
 40
1.0
 40
1.0
 10
25.1226678457
 20
93.8198071574
 30
0.0
 10
25.0981080015
 20
93.8443934725
 30
0.0
 10
25.0518328304
 20
93.8916908501
 30
0.0
 10
25.0053220009
 20
93.938769539
 30
0.0
 10
24.983773981
 20
93.9616358585
 30
0.0
  0
SPLINE
  5
4B6
100
AcDbEntity
  8
0
100
AcDbSpline
 62
7
  6
BYLAYER
 70
0
 71
3
 72
14
 73
10
 74
0
 42
0.0000001
 43
0.0000001
 44
0.0000000001
 40
0.0
 40
0.0
 40
0.0
 40
0.0
 40
0.3881199484
 40
0.5562079812
 40
0.7029273289
 40
0.8250592623
 40
0.9182864612
 40
0.9779182576
 40
1.0
 40
1.0
 40
1.0
 40
1.0
 10
24.983773981
 20
93.9616358585
 30
0.0
 10
24.9768315538
 20
93.9690030207
 30
0.0
 10
24.966970156
 20
93.9796621446
 30
0.0
 10
24.9546611778
 20
93.9932062848
 30
0.0
 10
24.9469349401
 20
94.0016840101
 30
0.0
 10
24.9407679896
 20
94.0085570988
 30
0.0
 10
24.935435503
 20
94.0141026128
 30
0.0
 10
24.9334239884
 20
94.0171076319
 30
0.0
 10
24.931089689
 20
94.0193468821
 30
0.0
 10
24.9314977095
 20
94.0197533502
 30
0.0
  0
SPLINE
  5
4B7
100
AcDbEntity
  8
0
100
AcDbSpline
 62
7
  6
BYLAYER
 70
0
 71
3
 72
11
 73
7
 74
0
 42
0.0000001
 43
0.0000001
 44
0.0000000001
 40
0.0
 40
0.0
 40
0.0
 40
0.0
 40
0.3670165724
 40
0.5076318286
 40
0.6631594479
 40
1.0
 40
1.0
 40
1.0
 40
1.0
 10
18.3330294189
 20
98.8278446389
 30
0.0
 10
18.2981596677
 20
98.8278446389
 30
0.0
 10
18.2632301894
 20
98.7734771866
 30
0.0
 10
18.2442615506
 20
98.7159276295
 30
0.0
 10
18.2309088177
 20
98.656566221
 30
0.0
 10
18.2273748535
 20
98.609847407
 30
0.0
 10
18.2273748535
 20
98.5778446389
 30
0.0
  0
SPLINE
  5
4B8
100
AcDbEntity
  8
0
100
AcDbSpline
 62
7
  6
BYLAYER
 70
0
 71
3
 72
12
 73
8
 74
0
 42
0.0000001
 43
0.0000001
 44
0.0000000001
 40
0.0
 40
0.0
 40
0.0
 40
0.0
 40
0.0343307515
 40
0.0961128634
 40
0.3119055654
 40
0.6284084043
 40
1.0
 40
1.0
 40
1.0
 40
1.0
 10
23.5506477617
 20
98.8278446389
 30
0.0
 10
23.5477001168
 20
98.8278446389
 30
0.0
 10
23.540728736
 20
98.8212684553
 30
0.0
 10
23.5311483945
 20
98.7968710754
 30
0.0
 10
23.5212602848
 20
98.7459383315
 30
0.0
 10
23.5142691452
 20
98.6689475602
 30
0.0
 10
23.5125605209
 20
98.6097495647
 30
0.0
 10
23.5125605209
 20
98.5778446389
 30
0.0
  0
SPLINE
  5
4B9
100
AcDbEntity
  8
0
100
AcDbSpline
 62
7
  6
BYLAYER
 70
0
 71
3
 72
11
 73
7
 74
0
 42
0.0000001
 43
0.0000001
 44
0.0000000001
 40
0.0
 40
0.0
 40
0.0
 40
0.0
 40
0.3368405521
 40
0.4923681714
 40
0.6329834276
 40
1.0
 40
1.0
 40
1.0
 40
1.0
 10
22.7017526255
 20
98.5778446389
 30
0.0
 10
22.7017526255
 20
98.609847407
 30
0.0
 10
22.7052865897
 20
98.656566221
 30
0.0
 10
22.7186393226
 20
98.7159276295
 30
0.0
 10
22.7376079614
 20
98.7734771866
 30
0.0
 10
22.7725374397
 20
98.8278446389
 30
0.0
 10
22.8074071909
 20
98.8278446389
 30
0.0
  0
SPLINE
  5
4BA
100
AcDbEntity
  8
0
100
AcDbSpline
 62
7
  6
BYLAYER
 70
0
 71
3
 72
18
 73
14
 74
0
 42
0.0000001
 43
0.0000001
 44
0.0000000001
 40
0.0
 40
0.0
 40
0.0
 40
0.0
 40
0.0048524986
 40
0.0192770242
 40
0.0430946861
 40
0.0761242481
 40
0.118124269
 40
0.1686133751
 40
0.2928933349
 40
0.4443597972
 40
0.6173150007
 40
0.8053119364
 40
1.0
 40
1.0
 40
1.0
 40
1.0
 10
28.3473415355
 20
98.8278446389
 30
0.0
 10
28.3477459134
 20
98.8278451838
 30
0.0
 10
28.3468892407
 20
98.8252608733
 30
0.0
 10
28.3477832241
 20
98.8226070567
 30
0.0
 10
28.3473416714
 20
98.8161392489
 30
0.0
 10
28.3475923763
 20
98.8081326682
 30
0.0
 10
28.3475530461
 20
98.797584851
 30
0.0
 10
28.3476475761
 20
98.7795612401
 30
0.0
 10
28.3476876561
 20
98.7523493371
 30
0.0
 10
28.3477555037
 20
98.7149676707
 30
0.0
 10
28.3477947444
 20
98.6722623681
 30
0.0
 10
28.347819606
 20
98.6259597045
 30
0.0
 10
28.3478258339
 20
98.5940687772
 30
0.0
 10
28.3478273695
 20
98.5778446389
 30
0.0
  0
SPLINE
  5
4BB
100
AcDbEntity
  8
0
100
AcDbSpline
 62
7
  6
BYLAYER
 70
0
 71
3
 72
18
 73
14
 74
0
 42
0.0000001
 43
0.0000001
 44
0.0000000001
 40
0.0
 40
0.0
 40
0.0
 40
0.0
 40
0.1946785115
 40
0.3826666374
 40
0.5556145799
 40
0.7070758481
 40
0.8313531694
 40
0.8818420686
 40
0.9238427556
 40
0.9568740829
 40
0.9806951355
 40
0.9951262934
 40
1.0
 40
1.0
 40
1.0
 40
1.0
 10
28.5830293949
 20
98.5778446389
 30
0.0
 10
28.5830305796
 20
98.5940686562
 30
0.0
 10
28.5830463823
 20
98.6259593779
 30
0.0
 10
28.5831133968
 20
98.6722618122
 30
0.0
 10
28.583220941
 20
98.7149669623
 30
0.0
 10
28.5833776212
 20
98.7523488266
 30
0.0
 10
28.5835157183
 20
98.779560488
 30
0.0
 10
28.5836948206
 20
98.797584714
 30
0.0
 10
28.5837312467
 20
98.808131525
 30
0.0
 10
28.5840227329
 20
98.8161414078
 30
0.0
 10
28.5837109795
 20
98.822602676
 30
0.0
 10
28.5845578472
 20
98.8252697948
 30
0.0
 10
28.5838654335
 20
98.8278446389
 30
0.0
 10
28.584271596
 20
98.8278446389
 30
0.0
  0
SPLINE
  5
4BC
100
AcDbEntity
  8
0
100
AcDbSpline
 62
7
  6
BYLAYER
 70
0
 71
3
 72
8
 73
4
 74
0
 42
0.0000001
 43
0.0000001
 44
0.0000000001
 40
0.0
 40
0.0
 40
0.0
 40
0.0
 40
1.0
 40
1.0
 40
1.0
 40
1.0
 10
56.8839764009
 20
97.2678101272
 30
0.0
 10
56.8670692459
 20
97.2742651611
 30
0.0
 10
56.848716772
 20
97.277844639
 30
0.0
 10
56.8306192762
 20
97.2778446389
 30
0.0
  0
SPLINE
  5
4BD
100
AcDbEntity
  8
0
100
AcDbSpline
 62
7
  6
BYLAYER
 70
0
 71
3
 72
17
 73
13
 74
0
 42
0.0000001
 43
0.0000001
 44
0.0000000001
 40
0.0
 40
0.0
 40
0.0
 40
0.0
 40
0.0065348107
 40
0.0242198517
 40
0.052456837
 40
0.0904620518
 40
0.1373852702
 40
0.1922873443
 40
0.3222195134
 40
0.4734112791
 40
0.6403723695
 40
1.0
 40
1.0
 40
1.0
 40
1.0
 10
81.8493095994
 20
88.2486399745
 30
0.0
 10
81.8495803931
 20
88.2482258246
 30
0.0
 10
81.847400625
 20
88.2466340252
 30
0.0
 10
81.8452523049
 20
88.244228254
 30
0.0
 10
81.8398277398
 20
88.2401524587
 30
0.0
 10
81.8331482343
 20
88.2350763714
 30
0.0
 10
81.8244509586
 20
88.2289201922
 30
0.0
 10
81.8100259881
 20
88.2189768384
 30
0.0
 10
81.7887790991
 20
88.2049417005
 30
0.0
 10
81.7601752469
 20
88.1867031204
 30
0.0
 10
81.7166164277
 20
88.1595616393
 30
0.0
 10
81.6824118893
 20
88.1390352339
 30
0.0
 10
81.6586082845
 20
88.1258088929
 30
0.0
  0
SPLINE
  5
4BE
100
AcDbEntity
  8
0
100
AcDbSpline
 62
7
  6
BYLAYER
 70
0
 71
3
 72
18
 73
14
 74
0
 42
0.0000001
 43
0.0000001
 44
0.0000000001
 40
0.0
 40
0.0
 40
0.0
 40
0.0
 40
0.1688805892
 40
0.3350576786
 40
0.4955981167
 40
0.6460897155
 40
0.7810096439
 40
0.8403308811
 40
0.8925402863
 40
0.936336143
 40
0.970135582
 40
0.9919588294
 40
1.0
 40
1.0
 40
1.0
 40
1.0
 10
81.6586076407
 20
87.9483218729
 30
0.0
 10
81.6696179889
 20
87.9372996576
 30
0.0
 10
81.6913727307
 20
87.9153418267
 30
0.0
 10
81.7233972905
 20
87.8827132631
 30
0.0
 10
81.7542487679
 20
87.851306006
 30
0.0
 10
81.782988106
 20
87.8218805517
 30
0.0
 10
81.8048526654
 20
87.7987525843
 30
0.0
 10
81.8201716158
 20
87.7820065939
 30
0.0
 10
81.8299021488
 20
87.7713581686
 30
0.0
 10
81.837671882
 20
87.7626090674
 30
0.0
 10
81.8445816096
 20
87.7555669674
 30
0.0
 10
81.8470907196
 20
87.7516957726
 30
0.0
 10
81.8503033109
 20
87.7488992146
 30
0.0
 10
81.8497777769
 20
87.7483756801
 30
0.0
  0
SPLINE
  5
4BF
100
AcDbEntity
  8
0
100
AcDbSpline
 62
7
  6
BYLAYER
 70
0
 71
3
 72
18
 73
14
 74
0
 42
0.0000001
 43
0.0000001
 44
0.0000000001
 40
0.0
 40
0.0
 40
0.0
 40
0.0
 40
0.0080377671
 40
0.0298537366
 40
0.0636380333
 40
0.1074145289
 40
0.1596176488
 40
0.2189393491
 40
0.353859875
 40
0.5043711764
 40
0.6649288781
 40
0.8311138775
 40
1.0
 40
1.0
 40
1.0
 40
1.0
 10
81.8497693081
 20
90.2582680657
 30
0.0
 10
81.8502945944
 20
90.2577447513
 30
0.0
 10
81.847079655
 20
90.2549511547
 30
0.0
 10
81.8445709603
 20
90.2510832952
 30
0.0
 10
81.8376640686
 20
90.2440440197
 30
0.0
 10
81.8299030565
 20
90.2352924972
 30
0.0
 10
81.8201769905
 20
90.2246435358
 30
0.0
 10
81.8048610764
 20
90.2078961346
 30
0.0
 10
81.7829921698
 20
90.1847705769
 30
0.0
 10
81.7542518914
 20
90.1553425695
 30
0.0
 10
81.7233995186
 20
90.1239317736
 30
0.0
 10
81.691373511
 20
90.0913021225
 30
0.0
 10
81.6696180993
 20
90.0693441988
 30
0.0
 10
81.6586076407
 20
90.0583218729
 30
0.0
  0
SPLINE
  5
4C0
100
AcDbEntity
  8
0
100
AcDbSpline
 62
7
  6
BYLAYER
 70
0
 71
3
 72
17
 73
13
 74
0
 42
0.0000001
 43
0.0000001
 44
0.0000000001
 40
0.0
 40
0.0
 40
0.0
 40
0.0
 40
0.0064647096
 40
0.0240260713
 40
0.0521462221
 40
0.0900950487
 40
0.1370386443
 40
0.192006798
 40
0.3220835992
 40
0.4733438307
 40
0.6403289996
 40
1.0
 40
1.0
 40
1.0
 40
1.0
 10
81.8493095951
 20
89.7580121358
 30
0.0
 10
81.8495774789
 20
89.7584218003
 30
0.0
 10
81.8473966723
 20
89.7599889123
 30
0.0
 10
81.845245214
 20
89.7623540982
 30
0.0
 10
81.8398139916
 20
89.7663866991
 30
0.0
 10
81.8331338336
 20
89.7714387622
 30
0.0
 10
81.8244387747
 20
89.777601463
 30
0.0
 10
81.8100206566
 20
89.7875824563
 30
0.0
 10
81.7887956868
 20
89.8016856233
 30
0.0
 10
81.7602129578
 20
89.8199859121
 30
0.0
 10
81.7166573589
 20
89.8471454814
 30
0.0
 10
81.682412892
 20
89.8676079542
 30
0.0
 10
81.6586082845
 20
89.8808348523
 30
0.0
  0
SPLINE
  5
4C1
100
AcDbEntity
  8
0
100
AcDbSpline
 62
7
  6
BYLAYER
 70
0
 71
3
 72
11
 73
7
 74
0
 42
0.0000001
 43
0.0000001
 44
0.0000000001
 40
0.0
 40
0.0
 40
0.0
 40
0.0
 40
0.2498176334
 40
0.4998888217
 40
0.7500203454
 40
1.0
 40
1.0
 40
1.0
 40
1.0
 10
81.6586089282
 20
89.8808344853
 30
0.0
 10
81.5835328674
 20
89.835451975
 30
0.0
 10
81.4434216381
 20
89.726243743
 30
0.0
 10
81.2819953565
 20
89.5143391814
 30
0.0
 10
81.1819817336
 20
89.2673808259
 30
0.0
 10
81.159413517
 20
89.0911018452
 30
0.0
 10
81.1586076432
 20
89.0033218729
 30
0.0
  0
SPLINE
  5
4C2
100
AcDbEntity
  8
0
100
AcDbSpline
 62
7
  6
BYLAYER
 70
0
 71
3
 72
11
 73
7
 74
0
 42
0.0000001
 43
0.0000001
 44
0.0000000001
 40
0.0
 40
0.0
 40
0.0
 40
0.0
 40
0.2499796546
 40
0.5001111783
 40
0.7501823666
 40
1.0
 40
1.0
 40
1.0
 40
1.0
 10
81.1586076432
 20
89.0033218729
 30
0.0
 10
81.159413517
 20
88.9155419007
 30
0.0
 10
81.1819817336
 20
88.73926292
 30
0.0
 10
81.2819953565
 20
88.4923045645
 30
0.0
 10
81.4434216381
 20
88.2804000029
 30
0.0
 10
81.5835328674
 20
88.1711917708
 30
0.0
 10
81.6586089282
 20
88.1258092606
 30
0.0
  0
SPLINE
  5
4C3
100
AcDbEntity
  8
0
100
AcDbSpline
 62
7
  6
BYLAYER
 70
0
 71
3
 72
8
 73
4
 74
0
 42
0.0000001
 43
0.0000001
 44
0.0000000001
 40
0.0
 40
0.0
 40
0.0
 40
0.0
 40
1.0
 40
1.0
 40
1.0
 40
1.0
 10
56.8306192762
 20
84.5278446389
 30
0.0
 10
56.848716772
 20
84.5278446389
 30
0.0
 10
56.8670692459
 20
84.5314241168
 30
0.0
 10
56.8839764009
 20
84.5378791507
 30
0.0
  0
SPLINE
  5
4C4
100
AcDbEntity
  8
0
100
AcDbSpline
 62
7
  6
BYLAYER
 70
0
 71
3
 72
11
 73
7
 74
0
 42
0.0000001
 43
0.0000001
 44
0.0000000001
 40
0.0
 40
0.0
 40
0.0
 40
0.0
 40
0.2483061397
 40
0.4976081739
 40
0.7483112911
 40
1.0
 40
1.0
 40
1.0
 40
1.0
 10
43.6724442643
 20
98.8278446389
 30
0.0
 10
43.7045046632
 20
98.8278446389
 30
0.0
 10
43.769471041
 20
98.8147675436
 30
0.0
 10
43.8513635679
 20
98.7589912484
 30
0.0
 10
43.9060531922
 20
98.6759046842
 30
0.0
 10
43.9188092932
 20
98.6103417831
 30
0.0
 10
43.9188092932
 20
98.5778446389
 30
0.0
  0
SPLINE
  5
4C5
100
AcDbEntity
  8
0
100
AcDbSpline
 62
7
  6
BYLAYER
 70
0
 71
3
 72
11
 73
7
 74
0
 42
0.0000001
 43
0.0000001
 44
0.0000000001
 40
0.0
 40
0.0
 40
0.0
 40
0.0
 40
0.1509542684
 40
0.3313818851
 40
0.5416776871
 40
1.0
 40
1.0
 40
1.0
 40
1.0
 10
43.9188092932
 20
97.2742096679
 30
0.0
 10
43.9064126186
 20
97.2618129933
 30
0.0
 10
43.8796101842
 20
97.2341896876
 30
0.0
 10
43.8345992851
 20
97.1902337617
 30
0.0
 10
43.7651970019
 20
97.1201851129
 30
0.0
 10
43.710082634
 20
97.0654830087
 30
0.0
 10
43.6724442643
 20
97.0278446389
 30
0.0
  0
SPLINE
  5
4C6
100
AcDbEntity
  8
0
100
AcDbSpline
 62
7
  6
BYLAYER
 70
0
 71
3
 72
9
 73
5
 74
0
 42
0.0000001
 43
0.0000001
 44
0.0000000001
 40
0.0
 40
0.0
 40
0.0
 40
0.0
 40
0.3086634985
 40
1.0
 40
1.0
 40
1.0
 40
1.0
 10
43.6724442643
 20
84.7778446389
 30
0.0
 10
43.6977922376
 20
84.7524966656
 30
0.0
 10
43.7801442675
 20
84.6706055384
 30
0.0
 10
43.8620355596
 20
84.5882533436
 30
0.0
 10
43.9188092932
 20
84.53147961
 30
0.0
  0
SPLINE
  5
4C7
100
AcDbEntity
  8
0
100
AcDbSpline
 62
7
  6
BYLAYER
 70
0
 71
3
 72
11
 73
7
 74
0
 42
0.0000001
 43
0.0000001
 44
0.0000000001
 40
0.0
 40
0.0
 40
0.0
 40
0.0
 40
0.2499796546
 40
0.5001111783
 40
0.7501823666
 40
1.0
 40
1.0
 40
1.0
 40
1.0
 10
107.2210906898
 20
96.3623538186
 30
0.0
 10
107.2218965635
 20
96.2745738463
 30
0.0
 10
107.2444647802
 20
96.0982948656
 30
0.0
 10
107.344478403
 20
95.8513365101
 30
0.0
 10
107.5059046847
 20
95.6394319485
 30
0.0
 10
107.646015914
 20
95.5302237165
 30
0.0
 10
107.7210919748
 20
95.4848412062
 30
0.0
  0
SPLINE
  5
4C8
100
AcDbEntity
  8
0
100
AcDbSpline
 62
7
  6
BYLAYER
 70
0
 71
3
 72
11
 73
7
 74
0
 42
0.0000001
 43
0.0000001
 44
0.0000000001
 40
0.0
 40
0.0
 40
0.0
 40
0.0
 40
0.251689035
 40
0.5023919946
 40
0.751693775
 40
1.0
 40
1.0
 40
1.0
 40
1.0
 10
44.3793944478
 20
98.5778446389
 30
0.0
 10
44.3793944478
 20
98.610341825
 30
0.0
 10
44.3666383144
 20
98.675904747
 30
0.0
 10
44.3119486777
 20
98.758991283
 30
0.0
 10
44.2300561833
 20
98.81476754
 30
0.0
 10
44.1650898286
 20
98.8278446389
 30
0.0
 10
44.1330294189
 20
98.8278446389
 30
0.0
  0
SPLINE
  5
4C9
100
AcDbEntity
  8
0
100
AcDbSpline
 62
7
  6
BYLAYER
 70
0
 71
3
 72
11
 73
7
 74
0
 42
0.0000001
 43
0.0000001
 44
0.0000000001
 40
0.0
 40
0.0
 40
0.0
 40
0.0
 40
0.2802150671
 40
0.543783138
 40
0.7818201525
 40
1.0
 40
1.0
 40
1.0
 40
1.0
 10
55.3979039535
 20
84.7778446389
 30
0.0
 10
55.3979039535
 20
84.74559134
 30
0.0
 10
55.3886993713
 20
84.6825577479
 30
0.0
 10
55.3483284759
 20
84.6003187675
 30
0.0
 10
55.2857208822
 20
84.5424719994
 30
0.0
 10
55.2325348496
 20
84.5278446389
 30
0.0
 10
55.207421925
 20
84.5278446389
 30
0.0
  0
SPLINE
  5
4CA
100
AcDbEntity
  8
0
100
AcDbSpline
 62
7
  6
BYLAYER
 70
0
 71
3
 72
11
 73
7
 74
0
 42
0.0000001
 43
0.0000001
 44
0.0000000001
 40
0.0
 40
0.0
 40
0.0
 40
0.0
 40
0.2181763218
 40
0.4562117843
 40
0.7197822124
 40
1.0
 40
1.0
 40
1.0
 40
1.0
 10
55.207421925
 20
97.2778446389
 30
0.0
 10
55.2325344463
 20
97.2778446389
 30
0.0
 10
55.285719921
 20
97.2632178242
 30
0.0
 10
55.3483276828
 20
97.2053716462
 30
0.0
 10
55.3886991407
 20
97.1231324447
 30
0.0
 10
55.3979039535
 20
97.0600982544
 30
0.0
 10
55.3979039535
 20
97.0278446389
 30
0.0
  0
SPLINE
  5
4CB
100
AcDbEntity
  8
0
100
AcDbSpline
 62
7
  6
BYLAYER
 70
0
 71
3
 72
11
 73
7
 74
0
 42
0.0000001
 43
0.0000001
 44
0.0000000001
 40
0.0
 40
0.0
 40
0.0
 40
0.0
 40
0.2498176334
 40
0.4998888217
 40
0.7500203454
 40
1.0
 40
1.0
 40
1.0
 40
1.0
 10
107.7210919748
 20
97.2398664309
 30
0.0
 10
107.646015914
 20
97.1944839207
 30
0.0
 10
107.5059046847
 20
97.0852756886
 30
0.0
 10
107.344478403
 20
96.873371127
 30
0.0
 10
107.2444647802
 20
96.6264127715
 30
0.0
 10
107.2218965635
 20
96.4501337908
 30
0.0
 10
107.2210906898
 20
96.3623538186
 30
0.0
  0
ELLIPSE
  5
4CC
100
AcDbEntity
  8
0
100
AcDbEllipse
 62
7
  6
BYLAYER
 10
64.1736097963
 20
97.5528446389
 30
0.0
 11
0.0
 21
0.2
 31
0.0
 40
0.4459589647
 41
-4.7123889804
 42
-3.1415926536
  0
ELLIPSE
  5
4CD
100
AcDbEntity
  8
0
100
AcDbEllipse
 62
7
  6
BYLAYER
 10
64.1736097963
 20
84.2528446389
 30
0.0
 11
0.0
 21
0.2
 31
0.0
 40
0.4459589647
 41
0.0
 42
1.5707963268
  0
ELLIPSE
  5
4CE
100
AcDbEntity
  8
0
100
AcDbEllipse
 62
7
  6
BYLAYER
 10
27.9220104366
 20
95.2798071574
 30
0.0
 11
0.0
 21
0.2
 31
0.0
 40
0.3003233216
 41
-4.7123889804
 42
-3.1415926536
  0
ELLIPSE
  5
4CF
100
AcDbEntity
  8
0
100
AcDbEllipse
 62
7
  6
BYLAYER
 10
47.5830294189
 20
82.8778446389
 30
0.0
 11
1.0
 21
0.0
 31
0.0
 40
0.75
 41
0.2013579208
 42
0.2364203872
  0
ELLIPSE
  5
4D0
100
AcDbEntity
  8
0
100
AcDbEllipse
 62
7
  6
BYLAYER
 10
47.5830294189
 20
82.8778446389
 30
0.0
 11
1.0
 21
-0.0
 31
0.0
 40
0.75
 41
2.9004366848
 42
2.9402347328
  0
ELLIPSE
  5
4D1
100
AcDbEntity
  8
0
100
AcDbEllipse
 62
7
  6
BYLAYER
 10
27.9220104366
 20
97.3898071574
 30
0.0
 11
-0.0
 21
0.2
 31
0.0
 40
0.3003233216
 41
-0.0
 42
1.5707963268
  0
ELLIPSE
  5
4D2
100
AcDbEntity
  8
0
100
AcDbEllipse
 62
7
  6
BYLAYER
 10
47.5830294189
 20
98.9278446389
 30
0.0
 11
1.0
 21
-0.0
 31
0.0
 40
0.75
 41
-2.9402347328
 42
-2.9004372231
  0
ELLIPSE
  5
4D3
100
AcDbEntity
  8
0
100
AcDbEllipse
 62
7
  6
BYLAYER
 10
47.5830294189
 20
98.9278446389
 30
0.0
 11
1.0
 21
0.0
 31
0.0
 40
0.75
 41
-0.2364203853
 42
-0.2013579208
  0
ELLIPSE
  5
4D4
100
AcDbEntity
  8
0
100
AcDbEllipse
 62
7
  6
BYLAYER
 10
26.6509668593
 20
96.3348071574
 30
0.0
 11
0.8783630297
 21
-0.0
 31
0.0
 40
0.9997654996
 41
2.0680888242
 42
4.2150964829
  0
ELLIPSE
  5
4D5
100
AcDbEntity
  8
0
100
AcDbEllipse
 62
7
  6
BYLAYER
 10
27.9258217159
 20
84.3843776916
 30
0.0
 11
-0.0
 21
0.2
 31
0.0
 40
0.3003233216
 41
-4.7123889804
 42
-3.1415926536
  0
ELLIPSE
  5
4D6
100
AcDbEntity
  8
0
100
AcDbEllipse
 62
7
  6
BYLAYER
 10
27.9258217159
 20
86.4943776916
 30
0.0
 11
0.0
 21
0.2
 31
0.0
 40
0.3003233216
 41
0.0
 42
1.5707963268
  0
ELLIPSE
  5
4D7
100
AcDbEntity
  8
0
100
AcDbEllipse
 62
7
  6
BYLAYER
 10
27.9258217159
 20
87.9543776916
 30
0.0
 11
0.0
 21
0.2
 31
0.0
 40
0.3003233216
 41
-4.7123889804
 42
-3.1415926536
  0
ELLIPSE
  5
4D8
100
AcDbEntity
  8
0
100
AcDbEllipse
 62
7
  6
BYLAYER
 10
27.9258217159
 20
90.0643776916
 30
0.0
 11
0.0
 21
0.2
 31
0.0
 40
0.3003233216
 41
0.0
 42
1.5707963268
  0
ELLIPSE
  5
4D9
100
AcDbEntity
  8
0
100
AcDbEllipse
 62
7
  6
BYLAYER
 10
26.6547781386
 20
85.4393776916
 30
0.0
 11
0.8783630297
 21
-0.0
 31
0.0
 40
0.9997654996
 41
2.0680888242
 42
4.2150964829
  0
ELLIPSE
  5
4DA
100
AcDbEntity
  8
0
100
AcDbEllipse
 62
7
  6
BYLAYER
 10
26.6547781386
 20
89.0093776916
 30
0.0
 11
0.8783630297
 21
0.0
 31
0.0
 40
0.9997654996
 41
2.0680888242
 42
4.2150964829
  0
ELLIPSE
  5
4DB
100
AcDbEntity
  8
0
100
AcDbEllipse
 62
7
  6
BYLAYER
 10
93.2246282195
 20
89.0334164275
 30
0.0
 11
0.8783630297
 21
-0.0
 31
0.0
 40
0.9997654996
 41
5.2096814778
 42
7.3566891365
  0
ELLIPSE
  5
4DC
100
AcDbEntity
  8
0
100
AcDbEllipse
 62
7
  6
BYLAYER
 10
106.1927916737
 20
92.7923538186
 30
0.0
 11
0.8783630297
 21
0.0
 31
0.0
 40
0.9997654996
 41
5.2096814778
 42
7.3566891365
  0
ELLIPSE
  5
4DD
100
AcDbEntity
  8
0
100
AcDbEllipse
 62
7
  6
BYLAYER
 10
91.9535846422
 20
87.9784164275
 30
0.0
 11
0.0
 21
0.2
 31
0.0
 40
0.3003233216
 41
-3.1415926536
 42
-1.5707963268
  0
ELLIPSE
  5
4DE
100
AcDbEntity
  8
0
100
AcDbEllipse
 62
7
  6
BYLAYER
 10
91.9535846422
 20
90.0884164275
 30
0.0
 11
0.0
 21
0.2
 31
0.0
 40
0.3003233216
 41
-1.5707963268
 42
0.0
  0
ELLIPSE
  5
4DF
100
AcDbEntity
  8
0
100
AcDbEllipse
 62
7
  6
BYLAYER
 10
106.1927916737
 20
96.3623538186
 30
0.0
 11
0.8783630297
 21
0.0
 31
0.0
 40
0.9997654996
 41
-1.0735038294
 42
1.0735038294
  0
ELLIPSE
  5
4E0
100
AcDbEntity
  8
0
100
AcDbEllipse
 62
7
  6
BYLAYER
 10
27.9220104366
 20
91.7098071574
 30
0.0
 11
-0.0
 21
0.2
 31
0.0
 40
0.3003233216
 41
-4.7123889804
 42
-3.1415926536
  0
ELLIPSE
  5
4E1
100
AcDbEntity
  8
0
100
AcDbEllipse
 62
7
  6
BYLAYER
 10
91.9535846422
 20
86.5184164275
 30
0.0
 11
-0.0
 21
0.2
 31
0.0
 40
0.3003233216
 41
-1.5707963268
 42
0.0
  0
ELLIPSE
  5
4E2
100
AcDbEntity
  8
0
100
AcDbEllipse
 62
7
  6
BYLAYER
 10
27.9220104366
 20
93.8198071574
 30
0.0
 11
-0.0
 21
0.2
 31
0.0
 40
0.3003233216
 41
-0.0
 42
1.5707963268
  0
ELLIPSE
  5
4E3
100
AcDbEntity
  8
0
100
AcDbEllipse
 62
7
  6
BYLAYER
 10
91.9535846422
 20
84.4084164275
 30
0.0
 11
-0.0
 21
0.2
 31
0.0
 40
0.3003233216
 41
-3.1415926536
 42
-1.5707963268
  0
ELLIPSE
  5
4E4
100
AcDbEntity
  8
0
100
AcDbEllipse
 62
7
  6
BYLAYER
 10
104.9217480964
 20
97.4173538186
 30
0.0
 11
-0.0
 21
0.2
 31
0.0
 40
0.3003233216
 41
-1.5707963268
 42
0.0
  0
ELLIPSE
  5
4E5
100
AcDbEntity
  8
0
100
AcDbEllipse
 62
7
  6
BYLAYER
 10
93.2246282195
 20
85.4634164275
 30
0.0
 11
0.8783630297
 21
0.0
 31
0.0
 40
0.9997654996
 41
5.2096814778
 42
7.3566891365
  0
ELLIPSE
  5
4E6
100
AcDbEntity
  8
0
100
AcDbEllipse
 62
7
  6
BYLAYER
 10
104.9217480964
 20
95.3073538186
 30
0.0
 11
0.0
 21
0.2
 31
0.0
 40
0.3003233216
 41
-3.1415926536
 42
-1.5707963268
  0
ELLIPSE
  5
4E7
100
AcDbEntity
  8
0
100
AcDbEllipse
 62
7
  6
BYLAYER
 10
104.9217480964
 20
93.8473538186
 30
0.0
 11
-0.0
 21
0.2
 31
0.0
 40
0.3003233216
 41
-1.5707963268
 42
-0.0
  0
ELLIPSE
  5
4E8
100
AcDbEntity
  8
0
100
AcDbEllipse
 62
7
  6
BYLAYER
 10
80.1303086272
 20
85.4333218729
 30
0.0
 11
0.8783630297
 21
0.0
 31
0.0
 40
0.9997654996
 41
5.2096814778
 42
7.3566891365
  0
ELLIPSE
  5
4E9
100
AcDbEntity
  8
0
100
AcDbEllipse
 62
7
  6
BYLAYER
 10
26.6509668593
 20
92.7648071574
 30
0.0
 11
0.8783630297
 21
-0.0
 31
0.0
 40
0.9997654996
 41
2.0680888242
 42
4.2150964829
  0
ELLIPSE
  5
4EA
100
AcDbEntity
  8
0
100
AcDbEllipse
 62
7
  6
BYLAYER
 10
78.8592650499
 20
84.3783218729
 30
0.0
 11
0.0
 21
0.2
 31
0.0
 40
0.3003233216
 41
3.1415926536
 42
4.7123889804
  0
ELLIPSE
  5
4EB
100
AcDbEntity
  8
0
100
AcDbEllipse
 62
7
  6
BYLAYER
 10
78.8592650499
 20
86.4883218729
 30
0.0
 11
0.0
 21
0.2
 31
0.0
 40
0.3003233216
 41
-1.5707963268
 42
-0.0
  0
ELLIPSE
  5
4EC
100
AcDbEntity
  8
0
100
AcDbEllipse
 62
7
  6
BYLAYER
 10
104.9217480964
 20
91.7373538186
 30
0.0
 11
0.0
 21
0.2
 31
0.0
 40
0.3003233216
 41
-3.1415926536
 42
-1.5707963268
  0
ELLIPSE
  5
4ED
100
AcDbEntity
  8
0
100
AcDbEllipse
 62
7
  6
BYLAYER
 10
80.1303086272
 20
89.0033218729
 30
0.0
 11
0.8783630297
 21
0.0
 31
0.0
 40
0.9997654996
 41
5.2096814778
 42
7.3566891365
  0
ELLIPSE
  5
4EE
100
AcDbEntity
  8
0
100
AcDbEllipse
 62
7
  6
BYLAYER
 10
78.8592650499
 20
87.9483218729
 30
0.0
 11
0.0
 21
0.2
 31
0.0
 40
0.3003233216
 41
3.1415926536
 42
4.7123889804
  0
ELLIPSE
  5
4EF
100
AcDbEntity
  8
0
100
AcDbEllipse
 62
7
  6
BYLAYER
 10
78.8592650499
 20
90.0583218729
 30
0.0
 11
0.0
 21
0.2
 31
0.0
 40
0.3003233216
 41
-1.5707963268
 42
0.0
  0
ELLIPSE
  5
4F0
100
AcDbEntity
  8
0
100
AcDbEllipse
 62
7
  6
BYLAYER
 10
43.9261328672
 20
84.7778446389
 30
0.0
 11
-0.0
 21
0.25
 31
0.0
 40
0.1724137931
 41
-3.3123278651
 42
-3.1415926536
  0
ELLIPSE
  5
4F1
100
AcDbEntity
  8
0
100
AcDbEllipse
 62
7
  6
BYLAYER
 10
43.9261328672
 20
97.0278446389
 30
0.0
 11
0.0
 21
0.25
 31
0.0
 40
0.1724137931
 41
-0.0
 42
0.1707352115
  0
ENDSEC
  0
SECTION
  2
OBJECTS
  0
DICTIONARY
  5
C
100
AcDbDictionary
280
0
281
1
  3
ACAD_GROUP
350
D
  3
ACAD_MLINESTYLE
350
17
  3
ACAD_LAYOUT
350
1A
  3
ACAD_PLOTSETTINGS
350
19
  3
ACAD_PLOTSTYLENAME
350
E
  0
DICTIONARY
  5
D
102
{ACAD_REACTORS
330
C
102
}
100
AcDbDictionary
280
0
281
1
  0
ACDBDICTIONARYWDFLT
  5
E
102
{ACAD_REACTORS
330
C
102
}
100
AcDbDictionary
281
1
  3
Normal
350
F
100
AcDbDictionaryWithDefault
340
F
  0
DICTIONARY
  5
17
102
{ACAD_REACTORS
330
C
102
}
100
AcDbDictionary
280
0
281
1
  3
Standard
350
18
  0
DICTIONARY
  5
19
102
{ACAD_REACTORS
330
C
102
}
100
AcDbDictionary
281
1
  0
DICTIONARY
  5
1A
102
{ACAD_REACTORS
330
C
102
}
100
AcDbDictionary
281
1
  3
Model
350
4F2
  3
Layout1
350
4F3
  0
ACDBPLACEHOLDER
  5
F
102
{ACAD_REACTORS
330
E
102
}
  0
MLINESTYLE
  5
18
102
{ACAD_REACTORS
330
17
102
}
100
AcDbMlineStyle
  2
STANDARD
 70
0
  3

 62
256
 51
90.0
 52
90.0
 71
2
 49
0.5
 62
256
  6
BYLAYER
 49
-0.5
 62
256
  6
BYLAYER
  0
LAYOUT
  5
4F2
102
{ACAD_REACTORS
330
1A
102
}
100
AcDbPlotSettings
  1

  2
none_device
  4

  6

 40
0.0
 41
0.0
 42
0.0
 43
0.0
 44
210.0
 45
297.0
 46
0.0
 47
0.0
 48
0.0
 49
0.0
140
0.0
141
0.0
142
1.0
143
1.0
 70
1024
 72
1
 73
0
 74
0
  7

 75
0
147
1.0
148
0.0
149
0.0
100
AcDbLayout
  1
Model
 70
0
 71
0
 10
0.0
 20
0.0
 11
210.0
 21
297.0
 12
0.0
 22
0.0
 32
0.0
 14
0.0
 24
0.0
 34
0.0
 15
0.0
 25
0.0
 35
0.0
146
0.0
 13
0.0
 23
0.0
 33
0.0
 16
1.0
 26
0.0
 36
0.0
 17
0.0
 27
1.0
 37
0.0
 76
0
330
210
345
0
346
0
  0
LAYOUT
  5
4F3
102
{ACAD_REACTORS
330
1A
102
}
100
AcDbPlotSettings
  1

  2
none_device
  4

  6

 40
0.0
 41
0.0
 42
0.0
 43
0.0
 44
210.0
 45
297.0
 46
0.0
 47
0.0
 48
0.0
 49
0.0
140
0.0
141
0.0
142
1.0
143
1.0
 70
0
 72
1
 73
0
 74
0
  7

 75
0
147
1.0
148
0.0
149
0.0
100
AcDbLayout
  1
Layout1
 70
0
 71
1
 10
0.0
 20
0.0
 11
210.0
 21
297.0
 12
0.0
 22
0.0
 32
0.0
 14
0.0
 24
0.0
 34
0.0
 15
0.0
 25
0.0
 35
0.0
146
0.0
 13
0.0
 23
0.0
 33
0.0
 16
1.0
 26
0.0
 36
0.0
 17
0.0
 27
1.0
 37
0.0
 76
0
330
211
345
0
346
0
  0
ENDSEC
  0
EOF
