999
DXF file: C:\Users\sesa63760\Dev\_Creo\CAD\MCADID0005368_3D-CAD\drw0001_5.dxf
999
Pro/ENGINEER 2019471 by Parametric Technology Corporation
  0
SECTION
  2
HEADER
  9
$ACADVER
  1
AC1024
  9
$DWGCODEPAGE
  3
ANSI_1252
  9
$EXTMAX
 10
307.4020708171
 20
434.7543572985
 30
0.0
  9
$EXTMIN
 10
0.0
 20
0.0
 30
0.0
  9
$LIMMIN
 10
0.0
 20
0.0
  9
$LIMMAX
 10
307.4020708171
 20
434.7543572985
  9
$VIEWCTR
 10
153.7010354086
 20
217.3771786492
  9
$VIEWSIZE
 40
434.7543572985
  9
$CLAYER
  8
0
  9
$LTSCALE
 40
28.3395432906
  9
$CELTYPE
  6
BYLAYER
  9
$DIMSCALE
 40
1.0
  9
$DIMASZ
 40
3.6595484621
  9
$DIMEXO
 40
1.0
  9
$DIMDLI
 40
19.5800480917
  9
$DIMEXE
 40
1.0
  9
$DIMCEN
 40
4.6373798112
  9
$DIMLFAC
 40
1.0
  9
$DIMBLK
  1
_FILLED
  9
$DIMALT
 70
0
  9
$DIMALTF
 40
0.0393700787
  9
$DIMTXT
 40
5.123367847
  9
$DIMTOL
 70
1
  9
$DIMLIM
 70
0
  9
$DIMTFAC
 40
1.0
  9
$DIMTP
 40
0.01
  9
$DIMTM
 40
0.01
  9
$DIMGAP
 40
0.625
  9
$DIMDSEP
 70
46
  9
$AUNITS
 70
0
  9
$PDMODE
 70
3
  9
$PDSIZE
 40
0.3125
  9
$HANDSEED
  5
2D9
  9
$TILEMODE
 70
1
  9
$MEASUREMENT
 70
1
  9
$INSUNITS
 70
4
  0
ENDSEC
  0
SECTION
  2
CLASSES
  0
CLASS
  1
ACDBDICTIONARYWDFLT
  2
AcDbDictionaryWithDefault
  3
AutoCAD 2000
 90
0
 91
1
280
0
281
0
  0
CLASS
  1
ACDBPLACEHOLDER
  2
AcDbPlaceHolder
  3
AutoCAD 2000
 90
0
 91
1
280
0
281
0
  0
CLASS
  1
LAYOUT
  2
AcDbLayout
  3
AutoCAD 2000
 90
0
 91
0
280
0
281
0
  0
ENDSEC
  0
SECTION
  2
TABLES
  0
TABLE
  2
VPORT
  5
8
100
AcDbSymbolTable
 70
2
  0
VPORT
  5
1F4
100
AcDbSymbolTableRecord
100
AcDbViewportTableRecord
  2
*ACTIVE
 70
0
 10
0.0
 20
0.0
 11
1.0
 21
1.0
 12
153.7010354086
 22
217.3771786492
 13
0.0
 23
0.0
 14
1.0
 24
1.0
 15
0.0
 25
0.0
 16
0.0
 26
0.0
 36
1.0
 17
0.0
 27
0.0
 37
0.0
 40
434.7543572985
 41
0.7070707071
 42
50.0
 43
0.0
 44
0.0
 50
0.0
 51
0.0
 71
0
 72
100
 73
1
 74
1
 75
0
 76
0
 77
0
 78
0
  0
ENDTAB
  0
TABLE
  2
LTYPE
  5
5
100
AcDbSymbolTable
 70
6
  0
LTYPE
  5
14
100
AcDbSymbolTableRecord
100
AcDbLinetypeTableRecord
  2
BYBLOCK
 70
0
  3

 72
65
 73
0
 40
0.0
  0
LTYPE
  5
15
100
AcDbSymbolTableRecord
100
AcDbLinetypeTableRecord
  2
BYLAYER
 70
0
  3

 72
65
 73
0
 40
0.0
  0
LTYPE
  5
16
100
AcDbSymbolTableRecord
100
AcDbLinetypeTableRecord
  2
CONTINUOUS
 70
64
  3
Solid line
 72
65
 73
0
 40
0.0
  0
LTYPE
  5
1F5
100
AcDbSymbolTableRecord
100
AcDbLinetypeTableRecord
  2
CENTER
 70
64
  3
____ _ ____ _ ____ _ ____ _ ____ _ ____ _ ____
 72
65
 73
4
 40
0.6
 49
0.375
 74
0
 49
-0.075
 74
0
 49
0.075
 74
0
 49
-0.075
 74
0
  0
LTYPE
  5
1F6
100
AcDbSymbolTableRecord
100
AcDbLinetypeTableRecord
  2
HIDDEN
 70
64
  3
- - - - - - - - - - - - - - - - - - - -
 72
65
 73
2
 40
0.2
 49
0.1
 74
0
 49
-0.1
 74
0
  0
LTYPE
  5
1F7
100
AcDbSymbolTableRecord
100
AcDbLinetypeTableRecord
  2
PHANTOM
 70
64
  3
_____ _ _ _____ _ _ _____ _ _ _____
 72
65
 73
6
 40
0.8
 49
0.45
 74
0
 49
-0.05
 74
0
 49
0.1
 74
0
 49
-0.05
 74
0
 49
0.1
 74
0
 49
-0.05
 74
0
  0
LTYPE
  5
1F8
100
AcDbSymbolTableRecord
100
AcDbLinetypeTableRecord
  2
DOT
 70
64
  3
. . . . . . . . . . . . . . . . . . . .
 72
65
 73
2
 40
0.2
 49
0.1
 74
0
 49
-0.1
 74
0
  0
LTYPE
  5
1F9
100
AcDbSymbolTableRecord
100
AcDbLinetypeTableRecord
  2
DASHED
 70
64
  3
- - - - - - - - - - - - - - - - - - - -
 72
65
 73
2
 40
0.2
 49
0.1
 74
0
 49
-0.1
 74
0
  0
ENDTAB
  0
TABLE
  2
LAYER
  5
2
100
AcDbSymbolTable
 70
36
  0
LAYER
  5
10
100
AcDbSymbolTableRecord
100
AcDbLayerTableRecord
  2
0
 70
0
 62
7
  6
CONTINUOUS
370
-3
390
F
  0
LAYER
  5
1FA
100
AcDbSymbolTableRecord
100
AcDbLayerTableRecord
  2
DEFAULT_1
 70
0
 62
7
  6
CENTER
370
-3
390
F
  0
LAYER
  5
1FB
100
AcDbSymbolTableRecord
100
AcDbLayerTableRecord
  2
DEFAULT_2
 70
0
 62
7
  6
HIDDEN
370
-3
390
F
  0
LAYER
  5
1FC
100
AcDbSymbolTableRecord
100
AcDbLayerTableRecord
  2
DEFAULT_3
 70
0
 62
7
  6
PHANTOM
370
-3
390
F
  0
LAYER
  5
1FD
100
AcDbSymbolTableRecord
100
AcDbLayerTableRecord
  2
00_COMPONENTS
 70
0
 62
7
  6
CONTINUOUS
370
-3
390
F
  0
LAYER
  5
1FE
100
AcDbSymbolTableRecord
100
AcDbLayerTableRecord
  2
01_1_DEFAULT_DATUMS
 70
0
 62
7
  6
CONTINUOUS
370
-3
390
F
  0
LAYER
  5
1FF
100
AcDbSymbolTableRecord
100
AcDbLayerTableRecord
  2
01_PLANES
 70
0
 62
7
  6
CONTINUOUS
370
-3
390
F
  0
LAYER
  5
200
100
AcDbSymbolTableRecord
100
AcDbLayerTableRecord
  2
02_COORD_SYS
 70
0
 62
7
  6
CONTINUOUS
370
-3
390
F
  0
LAYER
  5
201
100
AcDbSymbolTableRecord
100
AcDbLayerTableRecord
  2
03_AXES
 70
0
 62
7
  6
CONTINUOUS
370
-3
390
F
  0
LAYER
  5
202
100
AcDbSymbolTableRecord
100
AcDbLayerTableRecord
  2
04_POINTS
 70
0
 62
7
  6
CONTINUOUS
370
-3
390
F
  0
LAYER
  5
203
100
AcDbSymbolTableRecord
100
AcDbLayerTableRecord
  2
05_CURVES
 70
0
 62
7
  6
CONTINUOUS
370
-3
390
F
  0
LAYER
  5
204
100
AcDbSymbolTableRecord
100
AcDbLayerTableRecord
  2
06_SURFS
 70
0
 62
7
  6
CONTINUOUS
370
-3
390
F
  0
LAYER
  5
205
100
AcDbSymbolTableRecord
100
AcDbLayerTableRecord
  2
07_COSMETICS
 70
0
 62
7
  6
CONTINUOUS
370
-3
390
F
  0
LAYER
  5
206
100
AcDbSymbolTableRecord
100
AcDbLayerTableRecord
  2
10_NOTES
 70
0
 62
7
  6
CONTINUOUS
370
-3
390
F
  0
LAYER
  5
207
100
AcDbSymbolTableRecord
100
AcDbLayerTableRecord
  2
11_NOTES_PUB
 70
0
 62
7
  6
CONTINUOUS
370
-3
390
F
  0
LAYER
  5
208
100
AcDbSymbolTableRecord
100
AcDbLayerTableRecord
  2
13_REF_GTOL
 70
0
 62
7
  6
CONTINUOUS
370
-3
390
F
  0
LAYER
  5
209
100
AcDbSymbolTableRecord
100
AcDbLayerTableRecord
  2
16_MISC
 70
0
 62
7
  6
CONTINUOUS
370
-3
390
F
  0
LAYER
  5
20A
100
AcDbSymbolTableRecord
100
AcDbLayerTableRecord
  2
17_NO_PRINT
 70
0
 62
7
  6
CONTINUOUS
370
-3
390
F
  0
LAYER
  5
20B
100
AcDbSymbolTableRecord
100
AcDbLayerTableRecord
  2
18_DATUM_CAMS_JOINTS
 70
0
 62
7
  6
CONTINUOUS
370
-3
390
F
  0
LAYER
  5
20C
100
AcDbSymbolTableRecord
100
AcDbLayerTableRecord
  2
19_DATUM_FUNCTIONAL
 70
0
 62
7
  6
CONTINUOUS
370
-3
390
F
  0
LAYER
  5
20D
100
AcDbSymbolTableRecord
100
AcDbLayerTableRecord
  2
20_DATUM_KINEMATIC_SCHEME
 70
0
 62
7
  6
CONTINUOUS
370
-3
390
F
  0
LAYER
  5
20E
100
AcDbSymbolTableRecord
100
AcDbLayerTableRecord
  2
_1
 70
0
 62
7
  6
CONTINUOUS
370
-3
390
F
  0
ENDTAB
  0
TABLE
  2
STYLE
  5
3
100
AcDbSymbolTable
 70
1
  0
STYLE
  5
11
100
AcDbSymbolTableRecord
100
AcDbTextStyleTableRecord
  2
STANDARD
 70
0
 40
0.0
 41
1.0
 50
0.0
 71
0
 42
0.2
  3
ARIAL.TTF
  4

  0
STYLE
  5
20F
100
AcDbSymbolTableRecord
100
AcDbTextStyleTableRecord
  2
TEXTSTYLE_1
 70
0
 40
0.0
 41
0.8
 50
0.0
 71
0
 42
0.2
  3
gdt
  4

  0
ENDTAB
  0
TABLE
  2
VIEW
  5
6
100
AcDbSymbolTable
 70
0
  0
ENDTAB
  0
TABLE
  2
UCS
  5
7
100
AcDbSymbolTable
 70
0
  0
ENDTAB
  0
TABLE
  2
APPID
  5
9
100
AcDbSymbolTable
 70
1
  0
APPID
  5
210
100
AcDbSymbolTableRecord
100
AcDbRegAppTableRecord
  2
ACAD
 70
0
  0
ENDTAB
  0
TABLE
  2
BLOCK_RECORD
  5
1
100
AcDbSymbolTable
 70
0
  0
BLOCK_RECORD
  5
211
100
AcDbSymbolTableRecord
100
AcDbBlockTableRecord
  2
*Model_Space
  0
BLOCK_RECORD
  5
212
100
AcDbSymbolTableRecord
100
AcDbBlockTableRecord
  2
*Paper_Space
  0
BLOCK_RECORD
  5
213
100
AcDbSymbolTableRecord
100
AcDbBlockTableRecord
  2
_FILLED
  0
ENDTAB
  0
TABLE
  2
DIMSTYLE
  5
A
100
AcDbSymbolTable
 70
1
100
AcDbDimStyleTable
 71
0
  0
DIMSTYLE
105
214
100
AcDbSymbolTableRecord
100
AcDbDimStyleTableRecord
  2
STANDARD
 70
0
  3

  4

 40
1.0
 41
3.6595484621
 42
1.0
 43
0.38
 44
1.0
 45
0.0
 46
0.0
 47
0.01
 48
0.01
140
5.123367847
141
0.09
142
0.0
143
25.4
144
1.0
145
0.0
146
1.0
147
0.625
 71
1
 72
0
 73
0
 74
0
 75
0
 76
0
 77
1
 78
8
 79
2
170
0
171
1
172
0
173
0
174
0
175
0
176
0
177
0
178
0
270
2
179
2
271
2
272
2
273
2
274
2
275
0
280
0
281
0
282
0
283
1
284
8
285
0
286
0
287
3
288
0
340
11
278
46
341
213
342
213
343
213
344
213
  0
ENDTAB
  0
ENDSEC
  0
SECTION
  2
BLOCKS
  0
BLOCK
  5
20
100
AcDbEntity
  8
0
100
AcDbBlockBegin
  2
*Model_Space
 70
0
 10
0.0
 20
0.0
 30
0.0
  3
*Model_Space
  1

  0
ENDBLK
  5
21
100
AcDbEntity
  8
0
100
AcDbBlockEnd
  0
BLOCK
  5
1C
100
AcDbEntity
  8
0
100
AcDbBlockBegin
  2
*Paper_Space
 70
0
 10
0.0
 20
0.0
 30
0.0
  3
*Paper_Space
  1

  0
ENDBLK
  5
1D
100
AcDbEntity
  8
0
100
AcDbBlockEnd
  0
BLOCK
  5
215
100
AcDbEntity
  8
0
100
AcDbBlockBegin
  2
_FILLED
 70
64
 10
0.0
 20
0.0
  3
_FILLED
  1

  0
SOLID
  5
216
100
AcDbEntity
  8
0
  6
BYBLOCK
 62
0
100
AcDbTrace
 10
0.0
 20
0.0
 11
-1.0
 21
0.25
 12
-1.0
 22
-0.25
 13
-1.0
 23
-0.25
  0
ENDBLK
  5
217
100
AcDbEntity
  8
0
  6
BYBLOCK
 62
0
100
AcDbBlockEnd
  0
ENDSEC
  0
SECTION
  2
ENTITIES
  0
LINE
  5
218
100
AcDbEntity
  8
_1
100
AcDbLine
 62
7
  6
BYLAYER
 10
35.8331160186
 20
262.3595053706
 11
35.8331160186
 21
285.3591220824
  0
LINE
  5
219
100
AcDbEntity
  8
_1
100
AcDbLine
 62
7
  6
BYLAYER
 10
43.5829778242
 20
166.5588614565
 11
43.5829778223
 21
174.5588614564
  0
LINE
  5
21A
100
AcDbEntity
  8
_1
100
AcDbLine
 62
7
  6
BYLAYER
 10
43.5829778242
 20
234.5821547817
 11
43.5829778223
 21
242.5821547817
  0
LINE
  5
21B
100
AcDbEntity
  8
_1
100
AcDbLine
 62
7
  6
BYLAYER
 10
45.5831160186
 20
157.4205752889
 11
45.5831160186
 21
178.5648565319
  0
LINE
  5
21C
100
AcDbEntity
  8
_1
100
AcDbLine
 62
7
  6
BYLAYER
 10
45.5831160186
 20
230.1093137265
 11
45.5831160186
 21
247.9593137265
  0
LINE
  5
21D
100
AcDbEntity
  8
_1
100
AcDbLine
 62
7
  6
BYLAYER
 10
43.5829769235
 20
242.5821547817
 11
42.733701992
 21
238.5712872626
  0
LINE
  5
21E
100
AcDbEntity
  8
_1
100
AcDbLine
 62
7
  6
BYLAYER
 10
50.5831160186
 20
147.9593137265
 11
50.5831160186
 21
247.9593137265
  0
LINE
  5
21F
100
AcDbEntity
  8
_1
100
AcDbLine
 62
7
  6
BYLAYER
 10
50.7831160186
 20
261.6593137265
 11
50.7831160186
 21
286.0850647282
  0
LINE
  5
220
100
AcDbEntity
  8
_1
100
AcDbLine
 62
7
  6
BYLAYER
 10
52.0831160186
 20
247.9593137265
 11
52.0831160186
 21
147.9593137265
  0
LWPOLYLINE
  5
221
100
AcDbEntity
  8
_1
100
AcDbPolyline
 62
7
  6
BYLAYER
 90
3
 70
0
 10
43.5829769235
 20
174.5588614564
 10
42.733701992
 20
170.5479939374
 10
43.5829769222
 20
166.5588614565
  0
LINE
  5
222
100
AcDbEntity
  8
_1
100
AcDbLine
 62
7
  6
BYLAYER
 10
42.733701992
 20
238.5712872626
 11
43.5829769222
 21
234.5821547817
  0
LINE
  5
223
100
AcDbEntity
  8
_1
100
AcDbLine
 62
7
  6
BYLAYER
 10
59.2831160186
 20
248.4593137265
 11
59.2831160186
 21
247.9593137265
  0
LINE
  5
224
100
AcDbEntity
  8
_1
100
AcDbLine
 62
7
  6
BYLAYER
 10
59.7831160186
 20
253.0593137265
 11
59.7831160186
 21
248.4593137265
  0
LINE
  5
225
100
AcDbEntity
  8
_1
100
AcDbLine
 62
7
  6
BYLAYER
 10
60.0331160186
 20
253.0593137265
 11
60.0331160186
 21
255.0593137265
  0
LINE
  5
226
100
AcDbEntity
  8
_1
100
AcDbLine
 62
7
  6
BYLAYER
 10
60.7831160186
 20
255.5593137265
 11
60.7831160186
 21
256.6593137265
  0
LINE
  5
227
100
AcDbEntity
  8
_1
100
AcDbLine
 62
7
  6
BYLAYER
 10
62.2831160186
 20
247.9593137265
 11
62.2831160186
 21
248.4593137265
  0
LINE
  5
228
100
AcDbEntity
  8
_1
100
AcDbLine
 62
7
  6
BYLAYER
 10
62.7831160186
 20
248.4593137265
 11
62.7831160186
 21
253.0593137265
  0
LINE
  5
229
100
AcDbEntity
  8
_1
100
AcDbLine
 62
7
  6
BYLAYER
 10
63.0445270042
 20
256.6593137265
 11
63.0445270042
 21
255.5593137265
  0
LINE
  5
22A
100
AcDbEntity
  8
_1
100
AcDbLine
 62
7
  6
BYLAYER
 10
85.5228464548
 20
287.8593137265
 11
72.7831160186
 21
273.9563376001
  0
LINE
  5
22B
100
AcDbEntity
  8
_1
100
AcDbLine
 62
7
  6
BYLAYER
 10
65.5331160186
 20
253.0593137265
 11
65.5331160186
 21
255.0593137265
  0
LINE
  5
22C
100
AcDbEntity
  8
_1
100
AcDbLine
 62
7
  6
BYLAYER
 10
65.7717050329
 20
253.0593137265
 11
65.7717050329
 21
256.6593137265
  0
LINE
  5
22D
100
AcDbEntity
  8
_1
100
AcDbLine
 62
7
  6
BYLAYER
 10
72.7831160186
 20
273.9563376001
 11
72.7831160186
 21
256.6593137265
  0
LINE
  5
22E
100
AcDbEntity
  8
_1
100
AcDbLine
 62
7
  6
BYLAYER
 10
79.7945270042
 20
256.6593137265
 11
79.7945270042
 21
253.0593137265
  0
LINE
  5
22F
100
AcDbEntity
  8
_1
100
AcDbLine
 62
7
  6
BYLAYER
 10
80.0331160186
 20
253.0593137265
 11
80.0331160186
 21
255.0593137265
  0
LINE
  5
230
100
AcDbEntity
  8
_1
100
AcDbLine
 62
7
  6
BYLAYER
 10
82.5217050329
 20
255.5593137265
 11
82.5217050329
 21
256.6593137265
  0
LINE
  5
231
100
AcDbEntity
  8
_1
100
AcDbLine
 62
7
  6
BYLAYER
 10
82.7831160186
 20
253.0593137265
 11
82.7831160186
 21
248.4593137265
  0
LINE
  5
232
100
AcDbEntity
  8
_1
100
AcDbLine
 62
7
  6
BYLAYER
 10
83.2831160186
 20
248.4593137265
 11
83.2831160186
 21
247.9593137265
  0
LINE
  5
233
100
AcDbEntity
  8
_1
100
AcDbLine
 62
7
  6
BYLAYER
 10
84.7831160186
 20
255.5593137265
 11
84.7831160186
 21
256.6593137265
  0
LINE
  5
234
100
AcDbEntity
  8
_1
100
AcDbLine
 62
7
  6
BYLAYER
 10
85.5331160186
 20
253.0593137265
 11
85.5331160186
 21
255.0593137265
  0
LINE
  5
235
100
AcDbEntity
  8
_1
100
AcDbLine
 62
7
  6
BYLAYER
 10
85.7831160186
 20
248.4593137265
 11
85.7831160186
 21
253.0593137265
  0
LINE
  5
236
100
AcDbEntity
  8
_1
100
AcDbLine
 62
7
  6
BYLAYER
 10
86.2831160186
 20
247.9593137265
 11
86.2831160186
 21
248.4593137265
  0
LINE
  5
237
100
AcDbEntity
  8
_1
100
AcDbLine
 62
7
  6
BYLAYER
 10
86.7831160186
 20
256.6593137265
 11
86.7831160186
 21
287.8593137265
  0
LINE
  5
238
100
AcDbEntity
  8
_1
100
AcDbLine
 62
7
  6
BYLAYER
 10
88.5831160186
 20
256.6593137265
 11
88.5831160186
 21
273.9563376001
  0
LINE
  5
239
100
AcDbEntity
  8
_1
100
AcDbLine
 62
7
  6
BYLAYER
 10
89.0831160186
 20
248.4593137265
 11
89.0831160186
 21
247.9593137265
  0
LINE
  5
23A
100
AcDbEntity
  8
_1
100
AcDbLine
 62
7
  6
BYLAYER
 10
89.4212144864
 20
276.6460347389
 11
89.4212144864
 21
261.6593137265
  0
LINE
  5
23B
100
AcDbEntity
  8
_1
100
AcDbLine
 62
7
  6
BYLAYER
 10
89.5831160186
 20
253.0593137265
 11
89.5831160186
 21
248.4593137265
  0
LINE
  5
23C
100
AcDbEntity
  8
_1
100
AcDbLine
 62
7
  6
BYLAYER
 10
89.8331160186
 20
253.0593137265
 11
89.8331160186
 21
255.0593137265
  0
LINE
  5
23D
100
AcDbEntity
  8
_1
100
AcDbLine
 62
7
  6
BYLAYER
 10
90.5831160186
 20
255.5593137265
 11
90.5831160186
 21
256.6593137265
  0
LINE
  5
23E
100
AcDbEntity
  8
_1
100
AcDbLine
 62
7
  6
BYLAYER
 10
92.0831160186
 20
247.9593137265
 11
92.0831160186
 21
248.4593137265
  0
LINE
  5
23F
100
AcDbEntity
  8
_1
100
AcDbLine
 62
7
  6
BYLAYER
 10
92.5831160186
 20
248.4593137265
 11
92.5831160186
 21
253.0593137265
  0
LINE
  5
240
100
AcDbEntity
  8
_1
100
AcDbLine
 62
7
  6
BYLAYER
 10
92.8445270042
 20
256.6593137265
 11
92.8445270042
 21
255.5593137265
  0
LINE
  5
241
100
AcDbEntity
  8
_1
100
AcDbLine
 62
7
  6
BYLAYER
 10
43.2204193589
 20
147.9593137265
 11
240.0831160186
 21
147.9593137265
  0
LINE
  5
242
100
AcDbEntity
  8
_1
100
AcDbLine
 62
7
  6
BYLAYER
 10
228.0831160186
 20
150.0235240959
 11
52.0831160186
 21
150.0235240959
  0
LINE
  5
243
100
AcDbEntity
  8
_1
100
AcDbLine
 62
7
  6
BYLAYER
 10
50.5831160186
 20
150.0235240959
 11
44.138533072
 21
150.0235240959
  0
LINE
  5
244
100
AcDbEntity
  8
_1
100
AcDbLine
 62
7
  6
BYLAYER
 10
50.5831160186
 20
150.0506218702
 11
52.0831160186
 21
150.0506218702
  0
LINE
  5
245
100
AcDbEntity
  8
_1
100
AcDbLine
 62
7
  6
BYLAYER
 10
243.5831160186
 20
150.4593137265
 11
240.0831160186
 21
150.4593137265
  0
LINE
  5
246
100
AcDbEntity
  8
_1
100
AcDbLine
 62
7
  6
BYLAYER
 10
228.0831160186
 20
151.9533154632
 11
52.0831160186
 21
151.9533154632
  0
LINE
  5
247
100
AcDbEntity
  8
_1
100
AcDbLine
 62
7
  6
BYLAYER
 10
50.5831160186
 20
151.9533154632
 11
44.0346647471
 21
151.9533154632
  0
LINE
  5
248
100
AcDbEntity
  8
_1
100
AcDbLine
 62
7
  6
BYLAYER
 10
52.0831160186
 20
151.9798745269
 11
50.5831160186
 21
151.9798745269
  0
LINE
  5
249
100
AcDbEntity
  8
_1
100
AcDbLine
 62
7
  6
BYLAYER
 10
95.3331160186
 20
253.0593137265
 11
95.3331160186
 21
255.0593137265
  0
LINE
  5
24A
100
AcDbEntity
  8
_1
100
AcDbLine
 62
7
  6
BYLAYER
 10
95.5717050329
 20
253.0593137265
 11
95.5717050329
 21
256.6593137265
  0
LINE
  5
24B
100
AcDbEntity
  8
_1
100
AcDbLine
 62
7
  6
BYLAYER
 10
240.0831160186
 20
156.3480521642
 11
228.0831160186
 21
156.3480521642
  0
LINE
  5
24C
100
AcDbEntity
  8
_1
100
AcDbLine
 62
7
  6
BYLAYER
 10
45.5831160186
 20
157.4205752889
 11
228.0831160186
 21
157.4205752889
  0
LINE
  5
24D
100
AcDbEntity
  8
_1
100
AcDbLine
 62
7
  6
BYLAYER
 10
109.5945270042
 20
256.6593137265
 11
109.5945270042
 21
253.0593137265
  0
LINE
  5
24E
100
AcDbEntity
  8
_1
100
AcDbLine
 62
7
  6
BYLAYER
 10
109.8331160186
 20
253.0593137265
 11
109.8331160186
 21
255.0593137265
  0
LINE
  5
24F
100
AcDbEntity
  8
_1
100
AcDbLine
 62
7
  6
BYLAYER
 10
45.5831160186
 20
165.8093137265
 11
228.0831160186
 21
165.8093137265
  0
LINE
  5
250
100
AcDbEntity
  8
_1
100
AcDbLine
 62
7
  6
BYLAYER
 10
45.5831160186
 20
166.5588614565
 11
43.5829769222
 21
166.5588614565
  0
LINE
  5
251
100
AcDbEntity
  8
_1
100
AcDbLine
 62
7
  6
BYLAYER
 10
228.0831160186
 20
167.3917124802
 11
45.5831160186
 21
167.3917124802
  0
LINE
  5
252
100
AcDbEntity
  8
_1
100
AcDbLine
 62
7
  6
BYLAYER
 10
42.4883812481
 20
168.3701230188
 11
43.1973645004
 21
168.3701230188
  0
LINE
  5
253
100
AcDbEntity
  8
_1
100
AcDbLine
 62
7
  6
BYLAYER
 10
112.3217050329
 20
255.5593137265
 11
112.3217050329
 21
256.6593137265
  0
LINE
  5
254
100
AcDbEntity
  8
_1
100
AcDbLine
 62
7
  6
BYLAYER
 10
112.5831160186
 20
253.0593137265
 11
112.5831160186
 21
248.4593137265
  0
LINE
  5
255
100
AcDbEntity
  8
_1
100
AcDbLine
 62
7
  6
BYLAYER
 10
113.0831160186
 20
248.4593137265
 11
113.0831160186
 21
247.9593137265
  0
LINE
  5
256
100
AcDbEntity
  8
_1
100
AcDbLine
 62
7
  6
BYLAYER
 10
114.5831160186
 20
256.6593137265
 11
114.5831160186
 21
255.5593137265
  0
LINE
  5
257
100
AcDbEntity
  8
_1
100
AcDbLine
 62
7
  6
BYLAYER
 10
115.3331160186
 20
253.0593137265
 11
115.3331160186
 21
255.0593137265
  0
LINE
  5
258
100
AcDbEntity
  8
_1
100
AcDbLine
 62
7
  6
BYLAYER
 10
115.5831160186
 20
248.4593137265
 11
115.5831160186
 21
253.0593137265
  0
LINE
  5
259
100
AcDbEntity
  8
_1
100
AcDbLine
 62
7
  6
BYLAYER
 10
115.7450175508
 20
261.6593137265
 11
115.7450175508
 21
276.6460347389
  0
LINE
  5
25A
100
AcDbEntity
  8
_1
100
AcDbLine
 62
7
  6
BYLAYER
 10
116.0831160186
 20
247.9593137265
 11
116.0831160186
 21
248.4593137265
  0
LINE
  5
25B
100
AcDbEntity
  8
_1
100
AcDbLine
 62
7
  6
BYLAYER
 10
116.5831160186
 20
273.9563376001
 11
116.5831160186
 21
256.6593137265
  0
LINE
  5
25C
100
AcDbEntity
  8
_1
100
AcDbLine
 62
7
  6
BYLAYER
 10
121.0831160186
 20
247.9593137265
 11
121.0831160186
 21
147.9593137265
  0
LINE
  5
25D
100
AcDbEntity
  8
_1
100
AcDbLine
 62
7
  6
BYLAYER
 10
45.5831160186
 20
174.5588614565
 11
43.5829769235
 21
174.5588614565
  0
LINE
  5
25E
100
AcDbEntity
  8
_1
100
AcDbLine
 62
7
  6
BYLAYER
 10
42.7338434073
 20
176.7588614565
 11
45.5831160186
 21
176.7588614565
  0
LINE
  5
25F
100
AcDbEntity
  8
_1
100
AcDbLine
 62
7
  6
BYLAYER
 10
45.5831160186
 20
178.5648565319
 11
43.6279843147
 21
178.5648565319
  0
LINE
  5
260
100
AcDbEntity
  8
_1
100
AcDbLine
 62
7
  6
BYLAYER
 10
228.0831160186
 20
183.0593137265
 11
52.0831160186
 21
183.0593137265
  0
LINE
  5
261
100
AcDbEntity
  8
_1
100
AcDbLine
 62
7
  6
BYLAYER
 10
50.5831160186
 20
183.0593137265
 11
43.4756814901
 21
183.0593137265
  0
LINE
  5
262
100
AcDbEntity
  8
_1
100
AcDbLine
 62
7
  6
BYLAYER
 10
52.0831160186
 20
183.0612960616
 11
50.5831160186
 21
183.0612960616
  0
LINE
  5
263
100
AcDbEntity
  8
_1
100
AcDbLine
 62
7
  6
BYLAYER
 10
243.5831160186
 20
188.4593137265
 11
280.0831160186
 21
188.4593137265
  0
LINE
  5
264
100
AcDbEntity
  8
_1
100
AcDbLine
 62
7
  6
BYLAYER
 10
40.1912431329
 20
188.6593137265
 11
40.9120875107
 21
188.6593137265
  0
LINE
  5
265
100
AcDbEntity
  8
_1
100
AcDbLine
 62
7
  6
BYLAYER
 10
43.2204193589
 20
197.9593137265
 11
240.0831160186
 21
197.9593137265
  0
LINE
  5
266
100
AcDbEntity
  8
_1
100
AcDbLine
 62
7
  6
BYLAYER
 10
40.1912431329
 20
207.2593137265
 11
40.9120875107
 21
207.2593137265
  0
LINE
  5
267
100
AcDbEntity
  8
_1
100
AcDbLine
 62
7
  6
BYLAYER
 10
243.5831160186
 20
207.4593137265
 11
280.0831160186
 21
207.4593137265
  0
LINE
  5
268
100
AcDbEntity
  8
_1
100
AcDbLine
 62
7
  6
BYLAYER
 10
50.5831160186
 20
212.8573313914
 11
52.0831160186
 21
212.8573313914
  0
LINE
  5
269
100
AcDbEntity
  8
_1
100
AcDbLine
 62
7
  6
BYLAYER
 10
43.4756814901
 20
212.8593137265
 11
50.5831160186
 21
212.8593137265
  0
LINE
  5
26A
100
AcDbEntity
  8
_1
100
AcDbLine
 62
7
  6
BYLAYER
 10
52.0831160186
 20
212.8593137265
 11
228.0831160186
 21
212.8593137265
  0
LINE
  5
26B
100
AcDbEntity
  8
_1
100
AcDbLine
 62
7
  6
BYLAYER
 10
44.1200410415
 20
228.5269149728
 11
228.0831160186
 21
228.5269149728
  0
LINE
  5
26C
100
AcDbEntity
  8
_1
100
AcDbLine
 62
7
  6
BYLAYER
 10
228.0831160186
 20
230.1093137265
 11
42.4849471457
 21
230.1093137265
  0
LINE
  5
26D
100
AcDbEntity
  8
_1
100
AcDbLine
 62
7
  6
BYLAYER
 10
45.5831160186
 20
234.5821547817
 11
43.5829769222
 21
234.5821547817
  0
LINE
  5
26E
100
AcDbEntity
  8
_1
100
AcDbLine
 62
7
  6
BYLAYER
 10
228.0831160186
 20
238.4980521642
 11
45.5831160186
 21
238.4980521642
  0
LINE
  5
26F
100
AcDbEntity
  8
_1
100
AcDbLine
 62
7
  6
BYLAYER
 10
42.7492935357
 20
238.4980521642
 11
42.707787759
 21
238.4980521642
  0
LINE
  5
270
100
AcDbEntity
  8
_1
100
AcDbLine
 62
7
  6
BYLAYER
 10
228.0831160186
 20
239.5705752889
 11
240.0831160186
 21
239.5705752889
  0
LINE
  5
271
100
AcDbEntity
  8
_1
100
AcDbLine
 62
7
  6
BYLAYER
 10
45.5831160186
 20
242.5821547817
 11
43.5829769235
 21
242.5821547817
  0
LINE
  5
272
100
AcDbEntity
  8
_1
100
AcDbLine
 62
7
  6
BYLAYER
 10
243.5831160186
 20
245.4593137265
 11
240.0831160186
 21
245.4593137265
  0
LINE
  5
273
100
AcDbEntity
  8
_1
100
AcDbLine
 62
7
  6
BYLAYER
 10
43.5378181087
 20
245.9854929177
 11
228.0831160186
 21
245.9854929177
  0
LINE
  5
274
100
AcDbEntity
  8
_1
100
AcDbLine
 62
7
  6
BYLAYER
 10
240.0831160186
 20
247.9593137265
 11
43.2204193589
 21
247.9593137265
  0
LINE
  5
275
100
AcDbEntity
  8
_1
100
AcDbLine
 62
7
  6
BYLAYER
 10
210.5831160186
 20
248.0593137265
 11
238.0831160186
 21
248.0593137265
  0
LINE
  5
276
100
AcDbEntity
  8
_1
100
AcDbLine
 62
7
  6
BYLAYER
 10
59.2831160186
 20
248.4593137265
 11
86.2831160186
 21
248.4593137265
  0
LINE
  5
277
100
AcDbEntity
  8
_1
100
AcDbLine
 62
7
  6
BYLAYER
 10
89.0831160186
 20
248.4593137265
 11
116.0831160186
 21
248.4593137265
  0
LINE
  5
278
100
AcDbEntity
  8
_1
100
AcDbLine
 62
7
  6
BYLAYER
 10
227.5416641342
 20
248.5593137265
 11
235.6245679029
 21
248.5593137265
  0
LINE
  5
279
100
AcDbEntity
  8
_1
100
AcDbLine
 62
7
  6
BYLAYER
 10
236.0831160186
 20
251.7593137265
 11
227.0831160186
 21
251.7593137265
  0
LINE
  5
27A
100
AcDbEntity
  8
_1
100
AcDbLine
 62
7
  6
BYLAYER
 10
227.0831160186
 20
252.5593137265
 11
236.0831160186
 21
252.5593137265
  0
LINE
  5
27B
100
AcDbEntity
  8
_1
100
AcDbLine
 62
7
  6
BYLAYER
 10
59.7831160186
 20
253.0593137265
 11
85.7831160186
 21
253.0593137265
  0
LINE
  5
27C
100
AcDbEntity
  8
_1
100
AcDbLine
 62
7
  6
BYLAYER
 10
89.5831160186
 20
253.0593137265
 11
115.5831160186
 21
253.0593137265
  0
LINE
  5
27D
100
AcDbEntity
  8
_1
100
AcDbLine
 62
7
  6
BYLAYER
 10
227.5416641342
 20
253.4593137265
 11
235.6245679029
 21
253.4593137265
  0
LINE
  5
27E
100
AcDbEntity
  8
_1
100
AcDbLine
 62
7
  6
BYLAYER
 10
60.0331160186
 20
255.0593137265
 11
65.5331160186
 21
255.0593137265
  0
LINE
  5
27F
100
AcDbEntity
  8
_1
100
AcDbLine
 62
7
  6
BYLAYER
 10
80.0331160186
 20
255.0593137265
 11
85.5331160186
 21
255.0593137265
  0
LINE
  5
280
100
AcDbEntity
  8
_1
100
AcDbLine
 62
7
  6
BYLAYER
 10
89.8331160186
 20
255.0593137265
 11
95.3331160186
 21
255.0593137265
  0
LINE
  5
281
100
AcDbEntity
  8
_1
100
AcDbLine
 62
7
  6
BYLAYER
 10
109.8331160186
 20
255.0593137265
 11
115.3331160186
 21
255.0593137265
  0
LINE
  5
282
100
AcDbEntity
  8
_1
100
AcDbLine
 62
7
  6
BYLAYER
 10
60.5332600942
 20
255.5593137265
 11
65.032971943
 21
255.5593137265
  0
LINE
  5
283
100
AcDbEntity
  8
_1
100
AcDbLine
 62
7
  6
BYLAYER
 10
80.5332600942
 20
255.5593137265
 11
85.032971943
 21
255.5593137265
  0
LINE
  5
284
100
AcDbEntity
  8
_1
100
AcDbLine
 62
7
  6
BYLAYER
 10
90.3331160186
 20
255.5593137265
 11
94.8331160186
 21
255.5593137265
  0
LINE
  5
285
100
AcDbEntity
  8
_1
100
AcDbLine
 62
7
  6
BYLAYER
 10
110.3331160186
 20
255.5593137265
 11
114.8331160186
 21
255.5593137265
  0
LINE
  5
286
100
AcDbEntity
  8
_1
100
AcDbLine
 62
7
  6
BYLAYER
 10
86.7831007875
 20
256.6593137265
 11
55.7831160186
 21
256.6593137265
  0
LINE
  5
287
100
AcDbEntity
  8
_1
100
AcDbLine
 62
7
  6
BYLAYER
 10
88.5831160186
 20
256.6593137265
 11
116.5831160186
 21
256.6593137265
  0
LINE
  5
288
100
AcDbEntity
  8
_1
100
AcDbLine
 62
7
  6
BYLAYER
 10
227.5416641342
 20
256.6593137265
 11
235.6245679029
 21
256.6593137265
  0
LINE
  5
289
100
AcDbEntity
  8
_1
100
AcDbLine
 62
7
  6
BYLAYER
 10
229.5831160186
 20
260.5593137265
 11
233.5831160186
 21
260.5593137265
  0
LINE
  5
28A
100
AcDbEntity
  8
_1
100
AcDbLine
 62
7
  6
BYLAYER
 10
115.7450175508
 20
261.6593137265
 11
89.4212144864
 21
261.6593137265
  0
LINE
  5
28B
100
AcDbEntity
  8
_1
100
AcDbLine
 62
7
  6
BYLAYER
 10
35.8331160186
 20
262.3593137265
 11
50.7831160186
 21
262.3593137265
  0
LINE
  5
28C
100
AcDbEntity
  8
_1
100
AcDbLine
 62
7
  6
BYLAYER
 10
210.5831160186
 20
248.0593137265
 11
210.5831160186
 21
247.9593137265
  0
LINE
  5
28D
100
AcDbEntity
  8
_1
100
AcDbLine
 62
7
  6
BYLAYER
 10
212.5831160186
 20
247.9593137265
 11
212.5831160186
 21
248.0593137265
  0
LINE
  5
28E
100
AcDbEntity
  8
_1
100
AcDbLine
 62
7
  6
BYLAYER
 10
227.0831160186
 20
251.7593137265
 11
227.0831160186
 21
252.5593137265
  0
LINE
  5
28F
100
AcDbEntity
  8
_1
100
AcDbLine
 62
7
  6
BYLAYER
 10
227.5416641342
 20
248.5593137265
 11
227.5416641342
 21
251.7593137265
  0
LINE
  5
290
100
AcDbEntity
  8
_1
100
AcDbLine
 62
7
  6
BYLAYER
 10
227.5416641342
 20
253.4593137265
 11
227.5416641342
 21
256.6593137265
  0
LINE
  5
291
100
AcDbEntity
  8
_1
100
AcDbLine
 62
7
  6
BYLAYER
 10
227.5831160186
 20
248.5593137265
 11
227.5831160186
 21
248.0593137265
  0
LINE
  5
292
100
AcDbEntity
  8
_1
100
AcDbLine
 62
7
  6
BYLAYER
 10
227.7831160186
 20
252.5593137265
 11
227.7831160186
 21
253.4593137265
  0
LINE
  5
293
100
AcDbEntity
  8
_1
100
AcDbLine
 62
7
  6
BYLAYER
 10
228.0831160186
 20
147.9593137265
 11
228.0831160186
 21
183.0593137265
  0
LINE
  5
294
100
AcDbEntity
  8
_1
100
AcDbLine
 62
7
  6
BYLAYER
 10
228.0831160186
 20
212.8593137265
 11
228.0831160186
 21
247.9593137265
  0
LINE
  5
295
100
AcDbEntity
  8
_1
100
AcDbLine
 62
7
  6
BYLAYER
 10
229.5623900764
 20
248.5593137265
 11
229.5623900764
 21
251.7593137265
  0
LINE
  5
296
100
AcDbEntity
  8
_1
100
AcDbLine
 62
7
  6
BYLAYER
 10
229.5623900764
 20
253.4593137265
 11
229.5623900764
 21
256.6593137265
  0
LINE
  5
297
100
AcDbEntity
  8
_1
100
AcDbLine
 62
7
  6
BYLAYER
 10
229.5831160186
 20
256.6593137265
 11
229.5831160186
 21
260.5593137265
  0
LINE
  5
298
100
AcDbEntity
  8
_1
100
AcDbLine
 62
7
  6
BYLAYER
 10
231.0831160186
 20
248.0593137265
 11
231.0831160186
 21
247.9593137265
  0
LINE
  5
299
100
AcDbEntity
  8
_1
100
AcDbLine
 62
7
  6
BYLAYER
 10
233.5831160186
 20
256.6593137265
 11
233.5831160186
 21
260.5593137265
  0
LINE
  5
29A
100
AcDbEntity
  8
_1
100
AcDbLine
 62
7
  6
BYLAYER
 10
233.6038419607
 20
248.5593137265
 11
233.6038419607
 21
251.7593137265
  0
LINE
  5
29B
100
AcDbEntity
  8
_1
100
AcDbLine
 62
7
  6
BYLAYER
 10
233.6038419607
 20
253.4593137265
 11
233.6038419607
 21
256.6593137265
  0
LINE
  5
29C
100
AcDbEntity
  8
_1
100
AcDbLine
 62
7
  6
BYLAYER
 10
35.8331160186
 20
285.3593137265
 11
50.7831160186
 21
285.3593137265
  0
LINE
  5
29D
100
AcDbEntity
  8
_1
100
AcDbLine
 62
7
  6
BYLAYER
 10
71.062874868
 20
287.8593137265
 11
86.783109878
 21
287.8593137265
  0
LINE
  5
29E
100
AcDbEntity
  8
_1
100
AcDbLine
 62
7
  6
BYLAYER
 10
96.7780089212
 20
287.8593137265
 11
108.3882231159
 21
287.8593137265
  0
LINE
  5
29F
100
AcDbEntity
  8
_1
100
AcDbLine
 62
7
  6
BYLAYER
 10
235.3831160186
 20
252.5593137265
 11
235.3831160186
 21
253.4593137265
  0
LINE
  5
2A0
100
AcDbEntity
  8
_1
100
AcDbLine
 62
7
  6
BYLAYER
 10
235.5831160186
 20
248.5593137265
 11
235.5831160186
 21
248.0593137265
  0
LINE
  5
2A1
100
AcDbEntity
  8
_1
100
AcDbLine
 62
7
  6
BYLAYER
 10
235.6245679029
 20
248.5593137265
 11
235.6245679029
 21
251.7593137265
  0
LINE
  5
2A2
100
AcDbEntity
  8
_1
100
AcDbLine
 62
7
  6
BYLAYER
 10
235.6245679029
 20
253.4593137265
 11
235.6245679029
 21
256.6593137265
  0
LINE
  5
2A3
100
AcDbEntity
  8
_1
100
AcDbLine
 62
7
  6
BYLAYER
 10
236.0831160186
 20
251.7593137265
 11
236.0831160186
 21
252.5593137265
  0
LINE
  5
2A4
100
AcDbEntity
  8
_1
100
AcDbLine
 62
7
  6
BYLAYER
 10
238.0831160186
 20
248.0593137265
 11
238.0831160186
 21
247.9593137265
  0
LINE
  5
2A5
100
AcDbEntity
  8
_1
100
AcDbLine
 62
7
  6
BYLAYER
 10
240.0831160186
 20
247.9593137265
 11
240.0831160186
 21
147.9593137265
  0
LINE
  5
2A6
100
AcDbEntity
  8
_1
100
AcDbLine
 62
7
  6
BYLAYER
 10
243.5831160186
 20
245.4586895196
 11
243.5831160186
 21
150.4599379334
  0
LINE
  5
2A7
100
AcDbEntity
  8
_1
100
AcDbLine
 62
7
  6
BYLAYER
 10
71.062874868
 20
287.8593137265
 11
50.7831160186
 21
286.0850647282
  0
LINE
  5
2A8
100
AcDbEntity
  8
_1
100
AcDbLine
 62
7
  6
BYLAYER
 10
280.0831160186
 20
207.4592849077
 11
280.0831160186
 21
188.4593425453
  0
ARC
  5
2A9
100
AcDbEntity
  8
_1
100
AcDbCircle
 62
7
  6
BYLAYER
 10
440.0831160186
 20
197.9593137265
 40
400.0
100
AcDbArc
 50
181.3322469192
 51
187.1807557815
  0
ARC
  5
2AA
100
AcDbEntity
  8
_1
100
AcDbCircle
 62
7
  6
BYLAYER
 10
440.0830490297
 20
197.9593187123
 40
399.9999329133
100
AcDbArc
 50
172.8192437277
 51
178.6677535717
  0
ARC
  5
2AB
100
AcDbEntity
  8
_1
100
AcDbCircle
 62
7
  6
BYLAYER
 10
440.0831160186
 20
197.9593137265
 40
399.5
100
AcDbArc
 50
178.6660853868
 51
181.3339146132
  0
ARC
  5
2AC
100
AcDbEntity
  8
_1
100
AcDbCircle
 62
7
  6
BYLAYER
 10
440.0247555957
 20
198.242670923
 40
399.3510594074
100
AcDbArc
 50
173.1338092643
 51
174.2146455508
  0
ARC
  5
2AD
100
AcDbEntity
  8
_1
100
AcDbCircle
 62
7
  6
BYLAYER
 10
440.0831160186
 20
197.9593137265
 40
399.0187965497
100
AcDbArc
 50
179.2389417142
 51
180.7610582858
  0
ARC
  5
2AE
100
AcDbEntity
  8
_1
100
AcDbCircle
 62
7
  6
BYLAYER
 10
440.0581790591
 20
197.5356191096
 40
398.6381445544
100
AcDbArc
 50
184.1956703516
 51
186.5658507226
  0
ARC
  5
2AF
100
AcDbEntity
  8
_1
100
AcDbCircle
 62
7
  6
BYLAYER
 10
440.0501408883
 20
198.6131378172
 40
396.8302601555
100
AcDbArc
 50
177.942643826
 51
180.0944015153
  0
ARC
  5
2B0
100
AcDbEntity
  8
_1
100
AcDbCircle
 62
7
  6
BYLAYER
 10
440.050140888
 20
197.3054896359
 40
396.8302601552
100
AcDbArc
 50
179.9055984847
 51
182.057356174
  0
CIRCLE
  5
2B1
100
AcDbEntity
  8
_1
100
AcDbCircle
 62
7
  6
BYLAYER
 10
102.5831160186
 20
273.8593137265
 40
11.5
  0
CIRCLE
  5
2B2
100
AcDbEntity
  8
_1
100
AcDbCircle
 62
7
  6
BYLAYER
 10
102.5831160186
 20
273.8593137265
 40
9.25
  0
ARC
  5
2B3
100
AcDbEntity
  8
_1
100
AcDbCircle
 62
7
  6
BYLAYER
 10
55.7831160186
 20
261.6593137265
 40
5.0
100
AcDbArc
 50
180.0
 51
270.0
  0
CIRCLE
  5
2B4
100
AcDbEntity
  8
_1
100
AcDbCircle
 62
7
  6
BYLAYER
 10
108.4326834917
 20
272.5241881228
 40
1.25
  0
CIRCLE
  5
2B5
100
AcDbEntity
  8
_1
100
AcDbCircle
 62
7
  6
BYLAYER
 10
107.2741049134
 20
277.6002525377
 40
1.25
  0
CIRCLE
  5
2B6
100
AcDbEntity
  8
_1
100
AcDbCircle
 62
7
  6
BYLAYER
 10
105.1864184533
 20
268.4535005191
 40
1.25
  0
CIRCLE
  5
2B7
100
AcDbEntity
  8
_1
100
AcDbCircle
 62
7
  6
BYLAYER
 10
102.5831160186
 20
279.8593137265
 40
1.25
  0
CIRCLE
  5
2B8
100
AcDbEntity
  8
_1
100
AcDbCircle
 62
7
  6
BYLAYER
 10
102.5831160186
 20
273.8593137265
 40
1.25
  0
CIRCLE
  5
2B9
100
AcDbEntity
  8
_1
100
AcDbCircle
 62
7
  6
BYLAYER
 10
97.8921271238
 20
277.6002525377
 40
1.25
  0
CIRCLE
  5
2BA
100
AcDbEntity
  8
_1
100
AcDbCircle
 62
7
  6
BYLAYER
 10
108.4326834917
 20
272.5241881228
 40
0.5
  0
CIRCLE
  5
2BB
100
AcDbEntity
  8
_1
100
AcDbCircle
 62
7
  6
BYLAYER
 10
105.1864184533
 20
268.4535005191
 40
0.5
  0
ARC
  5
2BC
100
AcDbEntity
  8
_1
100
AcDbCircle
 62
7
  6
BYLAYER
 10
110.3331160186
 20
255.0593137265
 40
0.5
100
AcDbArc
 50
90.0
 51
180.0
  0
ARC
  5
2BD
100
AcDbEntity
  8
_1
100
AcDbCircle
 62
7
  6
BYLAYER
 10
114.8331160186
 20
255.0593137265
 40
0.5
100
AcDbArc
 50
0.0
 51
90.0
  0
ARC
  5
2BE
100
AcDbEntity
  8
_1
100
AcDbCircle
 62
7
  6
BYLAYER
 10
94.8331160186
 20
255.0593137265
 40
0.5
100
AcDbArc
 50
0.0
 51
90.0
  0
ARC
  5
2BF
100
AcDbEntity
  8
_1
100
AcDbCircle
 62
7
  6
BYLAYER
 10
90.3331160186
 20
255.0593137265
 40
0.5
100
AcDbArc
 50
90.0
 51
180.0
  0
ARC
  5
2C0
100
AcDbEntity
  8
_1
100
AcDbCircle
 62
7
  6
BYLAYER
 10
60.5331160186
 20
255.0593137265
 40
0.5
100
AcDbArc
 50
90.0
 51
180.0
  0
ARC
  5
2C1
100
AcDbEntity
  8
_1
100
AcDbCircle
 62
7
  6
BYLAYER
 10
65.0331160186
 20
255.0593137265
 40
0.5
100
AcDbArc
 50
0.0
 51
90.0
  0
ARC
  5
2C2
100
AcDbEntity
  8
_1
100
AcDbCircle
 62
7
  6
BYLAYER
 10
80.5331160186
 20
255.0593137265
 40
0.5
100
AcDbArc
 50
90.0
 51
180.0
  0
ARC
  5
2C3
100
AcDbEntity
  8
_1
100
AcDbCircle
 62
7
  6
BYLAYER
 10
85.0331160186
 20
255.0593137265
 40
0.5
100
AcDbArc
 50
0.0
 51
90.0
  0
ARC
  5
2C4
100
AcDbEntity
  8
_1
100
AcDbCircle
 62
7
  6
BYLAYER
 10
827.9512792698
 20
207.39288147
 40
784.8529072578
100
AcDbArc
 50
181.7766822031
 51
182.1049750456
  0
SPLINE
  5
2C5
100
AcDbEntity
  8
_1
100
AcDbSpline
 62
7
  6
BYLAYER
 70
0
 71
3
 72
17
 73
13
 74
0
 42
0.0000001
 43
0.0000001
 44
0.0000000001
 40
0.0
 40
0.0
 40
0.0
 40
0.0
 40
0.0075110777
 40
0.0228679847
 40
0.0471519596
 40
0.0803836915
 40
0.1726527908
 40
0.2964924919
 40
0.4472854754
 40
0.6192829044
 40
0.8059262044
 40
1.0
 40
1.0
 40
1.0
 40
1.0
 10
40.9120777391
 20
207.2593137265
 30
0.0
 10
40.9221488292
 20
207.2593137265
 30
0.0
 10
40.944591627
 20
207.2296862968
 30
0.0
 10
40.9614918081
 20
207.1724296042
 30
0.0
 10
40.9834263591
 20
207.0752424281
 30
0.0
 10
41.0118507295
 20
206.8773719625
 30
0.0
 10
41.0424489382
 20
206.5435726511
 30
0.0
 10
41.0702600399
 20
206.0527003796
 30
0.0
 10
41.0909935454
 20
205.4540427869
 30
0.0
 10
41.103352758
 20
204.7711062919
 30
0.0
 10
41.1067741687
 20
204.0299857071
 30
0.0
 10
41.1029985142
 20
203.5195110407
 30
0.0
 10
41.0995421169
 20
203.2593137265
 30
0.0
  0
SPLINE
  5
2C6
100
AcDbEntity
  8
_1
100
AcDbSpline
 62
7
  6
BYLAYER
 70
0
 71
3
 72
17
 73
13
 74
0
 42
0.0000001
 43
0.0000001
 44
0.0000000001
 40
0.0
 40
0.0
 40
0.0
 40
0.0
 40
0.194117444
 40
0.3808092106
 40
0.5528062821
 40
0.7035905255
 40
0.8274073551
 40
0.9196498033
 40
0.9528659988
 40
0.9771416858
 40
0.9924914167
 40
1.0
 40
1.0
 40
1.0
 40
1.0
 10
41.0995458119
 20
192.6593137265
 30
0.0
 10
41.1030051092
 20
192.3990576634
 30
0.0
 10
41.1067742739
 20
191.8884588872
 30
0.0
 10
41.1033482025
 20
191.147214609
 30
0.0
 10
41.0909820524
 20
190.4642246546
 30
0.0
 10
41.0702427159
 20
189.865609859
 30
0.0
 10
41.0424313802
 20
189.3748145158
 30
0.0
 10
41.0118357366
 20
189.0411041862
 30
0.0
 10
40.9834077531
 20
188.843299175
 30
0.0
 10
40.961484607
 20
188.7461581651
 30
0.0
 10
40.9445975781
 20
188.6889110347
 30
0.0
 10
40.9221497099
 20
188.6593137265
 30
0.0
 10
40.9120819545
 20
188.6593137265
 30
0.0
  0
SPLINE
  5
2C7
100
AcDbEntity
  8
_1
100
AcDbSpline
 62
7
  6
BYLAYER
 70
0
 71
3
 72
17
 73
13
 74
0
 42
0.0000001
 43
0.0000001
 44
0.0000000001
 40
0.0
 40
0.0
 40
0.0
 40
0.0
 40
0.0063349535
 40
0.0209479983
 40
0.0447257808
 40
0.0776394133
 40
0.169659309
 40
0.2936633692
 40
0.4448949432
 40
0.6174533814
 40
0.8049331275
 40
1.0
 40
1.0
 40
1.0
 40
1.0
 10
43.6804288668
 20
247.9593137265
 30
0.0
 10
43.684621155
 20
247.9593137265
 30
0.0
 10
43.6922150331
 20
247.9429861596
 30
0.0
 10
43.6952114848
 20
247.9164298713
 30
0.0
 10
43.6989097116
 20
247.8678135263
 30
0.0
 10
43.699237601
 20
247.7702596301
 30
0.0
 10
43.6933361868
 20
247.6049435916
 30
0.0
 10
43.6776395481
 20
247.3626903137
 30
0.0
 10
43.6533765232
 20
247.0672302454
 30
0.0
 10
43.6211938983
 20
246.7304480287
 30
0.0
 10
43.5823654718
 20
246.3651368915
 30
0.0
 10
43.5532509258
 20
246.1136566797
 30
0.0
 10
43.5378181087
 20
245.9854929177
 30
0.0
  0
SPLINE
  5
2C8
100
AcDbEntity
  8
_1
100
AcDbSpline
 62
7
  6
BYLAYER
 70
0
 71
3
 72
9
 73
5
 74
0
 42
0.0000001
 43
0.0000001
 44
0.0000000001
 40
0.0
 40
0.0
 40
0.0
 40
0.0
 40
0.2517592374
 40
1.0
 40
1.0
 40
1.0
 40
1.0
 10
43.4756814901
 20
212.8593137265
 30
0.0
 10
43.5164901695
 20
214.1746261026
 30
0.0
 10
43.6917755254
 20
219.3986914591
 30
0.0
 10
43.9190532782
 20
224.6210290058
 30
0.0
 10
44.1200410415
 20
228.5269149728
 30
0.0
  0
SPLINE
  5
2C9
100
AcDbEntity
  8
_1
100
AcDbSpline
 62
7
  6
BYLAYER
 70
0
 71
3
 72
14
 73
10
 74
0
 42
0.0000001
 43
0.0000001
 44
0.0000000001
 40
0.0
 40
0.0
 40
0.0
 40
0.0
 40
0.3912493247
 40
0.7076084474
 40
0.8263406604
 40
0.9144748742
 40
0.9466649252
 40
0.9710406214
 40
1.0
 40
1.0
 40
1.0
 40
1.0
 10
44.1200410415
 20
228.5269149728
 30
0.0
 10
44.1308296769
 20
228.7365753966
 30
0.0
 10
44.1429793034
 20
229.1161813476
 30
0.0
 10
44.1365034719
 20
229.559827145
 30
0.0
 10
44.1115952656
 20
229.8398494915
 30
0.0
 10
44.0918418528
 20
229.9663453041
 30
0.0
 10
44.0696136342
 20
230.0417896469
 30
0.0
 10
44.0528946822
 20
230.08257715
 30
0.0
 10
44.0299390686
 20
230.1093137265
 30
0.0
 10
44.0143999523
 20
230.1093137265
 30
0.0
  0
SPLINE
  5
2CA
100
AcDbEntity
  8
_1
100
AcDbSpline
 62
7
  6
BYLAYER
 70
0
 71
3
 72
19
 73
15
 74
0
 42
0.0000001
 43
0.0000001
 44
0.0000000001
 40
0.0
 40
0.0
 40
0.0
 40
0.0
 40
0.0083024756
 40
0.0149602368
 40
0.0236973701
 40
0.0477425367
 40
0.0806594421
 40
0.1223002867
 40
0.1723353175
 40
0.295749375
 40
0.4463404469
 40
0.618364146
 40
0.8052934416
 40
1.0
 40
1.0
 40
1.0
 40
1.0
 10
42.4849471457
 20
230.1093137265
 30
0.0
 10
42.461559795
 20
230.1093137265
 30
0.0
 10
42.4254563966
 20
230.1450925657
 30
0.0
 10
42.398852398
 20
230.2042054132
 30
0.0
 10
42.3642268821
 20
230.3109795033
 30
0.0
 10
42.3328323602
 20
230.4933240548
 30
0.0
 10
42.3044945548
 20
230.769899691
 30
0.0
 10
42.2860499636
 20
231.1204302018
 30
0.0
 10
42.2730303954
 20
231.7262623907
 30
0.0
 10
42.2864051132
 20
232.6391941801
 30
0.0
 10
42.3390586888
 20
233.8945935139
 30
0.0
 10
42.4284479786
 20
235.3272399924
 30
0.0
 10
42.5517228728
 20
236.8820285874
 30
0.0
 10
42.6525008644
 20
237.9523743699
 30
0.0
 10
42.707787759
 20
238.4980521642
 30
0.0
  0
SPLINE
  5
2CB
100
AcDbEntity
  8
_1
100
AcDbSpline
 62
7
  6
BYLAYER
 70
0
 71
3
 72
14
 73
10
 74
0
 42
0.0000001
 43
0.0000001
 44
0.0000000001
 40
0.0
 40
0.0
 40
0.0
 40
0.0
 40
0.3837693223
 40
0.7016205711
 40
0.8224468074
 40
0.9126631537
 40
0.9457142351
 40
0.9707350045
 40
1.0
 40
1.0
 40
1.0
 40
1.0
 10
43.6279843147
 20
178.5648565319
 30
0.0
 10
43.6366223573
 20
178.3298622354
 30
0.0
 10
43.6432335579
 20
177.8998378077
 30
0.0
 10
43.6268885417
 20
177.3958684287
 30
0.0
 10
43.5927873764
 20
177.0731019638
 30
0.0
 10
43.5675970091
 20
176.926071455
 30
0.0
 10
43.5408285317
 20
176.8379168388
 30
0.0
 10
43.5210785533
 20
176.7906803256
 30
0.0
 10
43.4950246211
 20
176.7588614565
 30
0.0
 10
43.4770926208
 20
176.7588614565
 30
0.0
  0
SPLINE
  5
2CC
100
AcDbEntity
  8
_1
100
AcDbSpline
 62
7
  6
BYLAYER
 70
0
 71
3
 72
11
 73
7
 74
0
 42
0.0000001
 43
0.0000001
 44
0.0000000001
 40
0.0
 40
0.0
 40
0.0
 40
0.0
 40
0.1452237628
 40
0.3599328678
 40
0.644872988
 40
1.0
 40
1.0
 40
1.0
 40
1.0
 10
43.5002243049
 20
147.9593137265
 30
0.0
 10
43.5529902464
 20
148.0498510076
 30
0.0
 10
43.6539884136
 20
148.2905916869
 30
0.0
 10
43.800668716
 20
148.7319005138
 30
0.0
 10
43.9669596566
 20
149.3262337655
 30
0.0
 10
44.0787508035
 20
149.7743403552
 30
0.0
 10
44.138533072
 20
150.0235240959
 30
0.0
  0
SPLINE
  5
2CD
100
AcDbEntity
  8
_1
100
AcDbSpline
 62
7
  6
BYLAYER
 70
0
 71
3
 72
13
 73
9
 74
0
 42
0.0000001
 43
0.0000001
 44
0.0000000001
 40
0.0
 40
0.0
 40
0.0
 40
0.0
 40
0.0509594159
 40
0.1288329749
 40
0.231697759
 40
0.356768544
 40
0.6585264128
 40
1.0
 40
1.0
 40
1.0
 40
1.0
 10
44.138533072
 20
150.0235240959
 30
0.0
 10
44.146204964
 20
150.0555019851
 30
0.0
 10
44.1542041376
 20
150.138716671
 30
0.0
 10
44.1585654771
 20
150.2880297393
 30
0.0
 10
44.1551715256
 20
150.4854770729
 30
0.0
 10
44.1400143051
 20
150.8269487105
 30
0.0
 10
44.1023478297
 20
151.3214553208
 30
0.0
 10
44.0598624121
 20
151.7343999352
 30
0.0
 10
44.0346647471
 20
151.9533154632
 30
0.0
  0
SPLINE
  5
2CE
100
AcDbEntity
  8
_1
100
AcDbSpline
 62
7
  6
BYLAYER
 70
0
 71
3
 72
20
 73
16
 74
0
 42
0.0000001
 43
0.0000001
 44
0.0000000001
 40
0.0
 40
0.0
 40
0.0
 40
0.0
 40
0.1937337315
 40
0.3796543553
 40
0.5507014611
 40
0.7003930906
 40
0.7654483619
 40
0.8231754017
 40
0.8730630974
 40
0.914735563
 40
0.9479279633
 40
0.972619356
 40
0.9818949268
 40
0.9893066764
 40
1.0
 40
1.0
 40
1.0
 40
1.0
 10
42.4883812481
 20
168.3701230188
 30
0.0
 10
42.4482640537
 20
168.9169976532
 30
0.0
 10
42.3801272207
 20
169.9894916904
 30
0.0
 10
42.3130829984
 20
171.5468776152
 30
0.0
 10
42.2845312249
 20
172.9807709909
 30
0.0
 10
42.2933406031
 20
174.0729295222
 30
0.0
 10
42.3232523045
 20
174.8436156654
 30
0.0
 10
42.3542372892
 20
175.3314290465
 30
0.0
 10
42.3945149478
 20
175.7521174766
 30
0.0
 10
42.4431391121
 20
176.1020662281
 30
0.0
 10
42.5001124039
 20
176.3781823625
 30
0.0
 10
42.5563253289
 20
176.5605153235
 30
0.0
 10
42.6099083962
 20
176.6654716371
 30
0.0
 10
42.6543343668
 20
176.728154471
 30
0.0
 10
42.7035770159
 20
176.7588614565
 30
0.0
 10
42.7338434073
 20
176.7588614565
 30
0.0
  0
SPLINE
  5
2CF
100
AcDbEntity
  8
_1
100
AcDbSpline
 62
7
  6
BYLAYER
 70
0
 71
3
 72
13
 73
9
 74
0
 42
0.0000001
 43
0.0000001
 44
0.0000000001
 40
0.0
 40
0.0
 40
0.0
 40
0.0
 40
0.1416768002
 40
0.2762835185
 40
0.4049988126
 40
0.5291156678
 40
0.7676323594
 40
1.0
 40
1.0
 40
1.0
 40
1.0
 10
96.7780089212
 20
287.8593137265
 30
0.0
 10
96.0609383026
 20
287.5027316876
 30
0.0
 10
94.7219906365
 20
286.6803530692
 30
0.0
 10
92.9916628263
 20
285.1675605111
 30
0.0
 10
91.5769211842
 20
283.4850624437
 30
0.0
 10
90.1027826225
 20
281.1223208878
 30
0.0
 10
88.8989908077
 20
277.9414860198
 30
0.0
 10
88.5831160186
 20
275.269811413
 30
0.0
 10
88.5831160186
 20
273.9563376001
 30
0.0
  0
SPLINE
  5
2D0
100
AcDbEntity
  8
_1
100
AcDbSpline
 62
7
  6
BYLAYER
 70
0
 71
3
 72
13
 73
9
 74
0
 42
0.0000001
 43
0.0000001
 44
0.0000000001
 40
0.0
 40
0.0
 40
0.0
 40
0.0
 40
0.1416870339
 40
0.2762952698
 40
0.4050149611
 40
0.529126905
 40
0.767633341
 40
1.0
 40
1.0
 40
1.0
 40
1.0
 10
108.3882231159
 20
287.8593137265
 30
0.0
 10
109.1053399867
 20
287.5027086875
 30
0.0
 10
110.4441421878
 20
286.6799909815
 30
0.0
 10
112.1746124472
 20
285.1672767105
 30
0.0
 10
113.5892478558
 20
283.4846936131
 30
0.0
 10
115.0634645308
 20
281.1221115787
 30
0.0
 10
116.2672594986
 20
277.9413854354
 30
0.0
 10
116.5831160186
 20
275.2697957104
 30
0.0
 10
116.5831160186
 20
273.9563376001
 30
0.0
  0
ELLIPSE
  5
2D1
100
AcDbEntity
  8
_1
100
AcDbEllipse
 62
7
  6
BYLAYER
 10
102.5831160186
 20
238.8814722066
 30
0.0
 11
13.2075188366
 21
37.7505922521
 31
0.0
 40
0.1230028499
 41
-0.3380770455
 42
0.0096906508
  0
ELLIPSE
  5
2D2
100
AcDbEntity
  8
_1
100
AcDbEllipse
 62
7
  6
BYLAYER
 10
102.5831160186
 20
271.8566096755
 30
0.0
 11
0.0
 21
14.0534777256
 31
0.0
 40
0.9961946981
 41
-1.2230286305
 42
1.2230286305
  0
ELLIPSE
  5
2D3
100
AcDbEntity
  8
_1
100
AcDbEllipse
 62
7
  6
BYLAYER
 10
102.5831160186
 20
238.8814722066
 30
0.0
 11
-13.2075188366
 21
37.7505922521
 31
0.0
 40
0.1230028499
 41
-0.0096906508
 42
0.3380770455
  0
ELLIPSE
  5
2D4
100
AcDbEntity
  8
_1
100
AcDbEllipse
 62
7
  6
BYLAYER
 10
115.9196213982
 20
261.6593137265
 30
0.0
 11
0.0
 21
5.0
 31
0.0
 40
0.0349207695
 41
-4.7123889804
 42
-3.1415926536
  0
ELLIPSE
  5
2D5
100
AcDbEntity
  8
_1
100
AcDbEllipse
 62
7
  6
BYLAYER
 10
89.2466106389
 20
261.6593137265
 30
0.0
 11
0.0
 21
5.0
 31
0.0
 40
0.0349207695
 41
-3.1415926536
 42
-1.5707963268
  0
ELLIPSE
  5
2D6
100
AcDbEntity
  8
_1
100
AcDbEllipse
 62
7
  6
BYLAYER
 10
-328.1244299422
 20
238.8814722066
 30
0.0
 11
400.905684634
 21
35.1175265754
 31
0.0
 40
0.0347875628
 41
-0.0030472239
 42
0.3297736229
  0
ENDSEC
  0
SECTION
  2
OBJECTS
  0
DICTIONARY
  5
C
100
AcDbDictionary
280
0
281
1
  3
ACAD_GROUP
350
D
  3
ACAD_MLINESTYLE
350
17
  3
ACAD_LAYOUT
350
1A
  3
ACAD_PLOTSETTINGS
350
19
  3
ACAD_PLOTSTYLENAME
350
E
  0
DICTIONARY
  5
D
102
{ACAD_REACTORS
330
C
102
}
100
AcDbDictionary
280
0
281
1
  0
ACDBDICTIONARYWDFLT
  5
E
102
{ACAD_REACTORS
330
C
102
}
100
AcDbDictionary
281
1
  3
Normal
350
F
100
AcDbDictionaryWithDefault
340
F
  0
DICTIONARY
  5
17
102
{ACAD_REACTORS
330
C
102
}
100
AcDbDictionary
280
0
281
1
  3
Standard
350
18
  0
DICTIONARY
  5
19
102
{ACAD_REACTORS
330
C
102
}
100
AcDbDictionary
281
1
  0
DICTIONARY
  5
1A
102
{ACAD_REACTORS
330
C
102
}
100
AcDbDictionary
281
1
  3
Model
350
2D7
  3
Layout1
350
2D8
  0
ACDBPLACEHOLDER
  5
F
102
{ACAD_REACTORS
330
E
102
}
  0
MLINESTYLE
  5
18
102
{ACAD_REACTORS
330
17
102
}
100
AcDbMlineStyle
  2
STANDARD
 70
0
  3

 62
256
 51
90.0
 52
90.0
 71
2
 49
0.5
 62
256
  6
BYLAYER
 49
-0.5
 62
256
  6
BYLAYER
  0
LAYOUT
  5
2D7
102
{ACAD_REACTORS
330
1A
102
}
100
AcDbPlotSettings
  1

  2
none_device
  4

  6

 40
0.0
 41
0.0
 42
0.0
 43
0.0
 44
210.0
 45
297.0
 46
0.0
 47
0.0
 48
0.0
 49
0.0
140
0.0
141
0.0
142
1.0
143
1.0
 70
1024
 72
1
 73
0
 74
0
  7

 75
0
147
1.0
148
0.0
149
0.0
100
AcDbLayout
  1
Model
 70
0
 71
0
 10
0.0
 20
0.0
 11
210.0
 21
297.0
 12
0.0
 22
0.0
 32
0.0
 14
0.0
 24
0.0
 34
0.0
 15
0.0
 25
0.0
 35
0.0
146
0.0
 13
0.0
 23
0.0
 33
0.0
 16
1.0
 26
0.0
 36
0.0
 17
0.0
 27
1.0
 37
0.0
 76
0
330
211
345
0
346
0
  0
LAYOUT
  5
2D8
102
{ACAD_REACTORS
330
1A
102
}
100
AcDbPlotSettings
  1

  2
none_device
  4

  6

 40
0.0
 41
0.0
 42
0.0
 43
0.0
 44
210.0
 45
297.0
 46
0.0
 47
0.0
 48
0.0
 49
0.0
140
0.0
141
0.0
142
1.0
143
1.0
 70
0
 72
1
 73
0
 74
0
  7

 75
0
147
1.0
148
0.0
149
0.0
100
AcDbLayout
  1
Layout1
 70
0
 71
1
 10
0.0
 20
0.0
 11
210.0
 21
297.0
 12
0.0
 22
0.0
 32
0.0
 14
0.0
 24
0.0
 34
0.0
 15
0.0
 25
0.0
 35
0.0
146
0.0
 13
0.0
 23
0.0
 33
0.0
 16
1.0
 26
0.0
 36
0.0
 17
0.0
 27
1.0
 37
0.0
 76
0
330
212
345
0
346
0
  0
ENDSEC
  0
EOF
