999
DXF file: C:\Users\sesa63760\Dev\_Creo\CAD\MCADPD0005274_3D-CAD\drw0001_4.dxf
999
Pro/ENGINEER 2019471 by Parametric Technology Corporation
  0
SECTION
  2
HEADER
  9
$ACADVER
  1
AC1024
  9
$DWGCODEPAGE
  3
ANSI_1252
  9
$EXTMAX
 10
98.2549218807
 20
138.9605323741
 30
0.0
  9
$EXTMIN
 10
0.0
 20
0.0
 30
0.0
  9
$LIMMIN
 10
0.0
 20
0.0
  9
$LIMMAX
 10
98.2549218807
 20
138.9605323741
  9
$VIEWCTR
 10
49.1274609403
 20
69.4802661871
  9
$VIEWSIZE
 40
138.9605323741
  9
$CLAYER
  8
0
  9
$LTSCALE
 40
9.0581680362
  9
$CELTYPE
  6
BYLAYER
  9
$DIMSCALE
 40
1.0
  9
$DIMASZ
 40
1.169701451
  9
$DIMEXO
 40
1.0
  9
$DIMDLI
 40
6.2583706432
  9
$DIMEXE
 40
1.0
  9
$DIMCEN
 40
1.4822456787
  9
$DIMLFAC
 40
1.0
  9
$DIMBLK
  1
_FILLED
  9
$DIMALT
 70
0
  9
$DIMALTF
 40
0.0393700787
  9
$DIMTXT
 40
1.6375820313
  9
$DIMTOL
 70
1
  9
$DIMLIM
 70
0
  9
$DIMTFAC
 40
1.0
  9
$DIMTP
 40
0.01
  9
$DIMTM
 40
0.01
  9
$DIMGAP
 40
0.625
  9
$DIMDSEP
 70
46
  9
$AUNITS
 70
0
  9
$PDMODE
 70
3
  9
$PDSIZE
 40
0.3125
  9
$HANDSEED
  5
482
  9
$TILEMODE
 70
1
  9
$MEASUREMENT
 70
1
  9
$INSUNITS
 70
4
  0
ENDSEC
  0
SECTION
  2
CLASSES
  0
CLASS
  1
ACDBDICTIONARYWDFLT
  2
AcDbDictionaryWithDefault
  3
AutoCAD 2000
 90
0
 91
1
280
0
281
0
  0
CLASS
  1
ACDBPLACEHOLDER
  2
AcDbPlaceHolder
  3
AutoCAD 2000
 90
0
 91
1
280
0
281
0
  0
CLASS
  1
LAYOUT
  2
AcDbLayout
  3
AutoCAD 2000
 90
0
 91
0
280
0
281
0
  0
ENDSEC
  0
SECTION
  2
TABLES
  0
TABLE
  2
VPORT
  5
8
100
AcDbSymbolTable
 70
2
  0
VPORT
  5
1F4
100
AcDbSymbolTableRecord
100
AcDbViewportTableRecord
  2
*ACTIVE
 70
0
 10
0.0
 20
0.0
 11
1.0
 21
1.0
 12
49.1274609403
 22
69.4802661871
 13
0.0
 23
0.0
 14
1.0
 24
1.0
 15
0.0
 25
0.0
 16
0.0
 26
0.0
 36
1.0
 17
0.0
 27
0.0
 37
0.0
 40
138.9605323741
 41
0.7070707071
 42
50.0
 43
0.0
 44
0.0
 50
0.0
 51
0.0
 71
0
 72
100
 73
1
 74
1
 75
0
 76
0
 77
0
 78
0
  0
ENDTAB
  0
TABLE
  2
LTYPE
  5
5
100
AcDbSymbolTable
 70
6
  0
LTYPE
  5
14
100
AcDbSymbolTableRecord
100
AcDbLinetypeTableRecord
  2
BYBLOCK
 70
0
  3

 72
65
 73
0
 40
0.0
  0
LTYPE
  5
15
100
AcDbSymbolTableRecord
100
AcDbLinetypeTableRecord
  2
BYLAYER
 70
0
  3

 72
65
 73
0
 40
0.0
  0
LTYPE
  5
16
100
AcDbSymbolTableRecord
100
AcDbLinetypeTableRecord
  2
CONTINUOUS
 70
64
  3
Solid line
 72
65
 73
0
 40
0.0
  0
LTYPE
  5
1F5
100
AcDbSymbolTableRecord
100
AcDbLinetypeTableRecord
  2
CENTER
 70
64
  3
____ _ ____ _ ____ _ ____ _ ____ _ ____ _ ____
 72
65
 73
4
 40
0.6
 49
0.375
 74
0
 49
-0.075
 74
0
 49
0.075
 74
0
 49
-0.075
 74
0
  0
LTYPE
  5
1F6
100
AcDbSymbolTableRecord
100
AcDbLinetypeTableRecord
  2
HIDDEN
 70
64
  3
- - - - - - - - - - - - - - - - - - - -
 72
65
 73
2
 40
0.2
 49
0.1
 74
0
 49
-0.1
 74
0
  0
LTYPE
  5
1F7
100
AcDbSymbolTableRecord
100
AcDbLinetypeTableRecord
  2
PHANTOM
 70
64
  3
_____ _ _ _____ _ _ _____ _ _ _____
 72
65
 73
6
 40
0.8
 49
0.45
 74
0
 49
-0.05
 74
0
 49
0.1
 74
0
 49
-0.05
 74
0
 49
0.1
 74
0
 49
-0.05
 74
0
  0
LTYPE
  5
1F8
100
AcDbSymbolTableRecord
100
AcDbLinetypeTableRecord
  2
DOT
 70
64
  3
. . . . . . . . . . . . . . . . . . . .
 72
65
 73
2
 40
0.2
 49
0.1
 74
0
 49
-0.1
 74
0
  0
LTYPE
  5
1F9
100
AcDbSymbolTableRecord
100
AcDbLinetypeTableRecord
  2
DASHED
 70
64
  3
- - - - - - - - - - - - - - - - - - - -
 72
65
 73
2
 40
0.2
 49
0.1
 74
0
 49
-0.1
 74
0
  0
ENDTAB
  0
TABLE
  2
LAYER
  5
2
100
AcDbSymbolTable
 70
36
  0
LAYER
  5
10
100
AcDbSymbolTableRecord
100
AcDbLayerTableRecord
  2
0
 70
0
 62
7
  6
CONTINUOUS
370
-3
390
F
  0
LAYER
  5
1FA
100
AcDbSymbolTableRecord
100
AcDbLayerTableRecord
  2
DEFAULT_1
 70
0
 62
7
  6
CENTER
370
-3
390
F
  0
LAYER
  5
1FB
100
AcDbSymbolTableRecord
100
AcDbLayerTableRecord
  2
DEFAULT_2
 70
0
 62
7
  6
HIDDEN
370
-3
390
F
  0
LAYER
  5
1FC
100
AcDbSymbolTableRecord
100
AcDbLayerTableRecord
  2
DEFAULT_3
 70
0
 62
7
  6
PHANTOM
370
-3
390
F
  0
LAYER
  5
1FD
100
AcDbSymbolTableRecord
100
AcDbLayerTableRecord
  2
00_COMPONENTS
 70
0
 62
7
  6
CONTINUOUS
370
-3
390
F
  0
LAYER
  5
1FE
100
AcDbSymbolTableRecord
100
AcDbLayerTableRecord
  2
01_1_DEFAULT_DATUMS
 70
0
 62
7
  6
CONTINUOUS
370
-3
390
F
  0
LAYER
  5
1FF
100
AcDbSymbolTableRecord
100
AcDbLayerTableRecord
  2
01_PLANES
 70
0
 62
7
  6
CONTINUOUS
370
-3
390
F
  0
LAYER
  5
200
100
AcDbSymbolTableRecord
100
AcDbLayerTableRecord
  2
02_COORD_SYS
 70
0
 62
7
  6
CONTINUOUS
370
-3
390
F
  0
LAYER
  5
201
100
AcDbSymbolTableRecord
100
AcDbLayerTableRecord
  2
03_AXES
 70
0
 62
7
  6
CONTINUOUS
370
-3
390
F
  0
LAYER
  5
202
100
AcDbSymbolTableRecord
100
AcDbLayerTableRecord
  2
04_POINTS
 70
0
 62
7
  6
CONTINUOUS
370
-3
390
F
  0
LAYER
  5
203
100
AcDbSymbolTableRecord
100
AcDbLayerTableRecord
  2
05_CURVES
 70
0
 62
7
  6
CONTINUOUS
370
-3
390
F
  0
LAYER
  5
204
100
AcDbSymbolTableRecord
100
AcDbLayerTableRecord
  2
06_SURFS
 70
0
 62
7
  6
CONTINUOUS
370
-3
390
F
  0
LAYER
  5
205
100
AcDbSymbolTableRecord
100
AcDbLayerTableRecord
  2
07_COSMETICS
 70
0
 62
7
  6
CONTINUOUS
370
-3
390
F
  0
LAYER
  5
206
100
AcDbSymbolTableRecord
100
AcDbLayerTableRecord
  2
10_NOTES
 70
0
 62
7
  6
CONTINUOUS
370
-3
390
F
  0
LAYER
  5
207
100
AcDbSymbolTableRecord
100
AcDbLayerTableRecord
  2
11_NOTES_PUB
 70
0
 62
7
  6
CONTINUOUS
370
-3
390
F
  0
LAYER
  5
208
100
AcDbSymbolTableRecord
100
AcDbLayerTableRecord
  2
13_REF_GTOL
 70
0
 62
7
  6
CONTINUOUS
370
-3
390
F
  0
LAYER
  5
209
100
AcDbSymbolTableRecord
100
AcDbLayerTableRecord
  2
16_MISC
 70
0
 62
7
  6
CONTINUOUS
370
-3
390
F
  0
LAYER
  5
20A
100
AcDbSymbolTableRecord
100
AcDbLayerTableRecord
  2
17_NO_PRINT
 70
0
 62
7
  6
CONTINUOUS
370
-3
390
F
  0
LAYER
  5
20B
100
AcDbSymbolTableRecord
100
AcDbLayerTableRecord
  2
18_DATUM_CAMS_JOINTS
 70
0
 62
7
  6
CONTINUOUS
370
-3
390
F
  0
LAYER
  5
20C
100
AcDbSymbolTableRecord
100
AcDbLayerTableRecord
  2
19_DATUM_FUNCTIONAL
 70
0
 62
7
  6
CONTINUOUS
370
-3
390
F
  0
LAYER
  5
20D
100
AcDbSymbolTableRecord
100
AcDbLayerTableRecord
  2
20_DATUM_KINEMATIC_SCHEME
 70
0
 62
7
  6
CONTINUOUS
370
-3
390
F
  0
ENDTAB
  0
TABLE
  2
STYLE
  5
3
100
AcDbSymbolTable
 70
1
  0
STYLE
  5
11
100
AcDbSymbolTableRecord
100
AcDbTextStyleTableRecord
  2
STANDARD
 70
0
 40
0.0
 41
1.0
 50
0.0
 71
0
 42
0.2
  3
ARIAL.TTF
  4

  0
STYLE
  5
20E
100
AcDbSymbolTableRecord
100
AcDbTextStyleTableRecord
  2
TEXTSTYLE_1
 70
0
 40
0.0
 41
0.8
 50
0.0
 71
0
 42
0.2
  3
gdt
  4

  0
ENDTAB
  0
TABLE
  2
VIEW
  5
6
100
AcDbSymbolTable
 70
0
  0
ENDTAB
  0
TABLE
  2
UCS
  5
7
100
AcDbSymbolTable
 70
0
  0
ENDTAB
  0
TABLE
  2
APPID
  5
9
100
AcDbSymbolTable
 70
1
  0
APPID
  5
20F
100
AcDbSymbolTableRecord
100
AcDbRegAppTableRecord
  2
ACAD
 70
0
  0
ENDTAB
  0
TABLE
  2
BLOCK_RECORD
  5
1
100
AcDbSymbolTable
 70
0
  0
BLOCK_RECORD
  5
210
100
AcDbSymbolTableRecord
100
AcDbBlockTableRecord
  2
*Model_Space
  0
BLOCK_RECORD
  5
211
100
AcDbSymbolTableRecord
100
AcDbBlockTableRecord
  2
*Paper_Space
  0
BLOCK_RECORD
  5
212
100
AcDbSymbolTableRecord
100
AcDbBlockTableRecord
  2
_FILLED
  0
ENDTAB
  0
TABLE
  2
DIMSTYLE
  5
A
100
AcDbSymbolTable
 70
1
100
AcDbDimStyleTable
 71
0
  0
DIMSTYLE
105
213
100
AcDbSymbolTableRecord
100
AcDbDimStyleTableRecord
  2
STANDARD
 70
0
  3

  4

 40
1.0
 41
1.169701451
 42
1.0
 43
0.38
 44
1.0
 45
0.0
 46
0.0
 47
0.01
 48
0.01
140
1.6375820313
141
0.09
142
0.0
143
25.4
144
1.0
145
0.0
146
1.0
147
0.625
 71
1
 72
0
 73
0
 74
0
 75
0
 76
0
 77
1
 78
8
 79
2
170
0
171
1
172
0
173
0
174
0
175
0
176
0
177
0
178
0
270
2
179
2
271
2
272
2
273
2
274
2
275
0
280
0
281
0
282
0
283
1
284
8
285
0
286
0
287
3
288
0
340
11
278
46
341
212
342
212
343
212
344
212
  0
ENDTAB
  0
ENDSEC
  0
SECTION
  2
BLOCKS
  0
BLOCK
  5
20
100
AcDbEntity
  8
0
100
AcDbBlockBegin
  2
*Model_Space
 70
0
 10
0.0
 20
0.0
 30
0.0
  3
*Model_Space
  1

  0
ENDBLK
  5
21
100
AcDbEntity
  8
0
100
AcDbBlockEnd
  0
BLOCK
  5
1C
100
AcDbEntity
  8
0
100
AcDbBlockBegin
  2
*Paper_Space
 70
0
 10
0.0
 20
0.0
 30
0.0
  3
*Paper_Space
  1

  0
ENDBLK
  5
1D
100
AcDbEntity
  8
0
100
AcDbBlockEnd
  0
BLOCK
  5
214
100
AcDbEntity
  8
0
100
AcDbBlockBegin
  2
_FILLED
 70
64
 10
0.0
 20
0.0
  3
_FILLED
  1

  0
SOLID
  5
215
100
AcDbEntity
  8
0
  6
BYBLOCK
 62
0
100
AcDbTrace
 10
0.0
 20
0.0
 11
-1.0
 21
0.25
 12
-1.0
 22
-0.25
 13
-1.0
 23
-0.25
  0
ENDBLK
  5
216
100
AcDbEntity
  8
0
  6
BYBLOCK
 62
0
100
AcDbBlockEnd
  0
ENDSEC
  0
SECTION
  2
ENTITIES
  0
LINE
  5
217
100
AcDbEntity
  8
0
100
AcDbLine
 62
7
  6
BYLAYER
 10
25.3531084224
 20
9.9500503597
 11
75.3531084224
 21
9.9500503597
  0
LINE
  5
218
100
AcDbEntity
  8
0
100
AcDbLine
 62
7
  6
BYLAYER
 10
27.9364417358
 20
27.255369508
 11
28.2697751089
 21
27.08515674
  0
LINE
  5
219
100
AcDbEntity
  8
0
100
AcDbLine
 62
7
  6
BYLAYER
 10
28.3531084224
 20
27.5957950291
 11
28.1031084224
 21
27.7660078344
  0
LINE
  5
21A
100
AcDbEntity
  8
0
100
AcDbLine
 62
7
  6
BYLAYER
 10
75.4531084224
 20
25.4000503597
 11
75.3531084224
 21
25.4000503597
  0
LINE
  5
21B
100
AcDbEntity
  8
0
100
AcDbLine
 62
7
  6
BYLAYER
 10
38.3531084224
 20
25.6383482752
 11
37.9364414378
 21
25.6383482752
  0
LINE
  5
21C
100
AcDbEntity
  8
0
100
AcDbLine
 62
7
  6
BYLAYER
 10
75.3531084224
 20
26.4000503597
 11
75.4531084224
 21
26.4000503597
  0
LINE
  5
21D
100
AcDbEntity
  8
0
100
AcDbLine
 62
7
  6
BYLAYER
 10
43.2697754069
 20
27.08515674
 11
43.7697744532
 21
27.0000503597
  0
LINE
  5
21E
100
AcDbEntity
  8
0
100
AcDbLine
 62
7
  6
BYLAYER
 10
28.2697751089
 20
27.08515674
 11
28.6864417954
 21
27.0000503597
  0
LINE
  5
21F
100
AcDbEntity
  8
0
100
AcDbLine
 62
7
  6
BYLAYER
 10
28.6864417954
 20
27.5106886563
 11
28.3531084224
 21
27.5957950291
  0
LINE
  5
220
100
AcDbEntity
  8
0
100
AcDbLine
 62
7
  6
BYLAYER
 10
31.9364419147
 20
27.08515674
 11
32.2697749301
 21
27.0000503597
  0
LINE
  5
221
100
AcDbEntity
  8
0
100
AcDbLine
 62
7
  6
BYLAYER
 10
32.4364419146
 20
27.3404758809
 11
32.1031084223
 21
27.4255822835
  0
LINE
  5
222
100
AcDbEntity
  8
0
100
AcDbLine
 62
7
  6
BYLAYER
 10
35.2697749301
 20
27.08515674
 11
35.6031084223
 21
27.0000503597
  0
LINE
  5
223
100
AcDbEntity
  8
0
100
AcDbLine
 62
7
  6
BYLAYER
 10
38.7697754069
 20
27.08515674
 11
39.1031084223
 21
27.0000503597
  0
LINE
  5
224
100
AcDbEntity
  8
0
100
AcDbLine
 62
7
  6
BYLAYER
 10
39.1031084224
 20
27.4255822835
 11
38.7697754069
 21
27.5106886563
  0
LINE
  5
225
100
AcDbEntity
  8
0
100
AcDbLine
 62
7
  6
BYLAYER
 10
32.7697749301
 20
29.3830290375
 11
33.1031084224
 21
29.2979226646
  0
LINE
  5
226
100
AcDbEntity
  8
0
100
AcDbLine
 62
7
  6
BYLAYER
 10
29.4364416762
 20
30.4894121227
 11
29.7697751685
 21
30.4043057499
  0
LINE
  5
227
100
AcDbEntity
  8
0
100
AcDbLine
 62
7
  6
BYLAYER
 10
33.2697749301
 20
29.638348156
 11
32.9364419146
 21
29.7234545288
  0
LINE
  5
228
100
AcDbEntity
  8
0
100
AcDbLine
 62
7
  6
BYLAYER
 10
31.7697749301
 20
27.1702631203
 11
31.9364419147
 21
27.08515674
  0
LINE
  5
229
100
AcDbEntity
  8
0
100
AcDbLine
 62
7
  6
BYLAYER
 10
35.6031084224
 20
27.3404758809
 11
35.2697749301
 21
27.5106886563
  0
LINE
  5
22A
100
AcDbEntity
  8
0
100
AcDbLine
 62
7
  6
BYLAYER
 10
30.1864416762
 20
30.7447312412
 11
29.8531084223
 21
30.9149439869
  0
LINE
  5
22B
100
AcDbEntity
  8
0
100
AcDbLine
 62
7
  6
BYLAYER
 10
33.4364419146
 20
29.5532417831
 11
33.2697749301
 21
29.638348156
  0
LINE
  5
22C
100
AcDbEntity
  8
0
100
AcDbLine
 62
7
  6
BYLAYER
 10
38.6031084224
 20
27.1702631203
 11
38.7697754069
 21
27.08515674
  0
LINE
  5
22D
100
AcDbEntity
  8
0
100
AcDbLine
 62
7
  6
BYLAYER
 10
29.7697751685
 20
30.4043057499
 11
30.0197751685
 21
30.2340930042
  0
LINE
  5
22E
100
AcDbEntity
  8
0
100
AcDbLine
 62
7
  6
BYLAYER
 10
35.0197749301
 20
27.255369508
 11
35.2697749301
 21
27.08515674
  0
LINE
  5
22F
100
AcDbEntity
  8
0
100
AcDbLine
 62
7
  6
BYLAYER
 10
27.6031084224
 20
27.5957950291
 11
27.9364417358
 21
27.255369508
  0
LINE
  5
230
100
AcDbEntity
  8
0
100
AcDbLine
 62
7
  6
BYLAYER
 10
31.6031084223
 20
27.3404758809
 11
31.7697749301
 21
27.1702631203
  0
LINE
  5
231
100
AcDbEntity
  8
0
100
AcDbLine
 62
7
  6
BYLAYER
 10
39.6031084224
 20
27.0000503597
 11
39.9364414378
 21
27.08515674
  0
LINE
  5
232
100
AcDbEntity
  8
0
100
AcDbLine
 62
7
  6
BYLAYER
 10
46.6864423914
 20
29.2128162918
 11
47.1864423915
 21
29.2979226646
  0
LINE
  5
233
100
AcDbEntity
  8
0
100
AcDbLine
 62
7
  6
BYLAYER
 10
43.7697744532
 20
27.0000503597
 11
44.3531084224
 21
27.08515674
  0
LINE
  5
234
100
AcDbEntity
  8
0
100
AcDbLine
 62
7
  6
BYLAYER
 10
44.2697744532
 20
27.4255822835
 11
43.6864423915
 21
27.3404758808
  0
LINE
  5
235
100
AcDbEntity
  8
0
100
AcDbLine
 62
7
  6
BYLAYER
 10
46.1031084224
 20
27.0000503597
 11
45.6864423915
 21
27.0000503597
  0
LINE
  5
236
100
AcDbEntity
  8
0
100
AcDbLine
 62
7
  6
BYLAYER
 10
41.6864414378
 20
27.0000503597
 11
41.2697754069
 21
27.0000503597
  0
LINE
  5
237
100
AcDbEntity
  8
0
100
AcDbLine
 62
7
  6
BYLAYER
 10
39.6031084224
 20
27.0000503597
 11
39.1031084224
 21
27.0000503597
  0
LINE
  5
238
100
AcDbEntity
  8
0
100
AcDbLine
 62
7
  6
BYLAYER
 10
37.2697754069
 20
27.0000503597
 11
36.8531084224
 21
27.0000503597
  0
LINE
  5
239
100
AcDbEntity
  8
0
100
AcDbLine
 62
7
  6
BYLAYER
 10
35.9364414378
 20
27.0000503597
 11
35.6031084224
 21
27.0000503597
  0
LINE
  5
23A
100
AcDbEntity
  8
0
100
AcDbLine
 62
7
  6
BYLAYER
 10
32.9364419146
 20
27.0000503597
 11
32.2697749301
 21
27.0000503597
  0
LINE
  5
23B
100
AcDbEntity
  8
0
100
AcDbLine
 62
7
  6
BYLAYER
 10
29.4364416762
 20
27.0000503597
 11
28.6864417954
 21
27.0000503597
  0
LINE
  5
23C
100
AcDbEntity
  8
0
100
AcDbLine
 62
7
  6
BYLAYER
 10
32.4364419146
 20
27.3404758809
 11
32.7697749301
 21
27.3404758809
  0
LINE
  5
23D
100
AcDbEntity
  8
0
100
AcDbLine
 62
7
  6
BYLAYER
 10
35.6031084224
 20
27.3404758809
 11
35.9364414378
 21
27.3404758809
  0
LINE
  5
23E
100
AcDbEntity
  8
0
100
AcDbLine
 62
7
  6
BYLAYER
 10
39.1031084224
 20
27.4255822835
 11
39.4364414378
 21
27.4255822835
  0
LINE
  5
23F
100
AcDbEntity
  8
0
100
AcDbLine
 62
7
  6
BYLAYER
 10
28.6864417954
 20
27.5106886563
 11
29.4364416762
 21
27.5106886563
  0
LINE
  5
240
100
AcDbEntity
  8
0
100
AcDbLine
 62
7
  6
BYLAYER
 10
44.6031084224
 20
27.8511142073
 11
45.0197744532
 21
27.8511142073
  0
LINE
  5
241
100
AcDbEntity
  8
0
100
AcDbLine
 62
7
  6
BYLAYER
 10
30.1031084224
 20
28.0213269529
 11
30.6031084224
 21
28.0213269529
  0
LINE
  5
242
100
AcDbEntity
  8
0
100
AcDbLine
 62
7
  6
BYLAYER
 10
45.0197744532
 20
28.3617524443
 11
42.7697754069
 21
28.3617524443
  0
LINE
  5
243
100
AcDbEntity
  8
0
100
AcDbLine
 62
7
  6
BYLAYER
 10
42.8531084224
 20
28.7021780548
 11
44.6031084224
 21
28.7021780548
  0
LINE
  5
244
100
AcDbEntity
  8
0
100
AcDbLine
 62
7
  6
BYLAYER
 10
39.6031084224
 20
29.2979226646
 11
39.1031084224
 21
29.2979226646
  0
LINE
  5
245
100
AcDbEntity
  8
0
100
AcDbLine
 62
7
  6
BYLAYER
 10
32.7697749301
 20
29.3830290375
 11
32.4364419146
 21
29.3830290375
  0
LINE
  5
246
100
AcDbEntity
  8
0
100
AcDbLine
 62
7
  6
BYLAYER
 10
32.2697749301
 20
29.7234545288
 11
32.9364419146
 21
29.7234545288
  0
LINE
  5
247
100
AcDbEntity
  8
0
100
AcDbLine
 62
7
  6
BYLAYER
 10
34.6031084224
 20
29.7234545288
 11
35.0197749301
 21
29.7234545288
  0
LINE
  5
248
100
AcDbEntity
  8
0
100
AcDbLine
 62
7
  6
BYLAYER
 10
36.6864414378
 20
29.7234545288
 11
37.1031084224
 21
29.7234545288
  0
LINE
  5
249
100
AcDbEntity
  8
0
100
AcDbLine
 62
7
  6
BYLAYER
 10
37.9364414378
 20
29.7234545288
 11
38.3531084224
 21
29.7234545288
  0
LINE
  5
24A
100
AcDbEntity
  8
0
100
AcDbLine
 62
7
  6
BYLAYER
 10
39.1031084224
 20
29.7234545288
 11
39.6031084224
 21
29.7234545288
  0
LINE
  5
24B
100
AcDbEntity
  8
0
100
AcDbLine
 62
7
  6
BYLAYER
 10
45.6864423915
 20
29.7234545288
 11
46.1031084224
 21
29.7234545288
  0
LINE
  5
24C
100
AcDbEntity
  8
0
100
AcDbLine
 62
7
  6
BYLAYER
 10
30.6031084224
 20
29.9787736473
 11
30.1031084224
 21
29.9787736473
  0
LINE
  5
24D
100
AcDbEntity
  8
0
100
AcDbLine
 62
7
  6
BYLAYER
 10
29.4364416762
 20
30.4894121227
 11
28.6864417954
 21
30.4894121227
  0
LINE
  5
24E
100
AcDbEntity
  8
0
100
AcDbLine
 62
7
  6
BYLAYER
 10
28.6864417954
 20
31.0000503597
 11
29.4364416762
 21
31.0000503597
  0
LINE
  5
24F
100
AcDbEntity
  8
0
100
AcDbLine
 62
7
  6
BYLAYER
 10
41.2697754069
 20
31.0000503597
 11
41.6864414378
 21
31.0000503597
  0
LINE
  5
250
100
AcDbEntity
  8
0
100
AcDbLine
 62
7
  6
BYLAYER
 10
43.6864423915
 20
29.3830290375
 11
44.1864423915
 21
29.2979226646
  0
LINE
  5
251
100
AcDbEntity
  8
0
100
AcDbLine
 62
7
  6
BYLAYER
 10
44.2697744532
 20
29.638348156
 11
43.7697744532
 21
29.7234545288
  0
LINE
  5
252
100
AcDbEntity
  8
0
100
AcDbLine
 62
7
  6
BYLAYER
 10
35.1031084224
 20
32.08515674
 11
35.6031084223
 21
32.0000503597
  0
LINE
  5
253
100
AcDbEntity
  8
0
100
AcDbLine
 62
7
  6
BYLAYER
 10
35.6031084224
 20
32.3404758809
 11
35.1031084223
 21
32.4255822835
  0
LINE
  5
254
100
AcDbEntity
  8
0
100
AcDbLine
 62
7
  6
BYLAYER
 10
29.8531084223
 20
30.9149439869
 11
29.4364416762
 21
31.0000503597
  0
LINE
  5
255
100
AcDbEntity
  8
0
100
AcDbLine
 62
7
  6
BYLAYER
 10
43.6864423915
 20
27.3404758808
 11
43.3531084223
 21
27.4255822835
  0
LINE
  5
256
100
AcDbEntity
  8
0
100
AcDbLine
 62
7
  6
BYLAYER
 10
39.9364414378
 20
29.638348156
 11
39.6031084224
 21
29.7234545288
  0
LINE
  5
257
100
AcDbEntity
  8
0
100
AcDbLine
 62
7
  6
BYLAYER
 10
31.7697749301
 20
32.08515674
 11
32.1031084223
 21
32.0000503597
  0
LINE
  5
258
100
AcDbEntity
  8
0
100
AcDbLine
 62
7
  6
BYLAYER
 10
34.9364419146
 20
33.4468588171
 11
36.3531084224
 21
33.0213269529
  0
LINE
  5
259
100
AcDbEntity
  8
0
100
AcDbLine
 62
7
  6
BYLAYER
 10
36.6031084223
 20
33.2766460714
 11
35.1864419146
 21
33.7021780548
  0
LINE
  5
25A
100
AcDbEntity
  8
0
100
AcDbLine
 62
7
  6
BYLAYER
 10
43.0197754069
 20
27.1702631203
 11
43.2697754069
 21
27.08515674
  0
LINE
  5
25B
100
AcDbEntity
  8
0
100
AcDbLine
 62
7
  6
BYLAYER
 10
29.4364416762
 20
33.7872844276
 11
29.6864416762
 21
33.7021780548
  0
LINE
  5
25C
100
AcDbEntity
  8
0
100
AcDbLine
 62
7
  6
BYLAYER
 10
34.8531084224
 20
32.1702631203
 11
35.1031084224
 21
32.08515674
  0
LINE
  5
25D
100
AcDbEntity
  8
0
100
AcDbLine
 62
7
  6
BYLAYER
 10
29.4364416762
 20
35.4894121227
 11
29.6864416762
 21
35.4043057499
  0
LINE
  5
25E
100
AcDbEntity
  8
0
100
AcDbLine
 62
7
  6
BYLAYER
 10
32.1031084224
 20
32.3404758809
 11
31.7697749301
 21
32.5106886563
  0
LINE
  5
25F
100
AcDbEntity
  8
0
100
AcDbLine
 62
7
  6
BYLAYER
 10
30.1031084224
 20
33.9574971733
 11
29.9364416762
 21
34.0426035461
  0
LINE
  5
260
100
AcDbEntity
  8
0
100
AcDbLine
 62
7
  6
BYLAYER
 10
39.6031084224
 20
29.2979226646
 11
39.9364414378
 21
29.127709919
  0
LINE
  5
261
100
AcDbEntity
  8
0
100
AcDbLine
 62
7
  6
BYLAYER
 10
43.3531084223
 20
27.4255822835
 11
43.1864414378
 21
27.5106886563
  0
LINE
  5
262
100
AcDbEntity
  8
0
100
AcDbLine
 62
7
  6
BYLAYER
 10
35.1031084223
 20
32.4255822835
 11
34.9364419146
 21
32.5106886563
  0
LINE
  5
263
100
AcDbEntity
  8
0
100
AcDbLine
 62
7
  6
BYLAYER
 10
31.5197749301
 20
32.255369508
 11
31.7697749301
 21
32.08515674
  0
LINE
  5
264
100
AcDbEntity
  8
0
100
AcDbLine
 62
7
  6
BYLAYER
 10
38.7697754069
 20
27.5106886563
 11
38.5197754069
 21
27.680901402
  0
LINE
  5
265
100
AcDbEntity
  8
0
100
AcDbLine
 62
7
  6
BYLAYER
 10
34.6031084223
 20
32.3404758809
 11
34.8531084224
 21
32.1702631203
  0
LINE
  5
266
100
AcDbEntity
  8
0
100
AcDbLine
 62
7
  6
BYLAYER
 10
42.7697754069
 20
27.3404758809
 11
43.0197754069
 21
27.1702631203
  0
LINE
  5
267
100
AcDbEntity
  8
0
100
AcDbLine
 62
7
  6
BYLAYER
 10
40.1864414378
 20
29.4681354103
 11
39.9364414378
 21
29.638348156
  0
LINE
  5
268
100
AcDbEntity
  8
0
100
AcDbLine
 62
7
  6
BYLAYER
 10
30.1031084223
 20
35.6596248684
 11
29.7697751685
 21
35.9149439869
  0
LINE
  5
269
100
AcDbEntity
  8
0
100
AcDbLine
 62
7
  6
BYLAYER
 10
32.1031084223
 20
27.4255822835
 11
31.9364419146
 21
27.5957950291
  0
LINE
  5
26A
100
AcDbEntity
  8
0
100
AcDbLine
 62
7
  6
BYLAYER
 10
30.5197751685
 20
30.4043057499
 11
30.1864416762
 21
30.7447312412
  0
LINE
  5
26B
100
AcDbEntity
  8
0
100
AcDbLine
 62
7
  6
BYLAYER
 10
34.7697749301
 20
27.5106886563
 11
35.0197749301
 21
27.255369508
  0
LINE
  5
26C
100
AcDbEntity
  8
0
100
AcDbLine
 62
7
  6
BYLAYER
 10
33.1031084224
 20
29.2979226646
 11
33.2697749301
 21
29.127709919
  0
LINE
  5
26D
100
AcDbEntity
  8
0
100
AcDbLine
 62
7
  6
BYLAYER
 10
33.6031084224
 20
29.3830290375
 11
33.4364419146
 21
29.5532417831
  0
LINE
  5
26E
100
AcDbEntity
  8
0
100
AcDbLine
 62
7
  6
BYLAYER
 10
29.6864416762
 20
33.7021780548
 11
29.8531084224
 21
33.5319653091
  0
LINE
  5
26F
100
AcDbEntity
  8
0
100
AcDbLine
 62
7
  6
BYLAYER
 10
31.2697751685
 20
32.5106886563
 11
31.5197749301
 21
32.255369508
  0
LINE
  5
270
100
AcDbEntity
  8
0
100
AcDbLine
 62
7
  6
BYLAYER
 10
29.6864416762
 20
35.4043057499
 11
29.8531084224
 21
35.2340930042
  0
LINE
  5
271
100
AcDbEntity
  8
0
100
AcDbLine
 62
7
  6
BYLAYER
 10
28.1031084224
 20
27.7660078344
 11
27.9364417358
 21
28.0213269529
  0
LINE
  5
272
100
AcDbEntity
  8
0
100
AcDbLine
 62
7
  6
BYLAYER
 10
31.4364419146
 20
27.5957950292
 11
31.6031084223
 21
27.3404758809
  0
LINE
  5
273
100
AcDbEntity
  8
0
100
AcDbLine
 62
7
  6
BYLAYER
 10
31.9364419146
 20
27.5957950291
 11
31.7697749301
 21
27.8511142073
  0
LINE
  5
274
100
AcDbEntity
  8
0
100
AcDbLine
 62
7
  6
BYLAYER
 10
27.4364417582
 20
27.9362205801
 11
27.6031084224
 21
27.5957950291
  0
LINE
  5
275
100
AcDbEntity
  8
0
100
AcDbLine
 62
7
  6
BYLAYER
 10
39.7697754069
 20
27.5106886563
 11
39.4364414378
 21
27.4255822835
  0
LINE
  5
276
100
AcDbEntity
  8
0
100
AcDbLine
 62
7
  6
BYLAYER
 10
35.9364414378
 20
27.0000503597
 11
36.2697754069
 21
27.08515674
  0
LINE
  5
277
100
AcDbEntity
  8
0
100
AcDbLine
 62
7
  6
BYLAYER
 10
36.2697754069
 20
27.4255822835
 11
35.9364414378
 21
27.3404758809
  0
LINE
  5
278
100
AcDbEntity
  8
0
100
AcDbLine
 62
7
  6
BYLAYER
 10
43.3531084224
 20
29.2979226646
 11
43.6864423915
 21
29.3830290375
  0
LINE
  5
279
100
AcDbEntity
  8
0
100
AcDbLine
 62
7
  6
BYLAYER
 10
32.9364419146
 20
27.0000503597
 11
33.2697749301
 21
27.08515674
  0
LINE
  5
27A
100
AcDbEntity
  8
0
100
AcDbLine
 62
7
  6
BYLAYER
 10
33.1031084223
 20
27.4255822835
 11
32.7697749301
 21
27.3404758809
  0
LINE
  5
27B
100
AcDbEntity
  8
0
100
AcDbLine
 62
7
  6
BYLAYER
 10
38.7697754069
 20
29.2128162918
 11
39.1031084224
 21
29.2979226646
  0
LINE
  5
27C
100
AcDbEntity
  8
0
100
AcDbLine
 62
7
  6
BYLAYER
 10
39.1031084224
 20
29.7234545288
 11
38.7697754069
 21
29.638348156
  0
LINE
  5
27D
100
AcDbEntity
  8
0
100
AcDbLine
 62
7
  6
BYLAYER
 10
29.7697751685
 20
27.5957950292
 11
29.4364416762
 21
27.5106886563
  0
LINE
  5
27E
100
AcDbEntity
  8
0
100
AcDbLine
 62
7
  6
BYLAYER
 10
32.1031084224
 20
29.2979226646
 11
32.4364419146
 21
29.3830290375
  0
LINE
  5
27F
100
AcDbEntity
  8
0
100
AcDbLine
 62
7
  6
BYLAYER
 10
47.1864423915
 20
29.7234545288
 11
46.7697744532
 21
29.638348156
  0
LINE
  5
280
100
AcDbEntity
  8
0
100
AcDbLine
 62
7
  6
BYLAYER
 10
29.4364416762
 20
27.0000503597
 11
29.8531084224
 21
27.08515674
  0
LINE
  5
281
100
AcDbEntity
  8
0
100
AcDbLine
 62
7
  6
BYLAYER
 10
43.7697744532
 20
29.7234545288
 11
43.2697754069
 21
29.638348156
  0
LINE
  5
282
100
AcDbEntity
  8
0
100
AcDbLine
 62
7
  6
BYLAYER
 10
36.1031084224
 20
32.0000503597
 11
36.6031084224
 21
32.08515674
  0
LINE
  5
283
100
AcDbEntity
  8
0
100
AcDbLine
 62
7
  6
BYLAYER
 10
36.1031084224
 20
32.0000503597
 11
35.6031084224
 21
32.0000503597
  0
LINE
  5
284
100
AcDbEntity
  8
0
100
AcDbLine
 62
7
  6
BYLAYER
 10
33.7697749301
 20
32.0000503597
 11
33.3531084224
 21
32.0000503597
  0
LINE
  5
285
100
AcDbEntity
  8
0
100
AcDbLine
 62
7
  6
BYLAYER
 10
32.4364419146
 20
32.0000503597
 11
32.1031084224
 21
32.0000503597
  0
LINE
  5
286
100
AcDbEntity
  8
0
100
AcDbLine
 62
7
  6
BYLAYER
 10
29.3531084224
 20
32.0000503597
 11
27.3531084224
 21
32.0000503597
  0
LINE
  5
287
100
AcDbEntity
  8
0
100
AcDbLine
 62
7
  6
BYLAYER
 10
32.1031084224
 20
32.3404758809
 11
32.4364419146
 21
32.3404758809
  0
LINE
  5
288
100
AcDbEntity
  8
0
100
AcDbLine
 62
7
  6
BYLAYER
 10
35.6031084224
 20
32.3404758809
 11
36.1031084224
 21
32.3404758809
  0
LINE
  5
289
100
AcDbEntity
  8
0
100
AcDbLine
 62
7
  6
BYLAYER
 10
27.8531084224
 20
32.5106886563
 11
29.4364416762
 21
32.5106886563
  0
LINE
  5
28A
100
AcDbEntity
  8
0
100
AcDbLine
 62
7
  6
BYLAYER
 10
34.4364419146
 20
32.680901402
 11
34.8531084224
 21
32.680901402
  0
LINE
  5
28B
100
AcDbEntity
  8
0
100
AcDbLine
 62
7
  6
BYLAYER
 10
29.4364416762
 20
33.7872844276
 11
27.8531084224
 21
33.7872844276
  0
LINE
  5
28C
100
AcDbEntity
  8
0
100
AcDbLine
 62
7
  6
BYLAYER
 10
37.1031084224
 20
34.0426035461
 11
36.6864414378
 21
34.0426035461
  0
LINE
  5
28D
100
AcDbEntity
  8
0
100
AcDbLine
 62
7
  6
BYLAYER
 10
27.8531084224
 20
34.2979226646
 11
29.4364416762
 21
34.2979226646
  0
LINE
  5
28E
100
AcDbEntity
  8
0
100
AcDbLine
 62
7
  6
BYLAYER
 10
35.9364414378
 20
34.3830290375
 11
35.4364414378
 21
34.3830290375
  0
LINE
  5
28F
100
AcDbEntity
  8
0
100
AcDbLine
 62
7
  6
BYLAYER
 10
31.1031084224
 20
34.7234545288
 11
31.5197749301
 21
34.7234545288
  0
LINE
  5
290
100
AcDbEntity
  8
0
100
AcDbLine
 62
7
  6
BYLAYER
 10
33.1864419146
 20
34.7234545288
 11
33.6031084224
 21
34.7234545288
  0
LINE
  5
291
100
AcDbEntity
  8
0
100
AcDbLine
 62
7
  6
BYLAYER
 10
35.4364414378
 20
34.7234545288
 11
35.9364414378
 21
34.7234545288
  0
LINE
  5
292
100
AcDbEntity
  8
0
100
AcDbLine
 62
7
  6
BYLAYER
 10
35.9364414378
 20
34.3830290375
 11
36.4364414378
 21
34.2979226646
  0
LINE
  5
293
100
AcDbEntity
  8
0
100
AcDbLine
 62
7
  6
BYLAYER
 10
36.4364414378
 20
34.638348156
 11
35.9364414378
 21
34.7234545288
  0
LINE
  5
294
100
AcDbEntity
  8
0
100
AcDbLine
 62
7
  6
BYLAYER
 10
29.7697751685
 20
35.9149439869
 11
29.3531084224
 21
36.0000503597
  0
LINE
  5
295
100
AcDbEntity
  8
0
100
AcDbLine
 62
7
  6
BYLAYER
 10
36.6864414378
 20
34.5532417831
 11
36.4364414378
 21
34.638348156
  0
LINE
  5
296
100
AcDbEntity
  8
0
100
AcDbLine
 62
7
  6
BYLAYER
 10
36.4364414378
 20
34.2979226646
 11
36.6031084223
 21
34.2128162918
  0
LINE
  5
297
100
AcDbEntity
  8
0
100
AcDbLine
 62
7
  6
BYLAYER
 10
44.6864423915
 20
29.3830290375
 11
44.2697744532
 21
29.638348156
  0
LINE
  5
298
100
AcDbEntity
  8
0
100
AcDbLine
 62
7
  6
BYLAYER
 10
35.1864419146
 20
33.7021780548
 11
34.9364419146
 21
33.8723908005
  0
LINE
  5
299
100
AcDbEntity
  8
0
100
AcDbLine
 62
7
  6
BYLAYER
 10
36.3531084224
 20
33.0213269529
 11
36.6031084224
 21
32.8511142073
  0
LINE
  5
29A
100
AcDbEntity
  8
0
100
AcDbLine
 62
7
  6
BYLAYER
 10
44.1864423915
 20
29.2979226646
 11
44.4364423915
 21
29.127709919
  0
LINE
  5
29B
100
AcDbEntity
  8
0
100
AcDbLine
 62
7
  6
BYLAYER
 10
36.9364414378
 20
34.3830290375
 11
36.6864414378
 21
34.5532417831
  0
LINE
  5
29C
100
AcDbEntity
  8
0
100
AcDbLine
 62
7
  6
BYLAYER
 10
34.6031084224
 20
33.7021780548
 11
34.9364419146
 21
33.4468588171
  0
LINE
  5
29D
100
AcDbEntity
  8
0
100
AcDbLine
 62
7
  6
BYLAYER
 10
36.9364414378
 20
33.0213269529
 11
36.6031084223
 21
33.2766460714
  0
LINE
  5
29E
100
AcDbEntity
  8
0
100
AcDbLine
 62
7
  6
BYLAYER
 10
38.4364414378
 20
27.3404758809
 11
38.6031084224
 21
27.1702631203
  0
LINE
  5
29F
100
AcDbEntity
  8
0
100
AcDbLine
 62
7
  6
BYLAYER
 10
40.4364414378
 20
29.2128162918
 11
40.1864414378
 21
29.4681354103
  0
LINE
  5
2A0
100
AcDbEntity
  8
0
100
AcDbLine
 62
7
  6
BYLAYER
 10
42.6031084224
 20
27.5106886563
 11
42.7697754069
 21
27.3404758809
  0
LINE
  5
2A1
100
AcDbEntity
  8
0
100
AcDbLine
 62
7
  6
BYLAYER
 10
43.1864414378
 20
27.5106886563
 11
42.9364414378
 21
27.7660078344
  0
LINE
  5
2A2
100
AcDbEntity
  8
0
100
AcDbLine
 62
7
  6
BYLAYER
 10
30.3531084224
 20
33.617071682
 11
30.1031084224
 21
33.9574971733
  0
LINE
  5
2A3
100
AcDbEntity
  8
0
100
AcDbLine
 62
7
  6
BYLAYER
 10
30.3531084224
 20
35.319199377
 11
30.1031084223
 21
35.6596248684
  0
LINE
  5
2A4
100
AcDbEntity
  8
0
100
AcDbLine
 62
7
  6
BYLAYER
 10
33.2697749301
 20
29.127709919
 11
33.4364419146
 21
28.8723908005
  0
LINE
  5
2A5
100
AcDbEntity
  8
0
100
AcDbLine
 62
7
  6
BYLAYER
 10
33.7697749301
 20
29.127709919
 11
33.6031084224
 21
29.3830290375
  0
LINE
  5
2A6
100
AcDbEntity
  8
0
100
AcDbLine
 62
7
  6
BYLAYER
 10
31.7697749301
 20
32.5106886563
 11
31.6031084224
 21
32.7660078344
  0
LINE
  5
2A7
100
AcDbEntity
  8
0
100
AcDbLine
 62
7
  6
BYLAYER
 10
35.2697749301
 20
27.5106886563
 11
35.1031084224
 21
27.7660078344
  0
LINE
  5
2A8
100
AcDbEntity
  8
0
100
AcDbLine
 62
7
  6
BYLAYER
 10
32.2697749301
 20
29.7234545288
 11
31.9364419146
 21
29.638348156
  0
LINE
  5
2A9
100
AcDbEntity
  8
0
100
AcDbLine
 62
7
  6
BYLAYER
 10
36.4364414378
 20
32.4255822835
 11
36.1031084224
 21
32.3404758809
  0
LINE
  5
2AA
100
AcDbEntity
  8
0
100
AcDbLine
 62
7
  6
BYLAYER
 10
28.3531084224
 20
30.4043057499
 11
28.6864417954
 21
30.4894121227
  0
LINE
  5
2AB
100
AcDbEntity
  8
0
100
AcDbLine
 62
7
  6
BYLAYER
 10
32.4364419146
 20
32.0000503597
 11
32.7697749301
 21
32.08515674
  0
LINE
  5
2AC
100
AcDbEntity
  8
0
100
AcDbLine
 62
7
  6
BYLAYER
 10
32.7697749301
 20
32.4255822835
 11
32.4364419147
 21
32.3404758809
  0
LINE
  5
2AD
100
AcDbEntity
  8
0
100
AcDbLine
 62
7
  6
BYLAYER
 10
35.1031084224
 20
34.2979226646
 11
35.4364414378
 21
34.3830290375
  0
LINE
  5
2AE
100
AcDbEntity
  8
0
100
AcDbLine
 62
7
  6
BYLAYER
 10
28.6864417954
 20
31.0000503597
 11
28.2697751089
 21
30.9149439869
  0
LINE
  5
2AF
100
AcDbEntity
  8
0
100
AcDbLine
 62
7
  6
BYLAYER
 10
29.3531084224
 20
32.0000503597
 11
29.7697751685
 21
32.08515674
  0
LINE
  5
2B0
100
AcDbEntity
  8
0
100
AcDbLine
 62
7
  6
BYLAYER
 10
35.4364414378
 20
34.7234545288
 11
34.9364419146
 21
34.638348156
  0
LINE
  5
2B1
100
AcDbEntity
  8
0
100
AcDbLine
 62
7
  6
BYLAYER
 10
29.4364416762
 20
35.4894121227
 11
27.8531084224
 21
35.4894121227
  0
LINE
  5
2B2
100
AcDbEntity
  8
0
100
AcDbLine
 62
7
  6
BYLAYER
 10
27.3531084224
 20
36.0000503597
 11
29.3531084224
 21
36.0000503597
  0
LINE
  5
2B3
100
AcDbEntity
  8
0
100
AcDbLine
 62
7
  6
BYLAYER
 10
38.5197754069
 20
27.680901402
 11
38.3531084224
 21
27.9362205801
  0
LINE
  5
2B4
100
AcDbEntity
  8
0
100
AcDbLine
 62
7
  6
BYLAYER
 10
39.9364414378
 20
29.127709919
 11
40.1031084224
 21
28.8723908005
  0
LINE
  5
2B5
100
AcDbEntity
  8
0
100
AcDbLine
 62
7
  6
BYLAYER
 10
31.1864416762
 20
32.680901402
 11
31.2697751685
 21
32.5106886563
  0
LINE
  5
2B6
100
AcDbEntity
  8
0
100
AcDbLine
 62
7
  6
BYLAYER
 10
34.6864419146
 20
27.680901402
 11
34.7697749301
 21
27.5106886563
  0
LINE
  5
2B7
100
AcDbEntity
  8
0
100
AcDbLine
 62
7
  6
BYLAYER
 10
33.7697749301
 20
32.0000503597
 11
33.6864419146
 21
32.1702631203
  0
LINE
  5
2B8
100
AcDbEntity
  8
0
100
AcDbLine
 62
7
  6
BYLAYER
 10
34.4364419146
 20
32.680901402
 11
34.6031084223
 21
32.3404758809
  0
LINE
  5
2B9
100
AcDbEntity
  8
0
100
AcDbLine
 62
7
  6
BYLAYER
 10
37.2697754069
 20
27.0000503597
 11
37.1864414378
 21
27.1702631203
  0
LINE
  5
2BA
100
AcDbEntity
  8
0
100
AcDbLine
 62
7
  6
BYLAYER
 10
34.9364419146
 20
32.5106886563
 11
34.8531084224
 21
32.680901402
  0
LINE
  5
2BB
100
AcDbEntity
  8
0
100
AcDbLine
 62
7
  6
BYLAYER
 10
34.4364419146
 20
34.0426035461
 11
34.6031084224
 21
33.7021780548
  0
LINE
  5
2BC
100
AcDbEntity
  8
0
100
AcDbLine
 62
7
  6
BYLAYER
 10
33.1864419146
 20
32.4255822835
 11
33.3531084224
 21
32.0000503597
  0
LINE
  5
2BD
100
AcDbEntity
  8
0
100
AcDbLine
 62
7
  6
BYLAYER
 10
30.0197751685
 20
30.2340930042
 11
30.1031084224
 21
29.9787736473
  0
LINE
  5
2BE
100
AcDbEntity
  8
0
100
AcDbLine
 62
7
  6
BYLAYER
 10
29.8531084224
 20
33.5319653091
 11
29.9364416762
 21
33.2766460714
  0
LINE
  5
2BF
100
AcDbEntity
  8
0
100
AcDbLine
 62
7
  6
BYLAYER
 10
30.4364416762
 20
33.3617524443
 11
30.3531084224
 21
33.617071682
  0
LINE
  5
2C0
100
AcDbEntity
  8
0
100
AcDbLine
 62
7
  6
BYLAYER
 10
29.8531084224
 20
35.2340930042
 11
29.9364416762
 21
34.9787736473
  0
LINE
  5
2C1
100
AcDbEntity
  8
0
100
AcDbLine
 62
7
  6
BYLAYER
 10
30.4364416762
 20
35.0638802585
 11
30.3531084224
 21
35.319199377
  0
LINE
  5
2C2
100
AcDbEntity
  8
0
100
AcDbLine
 62
7
  6
BYLAYER
 10
31.2697751685
 20
28.1915396986
 11
31.4364419146
 21
27.5957950292
  0
LINE
  5
2C3
100
AcDbEntity
  8
0
100
AcDbLine
 62
7
  6
BYLAYER
 10
27.9364417358
 20
28.0213269529
 11
27.8531084224
 21
28.3617524443
  0
LINE
  5
2C4
100
AcDbEntity
  8
0
100
AcDbLine
 62
7
  6
BYLAYER
 10
27.3531084224
 20
28.3617524443
 11
27.4364417582
 21
27.9362205801
  0
LINE
  5
2C5
100
AcDbEntity
  8
0
100
AcDbLine
 62
7
  6
BYLAYER
 10
47.0531084224
 20
42.4000503597
 11
29.8531084224
 21
42.4000503597
  0
LINE
  5
2C6
100
AcDbEntity
  8
0
100
AcDbLine
 62
7
  6
BYLAYER
 10
30.0531084224
 20
42.6500503597
 11
46.8531084224
 21
42.6500503597
  0
LINE
  5
2C7
100
AcDbEntity
  8
0
100
AcDbLine
 62
7
  6
BYLAYER
 10
32.8531084224
 20
43.9500503597
 11
30.9531084224
 21
43.9500503597
  0
LINE
  5
2C8
100
AcDbEntity
  8
0
100
AcDbLine
 62
7
  6
BYLAYER
 10
44.9364423915
 20
29.0426035462
 11
44.6864423915
 21
29.3830290375
  0
LINE
  5
2C9
100
AcDbEntity
  8
0
100
AcDbLine
 62
7
  6
BYLAYER
 10
44.4364423915
 20
29.127709919
 11
44.6031084224
 21
28.8723908005
  0
LINE
  5
2CA
100
AcDbEntity
  8
0
100
AcDbLine
 62
7
  6
BYLAYER
 10
34.9364419146
 20
33.8723908005
 11
34.8531084224
 21
34.0426035461
  0
LINE
  5
2CB
100
AcDbEntity
  8
0
100
AcDbLine
 62
7
  6
BYLAYER
 10
38.3531084224
 20
27.5106886563
 11
38.4364414378
 21
27.3404758809
  0
LINE
  5
2CC
100
AcDbEntity
  8
0
100
AcDbLine
 62
7
  6
BYLAYER
 10
36.6031084224
 20
32.8511142073
 11
36.6864414378
 21
32.680901402
  0
LINE
  5
2CD
100
AcDbEntity
  8
0
100
AcDbLine
 62
7
  6
BYLAYER
 10
37.1031084224
 20
32.680901402
 11
36.9364414378
 21
33.0213269529
  0
LINE
  5
2CE
100
AcDbEntity
  8
0
100
AcDbLine
 62
7
  6
BYLAYER
 10
36.6031084223
 20
34.2128162918
 11
36.6864414378
 21
34.0426035461
  0
LINE
  5
2CF
100
AcDbEntity
  8
0
100
AcDbLine
 62
7
  6
BYLAYER
 10
37.1031084224
 20
34.0426035461
 11
36.9364414378
 21
34.3830290375
  0
LINE
  5
2D0
100
AcDbEntity
  8
0
100
AcDbLine
 62
7
  6
BYLAYER
 10
40.5197754069
 20
29.0426035461
 11
40.4364414378
 21
29.2128162918
  0
LINE
  5
2D1
100
AcDbEntity
  8
0
100
AcDbLine
 62
7
  6
BYLAYER
 10
42.4364414378
 20
27.8511142072
 11
42.6031084224
 21
27.5106886563
  0
LINE
  5
2D2
100
AcDbEntity
  8
0
100
AcDbLine
 62
7
  6
BYLAYER
 10
36.6864414378
 20
27.4255822835
 11
36.8531084224
 21
27.0000503597
  0
LINE
  5
2D3
100
AcDbEntity
  8
0
100
AcDbLine
 62
7
  6
BYLAYER
 10
31.6031084224
 20
32.7660078344
 11
31.5197749301
 21
33.0213269529
  0
LINE
  5
2D4
100
AcDbEntity
  8
0
100
AcDbLine
 62
7
  6
BYLAYER
 10
33.8531084224
 20
28.8723908005
 11
33.7697749301
 21
29.127709919
  0
LINE
  5
2D5
100
AcDbEntity
  8
0
100
AcDbLine
 62
7
  6
BYLAYER
 10
35.1031084224
 20
27.7660078344
 11
35.0197749301
 21
28.0213269529
  0
LINE
  5
2D6
100
AcDbEntity
  8
0
100
AcDbLine
 62
7
  6
BYLAYER
 10
31.7697749301
 20
27.8511142073
 11
31.6864419146
 21
28.1915396986
  0
LINE
  5
2D7
100
AcDbEntity
  8
0
100
AcDbLine
 62
7
  6
BYLAYER
 10
31.1031084224
 20
33.0213269529
 11
31.1864416762
 21
32.680901402
  0
LINE
  5
2D8
100
AcDbEntity
  8
0
100
AcDbLine
 62
7
  6
BYLAYER
 10
33.4364419146
 20
28.8723908005
 11
33.5197749301
 21
28.5319653091
  0
LINE
  5
2D9
100
AcDbEntity
  8
0
100
AcDbLine
 62
7
  6
BYLAYER
 10
33.9364419146
 20
28.5319653091
 11
33.8531084224
 21
28.8723908005
  0
LINE
  5
2DA
100
AcDbEntity
  8
0
100
AcDbLine
 62
7
  6
BYLAYER
 10
34.6031084224
 20
28.0213269529
 11
34.6864419146
 21
27.680901402
  0
LINE
  5
2DB
100
AcDbEntity
  8
0
100
AcDbLine
 62
7
  6
BYLAYER
 10
30.6031084224
 20
29.9787736473
 11
30.5197751685
 21
30.4043057499
  0
LINE
  5
2DC
100
AcDbEntity
  8
0
100
AcDbLine
 62
7
  6
BYLAYER
 10
25.3531084224
 20
110.8500503597
 11
25.3531084224
 21
9.9500503597
  0
LINE
  5
2DD
100
AcDbEntity
  8
0
100
AcDbLine
 62
7
  6
BYLAYER
 10
27.3531084224
 20
28.3617524443
 11
27.3531084224
 21
29.638348156
  0
LINE
  5
2DE
100
AcDbEntity
  8
0
100
AcDbLine
 62
7
  6
BYLAYER
 10
27.3531084224
 20
32.0000503597
 11
27.3531084224
 21
36.0000503597
  0
LINE
  5
2DF
100
AcDbEntity
  8
0
100
AcDbLine
 62
7
  6
BYLAYER
 10
27.8531084224
 20
35.4894121227
 11
27.8531084224
 21
34.2979226646
  0
LINE
  5
2E0
100
AcDbEntity
  8
0
100
AcDbLine
 62
7
  6
BYLAYER
 10
27.8531084224
 20
33.7872844276
 11
27.8531084224
 21
32.5106886563
  0
LINE
  5
2E1
100
AcDbEntity
  8
0
100
AcDbLine
 62
7
  6
BYLAYER
 10
27.8531084224
 20
29.638348156
 11
27.8531084224
 21
28.3617524443
  0
LINE
  5
2E2
100
AcDbEntity
  8
0
100
AcDbLine
 62
7
  6
BYLAYER
 10
40.3531084224
 20
44.6500503597
 11
33.6831084224
 21
44.6500503597
  0
LINE
  5
2E3
100
AcDbEntity
  8
0
100
AcDbLine
 62
7
  6
BYLAYER
 10
37.7531084224
 20
46.7800503597
 11
40.3531084224
 21
46.7800503597
  0
LINE
  5
2E4
100
AcDbEntity
  8
0
100
AcDbLine
 62
7
  6
BYLAYER
 10
30.9531084224
 20
47.0500503597
 11
32.8531084224
 21
47.0500503597
  0
LINE
  5
2E5
100
AcDbEntity
  8
0
100
AcDbLine
 62
7
  6
BYLAYER
 10
37.7531084224
 20
47.3800503597
 11
40.3531084224
 21
47.3800503597
  0
LINE
  5
2E6
100
AcDbEntity
  8
0
100
AcDbLine
 62
7
  6
BYLAYER
 10
33.6831084224
 20
47.5000503597
 11
32.0331084224
 21
47.5000503597
  0
LINE
  5
2E7
100
AcDbEntity
  8
0
100
AcDbLine
 62
7
  6
BYLAYER
 10
37.7531084224
 20
47.8000503597
 11
40.3531084224
 21
47.8000503597
  0
LINE
  5
2E8
100
AcDbEntity
  8
0
100
AcDbLine
 62
7
  6
BYLAYER
 10
42.9364414378
 20
27.7660078344
 11
42.8531084224
 21
27.9362205801
  0
LINE
  5
2E9
100
AcDbEntity
  8
0
100
AcDbLine
 62
7
  6
BYLAYER
 10
40.1031084224
 20
28.8723908005
 11
40.1864414378
 21
28.617071682
  0
LINE
  5
2EA
100
AcDbEntity
  8
0
100
AcDbLine
 62
7
  6
BYLAYER
 10
33.6864419146
 20
32.1702631203
 11
33.6031084224
 21
32.5106886563
  0
LINE
  5
2EB
100
AcDbEntity
  8
0
100
AcDbLine
 62
7
  6
BYLAYER
 10
37.1864414378
 20
27.1702631203
 11
37.1031084224
 21
27.5106886563
  0
LINE
  5
2EC
100
AcDbEntity
  8
0
100
AcDbLine
 62
7
  6
BYLAYER
 10
29.8531084224
 20
42.4000503597
 11
29.8531084224
 21
58.9000503597
  0
LINE
  5
2ED
100
AcDbEntity
  8
0
100
AcDbLine
 62
7
  6
BYLAYER
 10
29.8531084224
 20
63.1000503597
 11
29.8531084224
 21
79.6000503597
  0
LINE
  5
2EE
100
AcDbEntity
  8
0
100
AcDbLine
 62
7
  6
BYLAYER
 10
29.8531084224
 20
89.9000503597
 11
29.8531084224
 21
106.4000503597
  0
LINE
  5
2EF
100
AcDbEntity
  8
0
100
AcDbLine
 62
7
  6
BYLAYER
 10
29.9364416762
 20
33.0213269529
 11
29.9364416762
 21
33.2766460714
  0
LINE
  5
2F0
100
AcDbEntity
  8
0
100
AcDbLine
 62
7
  6
BYLAYER
 10
29.9364416762
 20
34.8085609016
 11
29.9364416762
 21
34.9787736473
  0
LINE
  5
2F1
100
AcDbEntity
  8
0
100
AcDbLine
 62
7
  6
BYLAYER
 10
30.0531084224
 20
106.1500503597
 11
30.0531084224
 21
90.1500503597
  0
LINE
  5
2F2
100
AcDbEntity
  8
0
100
AcDbLine
 62
7
  6
BYLAYER
 10
30.0531084224
 20
79.3500503597
 11
30.0531084224
 21
63.3500503597
  0
LINE
  5
2F3
100
AcDbEntity
  8
0
100
AcDbLine
 62
7
  6
BYLAYER
 10
30.0531084224
 20
58.6500503597
 11
30.0531084224
 21
42.6500503597
  0
LINE
  5
2F4
100
AcDbEntity
  8
0
100
AcDbLine
 62
7
  6
BYLAYER
 10
30.4364416762
 20
35.0638802585
 11
30.4364416762
 21
34.7234545288
  0
LINE
  5
2F5
100
AcDbEntity
  8
0
100
AcDbLine
 62
7
  6
BYLAYER
 10
30.4364416762
 20
33.3617524443
 11
30.4364416762
 21
32.9362205801
  0
LINE
  5
2F6
100
AcDbEntity
  8
0
100
AcDbLine
 62
7
  6
BYLAYER
 10
30.8031084224
 20
48.6200503597
 11
30.8031084224
 21
52.6800503597
  0
LINE
  5
2F7
100
AcDbEntity
  8
0
100
AcDbLine
 62
7
  6
BYLAYER
 10
30.8031084224
 20
64.6500503597
 11
30.8031084224
 21
67.7500503597
  0
LINE
  5
2F8
100
AcDbEntity
  8
0
100
AcDbLine
 62
7
  6
BYLAYER
 10
30.8031084224
 20
69.3200503597
 11
30.8031084224
 21
73.3800503597
  0
LINE
  5
2F9
100
AcDbEntity
  8
0
100
AcDbLine
 62
7
  6
BYLAYER
 10
30.8031084224
 20
96.1200503597
 11
30.8031084224
 21
100.1800503597
  0
LINE
  5
2FA
100
AcDbEntity
  8
0
100
AcDbLine
 62
7
  6
BYLAYER
 10
30.9531084224
 20
43.9500503597
 11
30.9531084224
 21
47.0500503597
  0
LINE
  5
2FB
100
AcDbEntity
  8
0
100
AcDbLine
 62
7
  6
BYLAYER
 10
30.9531084224
 20
54.2500503597
 11
30.9531084224
 21
57.3500503597
  0
LINE
  5
2FC
100
AcDbEntity
  8
0
100
AcDbLine
 62
7
  6
BYLAYER
 10
30.9531084224
 20
74.9500503597
 11
30.9531084224
 21
78.0500503597
  0
LINE
  5
2FD
100
AcDbEntity
  8
0
100
AcDbLine
 62
7
  6
BYLAYER
 10
30.9531084224
 20
91.4500503597
 11
30.9531084224
 21
94.5500503597
  0
LINE
  5
2FE
100
AcDbEntity
  8
0
100
AcDbLine
 62
7
  6
BYLAYER
 10
30.9531084224
 20
101.7500503597
 11
30.9531084224
 21
104.8500503597
  0
LINE
  5
2FF
100
AcDbEntity
  8
0
100
AcDbLine
 62
7
  6
BYLAYER
 10
31.1031084224
 20
33.0213269529
 11
31.1031084224
 21
34.7234545288
  0
LINE
  5
300
100
AcDbEntity
  8
0
100
AcDbLine
 62
7
  6
BYLAYER
 10
31.2697751685
 20
28.1915396986
 11
31.2697751685
 21
28.5319653091
  0
LINE
  5
301
100
AcDbEntity
  8
0
100
AcDbLine
 62
7
  6
BYLAYER
 10
31.5197749301
 20
34.7234545288
 11
31.5197749301
 21
33.0213269529
  0
LINE
  5
302
100
AcDbEntity
  8
0
100
AcDbLine
 62
7
  6
BYLAYER
 10
31.6864419146
 20
28.5319653091
 11
31.6864419146
 21
28.1915396986
  0
LINE
  5
303
100
AcDbEntity
  8
0
100
AcDbLine
 62
7
  6
BYLAYER
 10
32.0331084224
 20
47.5000503597
 11
32.0331084224
 21
48.6200503597
  0
LINE
  5
304
100
AcDbEntity
  8
0
100
AcDbLine
 62
7
  6
BYLAYER
 10
32.0331084224
 20
52.6800503597
 11
32.0331084224
 21
53.8000503597
  0
LINE
  5
305
100
AcDbEntity
  8
0
100
AcDbLine
 62
7
  6
BYLAYER
 10
32.0331084224
 20
68.2000503597
 11
32.0331084224
 21
69.3200503597
  0
LINE
  5
306
100
AcDbEntity
  8
0
100
AcDbLine
 62
7
  6
BYLAYER
 10
32.0331084224
 20
73.3800503597
 11
32.0331084224
 21
74.5000503597
  0
LINE
  5
307
100
AcDbEntity
  8
0
100
AcDbLine
 62
7
  6
BYLAYER
 10
32.0331084224
 20
95.0000503597
 11
32.0331084224
 21
96.1200503597
  0
LINE
  5
308
100
AcDbEntity
  8
0
100
AcDbLine
 62
7
  6
BYLAYER
 10
32.0331084224
 20
100.1800503597
 11
32.0331084224
 21
101.3000503597
  0
LINE
  5
309
100
AcDbEntity
  8
0
100
AcDbLine
 62
7
  6
BYLAYER
 10
32.8531084224
 20
104.8500503597
 11
32.8531084224
 21
101.7500503597
  0
LINE
  5
30A
100
AcDbEntity
  8
0
100
AcDbLine
 62
7
  6
BYLAYER
 10
32.8531084224
 20
94.5500503597
 11
32.8531084224
 21
91.4500503597
  0
LINE
  5
30B
100
AcDbEntity
  8
0
100
AcDbLine
 62
7
  6
BYLAYER
 10
32.8531084224
 20
78.0500503597
 11
32.8531084224
 21
74.9500503597
  0
LINE
  5
30C
100
AcDbEntity
  8
0
100
AcDbLine
 62
7
  6
BYLAYER
 10
32.8531084224
 20
67.7500503597
 11
32.8531084224
 21
64.6500503597
  0
LINE
  5
30D
100
AcDbEntity
  8
0
100
AcDbLine
 62
7
  6
BYLAYER
 10
32.8531084224
 20
57.3500503597
 11
32.8531084224
 21
54.2500503597
  0
LINE
  5
30E
100
AcDbEntity
  8
0
100
AcDbLine
 62
7
  6
BYLAYER
 10
32.8531084224
 20
47.0500503597
 11
32.8531084224
 21
43.9500503597
  0
LINE
  5
30F
100
AcDbEntity
  8
0
100
AcDbLine
 62
7
  6
BYLAYER
 10
33.1864419146
 20
32.8511142073
 11
33.1864419146
 21
34.7234545288
  0
LINE
  5
310
100
AcDbEntity
  8
0
100
AcDbLine
 62
7
  6
BYLAYER
 10
33.5197749301
 20
28.1915396986
 11
33.5197749301
 21
28.5319653091
  0
LINE
  5
311
100
AcDbEntity
  8
0
100
AcDbLine
 62
7
  6
BYLAYER
 10
33.6031084224
 20
34.7234545288
 11
33.6031084224
 21
32.5106886563
  0
LINE
  5
312
100
AcDbEntity
  8
0
100
AcDbLine
 62
7
  6
BYLAYER
 10
33.6831084224
 20
44.6500503597
 11
33.6831084224
 21
47.5000503597
  0
LINE
  5
313
100
AcDbEntity
  8
0
100
AcDbLine
 62
7
  6
BYLAYER
 10
33.6831084224
 20
53.8000503597
 11
33.6831084224
 21
56.6500503597
  0
LINE
  5
314
100
AcDbEntity
  8
0
100
AcDbLine
 62
7
  6
BYLAYER
 10
33.6831084224
 20
65.3500503597
 11
33.6831084224
 21
68.2000503597
  0
LINE
  5
315
100
AcDbEntity
  8
0
100
AcDbLine
 62
7
  6
BYLAYER
 10
33.6831084224
 20
74.5000503597
 11
33.6831084224
 21
77.3500503597
  0
LINE
  5
316
100
AcDbEntity
  8
0
100
AcDbLine
 62
7
  6
BYLAYER
 10
33.6831084224
 20
92.1500503597
 11
33.6831084224
 21
95.0000503597
  0
LINE
  5
317
100
AcDbEntity
  8
0
100
AcDbLine
 62
7
  6
BYLAYER
 10
33.6831084224
 20
101.3000503597
 11
33.6831084224
 21
104.1500503597
  0
LINE
  5
318
100
AcDbEntity
  8
0
100
AcDbLine
 62
7
  6
BYLAYER
 10
37.7531084224
 20
48.4000503597
 11
40.3531084224
 21
48.4000503597
  0
LINE
  5
319
100
AcDbEntity
  8
0
100
AcDbLine
 62
7
  6
BYLAYER
 10
32.0331084224
 20
48.6200503597
 11
30.8031084224
 21
48.6200503597
  0
LINE
  5
31A
100
AcDbEntity
  8
0
100
AcDbLine
 62
7
  6
BYLAYER
 10
37.7531084224
 20
48.8200503597
 11
40.3531084224
 21
48.8200503597
  0
LINE
  5
31B
100
AcDbEntity
  8
0
100
AcDbLine
 62
7
  6
BYLAYER
 10
37.7531084224
 20
49.4200503597
 11
40.3531084224
 21
49.4200503597
  0
LINE
  5
31C
100
AcDbEntity
  8
0
100
AcDbLine
 62
7
  6
BYLAYER
 10
37.7531084224
 20
49.8400503597
 11
40.3531084224
 21
49.8400503597
  0
LINE
  5
31D
100
AcDbEntity
  8
0
100
AcDbLine
 62
7
  6
BYLAYER
 10
37.7531084224
 20
50.4400503597
 11
40.3531084224
 21
50.4400503597
  0
LINE
  5
31E
100
AcDbEntity
  8
0
100
AcDbLine
 62
7
  6
BYLAYER
 10
37.7531084224
 20
50.8600503597
 11
40.3531084224
 21
50.8600503597
  0
LINE
  5
31F
100
AcDbEntity
  8
0
100
AcDbLine
 62
7
  6
BYLAYER
 10
37.7531084224
 20
51.4600503597
 11
40.3531084224
 21
51.4600503597
  0
LINE
  5
320
100
AcDbEntity
  8
0
100
AcDbLine
 62
7
  6
BYLAYER
 10
37.7531084224
 20
51.8800503597
 11
40.3531084224
 21
51.8800503597
  0
LINE
  5
321
100
AcDbEntity
  8
0
100
AcDbLine
 62
7
  6
BYLAYER
 10
37.7531084224
 20
52.4800503597
 11
40.3531084224
 21
52.4800503597
  0
LINE
  5
322
100
AcDbEntity
  8
0
100
AcDbLine
 62
7
  6
BYLAYER
 10
42.8531084224
 20
27.9362205801
 11
42.7697754069
 21
28.1915396986
  0
LINE
  5
323
100
AcDbEntity
  8
0
100
AcDbLine
 62
7
  6
BYLAYER
 10
40.6031084224
 20
28.7021780548
 11
40.5197754069
 21
29.0426035461
  0
LINE
  5
324
100
AcDbEntity
  8
0
100
AcDbLine
 62
7
  6
BYLAYER
 10
33.9364419146
 20
28.5319653091
 11
33.9364419146
 21
28.1915396986
  0
LINE
  5
325
100
AcDbEntity
  8
0
100
AcDbLine
 62
7
  6
BYLAYER
 10
34.4364419146
 20
34.0426035461
 11
34.4364419146
 21
34.2128162918
  0
LINE
  5
326
100
AcDbEntity
  8
0
100
AcDbLine
 62
7
  6
BYLAYER
 10
34.6031084224
 20
28.0213269529
 11
34.6031084224
 21
29.7234545288
  0
LINE
  5
327
100
AcDbEntity
  8
0
100
AcDbLine
 62
7
  6
BYLAYER
 10
35.0197749301
 20
29.7234545288
 11
35.0197749301
 21
28.0213269529
  0
LINE
  5
328
100
AcDbEntity
  8
0
100
AcDbLine
 62
7
  6
BYLAYER
 10
36.6864414378
 20
27.8511142073
 11
36.6864414378
 21
29.7234545288
  0
LINE
  5
329
100
AcDbEntity
  8
0
100
AcDbLine
 62
7
  6
BYLAYER
 10
37.1031084224
 20
32.680901402
 11
37.1031084224
 21
32.5106886563
  0
LINE
  5
32A
100
AcDbEntity
  8
0
100
AcDbLine
 62
7
  6
BYLAYER
 10
37.1031084224
 20
29.7234545288
 11
37.1031084224
 21
27.5106886563
  0
LINE
  5
32B
100
AcDbEntity
  8
0
100
AcDbLine
 62
7
  6
BYLAYER
 10
37.7531084224
 20
46.7800503597
 11
37.7531084224
 21
47.3800503597
  0
LINE
  5
32C
100
AcDbEntity
  8
0
100
AcDbLine
 62
7
  6
BYLAYER
 10
37.7531084224
 20
47.8000503597
 11
37.7531084224
 21
48.4000503597
  0
LINE
  5
32D
100
AcDbEntity
  8
0
100
AcDbLine
 62
7
  6
BYLAYER
 10
37.7531084224
 20
48.8200503597
 11
37.7531084224
 21
49.4200503597
  0
LINE
  5
32E
100
AcDbEntity
  8
0
100
AcDbLine
 62
7
  6
BYLAYER
 10
37.7531084224
 20
49.8400503597
 11
37.7531084224
 21
50.4400503597
  0
LINE
  5
32F
100
AcDbEntity
  8
0
100
AcDbLine
 62
7
  6
BYLAYER
 10
37.7531084224
 20
50.8600503597
 11
37.7531084224
 21
51.4600503597
  0
LINE
  5
330
100
AcDbEntity
  8
0
100
AcDbLine
 62
7
  6
BYLAYER
 10
37.7531084224
 20
51.8800503597
 11
37.7531084224
 21
52.4800503597
  0
LINE
  5
331
100
AcDbEntity
  8
0
100
AcDbLine
 62
7
  6
BYLAYER
 10
37.7531084224
 20
52.9000503597
 11
37.7531084224
 21
53.5000503597
  0
LINE
  5
332
100
AcDbEntity
  8
0
100
AcDbLine
 62
7
  6
BYLAYER
 10
37.7531084224
 20
53.9200503597
 11
37.7531084224
 21
54.5200503597
  0
LINE
  5
333
100
AcDbEntity
  8
0
100
AcDbLine
 62
7
  6
BYLAYER
 10
37.7531084224
 20
67.4800503597
 11
37.7531084224
 21
68.0800503597
  0
LINE
  5
334
100
AcDbEntity
  8
0
100
AcDbLine
 62
7
  6
BYLAYER
 10
37.7531084224
 20
68.5000503597
 11
37.7531084224
 21
69.1000503597
  0
LINE
  5
335
100
AcDbEntity
  8
0
100
AcDbLine
 62
7
  6
BYLAYER
 10
37.7531084224
 20
69.5200503597
 11
37.7531084224
 21
70.1200503597
  0
LINE
  5
336
100
AcDbEntity
  8
0
100
AcDbLine
 62
7
  6
BYLAYER
 10
37.7531084224
 20
70.5400503597
 11
37.7531084224
 21
71.1400503597
  0
LINE
  5
337
100
AcDbEntity
  8
0
100
AcDbLine
 62
7
  6
BYLAYER
 10
37.7531084224
 20
71.5600503597
 11
37.7531084224
 21
72.1600503597
  0
LINE
  5
338
100
AcDbEntity
  8
0
100
AcDbLine
 62
7
  6
BYLAYER
 10
37.7531084224
 20
72.5800503597
 11
37.7531084224
 21
73.1800503597
  0
LINE
  5
339
100
AcDbEntity
  8
0
100
AcDbLine
 62
7
  6
BYLAYER
 10
37.7531084224
 20
73.6000503597
 11
37.7531084224
 21
74.2000503597
  0
LINE
  5
33A
100
AcDbEntity
  8
0
100
AcDbLine
 62
7
  6
BYLAYER
 10
37.7531084224
 20
74.6200503597
 11
37.7531084224
 21
75.2200503597
  0
LINE
  5
33B
100
AcDbEntity
  8
0
100
AcDbLine
 62
7
  6
BYLAYER
 10
37.7531084224
 20
94.2800503597
 11
37.7531084224
 21
94.8800503597
  0
LINE
  5
33C
100
AcDbEntity
  8
0
100
AcDbLine
 62
7
  6
BYLAYER
 10
37.7531084224
 20
95.3000503597
 11
37.7531084224
 21
95.9000503597
  0
LINE
  5
33D
100
AcDbEntity
  8
0
100
AcDbLine
 62
7
  6
BYLAYER
 10
37.7531084224
 20
96.3200503597
 11
37.7531084224
 21
96.9200503597
  0
LINE
  5
33E
100
AcDbEntity
  8
0
100
AcDbLine
 62
7
  6
BYLAYER
 10
37.7531084224
 20
97.3400503597
 11
37.7531084224
 21
97.9400503597
  0
LINE
  5
33F
100
AcDbEntity
  8
0
100
AcDbLine
 62
7
  6
BYLAYER
 10
37.7531084224
 20
98.3600503597
 11
37.7531084224
 21
98.9600503597
  0
LINE
  5
340
100
AcDbEntity
  8
0
100
AcDbLine
 62
7
  6
BYLAYER
 10
37.7531084224
 20
99.3800503597
 11
37.7531084224
 21
99.9800503597
  0
LINE
  5
341
100
AcDbEntity
  8
0
100
AcDbLine
 62
7
  6
BYLAYER
 10
37.7531084224
 20
100.4000503597
 11
37.7531084224
 21
101.0000503597
  0
LINE
  5
342
100
AcDbEntity
  8
0
100
AcDbLine
 62
7
  6
BYLAYER
 10
37.7531084224
 20
101.4200503597
 11
37.7531084224
 21
102.0200503597
  0
LINE
  5
343
100
AcDbEntity
  8
0
100
AcDbLine
 62
7
  6
BYLAYER
 10
37.9364414378
 20
25.6383482752
 11
37.9364414378
 21
29.7234545288
  0
LINE
  5
344
100
AcDbEntity
  8
0
100
AcDbLine
 62
7
  6
BYLAYER
 10
27.4364417582
 20
30.0638802586
 11
27.3531084224
 21
29.638348156
  0
LINE
  5
345
100
AcDbEntity
  8
0
100
AcDbLine
 62
7
  6
BYLAYER
 10
27.8531084224
 20
29.638348156
 11
27.9364417358
 21
29.9787736473
  0
LINE
  5
346
100
AcDbEntity
  8
0
100
AcDbLine
 62
7
  6
BYLAYER
 10
30.8031084224
 20
52.6800503597
 11
32.0331084224
 21
52.6800503597
  0
LINE
  5
347
100
AcDbEntity
  8
0
100
AcDbLine
 62
7
  6
BYLAYER
 10
37.7531084224
 20
52.9000503597
 11
40.3531084224
 21
52.9000503597
  0
LINE
  5
348
100
AcDbEntity
  8
0
100
AcDbLine
 62
7
  6
BYLAYER
 10
37.7531084224
 20
53.5000503597
 11
40.3531084224
 21
53.5000503597
  0
LINE
  5
349
100
AcDbEntity
  8
0
100
AcDbLine
 62
7
  6
BYLAYER
 10
32.0331084224
 20
53.8000503597
 11
33.6831084224
 21
53.8000503597
  0
LINE
  5
34A
100
AcDbEntity
  8
0
100
AcDbLine
 62
7
  6
BYLAYER
 10
37.7531084224
 20
53.9200503597
 11
40.3531084224
 21
53.9200503597
  0
LINE
  5
34B
100
AcDbEntity
  8
0
100
AcDbLine
 62
7
  6
BYLAYER
 10
65.9081084224
 20
53.9300503597
 11
59.8081084224
 21
53.9300503597
  0
LINE
  5
34C
100
AcDbEntity
  8
0
100
AcDbLine
 62
7
  6
BYLAYER
 10
32.8531084224
 20
54.2500503597
 11
30.9531084224
 21
54.2500503597
  0
LINE
  5
34D
100
AcDbEntity
  8
0
100
AcDbLine
 62
7
  6
BYLAYER
 10
37.7531084224
 20
54.5200503597
 11
40.3531084224
 21
54.5200503597
  0
LINE
  5
34E
100
AcDbEntity
  8
0
100
AcDbLine
 62
7
  6
BYLAYER
 10
72.0331084224
 20
54.7300503597
 11
65.9081084224
 21
54.7300503597
  0
LINE
  5
34F
100
AcDbEntity
  8
0
100
AcDbLine
 62
7
  6
BYLAYER
 10
59.8081084224
 20
54.7300503597
 11
53.6831084224
 21
54.7300503597
  0
LINE
  5
350
100
AcDbEntity
  8
0
100
AcDbLine
 62
7
  6
BYLAYER
 10
71.8331084224
 20
54.9300503597
 11
53.8831084224
 21
54.9300503597
  0
LINE
  5
351
100
AcDbEntity
  8
0
100
AcDbLine
 62
7
  6
BYLAYER
 10
33.6831084224
 20
56.6500503597
 11
40.3531084224
 21
56.6500503597
  0
LINE
  5
352
100
AcDbEntity
  8
0
100
AcDbLine
 62
7
  6
BYLAYER
 10
45.0197744532
 20
28.7021780548
 11
44.9364423915
 21
29.0426035462
  0
LINE
  5
353
100
AcDbEntity
  8
0
100
AcDbLine
 62
7
  6
BYLAYER
 10
42.3531084224
 20
28.3617524443
 11
42.4364414378
 21
27.8511142072
  0
LINE
  5
354
100
AcDbEntity
  8
0
100
AcDbLine
 62
7
  6
BYLAYER
 10
38.3531084224
 20
29.7234545288
 11
38.3531084224
 21
29.2128162918
  0
LINE
  5
355
100
AcDbEntity
  8
0
100
AcDbLine
 62
7
  6
BYLAYER
 10
38.3531084224
 20
28.7872844276
 11
38.3531084224
 21
27.9362205801
  0
LINE
  5
356
100
AcDbEntity
  8
0
100
AcDbLine
 62
7
  6
BYLAYER
 10
38.3531084224
 20
27.5106886563
 11
38.3531084224
 21
25.6383482752
  0
LINE
  5
357
100
AcDbEntity
  8
0
100
AcDbLine
 62
7
  6
BYLAYER
 10
40.1864414378
 20
28.1064333258
 11
40.1864414378
 21
28.617071682
  0
LINE
  5
358
100
AcDbEntity
  8
0
100
AcDbLine
 62
7
  6
BYLAYER
 10
40.3531084224
 20
104.1500503597
 11
40.3531084224
 21
92.1500503597
  0
LINE
  5
359
100
AcDbEntity
  8
0
100
AcDbLine
 62
7
  6
BYLAYER
 10
40.3531084224
 20
77.3500503597
 11
40.3531084224
 21
65.3500503597
  0
LINE
  5
35A
100
AcDbEntity
  8
0
100
AcDbLine
 62
7
  6
BYLAYER
 10
40.3531084224
 20
56.6500503597
 11
40.3531084224
 21
44.6500503597
  0
LINE
  5
35B
100
AcDbEntity
  8
0
100
AcDbLine
 62
7
  6
BYLAYER
 10
40.6031084224
 20
28.7021780548
 11
40.6031084224
 21
28.0213269529
  0
LINE
  5
35C
100
AcDbEntity
  8
0
100
AcDbLine
 62
7
  6
BYLAYER
 10
41.2697754069
 20
27.0000503597
 11
41.2697754069
 21
31.0000503597
  0
LINE
  5
35D
100
AcDbEntity
  8
0
100
AcDbLine
 62
7
  6
BYLAYER
 10
41.6864414378
 20
31.0000503597
 11
41.6864414378
 21
27.0000503597
  0
LINE
  5
35E
100
AcDbEntity
  8
0
100
AcDbLine
 62
7
  6
BYLAYER
 10
30.5197751685
 20
27.5957950291
 11
30.6031084224
 21
28.0213269529
  0
LINE
  5
35F
100
AcDbEntity
  8
0
100
AcDbLine
 62
7
  6
BYLAYER
 10
31.3531084224
 20
28.8723908005
 11
31.2697751685
 21
28.5319653091
  0
LINE
  5
360
100
AcDbEntity
  8
0
100
AcDbLine
 62
7
  6
BYLAYER
 10
31.6864419146
 20
28.5319653091
 11
31.7697749301
 21
28.8723908005
  0
LINE
  5
361
100
AcDbEntity
  8
0
100
AcDbLine
 62
7
  6
BYLAYER
 10
29.9364416762
 20
34.8085609016
 11
29.8531084224
 21
34.5532417831
  0
LINE
  5
362
100
AcDbEntity
  8
0
100
AcDbLine
 62
7
  6
BYLAYER
 10
30.3531084224
 20
34.4681354103
 11
30.4364416762
 21
34.7234545288
  0
LINE
  5
363
100
AcDbEntity
  8
0
100
AcDbLine
 62
7
  6
BYLAYER
 10
29.9364416762
 20
33.0213269529
 11
29.8531084224
 21
32.7660078344
  0
LINE
  5
364
100
AcDbEntity
  8
0
100
AcDbLine
 62
7
  6
BYLAYER
 10
30.9531084224
 20
57.3500503597
 11
32.8531084224
 21
57.3500503597
  0
LINE
  5
365
100
AcDbEntity
  8
0
100
AcDbLine
 62
7
  6
BYLAYER
 10
46.8531084224
 20
58.6500503597
 11
30.0531084224
 21
58.6500503597
  0
LINE
  5
366
100
AcDbEntity
  8
0
100
AcDbLine
 62
7
  6
BYLAYER
 10
29.8531084224
 20
58.9000503597
 11
47.0531084224
 21
58.9000503597
  0
LINE
  5
367
100
AcDbEntity
  8
0
100
AcDbLine
 62
7
  6
BYLAYER
 10
42.7697754069
 20
28.3617524443
 11
42.7697754069
 21
28.1915396986
  0
LINE
  5
368
100
AcDbEntity
  8
0
100
AcDbLine
 62
7
  6
BYLAYER
 10
42.8531084224
 20
28.7872844276
 11
42.8531084224
 21
28.7021780548
  0
LINE
  5
369
100
AcDbEntity
  8
0
100
AcDbLine
 62
7
  6
BYLAYER
 10
44.6031084224
 20
28.7021780548
 11
44.6031084224
 21
28.8723908005
  0
LINE
  5
36A
100
AcDbEntity
  8
0
100
AcDbLine
 62
7
  6
BYLAYER
 10
45.0197744532
 20
28.7021780548
 11
45.0197744532
 21
28.3617524443
  0
LINE
  5
36B
100
AcDbEntity
  8
0
100
AcDbLine
 62
7
  6
BYLAYER
 10
45.6864423915
 20
27.0000503597
 11
45.6864423915
 21
29.7234545288
  0
LINE
  5
36C
100
AcDbEntity
  8
0
100
AcDbLine
 62
7
  6
BYLAYER
 10
46.1031084224
 20
29.7234545288
 11
46.1031084224
 21
29.2128162918
  0
LINE
  5
36D
100
AcDbEntity
  8
0
100
AcDbLine
 62
7
  6
BYLAYER
 10
46.1031084224
 20
28.7021780548
 11
46.1031084224
 21
27.0000503597
  0
LINE
  5
36E
100
AcDbEntity
  8
0
100
AcDbLine
 62
7
  6
BYLAYER
 10
33.5197749301
 20
28.1915396986
 11
33.4364419146
 21
27.8511142073
  0
LINE
  5
36F
100
AcDbEntity
  8
0
100
AcDbLine
 62
7
  6
BYLAYER
 10
33.7697749301
 20
27.5957950292
 11
33.9364419146
 21
28.1915396986
  0
LINE
  5
370
100
AcDbEntity
  8
0
100
AcDbLine
 62
7
  6
BYLAYER
 10
30.3531084224
 20
32.680901402
 11
30.4364416762
 21
32.9362205801
  0
LINE
  5
371
100
AcDbEntity
  8
0
100
AcDbLine
 62
7
  6
BYLAYER
 10
30.1031084224
 20
28.0213269529
 11
30.0197751685
 21
27.7660078344
  0
LINE
  5
372
100
AcDbEntity
  8
0
100
AcDbLine
 62
7
  6
BYLAYER
 10
31.4364419146
 20
29.127709919
 11
31.3531084224
 21
28.8723908005
  0
LINE
  5
373
100
AcDbEntity
  8
0
100
AcDbLine
 62
7
  6
BYLAYER
 10
53.8831084224
 20
62.8800503597
 11
71.8331084224
 21
62.8800503597
  0
LINE
  5
374
100
AcDbEntity
  8
0
100
AcDbLine
 62
7
  6
BYLAYER
 10
53.6831084224
 20
63.0800503597
 11
72.0331084224
 21
63.0800503597
  0
LINE
  5
375
100
AcDbEntity
  8
0
100
AcDbLine
 62
7
  6
BYLAYER
 10
47.0531084224
 20
63.1000503597
 11
29.8531084224
 21
63.1000503597
  0
LINE
  5
376
100
AcDbEntity
  8
0
100
AcDbLine
 62
7
  6
BYLAYER
 10
30.0531084224
 20
63.3500503597
 11
46.8531084224
 21
63.3500503597
  0
LINE
  5
377
100
AcDbEntity
  8
0
100
AcDbLine
 62
7
  6
BYLAYER
 10
32.8531084224
 20
64.6500503597
 11
30.8031084224
 21
64.6500503597
  0
LINE
  5
378
100
AcDbEntity
  8
0
100
AcDbLine
 62
7
  6
BYLAYER
 10
46.8531084224
 20
42.6500503597
 11
46.8531084224
 21
58.6500503597
  0
LINE
  5
379
100
AcDbEntity
  8
0
100
AcDbLine
 62
7
  6
BYLAYER
 10
46.8531084224
 20
63.3500503597
 11
46.8531084224
 21
79.3500503597
  0
LINE
  5
37A
100
AcDbEntity
  8
0
100
AcDbLine
 62
7
  6
BYLAYER
 10
46.8531084224
 20
90.1500503597
 11
46.8531084224
 21
106.1500503597
  0
LINE
  5
37B
100
AcDbEntity
  8
0
100
AcDbLine
 62
7
  6
BYLAYER
 10
47.0531084224
 20
106.4000503597
 11
47.0531084224
 21
89.9000503597
  0
LINE
  5
37C
100
AcDbEntity
  8
0
100
AcDbLine
 62
7
  6
BYLAYER
 10
47.0531084224
 20
79.6000503597
 11
47.0531084224
 21
63.1000503597
  0
LINE
  5
37D
100
AcDbEntity
  8
0
100
AcDbLine
 62
7
  6
BYLAYER
 10
47.0531084224
 20
58.9000503597
 11
47.0531084224
 21
42.4000503597
  0
LINE
  5
37E
100
AcDbEntity
  8
0
100
AcDbLine
 62
7
  6
BYLAYER
 10
47.1864423915
 20
29.7234545288
 11
47.1864423915
 21
29.2979226646
  0
LINE
  5
37F
100
AcDbEntity
  8
0
100
AcDbLine
 62
7
  6
BYLAYER
 10
50.3531084224
 20
110.8500503597
 11
50.3531084224
 21
13.9500503597
  0
LINE
  5
380
100
AcDbEntity
  8
0
100
AcDbLine
 62
7
  6
BYLAYER
 10
42.4364414378
 20
28.8723908005
 11
42.3531084224
 21
28.3617524443
  0
LINE
  5
381
100
AcDbEntity
  8
0
100
AcDbLine
 62
7
  6
BYLAYER
 10
40.5197754069
 20
27.680901402
 11
40.6031084224
 21
28.0213269529
  0
LINE
  5
382
100
AcDbEntity
  8
0
100
AcDbLine
 62
7
  6
BYLAYER
 10
27.6031084224
 20
30.4043057499
 11
27.4364417582
 21
30.0638802586
  0
LINE
  5
383
100
AcDbEntity
  8
0
100
AcDbLine
 62
7
  6
BYLAYER
 10
40.3531084224
 20
65.3500503597
 11
33.6831084224
 21
65.3500503597
  0
LINE
  5
384
100
AcDbEntity
  8
0
100
AcDbLine
 62
7
  6
BYLAYER
 10
37.7531084224
 20
67.4800503597
 11
40.3531084224
 21
67.4800503597
  0
LINE
  5
385
100
AcDbEntity
  8
0
100
AcDbLine
 62
7
  6
BYLAYER
 10
30.8031084224
 20
67.7500503597
 11
32.8531084224
 21
67.7500503597
  0
LINE
  5
386
100
AcDbEntity
  8
0
100
AcDbLine
 62
7
  6
BYLAYER
 10
37.7531084224
 20
68.0800503597
 11
40.3531084224
 21
68.0800503597
  0
LINE
  5
387
100
AcDbEntity
  8
0
100
AcDbLine
 62
7
  6
BYLAYER
 10
33.6831084224
 20
68.2000503597
 11
32.0331084224
 21
68.2000503597
  0
LINE
  5
388
100
AcDbEntity
  8
0
100
AcDbLine
 62
7
  6
BYLAYER
 10
70.1291708594
 20
68.4800503597
 11
68.5331084224
 21
68.4800503597
  0
LINE
  5
389
100
AcDbEntity
  8
0
100
AcDbLine
 62
7
  6
BYLAYER
 10
37.7531084224
 20
68.5000503597
 11
40.3531084224
 21
68.5000503597
  0
LINE
  5
38A
100
AcDbEntity
  8
0
100
AcDbLine
 62
7
  6
BYLAYER
 10
70.0831084224
 20
68.5300503597
 11
68.5831084224
 21
68.5300503597
  0
LINE
  5
38B
100
AcDbEntity
  8
0
100
AcDbLine
 62
7
  6
BYLAYER
 10
68.6831084224
 20
68.6300503597
 11
69.9831084224
 21
68.6300503597
  0
LINE
  5
38C
100
AcDbEntity
  8
0
100
AcDbLine
 62
7
  6
BYLAYER
 10
37.7531084224
 20
69.1000503597
 11
40.3531084224
 21
69.1000503597
  0
LINE
  5
38D
100
AcDbEntity
  8
0
100
AcDbLine
 62
7
  6
BYLAYER
 10
32.0331084224
 20
69.3200503597
 11
30.8031084224
 21
69.3200503597
  0
LINE
  5
38E
100
AcDbEntity
  8
0
100
AcDbLine
 62
7
  6
BYLAYER
 10
37.7531084224
 20
69.5200503597
 11
40.3531084224
 21
69.5200503597
  0
LINE
  5
38F
100
AcDbEntity
  8
0
100
AcDbLine
 62
7
  6
BYLAYER
 10
51.7331084224
 20
117.0800503597
 11
51.7331084224
 21
126.0900503597
  0
LINE
  5
390
100
AcDbEntity
  8
0
100
AcDbLine
 62
7
  6
BYLAYER
 10
53.2331084224
 20
111.3500503597
 11
53.2331084224
 21
115.5800503597
  0
LINE
  5
391
100
AcDbEntity
  8
0
100
AcDbLine
 62
7
  6
BYLAYER
 10
53.6831084224
 20
54.7300503597
 11
53.6831084224
 21
63.0800503597
  0
LINE
  5
392
100
AcDbEntity
  8
0
100
AcDbLine
 62
7
  6
BYLAYER
 10
53.8831084224
 20
54.9300503597
 11
53.8831084224
 21
62.8800503597
  0
LINE
  5
393
100
AcDbEntity
  8
0
100
AcDbLine
 62
7
  6
BYLAYER
 10
44.9364423915
 20
27.5106886563
 11
45.0197744532
 21
27.8511142073
  0
LINE
  5
394
100
AcDbEntity
  8
0
100
AcDbLine
 62
7
  6
BYLAYER
 10
40.1864414378
 20
28.1064333258
 11
40.1031084223
 21
27.8511142072
  0
LINE
  5
395
100
AcDbEntity
  8
0
100
AcDbLine
 62
7
  6
BYLAYER
 10
34.8531084224
 20
34.0426035461
 11
34.9364419146
 21
34.2128162918
  0
LINE
  5
396
100
AcDbEntity
  8
0
100
AcDbLine
 62
7
  6
BYLAYER
 10
36.6864414378
 20
32.680901402
 11
36.6031084223
 21
32.5106886563
  0
LINE
  5
397
100
AcDbEntity
  8
0
100
AcDbLine
 62
7
  6
BYLAYER
 10
61.7902415638
 20
78.7698863738
 11
60.8515058627
 21
77.3071086164
  0
LINE
  5
398
100
AcDbEntity
  8
0
100
AcDbLine
 62
7
  6
BYLAYER
 10
61.2053794224
 20
76.9100503597
 11
62.1808374224
 21
78.4300503597
  0
LINE
  5
399
100
AcDbEntity
  8
0
100
AcDbLine
 62
7
  6
BYLAYER
 10
27.9364417358
 20
29.9787736473
 11
28.1031084224
 21
30.2340930042
  0
LINE
  5
39A
100
AcDbEntity
  8
0
100
AcDbLine
 62
7
  6
BYLAYER
 10
30.1031084224
 20
34.127709919
 11
30.3531084224
 21
34.4681354103
  0
LINE
  5
39B
100
AcDbEntity
  8
0
100
AcDbLine
 62
7
  6
BYLAYER
 10
37.7531084224
 20
70.1200503597
 11
40.3531084224
 21
70.1200503597
  0
LINE
  5
39C
100
AcDbEntity
  8
0
100
AcDbLine
 62
7
  6
BYLAYER
 10
37.7531084224
 20
70.5400503597
 11
40.3531084224
 21
70.5400503597
  0
LINE
  5
39D
100
AcDbEntity
  8
0
100
AcDbLine
 62
7
  6
BYLAYER
 10
37.7531084224
 20
71.1400503597
 11
40.3531084224
 21
71.1400503597
  0
LINE
  5
39E
100
AcDbEntity
  8
0
100
AcDbLine
 62
7
  6
BYLAYER
 10
64.3585664224
 20
71.2800503597
 11
61.1931084224
 21
71.2800503597
  0
LINE
  5
39F
100
AcDbEntity
  8
0
100
AcDbLine
 62
7
  6
BYLAYER
 10
37.7531084224
 20
71.5600503597
 11
40.3531084224
 21
71.5600503597
  0
LINE
  5
3A0
100
AcDbEntity
  8
0
100
AcDbLine
 62
7
  6
BYLAYER
 10
61.2053794224
 20
71.7900503597
 11
64.3485664224
 21
71.7900503597
  0
LINE
  5
3A1
100
AcDbEntity
  8
0
100
AcDbLine
 62
7
  6
BYLAYER
 10
37.7531084224
 20
72.1600503597
 11
40.3531084224
 21
72.1600503597
  0
LINE
  5
3A2
100
AcDbEntity
  8
0
100
AcDbLine
 62
7
  6
BYLAYER
 10
37.7531084224
 20
72.5800503597
 11
40.3531084224
 21
72.5800503597
  0
LINE
  5
3A3
100
AcDbEntity
  8
0
100
AcDbLine
 62
7
  6
BYLAYER
 10
37.7531084224
 20
73.1800503597
 11
40.3531084224
 21
73.1800503597
  0
LINE
  5
3A4
100
AcDbEntity
  8
0
100
AcDbLine
 62
7
  6
BYLAYER
 10
30.8031084224
 20
73.3800503597
 11
32.0331084224
 21
73.3800503597
  0
LINE
  5
3A5
100
AcDbEntity
  8
0
100
AcDbLine
 62
7
  6
BYLAYER
 10
37.7531084224
 20
73.6000503597
 11
40.3531084224
 21
73.6000503597
  0
LINE
  5
3A6
100
AcDbEntity
  8
0
100
AcDbLine
 62
7
  6
BYLAYER
 10
56.8431084224
 20
89.3300503597
 11
56.8431084224
 21
91.0800503597
  0
LINE
  5
3A7
100
AcDbEntity
  8
0
100
AcDbLine
 62
7
  6
BYLAYER
 10
56.8431084224
 20
92.6300503597
 11
56.8431084224
 21
94.3800503597
  0
LINE
  5
3A8
100
AcDbEntity
  8
0
100
AcDbLine
 62
7
  6
BYLAYER
 10
56.8431084224
 20
95.9300503597
 11
56.8431084224
 21
97.6800503597
  0
LINE
  5
3A9
100
AcDbEntity
  8
0
100
AcDbLine
 62
7
  6
BYLAYER
 10
56.8431084224
 20
99.2300503597
 11
56.8431084224
 21
100.9800503597
  0
LINE
  5
3AA
100
AcDbEntity
  8
0
100
AcDbLine
 62
7
  6
BYLAYER
 10
56.8431084224
 20
102.5300503597
 11
56.8431084224
 21
104.2800503597
  0
LINE
  5
3AB
100
AcDbEntity
  8
0
100
AcDbLine
 62
7
  6
BYLAYER
 10
56.8931084224
 20
89.3800503597
 11
56.8931084224
 21
91.0300503597
  0
LINE
  5
3AC
100
AcDbEntity
  8
0
100
AcDbLine
 62
7
  6
BYLAYER
 10
56.8931084224
 20
92.6800503597
 11
56.8931084224
 21
94.3300503597
  0
LINE
  5
3AD
100
AcDbEntity
  8
0
100
AcDbLine
 62
7
  6
BYLAYER
 10
56.8931084224
 20
95.9800503597
 11
56.8931084224
 21
97.6300503597
  0
LINE
  5
3AE
100
AcDbEntity
  8
0
100
AcDbLine
 62
7
  6
BYLAYER
 10
56.8931084224
 20
99.2800503597
 11
56.8931084224
 21
100.9300503597
  0
LINE
  5
3AF
100
AcDbEntity
  8
0
100
AcDbLine
 62
7
  6
BYLAYER
 10
56.8931084224
 20
102.5800503597
 11
56.8931084224
 21
104.2300503597
  0
LINE
  5
3B0
100
AcDbEntity
  8
0
100
AcDbLine
 62
7
  6
BYLAYER
 10
59.1531084224
 20
113.4300503597
 11
59.1531084224
 21
110.7708528833
  0
LINE
  5
3B1
100
AcDbEntity
  8
0
100
AcDbLine
 62
7
  6
BYLAYER
 10
59.3131084224
 20
126.0900503597
 11
59.3131084224
 21
128.1600503597
  0
LINE
  5
3B2
100
AcDbEntity
  8
0
100
AcDbLine
 62
7
  6
BYLAYER
 10
44.6031084224
 20
27.8511142073
 11
44.5197744532
 21
27.5957950292
  0
LINE
  5
3B3
100
AcDbEntity
  8
0
100
AcDbLine
 62
7
  6
BYLAYER
 10
38.4364414378
 20
29.3830290375
 11
38.3531084224
 21
29.2128162918
  0
LINE
  5
3B4
100
AcDbEntity
  8
0
100
AcDbLine
 62
7
  6
BYLAYER
 10
40.1031084223
 20
27.8511142072
 11
40.0197754069
 21
27.680901402
  0
LINE
  5
3B5
100
AcDbEntity
  8
0
100
AcDbLine
 62
7
  6
BYLAYER
 10
33.1864419146
 20
32.8511142073
 11
33.0197749301
 21
32.5957950292
  0
LINE
  5
3B6
100
AcDbEntity
  8
0
100
AcDbLine
 62
7
  6
BYLAYER
 10
34.6031084224
 20
34.4681354103
 11
34.4364419146
 21
34.2128162918
  0
LINE
  5
3B7
100
AcDbEntity
  8
0
100
AcDbLine
 62
7
  6
BYLAYER
 10
31.6031084224
 20
29.3830290375
 11
31.4364419146
 21
29.127709919
  0
LINE
  5
3B8
100
AcDbEntity
  8
0
100
AcDbLine
 62
7
  6
BYLAYER
 10
31.7697749301
 20
28.8723908005
 11
31.9364419146
 21
29.127709919
  0
LINE
  5
3B9
100
AcDbEntity
  8
0
100
AcDbLine
 62
7
  6
BYLAYER
 10
33.4364419146
 20
27.8511142073
 11
33.2697749301
 21
27.5957950292
  0
LINE
  5
3BA
100
AcDbEntity
  8
0
100
AcDbLine
 62
7
  6
BYLAYER
 10
33.6031084223
 20
27.3404758808
 11
33.7697749301
 21
27.5957950292
  0
LINE
  5
3BB
100
AcDbEntity
  8
0
100
AcDbLine
 62
7
  6
BYLAYER
 10
36.9364414378
 20
32.255369508
 11
37.1031084224
 21
32.5106886563
  0
LINE
  5
3BC
100
AcDbEntity
  8
0
100
AcDbLine
 62
7
  6
BYLAYER
 10
30.1031084223
 20
32.3404758808
 11
30.3531084224
 21
32.680901402
  0
LINE
  5
3BD
100
AcDbEntity
  8
0
100
AcDbLine
 62
7
  6
BYLAYER
 10
37.7531084224
 20
74.2000503597
 11
40.3531084224
 21
74.2000503597
  0
LINE
  5
3BE
100
AcDbEntity
  8
0
100
AcDbLine
 62
7
  6
BYLAYER
 10
32.0331084224
 20
74.5000503597
 11
33.6831084224
 21
74.5000503597
  0
LINE
  5
3BF
100
AcDbEntity
  8
0
100
AcDbLine
 62
7
  6
BYLAYER
 10
37.7531084224
 20
74.6200503597
 11
40.3531084224
 21
74.6200503597
  0
LINE
  5
3C0
100
AcDbEntity
  8
0
100
AcDbLine
 62
7
  6
BYLAYER
 10
32.8531084224
 20
74.9500503597
 11
30.9531084224
 21
74.9500503597
  0
LINE
  5
3C1
100
AcDbEntity
  8
0
100
AcDbLine
 62
7
  6
BYLAYER
 10
64.5585664224
 20
75.2200503597
 11
62.8085664224
 21
75.2200503597
  0
LINE
  5
3C2
100
AcDbEntity
  8
0
100
AcDbLine
 62
7
  6
BYLAYER
 10
37.7531084224
 20
75.2200503597
 11
40.3531084224
 21
75.2200503597
  0
LINE
  5
3C3
100
AcDbEntity
  8
0
100
AcDbLine
 62
7
  6
BYLAYER
 10
62.8085664224
 20
75.7323213597
 11
64.3462954224
 21
75.7323213597
  0
LINE
  5
3C4
100
AcDbEntity
  8
0
100
AcDbLine
 62
7
  6
BYLAYER
 10
63.4462954224
 20
77.1677793597
 11
63.1585664224
 21
77.1677793597
  0
LINE
  5
3C5
100
AcDbEntity
  8
0
100
AcDbLine
 62
7
  6
BYLAYER
 10
33.6831084224
 20
77.3500503597
 11
40.3531084224
 21
77.3500503597
  0
LINE
  5
3C6
100
AcDbEntity
  8
0
100
AcDbLine
 62
7
  6
BYLAYER
 10
63.1608374224
 20
77.6800503597
 11
63.4462954224
 21
77.6800503597
  0
LINE
  5
3C7
100
AcDbEntity
  8
0
100
AcDbLine
 62
7
  6
BYLAYER
 10
30.9531084224
 20
78.0500503597
 11
32.8531084224
 21
78.0500503597
  0
LINE
  5
3C8
100
AcDbEntity
  8
0
100
AcDbLine
 62
7
  6
BYLAYER
 10
59.8081084224
 20
53.9300503597
 11
59.8081084224
 21
54.7300503597
  0
LINE
  5
3C9
100
AcDbEntity
  8
0
100
AcDbLine
 62
7
  6
BYLAYER
 10
59.8631084224
 20
128.1600503597
 11
59.8631084224
 21
127.4502395804
  0
LINE
  5
3CA
100
AcDbEntity
  8
0
100
AcDbLine
 62
7
  6
BYLAYER
 10
60.0431084224
 20
104.2300503597
 11
60.0431084224
 21
102.5800503597
  0
LINE
  5
3CB
100
AcDbEntity
  8
0
100
AcDbLine
 62
7
  6
BYLAYER
 10
60.0431084224
 20
100.9300503597
 11
60.0431084224
 21
99.2800503597
  0
LINE
  5
3CC
100
AcDbEntity
  8
0
100
AcDbLine
 62
7
  6
BYLAYER
 10
60.0431084224
 20
97.6300503597
 11
60.0431084224
 21
95.9800503597
  0
LINE
  5
3CD
100
AcDbEntity
  8
0
100
AcDbLine
 62
7
  6
BYLAYER
 10
60.0431084224
 20
94.3300503597
 11
60.0431084224
 21
92.6800503597
  0
LINE
  5
3CE
100
AcDbEntity
  8
0
100
AcDbLine
 62
7
  6
BYLAYER
 10
60.0431084224
 20
91.0300503597
 11
60.0431084224
 21
89.3800503597
  0
LINE
  5
3CF
100
AcDbEntity
  8
0
100
AcDbLine
 62
7
  6
BYLAYER
 10
60.0931084224
 20
104.2800503597
 11
60.0931084224
 21
102.5300503597
  0
LINE
  5
3D0
100
AcDbEntity
  8
0
100
AcDbLine
 62
7
  6
BYLAYER
 10
60.0931084224
 20
100.9800503597
 11
60.0931084224
 21
99.2300503597
  0
LINE
  5
3D1
100
AcDbEntity
  8
0
100
AcDbLine
 62
7
  6
BYLAYER
 10
60.0931084224
 20
97.6800503597
 11
60.0931084224
 21
95.9300503597
  0
LINE
  5
3D2
100
AcDbEntity
  8
0
100
AcDbLine
 62
7
  6
BYLAYER
 10
60.0931084224
 20
94.3800503597
 11
60.0931084224
 21
92.6300503597
  0
LINE
  5
3D3
100
AcDbEntity
  8
0
100
AcDbLine
 62
7
  6
BYLAYER
 10
60.0931084224
 20
91.0800503597
 11
60.0931084224
 21
89.3300503597
  0
LINE
  5
3D4
100
AcDbEntity
  8
0
100
AcDbLine
 62
7
  6
BYLAYER
 10
60.6931084224
 20
71.7800503597
 11
60.6931084224
 21
76.7670112811
  0
LINE
  5
3D5
100
AcDbEntity
  8
0
100
AcDbLine
 62
7
  6
BYLAYER
 10
60.7631084224
 20
127.4502395804
 11
60.7631084224
 21
128.1600503597
  0
LINE
  5
3D6
100
AcDbEntity
  8
0
100
AcDbLine
 62
7
  6
BYLAYER
 10
61.2053794224
 20
76.9100503597
 11
61.2053794224
 21
71.7900503597
  0
LINE
  5
3D7
100
AcDbEntity
  8
0
100
AcDbLine
 62
7
  6
BYLAYER
 10
61.3131084224
 20
128.1600503597
 11
61.3131084224
 21
126.0900503597
  0
LINE
  5
3D8
100
AcDbEntity
  8
0
100
AcDbLine
 62
7
  6
BYLAYER
 10
61.6381084224
 20
118.5600503597
 11
61.6381084224
 21
113.4300503597
  0
LINE
  5
3D9
100
AcDbEntity
  8
0
100
AcDbLine
 62
7
  6
BYLAYER
 10
61.7485664224
 20
73.3200503597
 11
61.7485664224
 21
76.2677793597
  0
LINE
  5
3DA
100
AcDbEntity
  8
0
100
AcDbLine
 62
7
  6
BYLAYER
 10
62.2585664224
 20
76.2677793597
 11
62.2585664224
 21
73.3200503597
  0
LINE
  5
3DB
100
AcDbEntity
  8
0
100
AcDbLine
 62
7
  6
BYLAYER
 10
63.1211207653
 20
73.8087353646
 11
62.9878885116
 21
73.231643072
  0
LINE
  5
3DC
100
AcDbEntity
  8
0
100
AcDbLine
 62
7
  6
BYLAYER
 10
63.4860120794
 20
73.1220934319
 11
63.6192443331
 21
73.6991857245
  0
LINE
  5
3DD
100
AcDbEntity
  8
0
100
AcDbLine
 62
7
  6
BYLAYER
 10
42.6031084224
 20
29.2128162918
 11
42.4364414378
 21
28.8723908005
  0
LINE
  5
3DE
100
AcDbEntity
  8
0
100
AcDbLine
 62
7
  6
BYLAYER
 10
42.8531084224
 20
28.7872844276
 11
42.9364414378
 21
28.9574971733
  0
LINE
  5
3DF
100
AcDbEntity
  8
0
100
AcDbLine
 62
7
  6
BYLAYER
 10
36.6864414378
 20
27.8511142073
 11
36.5197754069
 21
27.5957950292
  0
LINE
  5
3E0
100
AcDbEntity
  8
0
100
AcDbLine
 62
7
  6
BYLAYER
 10
38.3531084224
 20
28.7872844276
 11
38.5197754069
 21
29.0426035461
  0
LINE
  5
3E1
100
AcDbEntity
  8
0
100
AcDbLine
 62
7
  6
BYLAYER
 10
29.8531084224
 20
34.5532417831
 11
29.6864416762
 21
34.3830290375
  0
LINE
  5
3E2
100
AcDbEntity
  8
0
100
AcDbLine
 62
7
  6
BYLAYER
 10
29.8531084224
 20
32.7660078344
 11
29.6864416762
 21
32.5957950292
  0
LINE
  5
3E3
100
AcDbEntity
  8
0
100
AcDbLine
 62
7
  6
BYLAYER
 10
27.9364417358
 20
30.7447312412
 11
27.6031084224
 21
30.4043057499
  0
LINE
  5
3E4
100
AcDbEntity
  8
0
100
AcDbLine
 62
7
  6
BYLAYER
 10
32.9364419146
 20
32.1702631203
 11
33.1864419146
 21
32.4255822835
  0
LINE
  5
3E5
100
AcDbEntity
  8
0
100
AcDbLine
 62
7
  6
BYLAYER
 10
65.3708374224
 20
78.4300503597
 11
62.1808374224
 21
78.4300503597
  0
LINE
  5
3E6
100
AcDbEntity
  8
0
100
AcDbLine
 62
7
  6
BYLAYER
 10
62.1016345108
 20
78.9400503597
 11
65.3831084224
 21
78.9400503597
  0
LINE
  5
3E7
100
AcDbEntity
  8
0
100
AcDbLine
 62
7
  6
BYLAYER
 10
46.8531084224
 20
79.3500503597
 11
30.0531084224
 21
79.3500503597
  0
LINE
  5
3E8
100
AcDbEntity
  8
0
100
AcDbLine
 62
7
  6
BYLAYER
 10
29.8531084224
 20
79.6000503597
 11
47.0531084224
 21
79.6000503597
  0
LINE
  5
3E9
100
AcDbEntity
  8
0
100
AcDbLine
 62
7
  6
BYLAYER
 10
69.9831084224
 20
81.6300503597
 11
68.6831084224
 21
81.6300503597
  0
LINE
  5
3EA
100
AcDbEntity
  8
0
100
AcDbLine
 62
7
  6
BYLAYER
 10
68.5831084224
 20
81.7300503597
 11
70.0831084224
 21
81.7300503597
  0
LINE
  5
3EB
100
AcDbEntity
  8
0
100
AcDbLine
 62
7
  6
BYLAYER
 10
68.5331084224
 20
81.7800503597
 11
70.1291708683
 21
81.7800503597
  0
LINE
  5
3EC
100
AcDbEntity
  8
0
100
AcDbLine
 62
7
  6
BYLAYER
 10
64.3462954224
 20
75.7323213597
 11
64.3462954224
 21
76.2677793597
  0
LINE
  5
3ED
100
AcDbEntity
  8
0
100
AcDbLine
 62
7
  6
BYLAYER
 10
64.3485664224
 20
71.7900503597
 11
64.3485664224
 21
73.6107784368
  0
LINE
  5
3EE
100
AcDbEntity
  8
0
100
AcDbLine
 62
7
  6
BYLAYER
 10
64.8585664224
 20
76.2677793597
 11
64.8585664224
 21
75.5200503597
  0
LINE
  5
3EF
100
AcDbEntity
  8
0
100
AcDbLine
 62
7
  6
BYLAYER
 10
64.8585664224
 20
73.6107784368
 11
64.8585664224
 21
71.7800503597
  0
LINE
  5
3F0
100
AcDbEntity
  8
0
100
AcDbLine
 62
7
  6
BYLAYER
 10
65.3708374224
 20
71.5400503597
 11
65.3708374224
 21
78.4300503597
  0
LINE
  5
3F1
100
AcDbEntity
  8
0
100
AcDbLine
 62
7
  6
BYLAYER
 10
65.8381084224
 20
113.4300503597
 11
65.8381084224
 21
118.5600503597
  0
LINE
  5
3F2
100
AcDbEntity
  8
0
100
AcDbLine
 62
7
  6
BYLAYER
 10
65.8831084224
 20
78.4400503597
 11
65.8831084224
 21
71.5400503597
  0
LINE
  5
3F3
100
AcDbEntity
  8
0
100
AcDbLine
 62
7
  6
BYLAYER
 10
65.9081084224
 20
54.7300503597
 11
65.9081084224
 21
53.9300503597
  0
LINE
  5
3F4
100
AcDbEntity
  8
0
100
AcDbLine
 62
7
  6
BYLAYER
 10
66.7331084224
 20
126.0900503597
 11
66.7331084224
 21
113.4300503597
  0
LINE
  5
3F5
100
AcDbEntity
  8
0
100
AcDbLine
 62
7
  6
BYLAYER
 10
31.7697749301
 20
29.5532417831
 11
31.6031084224
 21
29.3830290375
  0
LINE
  5
3F6
100
AcDbEntity
  8
0
100
AcDbLine
 62
7
  6
BYLAYER
 10
31.9364419146
 20
29.127709919
 11
32.1031084224
 21
29.2979226646
  0
LINE
  5
3F7
100
AcDbEntity
  8
0
100
AcDbLine
 62
7
  6
BYLAYER
 10
30.1864416762
 20
27.255369508
 11
30.5197751685
 21
27.5957950291
  0
LINE
  5
3F8
100
AcDbEntity
  8
0
100
AcDbLine
 62
7
  6
BYLAYER
 10
33.2697749301
 20
27.5957950292
 11
33.1031084223
 21
27.4255822835
  0
LINE
  5
3F9
100
AcDbEntity
  8
0
100
AcDbLine
 62
7
  6
BYLAYER
 10
33.4364419146
 20
27.1702631203
 11
33.6031084223
 21
27.3404758808
  0
LINE
  5
3FA
100
AcDbEntity
  8
0
100
AcDbLine
 62
7
  6
BYLAYER
 10
29.7697751685
 20
32.08515674
 11
30.1031084223
 21
32.3404758808
  0
LINE
  5
3FB
100
AcDbEntity
  8
0
100
AcDbLine
 62
7
  6
BYLAYER
 10
68.3231084224
 20
113.4300503597
 11
68.3231084224
 21
110.7708528833
  0
LINE
  5
3FC
100
AcDbEntity
  8
0
100
AcDbLine
 62
7
  6
BYLAYER
 10
68.5331084224
 20
68.4800503597
 11
68.5331084224
 21
81.7800503597
  0
LINE
  5
3FD
100
AcDbEntity
  8
0
100
AcDbLine
 62
7
  6
BYLAYER
 10
68.5831084224
 20
68.5300503597
 11
68.5831084224
 21
81.7300503597
  0
LINE
  5
3FE
100
AcDbEntity
  8
0
100
AcDbLine
 62
7
  6
BYLAYER
 10
68.6831084224
 20
81.6300503597
 11
68.6831084224
 21
68.6300503597
  0
LINE
  5
3FF
100
AcDbEntity
  8
0
100
AcDbLine
 62
7
  6
BYLAYER
 10
69.9831084224
 20
68.6300503597
 11
69.9831084224
 21
81.6300503597
  0
LINE
  5
400
100
AcDbEntity
  8
0
100
AcDbLine
 62
7
  6
BYLAYER
 10
70.0831084224
 20
81.7300503597
 11
70.0831084224
 21
68.5300503597
  0
LINE
  5
401
100
AcDbEntity
  8
0
100
AcDbLine
 62
7
  6
BYLAYER
 10
70.1331084224
 20
81.7785811033
 11
70.1331084224
 21
68.4815197815
  0
LINE
  5
402
100
AcDbEntity
  8
0
100
AcDbLine
 62
7
  6
BYLAYER
 10
71.8331084224
 20
62.8800503597
 11
71.8331084224
 21
54.9300503597
  0
LINE
  5
403
100
AcDbEntity
  8
0
100
AcDbLine
 62
7
  6
BYLAYER
 10
72.0331084224
 20
63.0800503597
 11
72.0331084224
 21
54.7300503597
  0
LINE
  5
404
100
AcDbEntity
  8
0
100
AcDbLine
 62
7
  6
BYLAYER
 10
46.1031084224
 20
28.7021780548
 11
46.3531084224
 21
29.0426035461
  0
LINE
  5
405
100
AcDbEntity
  8
0
100
AcDbLine
 62
7
  6
BYLAYER
 10
40.1864414378
 20
27.255369508
 11
40.5197754069
 21
27.680901402
  0
LINE
  5
406
100
AcDbEntity
  8
0
100
AcDbLine
 62
7
  6
BYLAYER
 10
38.6031084223
 20
29.5532417831
 11
38.4364414378
 21
29.3830290375
  0
LINE
  5
407
100
AcDbEntity
  8
0
100
AcDbLine
 62
7
  6
BYLAYER
 10
36.4364414378
 20
27.1702631203
 11
36.6864414378
 21
27.4255822835
  0
LINE
  5
408
100
AcDbEntity
  8
0
100
AcDbLine
 62
7
  6
BYLAYER
 10
28.1031084224
 20
30.2340930042
 11
28.3531084224
 21
30.4043057499
  0
LINE
  5
409
100
AcDbEntity
  8
0
100
AcDbLine
 62
7
  6
BYLAYER
 10
33.0197749301
 20
32.5957950292
 11
32.7697749301
 21
32.4255822835
  0
LINE
  5
40A
100
AcDbEntity
  8
0
100
AcDbLine
 62
7
  6
BYLAYER
 10
29.9364416762
 20
34.0426035461
 11
30.1031084224
 21
34.127709919
  0
LINE
  5
40B
100
AcDbEntity
  8
0
100
AcDbLine
 62
7
  6
BYLAYER
 10
60.0931084224
 20
89.3300503597
 11
56.8431084224
 21
89.3300503597
  0
LINE
  5
40C
100
AcDbEntity
  8
0
100
AcDbLine
 62
7
  6
BYLAYER
 10
60.0431084224
 20
89.3800503597
 11
56.8931084224
 21
89.3800503597
  0
LINE
  5
40D
100
AcDbEntity
  8
0
100
AcDbLine
 62
7
  6
BYLAYER
 10
47.0531084224
 20
89.9000503597
 11
29.8531084224
 21
89.9000503597
  0
LINE
  5
40E
100
AcDbEntity
  8
0
100
AcDbLine
 62
7
  6
BYLAYER
 10
30.0531084224
 20
90.1500503597
 11
46.8531084224
 21
90.1500503597
  0
LINE
  5
40F
100
AcDbEntity
  8
0
100
AcDbLine
 62
7
  6
BYLAYER
 10
75.3531084224
 20
9.9500503597
 11
75.3531084224
 21
110.8500503597
  0
LINE
  5
410
100
AcDbEntity
  8
0
100
AcDbLine
 62
7
  6
BYLAYER
 10
75.4531084224
 20
25.4000503597
 11
75.4531084224
 21
95.4000503597
  0
LINE
  5
411
100
AcDbEntity
  8
0
100
AcDbLine
 62
7
  6
BYLAYER
 10
42.7697754069
 20
29.3830290375
 11
42.6031084224
 21
29.2128162918
  0
LINE
  5
412
100
AcDbEntity
  8
0
100
AcDbLine
 62
7
  6
BYLAYER
 10
42.9364414378
 20
28.9574971733
 11
43.1864414378
 21
29.2128162918
  0
LINE
  5
413
100
AcDbEntity
  8
0
100
AcDbLine
 62
7
  6
BYLAYER
 10
46.2697744532
 20
29.3830290375
 11
46.1031084224
 21
29.2128162918
  0
LINE
  5
414
100
AcDbEntity
  8
0
100
AcDbLine
 62
7
  6
BYLAYER
 10
44.6864423915
 20
27.255369508
 11
44.9364423915
 21
27.5106886563
  0
LINE
  5
415
100
AcDbEntity
  8
0
100
AcDbLine
 62
7
  6
BYLAYER
 10
30.0197751685
 20
27.7660078344
 11
29.7697751685
 21
27.5957950292
  0
LINE
  5
416
100
AcDbEntity
  8
0
100
AcDbLine
 62
7
  6
BYLAYER
 10
34.9364419146
 20
34.638348156
 11
34.6031084224
 21
34.4681354103
  0
LINE
  5
417
100
AcDbEntity
  8
0
100
AcDbLine
 62
7
  6
BYLAYER
 10
28.2697751089
 20
30.9149439869
 11
27.9364417358
 21
30.7447312412
  0
LINE
  5
418
100
AcDbEntity
  8
0
100
AcDbLine
 62
7
  6
BYLAYER
 10
34.9364419146
 20
34.2128162918
 11
35.1031084224
 21
34.2979226646
  0
LINE
  5
419
100
AcDbEntity
  8
0
100
AcDbLine
 62
7
  6
BYLAYER
 10
32.7697749301
 20
32.08515674
 11
32.9364419146
 21
32.1702631203
  0
LINE
  5
41A
100
AcDbEntity
  8
0
100
AcDbLine
 62
7
  6
BYLAYER
 10
29.6864416762
 20
34.3830290375
 11
29.4364416762
 21
34.2979226646
  0
LINE
  5
41B
100
AcDbEntity
  8
0
100
AcDbLine
 62
7
  6
BYLAYER
 10
56.8931084224
 20
91.0300503597
 11
60.0431084224
 21
91.0300503597
  0
LINE
  5
41C
100
AcDbEntity
  8
0
100
AcDbLine
 62
7
  6
BYLAYER
 10
56.8431084224
 20
91.0800503597
 11
60.0931084224
 21
91.0800503597
  0
LINE
  5
41D
100
AcDbEntity
  8
0
100
AcDbLine
 62
7
  6
BYLAYER
 10
32.8531084224
 20
91.4500503597
 11
30.9531084224
 21
91.4500503597
  0
LINE
  5
41E
100
AcDbEntity
  8
0
100
AcDbLine
 62
7
  6
BYLAYER
 10
40.3531084224
 20
92.1500503597
 11
33.6831084224
 21
92.1500503597
  0
LINE
  5
41F
100
AcDbEntity
  8
0
100
AcDbLine
 62
7
  6
BYLAYER
 10
60.0931084224
 20
92.6300503597
 11
56.8431084224
 21
92.6300503597
  0
LINE
  5
420
100
AcDbEntity
  8
0
100
AcDbLine
 62
7
  6
BYLAYER
 10
60.0431084224
 20
92.6800503597
 11
56.8931084224
 21
92.6800503597
  0
LINE
  5
421
100
AcDbEntity
  8
0
100
AcDbLine
 62
7
  6
BYLAYER
 10
37.7531084224
 20
94.2800503597
 11
40.3531084224
 21
94.2800503597
  0
LINE
  5
422
100
AcDbEntity
  8
0
100
AcDbLine
 62
7
  6
BYLAYER
 10
56.8931084224
 20
94.3300503597
 11
60.0431084224
 21
94.3300503597
  0
LINE
  5
423
100
AcDbEntity
  8
0
100
AcDbLine
 62
7
  6
BYLAYER
 10
56.8431084224
 20
94.3800503597
 11
60.0931084224
 21
94.3800503597
  0
LINE
  5
424
100
AcDbEntity
  8
0
100
AcDbLine
 62
7
  6
BYLAYER
 10
75.4531084224
 20
94.4000503597
 11
75.3531084224
 21
94.4000503597
  0
LINE
  5
425
100
AcDbEntity
  8
0
100
AcDbLine
 62
7
  6
BYLAYER
 10
30.9531084224
 20
94.5500503597
 11
32.8531084224
 21
94.5500503597
  0
LINE
  5
426
100
AcDbEntity
  8
0
100
AcDbLine
 62
7
  6
BYLAYER
 10
37.7531084224
 20
94.8800503597
 11
40.3531084224
 21
94.8800503597
  0
LINE
  5
427
100
AcDbEntity
  8
0
100
AcDbLine
 62
7
  6
BYLAYER
 10
33.6831084224
 20
95.0000503597
 11
32.0331084224
 21
95.0000503597
  0
LINE
  5
428
100
AcDbEntity
  8
0
100
AcDbLine
 62
7
  6
BYLAYER
 10
37.7531084224
 20
95.3000503597
 11
40.3531084224
 21
95.3000503597
  0
LINE
  5
429
100
AcDbEntity
  8
0
100
AcDbLine
 62
7
  6
BYLAYER
 10
38.5197754069
 20
29.0426035461
 11
38.7697754069
 21
29.2128162918
  0
LINE
  5
42A
100
AcDbEntity
  8
0
100
AcDbLine
 62
7
  6
BYLAYER
 10
36.5197754069
 20
27.5957950292
 11
36.2697754069
 21
27.4255822835
  0
LINE
  5
42B
100
AcDbEntity
  8
0
100
AcDbLine
 62
7
  6
BYLAYER
 10
40.0197754069
 20
27.680901402
 11
39.7697754069
 21
27.5106886563
  0
LINE
  5
42C
100
AcDbEntity
  8
0
100
AcDbLine
 62
7
  6
BYLAYER
 10
43.0197754069
 20
29.5532417831
 11
42.7697754069
 21
29.3830290375
  0
LINE
  5
42D
100
AcDbEntity
  8
0
100
AcDbLine
 62
7
  6
BYLAYER
 10
39.9364414378
 20
27.08515674
 11
40.1864414378
 21
27.255369508
  0
LINE
  5
42E
100
AcDbEntity
  8
0
100
AcDbLine
 62
7
  6
BYLAYER
 10
46.5197744532
 20
29.5532417831
 11
46.2697744532
 21
29.3830290375
  0
LINE
  5
42F
100
AcDbEntity
  8
0
100
AcDbLine
 62
7
  6
BYLAYER
 10
36.6031084223
 20
32.5106886563
 11
36.4364414378
 21
32.4255822835
  0
LINE
  5
430
100
AcDbEntity
  8
0
100
AcDbLine
 62
7
  6
BYLAYER
 10
36.6031084224
 20
32.08515674
 11
36.9364414378
 21
32.255369508
  0
LINE
  5
431
100
AcDbEntity
  8
0
100
AcDbLine
 62
7
  6
BYLAYER
 10
31.9364419146
 20
29.638348156
 11
31.7697749301
 21
29.5532417831
  0
LINE
  5
432
100
AcDbEntity
  8
0
100
AcDbLine
 62
7
  6
BYLAYER
 10
29.8531084224
 20
27.08515674
 11
30.1864416762
 21
27.255369508
  0
LINE
  5
433
100
AcDbEntity
  8
0
100
AcDbLine
 62
7
  6
BYLAYER
 10
33.2697749301
 20
27.08515674
 11
33.4364419146
 21
27.1702631203
  0
LINE
  5
434
100
AcDbEntity
  8
0
100
AcDbLine
 62
7
  6
BYLAYER
 10
38.7697754069
 20
29.638348156
 11
38.6031084223
 21
29.5532417831
  0
LINE
  5
435
100
AcDbEntity
  8
0
100
AcDbLine
 62
7
  6
BYLAYER
 10
29.6864416762
 20
32.5957950292
 11
29.4364416762
 21
32.5106886563
  0
LINE
  5
436
100
AcDbEntity
  8
0
100
AcDbLine
 62
7
  6
BYLAYER
 10
75.3531084224
 20
95.4000503597
 11
75.4531084224
 21
95.4000503597
  0
LINE
  5
437
100
AcDbEntity
  8
0
100
AcDbLine
 62
7
  6
BYLAYER
 10
37.7531084224
 20
95.9000503597
 11
40.3531084224
 21
95.9000503597
  0
LINE
  5
438
100
AcDbEntity
  8
0
100
AcDbLine
 62
7
  6
BYLAYER
 10
60.0931084224
 20
95.9300503597
 11
56.8431084224
 21
95.9300503597
  0
LINE
  5
439
100
AcDbEntity
  8
0
100
AcDbLine
 62
7
  6
BYLAYER
 10
60.0431084224
 20
95.9800503597
 11
56.8931084224
 21
95.9800503597
  0
LINE
  5
43A
100
AcDbEntity
  8
0
100
AcDbLine
 62
7
  6
BYLAYER
 10
32.0331084224
 20
96.1200503597
 11
30.8031084224
 21
96.1200503597
  0
LINE
  5
43B
100
AcDbEntity
  8
0
100
AcDbLine
 62
7
  6
BYLAYER
 10
37.7531084224
 20
96.3200503597
 11
40.3531084224
 21
96.3200503597
  0
LINE
  5
43C
100
AcDbEntity
  8
0
100
AcDbLine
 62
7
  6
BYLAYER
 10
37.7531084224
 20
96.9200503597
 11
40.3531084224
 21
96.9200503597
  0
LINE
  5
43D
100
AcDbEntity
  8
0
100
AcDbLine
 62
7
  6
BYLAYER
 10
37.7531084224
 20
97.3400503597
 11
40.3531084224
 21
97.3400503597
  0
LINE
  5
43E
100
AcDbEntity
  8
0
100
AcDbLine
 62
7
  6
BYLAYER
 10
56.8931084224
 20
97.6300503597
 11
60.0431084224
 21
97.6300503597
  0
LINE
  5
43F
100
AcDbEntity
  8
0
100
AcDbLine
 62
7
  6
BYLAYER
 10
56.8431084224
 20
97.6800503597
 11
60.0931084224
 21
97.6800503597
  0
LINE
  5
440
100
AcDbEntity
  8
0
100
AcDbLine
 62
7
  6
BYLAYER
 10
37.7531084224
 20
97.9400503597
 11
40.3531084224
 21
97.9400503597
  0
LINE
  5
441
100
AcDbEntity
  8
0
100
AcDbLine
 62
7
  6
BYLAYER
 10
37.7531084224
 20
98.3600503597
 11
40.3531084224
 21
98.3600503597
  0
LINE
  5
442
100
AcDbEntity
  8
0
100
AcDbLine
 62
7
  6
BYLAYER
 10
37.7531084224
 20
98.9600503597
 11
40.3531084224
 21
98.9600503597
  0
LINE
  5
443
100
AcDbEntity
  8
0
100
AcDbLine
 62
7
  6
BYLAYER
 10
60.0931084224
 20
99.2300503597
 11
56.8431084224
 21
99.2300503597
  0
LINE
  5
444
100
AcDbEntity
  8
0
100
AcDbLine
 62
7
  6
BYLAYER
 10
60.0431084224
 20
99.2800503597
 11
56.8931084224
 21
99.2800503597
  0
LINE
  5
445
100
AcDbEntity
  8
0
100
AcDbLine
 62
7
  6
BYLAYER
 10
37.7531084224
 20
99.3800503597
 11
40.3531084224
 21
99.3800503597
  0
LINE
  5
446
100
AcDbEntity
  8
0
100
AcDbLine
 62
7
  6
BYLAYER
 10
44.5197744532
 20
27.5957950292
 11
44.2697744532
 21
27.4255822835
  0
LINE
  5
447
100
AcDbEntity
  8
0
100
AcDbLine
 62
7
  6
BYLAYER
 10
36.2697754069
 20
27.08515674
 11
36.4364414378
 21
27.1702631203
  0
LINE
  5
448
100
AcDbEntity
  8
0
100
AcDbLine
 62
7
  6
BYLAYER
 10
43.1864414378
 20
29.2128162918
 11
43.3531084224
 21
29.2979226646
  0
LINE
  5
449
100
AcDbEntity
  8
0
100
AcDbLine
 62
7
  6
BYLAYER
 10
46.3531084224
 20
29.0426035461
 11
46.6864423914
 21
29.2128162918
  0
LINE
  5
44A
100
AcDbEntity
  8
0
100
AcDbLine
 62
7
  6
BYLAYER
 10
44.3531084224
 20
27.08515674
 11
44.6864423915
 21
27.255369508
  0
LINE
  5
44B
100
AcDbEntity
  8
0
100
AcDbLine
 62
7
  6
BYLAYER
 10
37.7531084224
 20
99.9800503597
 11
40.3531084224
 21
99.9800503597
  0
LINE
  5
44C
100
AcDbEntity
  8
0
100
AcDbLine
 62
7
  6
BYLAYER
 10
30.8031084224
 20
100.1800503597
 11
32.0331084224
 21
100.1800503597
  0
LINE
  5
44D
100
AcDbEntity
  8
0
100
AcDbLine
 62
7
  6
BYLAYER
 10
37.7531084224
 20
100.4000503597
 11
40.3531084224
 21
100.4000503597
  0
LINE
  5
44E
100
AcDbEntity
  8
0
100
AcDbLine
 62
7
  6
BYLAYER
 10
56.8931084224
 20
100.9300503597
 11
60.0431084224
 21
100.9300503597
  0
LINE
  5
44F
100
AcDbEntity
  8
0
100
AcDbLine
 62
7
  6
BYLAYER
 10
56.8431084224
 20
100.9800503597
 11
60.0931084224
 21
100.9800503597
  0
LINE
  5
450
100
AcDbEntity
  8
0
100
AcDbLine
 62
7
  6
BYLAYER
 10
37.7531084224
 20
101.0000503597
 11
40.3531084224
 21
101.0000503597
  0
LINE
  5
451
100
AcDbEntity
  8
0
100
AcDbLine
 62
7
  6
BYLAYER
 10
32.0331084224
 20
101.3000503597
 11
33.6831084224
 21
101.3000503597
  0
LINE
  5
452
100
AcDbEntity
  8
0
100
AcDbLine
 62
7
  6
BYLAYER
 10
37.7531084224
 20
101.4200503597
 11
40.3531084224
 21
101.4200503597
  0
LINE
  5
453
100
AcDbEntity
  8
0
100
AcDbLine
 62
7
  6
BYLAYER
 10
32.8531084224
 20
101.7500503597
 11
30.9531084224
 21
101.7500503597
  0
LINE
  5
454
100
AcDbEntity
  8
0
100
AcDbLine
 62
7
  6
BYLAYER
 10
37.7531084224
 20
102.0200503597
 11
40.3531084224
 21
102.0200503597
  0
LINE
  5
455
100
AcDbEntity
  8
0
100
AcDbLine
 62
7
  6
BYLAYER
 10
60.0931084224
 20
102.5300503597
 11
56.8431084224
 21
102.5300503597
  0
LINE
  5
456
100
AcDbEntity
  8
0
100
AcDbLine
 62
7
  6
BYLAYER
 10
60.0431084224
 20
102.5800503597
 11
56.8931084224
 21
102.5800503597
  0
LINE
  5
457
100
AcDbEntity
  8
0
100
AcDbLine
 62
7
  6
BYLAYER
 10
43.2697754069
 20
29.638348156
 11
43.0197754069
 21
29.5532417831
  0
LINE
  5
458
100
AcDbEntity
  8
0
100
AcDbLine
 62
7
  6
BYLAYER
 10
46.7697744532
 20
29.638348156
 11
46.5197744532
 21
29.5532417831
  0
LINE
  5
459
100
AcDbEntity
  8
0
100
AcDbLine
 62
7
  6
BYLAYER
 10
33.6831084224
 20
104.1500503597
 11
40.3531084224
 21
104.1500503597
  0
LINE
  5
45A
100
AcDbEntity
  8
0
100
AcDbLine
 62
7
  6
BYLAYER
 10
56.8931084224
 20
104.2300503597
 11
60.0431084224
 21
104.2300503597
  0
LINE
  5
45B
100
AcDbEntity
  8
0
100
AcDbLine
 62
7
  6
BYLAYER
 10
56.8431084224
 20
104.2800503597
 11
60.0931084224
 21
104.2800503597
  0
LINE
  5
45C
100
AcDbEntity
  8
0
100
AcDbLine
 62
7
  6
BYLAYER
 10
30.9531084224
 20
104.8500503597
 11
32.8531084224
 21
104.8500503597
  0
LINE
  5
45D
100
AcDbEntity
  8
0
100
AcDbLine
 62
7
  6
BYLAYER
 10
75.3531084224
 20
105.3500503597
 11
50.3531084224
 21
105.3500503597
  0
LINE
  5
45E
100
AcDbEntity
  8
0
100
AcDbLine
 62
7
  6
BYLAYER
 10
46.8531084224
 20
106.1500503597
 11
30.0531084224
 21
106.1500503597
  0
LINE
  5
45F
100
AcDbEntity
  8
0
100
AcDbLine
 62
7
  6
BYLAYER
 10
29.8531084224
 20
106.4000503597
 11
47.0531084224
 21
106.4000503597
  0
LINE
  5
460
100
AcDbEntity
  8
0
100
AcDbLine
 62
7
  6
BYLAYER
 10
53.2331084224
 20
115.5800503597
 11
51.7331084224
 21
117.0800503597
  0
LINE
  5
461
100
AcDbEntity
  8
0
100
AcDbLine
 62
7
  6
BYLAYER
 10
59.1531084224
 20
110.7708528833
 11
68.3231084224
 21
110.7708528833
  0
LINE
  5
462
100
AcDbEntity
  8
0
100
AcDbLine
 62
7
  6
BYLAYER
 10
25.3531084224
 20
110.8500503597
 11
59.1531084224
 21
110.8500503597
  0
LINE
  5
463
100
AcDbEntity
  8
0
100
AcDbLine
 62
7
  6
BYLAYER
 10
68.3231084224
 20
110.8500503597
 11
75.3531084224
 21
110.8500503597
  0
LINE
  5
464
100
AcDbEntity
  8
0
100
AcDbLine
 62
7
  6
BYLAYER
 10
59.1331084224
 20
111.3500503597
 11
53.2331084224
 21
111.3500503597
  0
LINE
  5
465
100
AcDbEntity
  8
0
100
AcDbLine
 62
7
  6
BYLAYER
 10
59.1531084224
 20
113.4300503597
 11
68.3231084224
 21
113.4300503597
  0
LINE
  5
466
100
AcDbEntity
  8
0
100
AcDbLine
 62
7
  6
BYLAYER
 10
65.8381084224
 20
117.2600503597
 11
61.6381084224
 21
117.2600503597
  0
LINE
  5
467
100
AcDbEntity
  8
0
100
AcDbLine
 62
7
  6
BYLAYER
 10
65.8381084224
 20
118.5600503597
 11
61.6381084224
 21
118.5600503597
  0
LINE
  5
468
100
AcDbEntity
  8
0
100
AcDbLine
 62
7
  6
BYLAYER
 10
51.7331084224
 20
126.0900503597
 11
66.7331084224
 21
126.0900503597
  0
LINE
  5
469
100
AcDbEntity
  8
0
100
AcDbLine
 62
7
  6
BYLAYER
 10
59.8631084224
 20
127.4502395804
 11
60.7631084224
 21
127.4502395804
  0
LINE
  5
46A
100
AcDbEntity
  8
0
100
AcDbLine
 62
7
  6
BYLAYER
 10
59.3131084224
 20
128.1600503597
 11
59.8631084224
 21
128.1600503597
  0
LINE
  5
46B
100
AcDbEntity
  8
0
100
AcDbLine
 62
7
  6
BYLAYER
 10
60.7631084224
 20
128.1600503597
 11
61.3131084224
 21
128.1600503597
  0
ARC
  5
46C
100
AcDbEntity
  8
0
100
AcDbCircle
 62
7
  6
BYLAYER
 10
71.3531084224
 20
13.9500503597
 40
4.0
100
AcDbArc
 50
270.0
 51
360.0
  0
ARC
  5
46D
100
AcDbEntity
  8
0
100
AcDbCircle
 62
7
  6
BYLAYER
 10
54.3531084224
 20
13.9500503597
 40
4.0
100
AcDbArc
 50
180.0
 51
270.0
  0
ARC
  5
46E
100
AcDbEntity
  8
0
100
AcDbCircle
 62
7
  6
BYLAYER
 10
63.4462954224
 20
76.2677793597
 40
1.412271
100
AcDbArc
 50
0.0
 51
90.0
  0
ARC
  5
46F
100
AcDbEntity
  8
0
100
AcDbCircle
 62
7
  6
BYLAYER
 10
63.1608374224
 20
76.2677793597
 40
1.412271
100
AcDbArc
 50
90.0
 51
180.0
  0
ARC
  5
470
100
AcDbEntity
  8
0
100
AcDbCircle
 62
7
  6
BYLAYER
 10
61.6931084224
 20
76.7670112811
 40
1.0
100
AcDbArc
 50
147.3097348739
 51
180.0
  0
ARC
  5
471
100
AcDbEntity
  8
0
100
AcDbCircle
 62
7
  6
BYLAYER
 10
63.1585664224
 20
76.2677793597
 40
0.9
100
AcDbArc
 50
90.0
 51
180.0
  0
ARC
  5
472
100
AcDbEntity
  8
0
100
AcDbCircle
 62
7
  6
BYLAYER
 10
63.4462954224
 20
76.2677793597
 40
0.9
100
AcDbArc
 50
0.0
 51
90.0
  0
ARC
  5
473
100
AcDbEntity
  8
0
100
AcDbCircle
 62
7
  6
BYLAYER
 10
63.9785664224
 20
73.6107784368
 40
0.88
100
AcDbArc
 50
0.0
 51
166.9999999996
  0
ARC
  5
474
100
AcDbEntity
  8
0
100
AcDbCircle
 62
7
  6
BYLAYER
 10
62.6285664224
 20
73.3200503597
 40
0.88
100
AcDbArc
 50
180.0
 51
346.9999999996
  0
ARC
  5
475
100
AcDbEntity
  8
0
100
AcDbCircle
 62
7
  6
BYLAYER
 10
65.3831084224
 20
78.4400503597
 40
0.5
100
AcDbArc
 50
0.0
 51
90.0
  0
ARC
  5
476
100
AcDbEntity
  8
0
100
AcDbCircle
 62
7
  6
BYLAYER
 10
61.1931084224
 20
71.7800503597
 40
0.5
100
AcDbArc
 50
180.0
 51
270.0
  0
ARC
  5
477
100
AcDbEntity
  8
0
100
AcDbCircle
 62
7
  6
BYLAYER
 10
64.3585664224
 20
71.7800503597
 40
0.5
100
AcDbArc
 50
270.0
 51
360.0
  0
ARC
  5
478
100
AcDbEntity
  8
0
100
AcDbCircle
 62
7
  6
BYLAYER
 10
62.1016345108
 20
78.5700503597
 40
0.37
100
AcDbArc
 50
90.0
 51
147.3097348735
  0
ARC
  5
479
100
AcDbEntity
  8
0
100
AcDbCircle
 62
7
  6
BYLAYER
 10
62.6285664224
 20
73.3200503597
 40
0.37
100
AcDbArc
 50
180.0
 51
346.9999999996
  0
ARC
  5
47A
100
AcDbEntity
  8
0
100
AcDbCircle
 62
7
  6
BYLAYER
 10
63.9785664224
 20
73.6107784368
 40
0.37
100
AcDbArc
 50
0.0
 51
166.9999999996
  0
ARC
  5
47B
100
AcDbEntity
  8
0
100
AcDbCircle
 62
7
  6
BYLAYER
 10
64.5585664224
 20
75.5200503597
 40
0.3
100
AcDbArc
 50
269.9999999998
 51
360.0
  0
ARC
  5
47C
100
AcDbEntity
  8
0
100
AcDbCircle
 62
7
  6
BYLAYER
 10
62.8085664224
 20
75.4761858597
 40
0.2561355
100
AcDbArc
 50
89.9999999998
 51
270.0000000002
  0
ARC
  5
47D
100
AcDbEntity
  8
0
100
AcDbCircle
 62
7
  6
BYLAYER
 10
65.6269729224
 20
71.5400503597
 40
0.2561355
100
AcDbArc
 50
180.0
 51
360.0
  0
SPLINE
  5
47E
100
AcDbEntity
  8
0
100
AcDbSpline
 62
7
  6
BYLAYER
 70
0
 71
3
 72
20
 73
16
 74
0
 42
0.0000001
 43
0.0000001
 44
0.0000000001
 40
0.0
 40
0.0
 40
0.0
 40
0.0
 40
0.0312586126
 40
0.0625444608
 40
0.0938003147
 40
0.1250695745
 40
0.1875514348
 40
0.2500473871
 40
0.3125557283
 40
0.3750723598
 40
0.4999981901
 40
0.624977405
 40
0.7499774773
 40
0.8749870096
 40
1.0
 40
1.0
 40
1.0
 40
1.0
 10
70.1291708594
 20
68.4815194835
 30
0.0
 10
70.2173482515
 20
68.4815194835
 30
0.0
 10
70.3938527367
 20
68.4933506402
 30
0.0
 10
70.6551750094
 20
68.5368622437
 30
0.0
 10
70.9114035679
 20
68.6049265959
 30
0.0
 10
71.2413164319
 20
68.7309362728
 30
0.0
 10
71.6293446282
 20
68.9451732808
 30
0.0
 10
72.0461927134
 20
69.273756774
 30
0.0
 10
72.4138428542
 20
69.6560803831
 30
0.0
 10
72.8408824531
 20
70.2187082391
 30
0.0
 10
73.2667033869
 20
70.9959155485
 30
0.0
 10
73.6332773012
 20
71.9908794487
 30
0.0
 10
73.8792821249
 20
73.0218035318
 30
0.0
 10
74.0223039403
 20
74.0715820374
 30
0.0
 10
74.0504591816
 20
74.7774013441
 30
0.0
 10
74.0504591816
 20
75.1300503764
 30
0.0
  0
SPLINE
  5
47F
100
AcDbEntity
  8
0
100
AcDbSpline
 62
7
  6
BYLAYER
 70
0
 71
3
 72
20
 73
16
 74
0
 42
0.0000001
 43
0.0000001
 44
0.0000000001
 40
0.0
 40
0.0
 40
0.0
 40
0.0
 40
0.0312586102
 40
0.0625444507
 40
0.0938002991
 40
0.1250695638
 40
0.1875514059
 40
0.2500473606
 40
0.3125557017
 40
0.3750723403
 40
0.4999981845
 40
0.6249774026
 40
0.7499774775
 40
0.8749870089
 40
1.0
 40
1.0
 40
1.0
 40
1.0
 10
70.1291708683
 20
81.7785813546
 30
0.0
 10
70.2173482532
 20
81.7785813546
 30
0.0
 10
70.3938526719
 20
81.7667496835
 30
0.0
 10
70.6551749514
 20
81.723238553
 30
0.0
 10
70.9114035217
 20
81.6551742527
 30
0.0
 10
71.2413162477
 20
81.5291643883
 30
0.0
 10
71.6293445124
 20
81.3149276011
 30
0.0
 10
72.0461925342
 20
80.986344082
 30
0.0
 10
72.4138427318
 20
80.6040205047
 30
0.0
 10
72.8408823718
 20
80.041392606
 30
0.0
 10
73.2667033618
 20
79.2641852562
 30
0.0
 10
73.6332772812
 20
78.2692213044
 30
0.0
 10
73.8792821323
 20
77.2382972197
 30
0.0
 10
74.0223039025
 20
76.188518708
 30
0.0
 10
74.0504591816
 20
75.4826994086
 30
0.0
 10
74.0504591816
 20
75.1300503764
 30
0.0
  0
ENDSEC
  0
SECTION
  2
OBJECTS
  0
DICTIONARY
  5
C
100
AcDbDictionary
280
0
281
1
  3
ACAD_GROUP
350
D
  3
ACAD_MLINESTYLE
350
17
  3
ACAD_LAYOUT
350
1A
  3
ACAD_PLOTSETTINGS
350
19
  3
ACAD_PLOTSTYLENAME
350
E
  0
DICTIONARY
  5
D
102
{ACAD_REACTORS
330
C
102
}
100
AcDbDictionary
280
0
281
1
  0
ACDBDICTIONARYWDFLT
  5
E
102
{ACAD_REACTORS
330
C
102
}
100
AcDbDictionary
281
1
  3
Normal
350
F
100
AcDbDictionaryWithDefault
340
F
  0
DICTIONARY
  5
17
102
{ACAD_REACTORS
330
C
102
}
100
AcDbDictionary
280
0
281
1
  3
Standard
350
18
  0
DICTIONARY
  5
19
102
{ACAD_REACTORS
330
C
102
}
100
AcDbDictionary
281
1
  0
DICTIONARY
  5
1A
102
{ACAD_REACTORS
330
C
102
}
100
AcDbDictionary
281
1
  3
Model
350
480
  3
Layout1
350
481
  0
ACDBPLACEHOLDER
  5
F
102
{ACAD_REACTORS
330
E
102
}
  0
MLINESTYLE
  5
18
102
{ACAD_REACTORS
330
17
102
}
100
AcDbMlineStyle
  2
STANDARD
 70
0
  3

 62
256
 51
90.0
 52
90.0
 71
2
 49
0.5
 62
256
  6
BYLAYER
 49
-0.5
 62
256
  6
BYLAYER
  0
LAYOUT
  5
480
102
{ACAD_REACTORS
330
1A
102
}
100
AcDbPlotSettings
  1

  2
none_device
  4

  6

 40
0.0
 41
0.0
 42
0.0
 43
0.0
 44
210.0
 45
297.0
 46
0.0
 47
0.0
 48
0.0
 49
0.0
140
0.0
141
0.0
142
1.0
143
1.0
 70
1024
 72
1
 73
0
 74
0
  7

 75
0
147
1.0
148
0.0
149
0.0
100
AcDbLayout
  1
Model
 70
0
 71
0
 10
0.0
 20
0.0
 11
210.0
 21
297.0
 12
0.0
 22
0.0
 32
0.0
 14
0.0
 24
0.0
 34
0.0
 15
0.0
 25
0.0
 35
0.0
146
0.0
 13
0.0
 23
0.0
 33
0.0
 16
1.0
 26
0.0
 36
0.0
 17
0.0
 27
1.0
 37
0.0
 76
0
330
210
345
0
346
0
  0
LAYOUT
  5
481
102
{ACAD_REACTORS
330
1A
102
}
100
AcDbPlotSettings
  1

  2
none_device
  4

  6

 40
0.0
 41
0.0
 42
0.0
 43
0.0
 44
210.0
 45
297.0
 46
0.0
 47
0.0
 48
0.0
 49
0.0
140
0.0
141
0.0
142
1.0
143
1.0
 70
0
 72
1
 73
0
 74
0
  7

 75
0
147
1.0
148
0.0
149
0.0
100
AcDbLayout
  1
Layout1
 70
0
 71
1
 10
0.0
 20
0.0
 11
210.0
 21
297.0
 12
0.0
 22
0.0
 32
0.0
 14
0.0
 24
0.0
 34
0.0
 15
0.0
 25
0.0
 35
0.0
146
0.0
 13
0.0
 23
0.0
 33
0.0
 16
1.0
 26
0.0
 36
0.0
 17
0.0
 27
1.0
 37
0.0
 76
0
330
211
345
0
346
0
  0
ENDSEC
  0
EOF
