999
DXF file: C:\Users\sesa63760\Dev\_Creo\CAD\MCADUE0002519_3D-CAD\drw0001_4.dxf
999
Pro/ENGINEER 2019471 by Parametric Technology Corporation
  0
SECTION
  2
HEADER
  9
$ACADVER
  1
AC1024
  9
$DWGCODEPAGE
  3
ANSI_1252
  9
$EXTMAX
 10
622.4965168931
 20
880.3879310345
 30
0.0
  9
$EXTMIN
 10
0.0
 20
0.0
 30
0.0
  9
$LIMMIN
 10
0.0
 20
0.0
  9
$LIMMAX
 10
622.4965168931
 20
880.3879310345
  9
$VIEWCTR
 10
311.2482584465
 20
440.1939655172
  9
$VIEWSIZE
 40
880.3879310345
  9
$CLAYER
  8
0
  9
$LTSCALE
 40
57.3882503193
  9
$CELTYPE
  6
BYLAYER
  9
$DIMSCALE
 40
1.0
  9
$DIMASZ
 40
7.4106728202
  9
$DIMEXO
 40
1.0
  9
$DIMDLI
 40
39.650063857
  9
$DIMEXE
 40
1.0
  9
$DIMCEN
 40
9.3908045977
  9
$DIMLFAC
 40
1.0
  9
$DIMBLK
  1
_FILLED
  9
$DIMALT
 70
0
  9
$DIMALTF
 40
0.0393700787
  9
$DIMTXT
 40
10.3749419482
  9
$DIMTOL
 70
1
  9
$DIMLIM
 70
0
  9
$DIMTFAC
 40
1.0
  9
$DIMTP
 40
0.01
  9
$DIMTM
 40
0.01
  9
$DIMGAP
 40
0.625
  9
$DIMDSEP
 70
46
  9
$AUNITS
 70
0
  9
$PDMODE
 70
3
  9
$PDSIZE
 40
0.3125
  9
$HANDSEED
  5
2D7
  9
$TILEMODE
 70
1
  9
$MEASUREMENT
 70
1
  9
$INSUNITS
 70
4
  0
ENDSEC
  0
SECTION
  2
CLASSES
  0
CLASS
  1
ACDBDICTIONARYWDFLT
  2
AcDbDictionaryWithDefault
  3
AutoCAD 2000
 90
0
 91
1
280
0
281
0
  0
CLASS
  1
ACDBPLACEHOLDER
  2
AcDbPlaceHolder
  3
AutoCAD 2000
 90
0
 91
1
280
0
281
0
  0
CLASS
  1
LAYOUT
  2
AcDbLayout
  3
AutoCAD 2000
 90
0
 91
0
280
0
281
0
  0
ENDSEC
  0
SECTION
  2
TABLES
  0
TABLE
  2
VPORT
  5
8
100
AcDbSymbolTable
 70
2
  0
VPORT
  5
1F4
100
AcDbSymbolTableRecord
100
AcDbViewportTableRecord
  2
*ACTIVE
 70
0
 10
0.0
 20
0.0
 11
1.0
 21
1.0
 12
311.2482584465
 22
440.1939655172
 13
0.0
 23
0.0
 14
1.0
 24
1.0
 15
0.0
 25
0.0
 16
0.0
 26
0.0
 36
1.0
 17
0.0
 27
0.0
 37
0.0
 40
880.3879310345
 41
0.7070707071
 42
50.0
 43
0.0
 44
0.0
 50
0.0
 51
0.0
 71
0
 72
100
 73
1
 74
1
 75
0
 76
0
 77
0
 78
0
  0
ENDTAB
  0
TABLE
  2
LTYPE
  5
5
100
AcDbSymbolTable
 70
6
  0
LTYPE
  5
14
100
AcDbSymbolTableRecord
100
AcDbLinetypeTableRecord
  2
BYBLOCK
 70
0
  3

 72
65
 73
0
 40
0.0
  0
LTYPE
  5
15
100
AcDbSymbolTableRecord
100
AcDbLinetypeTableRecord
  2
BYLAYER
 70
0
  3

 72
65
 73
0
 40
0.0
  0
LTYPE
  5
16
100
AcDbSymbolTableRecord
100
AcDbLinetypeTableRecord
  2
CONTINUOUS
 70
64
  3
Solid line
 72
65
 73
0
 40
0.0
  0
LTYPE
  5
1F5
100
AcDbSymbolTableRecord
100
AcDbLinetypeTableRecord
  2
CENTER
 70
64
  3
____ _ ____ _ ____ _ ____ _ ____ _ ____ _ ____
 72
65
 73
4
 40
0.6
 49
0.375
 74
0
 49
-0.075
 74
0
 49
0.075
 74
0
 49
-0.075
 74
0
  0
LTYPE
  5
1F6
100
AcDbSymbolTableRecord
100
AcDbLinetypeTableRecord
  2
HIDDEN
 70
64
  3
- - - - - - - - - - - - - - - - - - - -
 72
65
 73
2
 40
0.2
 49
0.1
 74
0
 49
-0.1
 74
0
  0
LTYPE
  5
1F7
100
AcDbSymbolTableRecord
100
AcDbLinetypeTableRecord
  2
PHANTOM
 70
64
  3
_____ _ _ _____ _ _ _____ _ _ _____
 72
65
 73
6
 40
0.8
 49
0.45
 74
0
 49
-0.05
 74
0
 49
0.1
 74
0
 49
-0.05
 74
0
 49
0.1
 74
0
 49
-0.05
 74
0
  0
LTYPE
  5
1F8
100
AcDbSymbolTableRecord
100
AcDbLinetypeTableRecord
  2
DOT
 70
64
  3
. . . . . . . . . . . . . . . . . . . .
 72
65
 73
2
 40
0.2
 49
0.1
 74
0
 49
-0.1
 74
0
  0
LTYPE
  5
1F9
100
AcDbSymbolTableRecord
100
AcDbLinetypeTableRecord
  2
DASHED
 70
64
  3
- - - - - - - - - - - - - - - - - - - -
 72
65
 73
2
 40
0.2
 49
0.1
 74
0
 49
-0.1
 74
0
  0
ENDTAB
  0
TABLE
  2
LAYER
  5
2
100
AcDbSymbolTable
 70
36
  0
LAYER
  5
10
100
AcDbSymbolTableRecord
100
AcDbLayerTableRecord
  2
0
 70
0
 62
7
  6
CONTINUOUS
370
-3
390
F
  0
LAYER
  5
1FA
100
AcDbSymbolTableRecord
100
AcDbLayerTableRecord
  2
DEFAULT_1
 70
0
 62
7
  6
CENTER
370
-3
390
F
  0
LAYER
  5
1FB
100
AcDbSymbolTableRecord
100
AcDbLayerTableRecord
  2
DEFAULT_2
 70
0
 62
8
  6
HIDDEN
370
-3
390
F
  0
LAYER
  5
1FC
100
AcDbSymbolTableRecord
100
AcDbLayerTableRecord
  2
DEFAULT_3
 70
0
 62
7
  6
PHANTOM
370
-3
390
F
  0
LAYER
  5
1FD
100
AcDbSymbolTableRecord
100
AcDbLayerTableRecord
  2
00_COMPONENTS
 70
0
 62
7
  6
CONTINUOUS
370
-3
390
F
  0
LAYER
  5
1FE
100
AcDbSymbolTableRecord
100
AcDbLayerTableRecord
  2
01_1_DEFAULT_DATUMS
 70
0
 62
7
  6
CONTINUOUS
370
-3
390
F
  0
LAYER
  5
1FF
100
AcDbSymbolTableRecord
100
AcDbLayerTableRecord
  2
01_PLANES
 70
0
 62
7
  6
CONTINUOUS
370
-3
390
F
  0
LAYER
  5
200
100
AcDbSymbolTableRecord
100
AcDbLayerTableRecord
  2
02_COORD_SYS
 70
0
 62
7
  6
CONTINUOUS
370
-3
390
F
  0
LAYER
  5
201
100
AcDbSymbolTableRecord
100
AcDbLayerTableRecord
  2
03_AXES
 70
0
 62
7
  6
CONTINUOUS
370
-3
390
F
  0
LAYER
  5
202
100
AcDbSymbolTableRecord
100
AcDbLayerTableRecord
  2
04_POINTS
 70
0
 62
7
  6
CONTINUOUS
370
-3
390
F
  0
LAYER
  5
203
100
AcDbSymbolTableRecord
100
AcDbLayerTableRecord
  2
05_CURVES
 70
0
 62
7
  6
CONTINUOUS
370
-3
390
F
  0
LAYER
  5
204
100
AcDbSymbolTableRecord
100
AcDbLayerTableRecord
  2
06_SURFS
 70
0
 62
7
  6
CONTINUOUS
370
-3
390
F
  0
LAYER
  5
205
100
AcDbSymbolTableRecord
100
AcDbLayerTableRecord
  2
07_COSMETICS
 70
0
 62
7
  6
CONTINUOUS
370
-3
390
F
  0
LAYER
  5
206
100
AcDbSymbolTableRecord
100
AcDbLayerTableRecord
  2
10_NOTES
 70
0
 62
7
  6
CONTINUOUS
370
-3
390
F
  0
LAYER
  5
207
100
AcDbSymbolTableRecord
100
AcDbLayerTableRecord
  2
11_NOTES_PUB
 70
0
 62
7
  6
CONTINUOUS
370
-3
390
F
  0
LAYER
  5
208
100
AcDbSymbolTableRecord
100
AcDbLayerTableRecord
  2
13_REF_GTOL
 70
0
 62
7
  6
CONTINUOUS
370
-3
390
F
  0
LAYER
  5
209
100
AcDbSymbolTableRecord
100
AcDbLayerTableRecord
  2
16_MISC
 70
0
 62
7
  6
CONTINUOUS
370
-3
390
F
  0
LAYER
  5
20A
100
AcDbSymbolTableRecord
100
AcDbLayerTableRecord
  2
17_NO_PRINT
 70
0
 62
7
  6
CONTINUOUS
370
-3
390
F
  0
LAYER
  5
20B
100
AcDbSymbolTableRecord
100
AcDbLayerTableRecord
  2
18_DATUM_CAMS_JOINTS
 70
0
 62
7
  6
CONTINUOUS
370
-3
390
F
  0
LAYER
  5
20C
100
AcDbSymbolTableRecord
100
AcDbLayerTableRecord
  2
19_DATUM_FUNCTIONAL
 70
0
 62
7
  6
CONTINUOUS
370
-3
390
F
  0
LAYER
  5
20D
100
AcDbSymbolTableRecord
100
AcDbLayerTableRecord
  2
20_DATUM_KINEMATIC_SCHEME
 70
0
 62
7
  6
CONTINUOUS
370
-3
390
F
  0
ENDTAB
  0
TABLE
  2
STYLE
  5
3
100
AcDbSymbolTable
 70
1
  0
STYLE
  5
11
100
AcDbSymbolTableRecord
100
AcDbTextStyleTableRecord
  2
STANDARD
 70
0
 40
0.0
 41
0.8
 50
0.0
 71
0
 42
0.2
  3
txt
  4

  0
STYLE
  5
20E
100
AcDbSymbolTableRecord
100
AcDbTextStyleTableRecord
  2
TEXTSTYLE_1
 70
0
 40
0.0
 41
0.8
 50
0.0
 71
0
 42
0.2
  3
gdt
  4

  0
ENDTAB
  0
TABLE
  2
VIEW
  5
6
100
AcDbSymbolTable
 70
0
  0
ENDTAB
  0
TABLE
  2
UCS
  5
7
100
AcDbSymbolTable
 70
0
  0
ENDTAB
  0
TABLE
  2
APPID
  5
9
100
AcDbSymbolTable
 70
1
  0
APPID
  5
20F
100
AcDbSymbolTableRecord
100
AcDbRegAppTableRecord
  2
ACAD
 70
0
  0
ENDTAB
  0
TABLE
  2
BLOCK_RECORD
  5
1
100
AcDbSymbolTable
 70
0
  0
BLOCK_RECORD
  5
210
100
AcDbSymbolTableRecord
100
AcDbBlockTableRecord
  2
*Model_Space
  0
BLOCK_RECORD
  5
211
100
AcDbSymbolTableRecord
100
AcDbBlockTableRecord
  2
*Paper_Space
  0
BLOCK_RECORD
  5
212
100
AcDbSymbolTableRecord
100
AcDbBlockTableRecord
  2
_FILLED
  0
ENDTAB
  0
TABLE
  2
DIMSTYLE
  5
A
100
AcDbSymbolTable
 70
1
100
AcDbDimStyleTable
 71
0
  0
DIMSTYLE
105
213
100
AcDbSymbolTableRecord
100
AcDbDimStyleTableRecord
  2
STANDARD
 70
0
  3

  4

 40
1.0
 41
7.4106728202
 42
1.0
 43
0.38
 44
1.0
 45
0.0
 46
0.0
 47
0.01
 48
0.01
140
10.3749419482
141
0.09
142
0.0
143
25.4
144
1.0
145
0.0
146
1.0
147
0.625
 71
1
 72
0
 73
0
 74
0
 75
0
 76
0
 77
1
 78
8
 79
2
170
0
171
1
172
0
173
0
174
0
175
0
176
0
177
0
178
0
270
2
179
2
271
2
272
2
273
2
274
2
275
0
280
0
281
0
282
0
283
1
284
8
285
0
286
0
287
3
288
0
340
11
278
46
341
212
342
212
343
212
344
212
  0
ENDTAB
  0
ENDSEC
  0
SECTION
  2
BLOCKS
  0
BLOCK
  5
20
100
AcDbEntity
  8
0
100
AcDbBlockBegin
  2
*Model_Space
 70
0
 10
0.0
 20
0.0
 30
0.0
  3
*Model_Space
  1

  0
ENDBLK
  5
21
100
AcDbEntity
  8
0
100
AcDbBlockEnd
  0
BLOCK
  5
1C
100
AcDbEntity
  8
0
100
AcDbBlockBegin
  2
*Paper_Space
 70
0
 10
0.0
 20
0.0
 30
0.0
  3
*Paper_Space
  1

  0
ENDBLK
  5
1D
100
AcDbEntity
  8
0
100
AcDbBlockEnd
  0
BLOCK
  5
214
100
AcDbEntity
  8
0
100
AcDbBlockBegin
  2
_FILLED
 70
64
 10
0.0
 20
0.0
  3
_FILLED
  1

  0
SOLID
  5
215
100
AcDbEntity
  8
0
  6
BYBLOCK
 62
0
100
AcDbTrace
 10
0.0
 20
0.0
 11
-1.0
 21
0.25
 12
-1.0
 22
-0.25
 13
-1.0
 23
-0.25
  0
ENDBLK
  5
216
100
AcDbEntity
  8
0
  6
BYBLOCK
 62
0
100
AcDbBlockEnd
  0
ENDSEC
  0
SECTION
  2
ENTITIES
  0
LINE
  5
217
100
AcDbEntity
  8
0
100
AcDbLine
 62
7
  6
CONTINUOUS
 10
90.1301549982
 20
137.9
 11
77.1301549982
 21
137.9
  0
LINE
  5
218
100
AcDbEntity
  8
0
100
AcDbLine
 62
7
  6
CONTINUOUS
 10
70.5301549983
 20
138.1000000001
 11
567.1301549983
 21
138.1000000001
  0
LINE
  5
219
100
AcDbEntity
  8
0
100
AcDbLine
 62
7
  6
CONTINUOUS
 10
69.3301549983
 20
139.3
 11
70.5301549983
 21
139.3
  0
LINE
  5
21A
100
AcDbEntity
  8
0
100
AcDbLine
 62
7
  6
CONTINUOUS
 10
569.3301549983
 20
140.3
 11
71.5301549983
 21
140.3000000001
  0
LINE
  5
21B
100
AcDbEntity
  8
0
100
AcDbLine
 62
7
  6
CONTINUOUS
 10
89.654201629
 20
153.5
 11
549.0061083676
 21
153.4999999999
  0
LINE
  5
21C
100
AcDbEntity
  8
0
100
AcDbLine
 62
7
  6
CONTINUOUS
 10
549.0061083667
 20
154.1001564496
 11
89.6542016295
 21
154.1001564497
  0
LINE
  5
21D
100
AcDbEntity
  8
0
100
AcDbLine
 62
7
  6
CONTINUOUS
 10
86.6793263961
 20
156.0493278475
 11
87.2794828468
 21
156.0493278485
  0
LINE
  5
21E
100
AcDbEntity
  8
0
100
AcDbLine
 62
7
  6
CONTINUOUS
 10
551.3808271502
 20
156.0493278481
 11
551.9809836
 21
156.0493278479
  0
LINE
  5
21F
100
AcDbEntity
  8
0
100
AcDbLine
 62
7
  6
CONTINUOUS
 10
553.9301549983
 20
158.424046631
 11
553.3299985486
 21
158.4240466311
  0
LINE
  5
220
100
AcDbEntity
  8
0
100
AcDbLine
 62
7
  6
CONTINUOUS
 10
85.3303114479
 20
158.4240466316
 11
84.7301549982
 21
158.4240466306
  0
LINE
  5
221
100
AcDbEntity
  8
0
100
AcDbLine
 62
7
  6
CONTINUOUS
 10
89.7304418227
 20
158.5002868245
 11
548.9298681738
 21
158.5002868244
  0
LINE
  5
222
100
AcDbEntity
  8
0
100
AcDbLine
 62
7
  6
CONTINUOUS
 10
547.8301549983
 20
159.6
 11
90.8301549983
 21
159.6
  0
LINE
  5
223
100
AcDbEntity
  8
0
100
AcDbLine
 62
7
  6
CONTINUOUS
 10
69.3301549983
 20
735.9
 11
69.3301549983
 21
139.3
  0
LINE
  5
224
100
AcDbEntity
  8
0
100
AcDbLine
 62
7
  6
CONTINUOUS
 10
70.5301549983
 20
139.3000000001
 11
70.5301549983
 21
138.1000000001
  0
LINE
  5
225
100
AcDbEntity
  8
0
100
AcDbLine
 62
7
  6
CONTINUOUS
 10
71.5301549983
 20
140.3
 11
71.5301549983
 21
738.1
  0
LINE
  5
226
100
AcDbEntity
  8
0
100
AcDbLine
 62
7
  6
CONTINUOUS
 10
77.1301549982
 20
137.9
 11
77.1301549982
 21
138.1000000001
  0
LINE
  5
227
100
AcDbEntity
  8
0
100
AcDbLine
 62
7
  6
CONTINUOUS
 10
84.7301549982
 20
717.7759533694
 11
84.7301549982
 21
158.4240466306
  0
LINE
  5
228
100
AcDbEntity
  8
0
100
AcDbLine
 62
7
  6
CONTINUOUS
 10
85.3303114479
 20
158.4240466316
 11
85.3303114479
 21
717.7759533684
  0
LINE
  5
229
100
AcDbEntity
  8
0
100
AcDbLine
 62
7
  6
CONTINUOUS
 10
87.2794828458
 20
720.7508286022
 11
87.2794828468
 21
720.1506721515
  0
LINE
  5
22A
100
AcDbEntity
  8
0
100
AcDbLine
 62
7
  6
CONTINUOUS
 10
87.2794828466
 20
156.0493278483
 11
87.279482846
 21
155.449171398
  0
LINE
  5
22B
100
AcDbEntity
  8
0
100
AcDbLine
 62
7
  6
CONTINUOUS
 10
564.9301549982
 20
183.1
 11
553.9301549983
 21
183.1
  0
LINE
  5
22C
100
AcDbEntity
  8
0
100
AcDbLine
 62
7
  6
CONTINUOUS
 10
554.0282424697
 20
194.4
 11
564.9301549982
 21
194.4
  0
LINE
  5
22D
100
AcDbEntity
  8
0
100
AcDbLine
 62
7
  6
CONTINUOUS
 10
89.654201629
 20
153.5
 11
89.6542016295
 21
154.1001564497
  0
LINE
  5
22E
100
AcDbEntity
  8
0
100
AcDbLine
 62
7
  6
CONTINUOUS
 10
89.6542016299
 20
722.0998435503
 11
89.6542016289
 21
722.7000000001
  0
LINE
  5
22F
100
AcDbEntity
  8
0
100
AcDbLine
 62
7
  6
CONTINUOUS
 10
89.7304418227
 20
717.6997131757
 11
89.7304418227
 21
158.5002868244
  0
LINE
  5
230
100
AcDbEntity
  8
0
100
AcDbLine
 62
7
  6
CONTINUOUS
 10
90.1301549982
 20
138.1000000001
 11
90.1301549982
 21
137.9
  0
LINE
  5
231
100
AcDbEntity
  8
0
100
AcDbLine
 62
7
  6
CONTINUOUS
 10
90.8301549983
 20
159.6
 11
90.8301549983
 21
716.6
  0
LINE
  5
232
100
AcDbEntity
  8
0
100
AcDbLine
 62
7
  6
CONTINUOUS
 10
564.9301549982
 20
219.8
 11
554.0282424697
 21
219.8
  0
LINE
  5
233
100
AcDbEntity
  8
0
100
AcDbLine
 62
7
  6
CONTINUOUS
 10
553.9301549983
 20
231.1
 11
564.9301549982
 21
231.1
  0
LINE
  5
234
100
AcDbEntity
  8
0
100
AcDbLine
 62
7
  6
CONTINUOUS
 10
567.1301549983
 20
735.9
 11
548.9298681739
 21
717.6997131756
  0
LINE
  5
235
100
AcDbEntity
  8
0
100
AcDbLine
 62
7
  6
CONTINUOUS
 10
567.1301549983
 20
140.3
 11
548.9298681738
 21
158.5002868244
  0
LINE
  5
236
100
AcDbEntity
  8
0
100
AcDbLine
 62
7
  6
CONTINUOUS
 10
564.9301549982
 20
649.2
 11
565.8301549982
 21
650.1
  0
LINE
  5
237
100
AcDbEntity
  8
0
100
AcDbLine
 62
7
  6
CONTINUOUS
 10
565.8301549982
 20
226.1
 11
564.9301549982
 21
227.0
  0
LINE
  5
238
100
AcDbEntity
  8
0
100
AcDbLine
 62
7
  6
CONTINUOUS
 10
89.7304418227
 20
158.5002868244
 11
71.5301549983
 21
140.3000000001
  0
LINE
  5
239
100
AcDbEntity
  8
0
100
AcDbLine
 62
7
  6
CONTINUOUS
 10
71.2021558282
 20
139.9712885739
 11
70.9945284998
 21
139.7643697849
  0
LINE
  5
23A
100
AcDbEntity
  8
0
100
AcDbLine
 62
7
  6
CONTINUOUS
 10
71.5301549983
 20
735.9
 11
89.7304418227
 21
717.6997131757
  0
LINE
  5
23B
100
AcDbEntity
  8
0
100
AcDbLine
 62
7
  6
CONTINUOUS
 10
564.9301549982
 20
645.1
 11
553.9301549983
 21
645.1
  0
LINE
  5
23C
100
AcDbEntity
  8
0
100
AcDbLine
 62
7
  6
CONTINUOUS
 10
547.8301549983
 20
716.6
 11
547.8301549983
 21
159.6
  0
LINE
  5
23D
100
AcDbEntity
  8
0
100
AcDbLine
 62
7
  6
CONTINUOUS
 10
548.9298681738
 20
158.5002868244
 11
548.9298681738
 21
717.6997131756
  0
LINE
  5
23E
100
AcDbEntity
  8
0
100
AcDbLine
 62
7
  6
CONTINUOUS
 10
549.0061083677
 20
722.7000000001
 11
549.0061083667
 21
722.0998435503
  0
LINE
  5
23F
100
AcDbEntity
  8
0
100
AcDbLine
 62
7
  6
CONTINUOUS
 10
549.0061083667
 20
154.1001564496
 11
549.0061083676
 21
153.4999999999
  0
LINE
  5
240
100
AcDbEntity
  8
0
100
AcDbLine
 62
7
  6
CONTINUOUS
 10
551.3808271507
 20
155.4491713979
 11
551.3808271497
 21
156.0493278486
  0
LINE
  5
241
100
AcDbEntity
  8
0
100
AcDbLine
 62
7
  6
CONTINUOUS
 10
551.3808271498
 20
720.1506721515
 11
551.3808271508
 21
720.7508286022
  0
LINE
  5
242
100
AcDbEntity
  8
0
100
AcDbLine
 62
7
  6
CONTINUOUS
 10
553.3299991285
 20
158.4240439775
 11
553.3299991281
 21
717.7759560201
  0
LINE
  5
243
100
AcDbEntity
  8
0
100
AcDbLine
 62
7
  6
CONTINUOUS
 10
553.9301549983
 20
158.424046631
 11
553.9301549983
 21
717.7759533694
  0
LINE
  5
244
100
AcDbEntity
  8
0
100
AcDbLine
 62
7
  6
CONTINUOUS
 10
554.0282424697
 20
194.4
 11
554.0282424697
 21
219.8
  0
LINE
  5
245
100
AcDbEntity
  8
0
100
AcDbLine
 62
7
  6
CONTINUOUS
 10
554.0282424697
 20
656.4
 11
554.0282424697
 21
681.8
  0
LINE
  5
246
100
AcDbEntity
  8
0
100
AcDbLine
 62
7
  6
CONTINUOUS
 10
555.3301549981
 20
183.1
 11
555.3301549981
 21
194.4
  0
LINE
  5
247
100
AcDbEntity
  8
0
100
AcDbLine
 62
7
  6
CONTINUOUS
 10
555.330154998
 20
219.8
 11
555.3301549981
 21
231.1
  0
LINE
  5
248
100
AcDbEntity
  8
0
100
AcDbLine
 62
7
  6
CONTINUOUS
 10
555.3301549981
 20
645.1
 11
555.3301549981
 21
656.4
  0
LINE
  5
249
100
AcDbEntity
  8
0
100
AcDbLine
 62
7
  6
CONTINUOUS
 10
555.330154998
 20
681.8
 11
555.3301549981
 21
693.1
  0
LINE
  5
24A
100
AcDbEntity
  8
0
100
AcDbLine
 62
7
  6
CONTINUOUS
 10
556.7301549982
 20
693.1
 11
556.7301549982
 21
681.8
  0
LINE
  5
24B
100
AcDbEntity
  8
0
100
AcDbLine
 62
7
  6
CONTINUOUS
 10
556.7301549982
 20
656.4
 11
556.7301549982
 21
645.1
  0
LINE
  5
24C
100
AcDbEntity
  8
0
100
AcDbLine
 62
7
  6
CONTINUOUS
 10
556.7301549982
 20
231.1
 11
556.7301549982
 21
219.8
  0
LINE
  5
24D
100
AcDbEntity
  8
0
100
AcDbLine
 62
7
  6
CONTINUOUS
 10
556.7301549982
 20
194.4
 11
556.7301549982
 21
183.1
  0
LINE
  5
24E
100
AcDbEntity
  8
0
100
AcDbLine
 62
7
  6
CONTINUOUS
 10
554.0282424697
 20
656.4
 11
564.9301549982
 21
656.4
  0
LINE
  5
24F
100
AcDbEntity
  8
0
100
AcDbLine
 62
7
  6
CONTINUOUS
 10
564.9301549982
 20
183.1
 11
564.9301549982
 21
194.4
  0
LINE
  5
250
100
AcDbEntity
  8
0
100
AcDbLine
 62
7
  6
CONTINUOUS
 10
564.9301549982
 20
219.8
 11
564.9301549982
 21
231.1
  0
LINE
  5
251
100
AcDbEntity
  8
0
100
AcDbLine
 62
7
  6
CONTINUOUS
 10
564.9301549982
 20
645.1
 11
564.9301549982
 21
656.4
  0
LINE
  5
252
100
AcDbEntity
  8
0
100
AcDbLine
 62
7
  6
CONTINUOUS
 10
564.9301549982
 20
681.8
 11
564.9301549982
 21
693.1
  0
LINE
  5
253
100
AcDbEntity
  8
0
100
AcDbLine
 62
7
  6
CONTINUOUS
 10
565.8301549982
 20
688.1
 11
565.8301549982
 21
650.1
  0
LINE
  5
254
100
AcDbEntity
  8
0
100
AcDbLine
 62
7
  6
CONTINUOUS
 10
565.8301549982
 20
226.1
 11
565.8301549982
 21
188.1
  0
LINE
  5
255
100
AcDbEntity
  8
0
100
AcDbLine
 62
7
  6
CONTINUOUS
 10
567.1301549983
 20
738.1
 11
567.1301549983
 21
138.1000000001
  0
LINE
  5
256
100
AcDbEntity
  8
0
100
AcDbLine
 62
7
  6
CONTINUOUS
 10
569.3301549983
 20
140.3
 11
569.3301549983
 21
735.9
  0
LINE
  5
257
100
AcDbEntity
  8
0
100
AcDbLine
 62
7
  6
CONTINUOUS
 10
564.9301549982
 20
681.8
 11
554.0282424697
 21
681.8
  0
LINE
  5
258
100
AcDbEntity
  8
0
100
AcDbLine
 62
7
  6
CONTINUOUS
 10
553.9301549983
 20
693.1
 11
564.9301549982
 21
693.1
  0
LINE
  5
259
100
AcDbEntity
  8
0
100
AcDbLine
 62
7
  6
CONTINUOUS
 10
90.8301549983
 20
716.6
 11
547.8301549983
 21
716.6
  0
LINE
  5
25A
100
AcDbEntity
  8
0
100
AcDbLine
 62
7
  6
CONTINUOUS
 10
548.9298681739
 20
717.6997131756
 11
89.7304418227
 21
717.6997131756
  0
LINE
  5
25B
100
AcDbEntity
  8
0
100
AcDbLine
 62
7
  6
CONTINUOUS
 10
84.7301549982
 20
717.7759533694
 11
85.3303114479
 21
717.7759533684
  0
LINE
  5
25C
100
AcDbEntity
  8
0
100
AcDbLine
 62
7
  6
CONTINUOUS
 10
553.3299985486
 20
717.7759533684
 11
553.9301549983
 21
717.7759533694
  0
LINE
  5
25D
100
AcDbEntity
  8
0
100
AcDbLine
 62
7
  6
CONTINUOUS
 10
551.9809836004
 20
720.1506721525
 11
551.3808271497
 21
720.1506721515
  0
LINE
  5
25E
100
AcDbEntity
  8
0
100
AcDbLine
 62
7
  6
CONTINUOUS
 10
87.2794828468
 20
720.1506721515
 11
86.6793263961
 21
720.1506721525
  0
LINE
  5
25F
100
AcDbEntity
  8
0
100
AcDbLine
 62
7
  6
CONTINUOUS
 10
549.0061110184
 20
722.0998441298
 11
89.6541989781
 21
722.0998441298
  0
LINE
  5
260
100
AcDbEntity
  8
0
100
AcDbLine
 62
7
  6
CONTINUOUS
 10
549.0061083677
 20
722.7000000001
 11
89.6542016289
 21
722.7000000001
  0
LINE
  5
261
100
AcDbEntity
  8
0
100
AcDbLine
 62
7
  6
CONTINUOUS
 10
69.3301549983
 20
735.9
 11
569.3301549983
 21
735.9
  0
LINE
  5
262
100
AcDbEntity
  8
0
100
AcDbLine
 62
7
  6
CONTINUOUS
 10
567.1301549983
 20
738.1
 11
71.5301549983
 21
738.1
  0
LINE
  5
263
100
AcDbEntity
  8
0
100
AcDbLine
 62
7
  6
CONTINUOUS
 10
564.9301549982
 20
187.2
 11
565.8301549982
 21
188.1
  0
LINE
  5
264
100
AcDbEntity
  8
0
100
AcDbLine
 62
7
  6
CONTINUOUS
 10
565.8301549982
 20
688.1
 11
564.9301549982
 21
689.0
  0
ARC
  5
265
100
AcDbEntity
  8
0
100
AcDbCircle
 62
7
  6
CONTINUOUS
 10
83.6301549982
 20
158.525
 40
21.625
100
AcDbArc
 50
252.5076754749
 51
287.4923245251
  0
ARC
  5
266
100
AcDbEntity
  8
0
100
AcDbCircle
 62
7
  6
CONTINUOUS
 10
102.0846276208
 20
170.16406966
 40
20.458136103
100
AcDbArc
 50
215.019561709
 51
217.9115509586
  0
ARC
  5
267
100
AcDbEntity
  8
0
100
AcDbCircle
 62
7
  6
CONTINUOUS
 10
101.3942246417
 20
170.8544726028
 40
20.4581360781
100
AcDbArc
 50
232.0884490434
 51
234.9804382948
  0
ARC
  5
268
100
AcDbEntity
  8
0
100
AcDbCircle
 62
7
  6
CONTINUOUS
 10
101.146653294
 20
169.9114267704
 40
20.0365016623
100
AcDbArc
 50
214.9822597367
 51
223.7761233243
  0
ARC
  5
269
100
AcDbEntity
  8
0
100
AcDbCircle
 62
7
  6
CONTINUOUS
 10
101.1415817622
 20
169.916498288
 40
20.0365016513
100
AcDbArc
 50
226.2238766735
 51
235.0177402677
  0
ARC
  5
26A
100
AcDbEntity
  8
0
100
AcDbCircle
 62
7
  6
CONTINUOUS
 10
101.7331041106
 20
169.8903853192
 40
20.0126342598
100
AcDbArc
 50
217.9117386167
 51
220.8466411218
  0
ARC
  5
26B
100
AcDbEntity
  8
0
100
AcDbCircle
 62
7
  6
CONTINUOUS
 10
101.1205403047
 20
170.5029490974
 40
20.0126342411
100
AcDbArc
 50
229.1533588774
 51
232.0882613853
  0
ARC
  5
26C
100
AcDbEntity
  8
0
100
AcDbCircle
 62
7
  6
CONTINUOUS
 10
101.400582887
 20
169.6030049178
 40
19.5731369889
100
AcDbArc
 50
220.8469000229
 51
223.8254150677
  0
ARC
  5
26D
100
AcDbEntity
  8
0
100
AcDbCircle
 62
7
  6
CONTINUOUS
 10
100.8331599066
 20
170.1704278776
 40
19.5731369751
100
AcDbArc
 50
226.1745849295
 51
229.1530999763
  0
ARC
  5
26E
100
AcDbEntity
  8
0
100
AcDbCircle
 62
7
  6
CONTINUOUS
 10
73.6833671036
 20
130.2276214307
 40
10.2680145016
100
AcDbArc
 50
108.3186466314
 51
109.4384048404
  0
ARC
  5
26F
100
AcDbEntity
  8
0
100
AcDbCircle
 62
7
  6
CONTINUOUS
 10
94.3301549983
 20
163.1
 40
9.2121285858
100
AcDbArc
 50
340.912246651
 51
0.0595354877
  0
ARC
  5
270
100
AcDbEntity
  8
0
100
AcDbCircle
 62
7
  6
CONTINUOUS
 10
94.3301549983
 20
163.1
 40
9.2120132419
100
AcDbArc
 50
1.1932312917
 51
118.7824849621
  0
ARC
  5
271
100
AcDbEntity
  8
0
100
AcDbCircle
 62
7
  6
CONTINUOUS
 10
94.3301549983
 20
163.1
 40
7.4814954576
100
AcDbArc
 50
331.373016604
 51
119.3888912367
  0
ARC
  5
272
100
AcDbEntity
  8
0
100
AcDbCircle
 62
7
  6
CONTINUOUS
 10
94.3301549983
 20
163.1
 40
6.7886751346
100
AcDbArc
 50
331.1579217913
 51
128.7784869397
  0
ARC
  5
273
100
AcDbEntity
  8
0
100
AcDbCircle
 62
7
  6
CONTINUOUS
 10
94.3301549983
 20
163.1
 40
5.9226497308
100
AcDbArc
 50
326.8659485451
 51
133.3435090128
  0
ARC
  5
274
100
AcDbEntity
  8
0
100
AcDbCircle
 62
7
  6
CONTINUOUS
 10
80.6301549984
 20
207.1
 40
5.5
100
AcDbArc
 50
43.1935906151
 51
316.8064093849
  0
ARC
  5
275
100
AcDbEntity
  8
0
100
AcDbCircle
 62
7
  6
CONTINUOUS
 10
94.3301549983
 20
163.1
 40
5.15
100
AcDbArc
 50
320.1277893722
 51
138.7163920785
  0
CIRCLE
  5
276
100
AcDbEntity
  8
0
100
AcDbCircle
 62
7
  6
CONTINUOUS
 10
80.6301549984
 20
207.1
 40
4.0305566978
  0
ARC
  5
277
100
AcDbEntity
  8
0
100
AcDbCircle
 62
7
  6
CONTINUOUS
 10
92.976656949
 20
156.9533261374
 40
3.583052872
100
AcDbArc
 50
143.4834011158
 51
146.2978847858
  0
CIRCLE
  5
278
100
AcDbEntity
  8
0
100
AcDbCircle
 62
7
  6
CONTINUOUS
 10
80.6301549984
 20
207.1
 40
1.8030312623
  0
CIRCLE
  5
279
100
AcDbEntity
  8
0
100
AcDbCircle
 62
7
  6
CONTINUOUS
 10
80.6301549984
 20
207.1
 40
0.9924038765
  0
CIRCLE
  5
27A
100
AcDbEntity
  8
0
100
AcDbCircle
 62
7
  6
CONTINUOUS
 10
80.6301549984
 20
207.1
 40
0.5
  0
ARC
  5
27B
100
AcDbEntity
  8
0
100
AcDbCircle
 62
7
  6
CONTINUOUS
 10
80.6301549984
 20
669.1
 40
5.5
100
AcDbArc
 50
43.1935906152
 51
316.8064093848
  0
CIRCLE
  5
27C
100
AcDbEntity
  8
0
100
AcDbCircle
 62
7
  6
CONTINUOUS
 10
80.6301549984
 20
669.1
 40
4.0305566978
  0
CIRCLE
  5
27D
100
AcDbEntity
  8
0
100
AcDbCircle
 62
7
  6
CONTINUOUS
 10
80.6301549984
 20
669.1
 40
1.8030312623
  0
CIRCLE
  5
27E
100
AcDbEntity
  8
0
100
AcDbCircle
 62
7
  6
CONTINUOUS
 10
80.6301549984
 20
669.1
 40
0.9924038765
  0
CIRCLE
  5
27F
100
AcDbEntity
  8
0
100
AcDbCircle
 62
7
  6
CONTINUOUS
 10
80.6301549984
 20
669.1
 40
0.5
  0
ARC
  5
280
100
AcDbEntity
  8
0
100
AcDbCircle
 62
7
  6
CONTINUOUS
 10
71.5301549983
 20
735.9
 40
2.2
100
AcDbArc
 50
90.0
 51
180.0
  0
ARC
  5
281
100
AcDbEntity
  8
0
100
AcDbCircle
 62
7
  6
CONTINUOUS
 10
71.5301549983
 20
735.9
 40
1.0
100
AcDbArc
 50
90.0
 51
180.0
  0
ARC
  5
282
100
AcDbEntity
  8
0
100
AcDbCircle
 62
7
  6
CONTINUOUS
 10
102.0846276225
 20
706.0359303388
 40
20.458136105
100
AcDbArc
 50
142.0884490413
 51
144.9804382908
  0
ARC
  5
283
100
AcDbEntity
  8
0
100
AcDbCircle
 62
7
  6
CONTINUOUS
 10
101.3942246585
 20
705.3455273771
 40
20.4581361035
100
AcDbArc
 50
125.0195617091
 51
127.9115509586
  0
ARC
  5
284
100
AcDbEntity
  8
0
100
AcDbCircle
 62
7
  6
CONTINUOUS
 10
101.1415817689
 20
706.283501704
 40
20.0365016626
100
AcDbArc
 50
124.9822597368
 51
133.7761233242
  0
ARC
  5
285
100
AcDbEntity
  8
0
100
AcDbCircle
 62
7
  6
CONTINUOUS
 10
101.1466532942
 20
706.2885732294
 40
20.0365016626
100
AcDbArc
 50
136.2238766758
 51
145.0177402631
  0
ARC
  5
286
100
AcDbEntity
  8
0
100
AcDbCircle
 62
7
  6
CONTINUOUS
 10
101.1205403174
 20
705.6970508878
 40
20.0126342597
100
AcDbArc
 50
127.9117386167
 51
130.8466411218
  0
ARC
  5
287
100
AcDbEntity
  8
0
100
AcDbCircle
 62
7
  6
CONTINUOUS
 10
101.7331041111
 20
706.3096146804
 40
20.0126342605
100
AcDbArc
 50
139.1533588783
 51
142.0882613832
  0
ARC
  5
288
100
AcDbEntity
  8
0
100
AcDbCircle
 62
7
  6
CONTINUOUS
 10
100.8331599164
 20
706.0295721109
 40
19.5731369893
100
AcDbArc
 50
130.8469000229
 51
133.8254150677
  0
ARC
  5
289
100
AcDbEntity
  8
0
100
AcDbCircle
 62
7
  6
CONTINUOUS
 10
101.4005828876
 20
706.5969950817
 40
19.5731369895
100
AcDbArc
 50
136.1745849324
 51
139.1530999772
  0
ARC
  5
28A
100
AcDbEntity
  8
0
100
AcDbCircle
 62
7
  6
CONTINUOUS
 10
94.3301549983
 20
713.1
 40
9.2121528311
100
AcDbArc
 50
241.0934825128
 51
19.2981438673
  0
ARC
  5
28B
100
AcDbEntity
  8
0
100
AcDbCircle
 62
7
  6
CONTINUOUS
 10
94.3301549983
 20
713.1
 40
7.4814954576
100
AcDbArc
 50
240.5548973214
 51
28.7369498866
  0
ARC
  5
28C
100
AcDbEntity
  8
0
100
AcDbCircle
 62
7
  6
CONTINUOUS
 10
94.3301549983
 20
713.1
 40
6.7886751346
100
AcDbArc
 50
231.4229302068
 51
29.0910696715
  0
ARC
  5
28D
100
AcDbEntity
  8
0
100
AcDbCircle
 62
7
  6
CONTINUOUS
 10
94.3301549983
 20
713.1
 40
5.9226497308
100
AcDbArc
 50
226.9060228724
 51
33.4118743528
  0
ARC
  5
28E
100
AcDbEntity
  8
0
100
AcDbCircle
 62
7
  6
CONTINUOUS
 10
94.3301549983
 20
713.1
 40
5.15
100
AcDbArc
 50
221.3543426834
 51
39.7775882133
  0
ARC
  5
28F
100
AcDbEntity
  8
0
100
AcDbCircle
 62
7
  6
CONTINUOUS
 10
88.1834811366
 20
714.4534980503
 40
3.5830528706
100
AcDbArc
 50
53.4834011197
 51
56.2978847894
  0
ARC
  5
290
100
AcDbEntity
  8
0
100
AcDbCircle
 62
7
  6
CONTINUOUS
 10
537.266085342
 20
170.8544726186
 40
20.4581360976
100
AcDbArc
 50
305.0195617066
 51
307.9115509571
  0
ARC
  5
291
100
AcDbEntity
  8
0
100
AcDbCircle
 62
7
  6
CONTINUOUS
 10
536.5756826737
 20
170.164069438
 40
20.4581357333
100
AcDbArc
 50
322.0884491799
 51
324.9804383164
  0
ARC
  5
292
100
AcDbEntity
  8
0
100
AcDbCircle
 62
7
  6
CONTINUOUS
 10
537.5136567022
 20
169.911426771
 40
20.0365016611
100
AcDbArc
 50
316.2238766752
 51
325.0177402672
  0
ARC
  5
293
100
AcDbEntity
  8
0
100
AcDbCircle
 62
7
  6
CONTINUOUS
 10
537.5187282315
 20
169.9164982918
 40
20.0365016569
100
AcDbArc
 50
304.9822597344
 51
313.7761233245
  0
ARC
  5
294
100
AcDbEntity
  8
0
100
AcDbCircle
 62
7
  6
CONTINUOUS
 10
536.9272045681
 20
169.8903864008
 40
20.0126359659
100
AcDbArc
 50
319.1533593307
 51
322.088261423
  0
ARC
  5
295
100
AcDbEntity
  8
0
100
AcDbCircle
 62
7
  6
CONTINUOUS
 10
537.5397696833
 20
170.5029491078
 40
20.0126342537
100
AcDbArc
 50
307.9117386151
 51
310.8466411211
  0
ARC
  5
296
100
AcDbEntity
  8
0
100
AcDbCircle
 62
7
  6
CONTINUOUS
 10
537.8271500842
 20
170.1704278847
 40
19.5731369834
100
AcDbArc
 50
310.8469000222
 51
313.8254150679
  0
ARC
  5
297
100
AcDbEntity
  8
0
100
AcDbCircle
 62
7
  6
CONTINUOUS
 10
537.2597280002
 20
169.6030039916
 40
19.573135711
100
AcDbArc
 50
316.1745850822
 51
319.1531006573
  0
ARC
  5
298
100
AcDbEntity
  8
0
100
AcDbCircle
 62
7
  6
CONTINUOUS
 10
544.3301549983
 20
163.1
 40
9.2121285858
100
AcDbArc
 50
70.9122466521
 51
90.0595354839
  0
ARC
  5
299
100
AcDbEntity
  8
0
100
AcDbCircle
 62
7
  6
CONTINUOUS
 10
544.3301549983
 20
163.1
 40
9.212013242
100
AcDbArc
 50
91.1932312917
 51
208.7824849618
  0
ARC
  5
29A
100
AcDbEntity
  8
0
100
AcDbCircle
 62
7
  6
CONTINUOUS
 10
544.3301549983
 20
163.1
 40
7.4814954576
100
AcDbArc
 50
61.373016604
 51
209.3888912367
  0
ARC
  5
29B
100
AcDbEntity
  8
0
100
AcDbCircle
 62
7
  6
CONTINUOUS
 10
544.3301549983
 20
163.1
 40
6.7886751346
100
AcDbArc
 50
61.1579217913
 51
218.7784869397
  0
ARC
  5
29C
100
AcDbEntity
  8
0
100
AcDbCircle
 62
7
  6
CONTINUOUS
 10
544.3301549983
 20
163.1
 40
5.9226497308
100
AcDbArc
 50
56.8659485451
 51
223.3435090128
  0
ARC
  5
29D
100
AcDbEntity
  8
0
100
AcDbCircle
 62
7
  6
CONTINUOUS
 10
544.3301549983
 20
163.1
 40
5.15
100
AcDbArc
 50
50.1277893722
 51
228.7163920785
  0
ARC
  5
29E
100
AcDbEntity
  8
0
100
AcDbCircle
 62
7
  6
CONTINUOUS
 10
550.4768288616
 20
161.746501952
 40
3.5830528734
100
AcDbArc
 50
233.4834011205
 51
236.2978847883
  0
ARC
  5
29F
100
AcDbEntity
  8
0
100
AcDbCircle
 62
7
  6
CONTINUOUS
 10
567.1301549983
 20
140.3
 40
2.2
100
AcDbArc
 50
270.0
 51
360.0
  0
ARC
  5
2A0
100
AcDbEntity
  8
0
100
AcDbCircle
 62
7
  6
CONTINUOUS
 10
567.1301549983
 20
140.3
 40
1.0
100
AcDbArc
 50
270.0
 51
360.0
  0
ARC
  5
2A1
100
AcDbEntity
  8
0
100
AcDbCircle
 62
7
  6
CONTINUOUS
 10
558.0301549982
 20
207.1
 40
5.05
100
AcDbArc
 50
211.695766379
 51
148.0526762923
  0
CIRCLE
  5
2A2
100
AcDbEntity
  8
0
100
AcDbCircle
 62
7
  6
CONTINUOUS
 10
558.0301549982
 20
207.1
 40
4.0
  0
CIRCLE
  5
2A3
100
AcDbEntity
  8
0
100
AcDbCircle
 62
7
  6
CONTINUOUS
 10
558.0301549982
 20
207.1
 40
3.85
  0
ARC
  5
2A4
100
AcDbEntity
  8
0
100
AcDbCircle
 62
7
  6
CONTINUOUS
 10
555.3301549982
 20
219.1
 40
2.3682206767
100
AcDbArc
 50
226.2829311834
 51
18.0853989831
  0
ARC
  5
2A5
100
AcDbEntity
  8
0
100
AcDbCircle
 62
7
  6
CONTINUOUS
 10
555.3301549982
 20
195.1
 40
2.3682206767
100
AcDbArc
 50
342.3766544864
 51
133.9085337396
  0
ARC
  5
2A6
100
AcDbEntity
  8
0
100
AcDbCircle
 62
7
  6
CONTINUOUS
 10
555.3301549982
 20
219.1
 40
0.8566550758
100
AcDbArc
 50
112.3642497504
 51
68.0558014244
  0
ARC
  5
2A7
100
AcDbEntity
  8
0
100
AcDbCircle
 62
7
  6
CONTINUOUS
 10
555.3301549982
 20
195.1
 40
0.8566550758
100
AcDbArc
 50
291.9441985756
 51
247.6387911706
  0
ARC
  5
2A8
100
AcDbEntity
  8
0
100
AcDbCircle
 62
7
  6
CONTINUOUS
 10
536.5756823746
 20
706.0359303391
 40
20.4581361044
100
AcDbArc
 50
35.0195617092
 51
37.9115509587
  0
ARC
  5
2A9
100
AcDbEntity
  8
0
100
AcDbCircle
 62
7
  6
CONTINUOUS
 10
537.2660853385
 20
705.3455273778
 40
20.4581361025
100
AcDbArc
 50
52.0884490412
 51
54.9804382909
  0
ARC
  5
2AA
100
AcDbEntity
  8
0
100
AcDbCircle
 62
7
  6
CONTINUOUS
 10
537.5136567019
 20
706.2885732291
 40
20.0365016631
100
AcDbArc
 50
34.982259737
 51
43.7761233242
  0
ARC
  5
2AB
100
AcDbEntity
  8
0
100
AcDbCircle
 62
7
  6
CONTINUOUS
 10
537.518728228
 20
706.2835017046
 40
20.036501662
100
AcDbArc
 50
46.2238766754
 51
55.017740263
  0
ARC
  5
2AC
100
AcDbEntity
  8
0
100
AcDbCircle
 62
7
  6
CONTINUOUS
 10
536.927205886
 20
706.3096146809
 40
20.0126342597
100
AcDbArc
 50
37.9117386167
 51
40.8466411218
  0
ARC
  5
2AD
100
AcDbEntity
  8
0
100
AcDbCircle
 62
7
  6
CONTINUOUS
 10
537.5397696789
 20
705.6970508876
 40
20.01263426
100
AcDbArc
 50
49.1533588781
 51
52.0882613832
  0
ARC
  5
2AE
100
AcDbEntity
  8
0
100
AcDbCircle
 62
7
  6
CONTINUOUS
 10
537.259727107
 20
706.5969950799
 40
19.5731369921
100
AcDbArc
 50
40.8469000231
 51
43.8254150675
  0
ARC
  5
2AF
100
AcDbEntity
  8
0
100
AcDbCircle
 62
7
  6
CONTINUOUS
 10
537.827150079
 20
706.0295721097
 40
19.573136991
100
AcDbArc
 50
46.1745849322
 51
49.1530999769
  0
ARC
  5
2B0
100
AcDbEntity
  8
0
100
AcDbCircle
 62
7
  6
CONTINUOUS
 10
544.3301549983
 20
713.1
 40
9.2120518206
100
AcDbArc
 50
151.1910939922
 51
289.2981438673
  0
ARC
  5
2B1
100
AcDbEntity
  8
0
100
AcDbCircle
 62
7
  6
CONTINUOUS
 10
544.3301549983
 20
713.1
 40
7.4814954576
100
AcDbArc
 50
150.5548973214
 51
298.7369498866
  0
ARC
  5
2B2
100
AcDbEntity
  8
0
100
AcDbCircle
 62
7
  6
CONTINUOUS
 10
544.3301549983
 20
713.1
 40
6.7886751346
100
AcDbArc
 50
141.4229302068
 51
299.0910696715
  0
ARC
  5
2B3
100
AcDbEntity
  8
0
100
AcDbCircle
 62
7
  6
CONTINUOUS
 10
544.3301549983
 20
713.1
 40
5.9226497308
100
AcDbArc
 50
136.9060228724
 51
303.4118743528
  0
ARC
  5
2B4
100
AcDbEntity
  8
0
100
AcDbCircle
 62
7
  6
CONTINUOUS
 10
544.3301549983
 20
713.1
 40
5.15
100
AcDbArc
 50
131.3543426834
 51
309.7775882133
  0
ARC
  5
2B5
100
AcDbEntity
  8
0
100
AcDbCircle
 62
7
  6
CONTINUOUS
 10
545.6836530483
 20
719.2466738618
 40
3.5830528708
100
AcDbArc
 50
323.4834011196
 51
326.2978847891
  0
ARC
  5
2B6
100
AcDbEntity
  8
0
100
AcDbCircle
 62
7
  6
CONTINUOUS
 10
558.0301549982
 20
669.1
 40
5.05
100
AcDbArc
 50
211.695766379
 51
148.0526762923
  0
CIRCLE
  5
2B7
100
AcDbEntity
  8
0
100
AcDbCircle
 62
7
  6
CONTINUOUS
 10
558.0301549982
 20
669.1
 40
4.0
  0
CIRCLE
  5
2B8
100
AcDbEntity
  8
0
100
AcDbCircle
 62
7
  6
CONTINUOUS
 10
558.0301549982
 20
669.1
 40
3.85
  0
ARC
  5
2B9
100
AcDbEntity
  8
0
100
AcDbCircle
 62
7
  6
CONTINUOUS
 10
555.3301549982
 20
681.1
 40
2.3682206767
100
AcDbArc
 50
226.2829311834
 51
18.0853989831
  0
ARC
  5
2BA
100
AcDbEntity
  8
0
100
AcDbCircle
 62
7
  6
CONTINUOUS
 10
555.3301549982
 20
657.1
 40
2.3682206767
100
AcDbArc
 50
342.3766544864
 51
133.9085337396
  0
ARC
  5
2BB
100
AcDbEntity
  8
0
100
AcDbCircle
 62
7
  6
CONTINUOUS
 10
555.3301549982
 20
681.1
 40
0.8566550758
100
AcDbArc
 50
112.3642497504
 51
68.0558014244
  0
ARC
  5
2BC
100
AcDbEntity
  8
0
100
AcDbCircle
 62
7
  6
CONTINUOUS
 10
555.3301549982
 20
657.1
 40
0.8566550758
100
AcDbArc
 50
291.9441985756
 51
247.6387911706
  0
ARC
  5
2BD
100
AcDbEntity
  8
0
100
AcDbCircle
 62
7
  6
CONTINUOUS
 10
567.1301549983
 20
735.9
 40
2.2
100
AcDbArc
 50
0.0
 51
90.0
  0
ARC
  5
2BE
100
AcDbEntity
  8
0
100
AcDbCircle
 62
7
  6
CONTINUOUS
 10
567.1301549983
 20
735.9
 40
1.0
100
AcDbArc
 50
0.0
 51
90.0
  0
SPLINE
  5
2BF
100
AcDbEntity
  8
0
100
AcDbSpline
 62
7
  6
CONTINUOUS
 70
0
 71
3
 72
9
 73
5
 74
0
 42
0.0000001
 43
0.0000001
 44
0.0000000001
 40
0.0
 40
0.0
 40
0.0
 40
0.0
 40
0.5991283458
 40
1.0
 40
1.0
 40
1.0
 40
1.0
 10
71.5301549983
 20
140.3
 30
0.0
 10
71.2866346659
 20
140.1449701415
 30
0.0
 10
70.8867905583
 20
139.9138923053
 30
0.0
 10
70.5301549983
 20
139.4931536294
 30
0.0
 10
70.5301549983
 20
139.3
 30
0.0
  0
LINE
  5
2C0
100
AcDbEntity
  8
0
100
AcDbLine
 62
7
  6
CONTINUOUS
 10
70.6824780034
 20
139.4521358092
 11
70.9971517727
 21
139.7676771653
  0
LINE
  5
2C1
100
AcDbEntity
  8
0
100
AcDbLine
 62
7
  6
CONTINUOUS
 10
70.9971517727
 20
139.7676771653
 11
71.1980618501
 21
139.9685633272
  0
LINE
  5
2C2
100
AcDbEntity
  8
0
100
AcDbLine
 62
7
  6
CONTINUOUS
 10
70.9979308776
 20
139.7671075681
 11
70.6803064647
 21
139.4503952693
  0
SPLINE
  5
2C3
100
AcDbEntity
  8
0
100
AcDbSpline
 62
7
  6
CONTINUOUS
 70
0
 71
3
 72
8
 73
4
 74
0
 42
0.0000001
 43
0.0000001
 44
0.0000000001
 40
0.0
 40
0.0
 40
0.0
 40
0.0
 40
1.0
 40
1.0
 40
1.0
 40
1.0
 10
548.4886818945
 20
158.7656397394
 30
0.0
 10
548.6313300296
 20
158.6702335385
 30
0.0
 10
548.77958197
 20
158.5831414595
 30
0.0
 10
548.9298681739
 20
158.5002868244
 30
0.0
  0
SPLINE
  5
2C4
100
AcDbEntity
  8
0
100
AcDbSpline
 62
7
  6
CONTINUOUS
 70
0
 71
3
 72
9
 73
5
 74
0
 42
0.0000001
 43
0.0000001
 44
0.0000000001
 40
0.0
 40
0.0
 40
0.0
 40
0.0
 40
0.2707342791
 40
1.0
 40
1.0
 40
1.0
 40
1.0
 10
548.9298681739
 20
717.6997131756
 30
0.0
 10
548.8709918664
 20
717.6672539422
 30
0.0
 10
548.6550617515
 20
717.544786736
 30
0.0
 10
548.4447457942
 20
717.4109854562
 30
0.0
 10
548.301373953
 20
717.3003469841
 30
0.0
  0
SPLINE
  5
2C5
100
AcDbEntity
  8
0
100
AcDbSpline
 62
7
  6
CONTINUOUS
 70
0
 71
3
 72
9
 73
5
 74
0
 42
0.0000001
 43
0.0000001
 44
0.0000000001
 40
0.0
 40
0.0
 40
0.0
 40
0.0
 40
0.2691142681
 40
1.0
 40
1.0
 40
1.0
 40
1.0
 10
89.7304418227
 20
158.5002868244
 30
0.0
 10
89.7858810918
 20
158.5308511763
 30
0.0
 10
89.9905368458
 20
158.64671418
 30
0.0
 10
90.1900832492
 20
158.7726593298
 30
0.0
 10
90.3276211781
 20
158.8758308832
 30
0.0
  0
SPLINE
  5
2C6
100
AcDbEntity
  8
0
100
AcDbSpline
 62
7
  6
CONTINUOUS
 70
0
 71
3
 72
8
 73
4
 74
0
 42
0.0000001
 43
0.0000001
 44
0.0000000001
 40
0.0
 40
0.0
 40
0.0
 40
0.0
 40
1.0
 40
1.0
 40
1.0
 40
1.0
 10
90.1716281021
 20
717.4343602606
 30
0.0
 10
90.0289799669
 20
717.5297664615
 30
0.0
 10
89.8807280265
 20
717.6168585405
 30
0.0
 10
89.7304418227
 20
717.6997131756
 30
0.0
  0
SPLINE
  5
2C7
100
AcDbEntity
  8
0
100
AcDbSpline
 62
7
  6
CONTINUOUS
 70
0
 71
3
 72
9
 73
5
 74
0
 42
0.0000001
 43
0.0000001
 44
0.0000000001
 40
0.0
 40
0.0
 40
0.0
 40
0.0
 40
0.2691142681
 40
1.0
 40
1.0
 40
1.0
 40
1.0
 10
89.7304418227
 20
717.6997131756
 30
0.0
 10
89.7610061745
 20
717.6442739064
 30
0.0
 10
89.8768691783
 20
717.4396181524
 30
0.0
 10
90.002814328
 20
717.2400717491
 30
0.0
 10
90.1059858814
 20
717.1025338202
 30
0.0
  0
SPLINE
  5
2C8
100
AcDbEntity
  8
0
100
AcDbSpline
 62
7
  6
CONTINUOUS
 70
0
 71
3
 72
8
 73
4
 74
0
 42
0.0000001
 43
0.0000001
 44
0.0000000001
 40
0.0
 40
0.0
 40
0.0
 40
0.0
 40
1.0
 40
1.0
 40
1.0
 40
1.0
 10
548.6645152589
 20
717.2585268962
 30
0.0
 10
548.7599214597
 20
717.4011750314
 30
0.0
 10
548.8470135388
 20
717.5494269717
 30
0.0
 10
548.9298681739
 20
717.6997131756
 30
0.0
  0
SPLINE
  5
2C9
100
AcDbEntity
  8
0
100
AcDbSpline
 62
7
  6
CONTINUOUS
 70
0
 71
3
 72
9
 73
5
 74
0
 42
0.0000001
 43
0.0000001
 44
0.0000000001
 40
0.0
 40
0.0
 40
0.0
 40
0.0
 40
0.4008718173
 40
1.0
 40
1.0
 40
1.0
 40
1.0
 10
70.5301549983
 20
139.3000000001
 30
0.0
 10
70.7233087057
 20
139.3000000001
 30
0.0
 10
71.1440473548
 20
139.6566356377
 30
0.0
 10
71.3751251824
 20
140.0564797347
 30
0.0
 10
71.5301549983
 20
140.3000000001
 30
0.0
  0
SPLINE
  5
2CA
100
AcDbEntity
  8
0
100
AcDbSpline
 62
7
  6
CONTINUOUS
 70
0
 71
3
 72
8
 73
4
 74
0
 42
0.0000001
 43
0.0000001
 44
0.0000000001
 40
0.0
 40
0.0
 40
0.0
 40
0.0
 40
1.0
 40
1.0
 40
1.0
 40
1.0
 10
89.9957947376
 20
158.9414731039
 30
0.0
 10
89.9003885368
 20
158.7988249687
 30
0.0
 10
89.8132964577
 20
158.6505730283
 30
0.0
 10
89.7304418226
 20
158.5002868245
 30
0.0
  0
SPLINE
  5
2CB
100
AcDbEntity
  8
0
100
AcDbSpline
 62
7
  6
CONTINUOUS
 70
0
 71
3
 72
9
 73
5
 74
0
 42
0.0000001
 43
0.0000001
 44
0.0000000001
 40
0.0
 40
0.0
 40
0.0
 40
0.0
 40
0.2707342791
 40
1.0
 40
1.0
 40
1.0
 40
1.0
 10
548.9298681738
 20
158.5002868245
 30
0.0
 10
548.8974089404
 20
158.5591631319
 30
0.0
 10
548.7749417343
 20
158.7750932469
 30
0.0
 10
548.6411404545
 20
158.985409204
 30
0.0
 10
548.5305019824
 20
159.1287810453
 30
0.0
  0
LINE
  5
2CC
100
AcDbEntity
  8
0
100
AcDbLine
 62
7
  6
CONTINUOUS
 10
70.8944127687
 20
139.4759642207
 11
70.6823254666
 21
139.4520303123
  0
LINE
  5
2CD
100
AcDbEntity
  8
0
100
AcDbLine
 62
7
  6
CONTINUOUS
 10
70.6801305683
 20
139.4500253538
 11
70.7046910614
 21
139.6702560332
  0
SPLINE
  5
2CE
100
AcDbEntity
  8
0
100
AcDbSpline
 62
7
  6
CONTINUOUS
 70
0
 71
3
 72
9
 73
5
 74
0
 42
0.0000001
 43
0.0000001
 44
0.0000000001
 40
0.0
 40
0.0
 40
0.0
 40
0.0
 40
0.3432785454
 40
1.0
 40
1.0
 40
1.0
 40
1.0
 10
69.3301549983
 20
139.3
 30
0.0
 10
69.3301549983
 20
139.4311291364
 30
0.0
 10
69.6976025447
 20
139.7139769483
 30
0.0
 10
70.029723693
 20
139.8267443458
 30
0.0
 10
70.2662407677
 20
139.9103570674
 30
0.0
  0
SPLINE
  5
2CF
100
AcDbEntity
  8
0
100
AcDbSpline
 62
7
  6
CONTINUOUS
 70
0
 71
3
 72
9
 73
5
 74
0
 42
0.0000001
 43
0.0000001
 44
0.0000000001
 40
0.0
 40
0.0
 40
0.0
 40
0.0
 40
0.2368346641
 40
1.0
 40
1.0
 40
1.0
 40
1.0
 10
70.4561155116
 20
139.9752862263
 30
0.0
 10
70.5401955741
 20
140.0031737603
 30
0.0
 10
70.8965038397
 20
140.1170385616
 30
0.0
 10
71.2559545973
 20
140.2206539106
 30
0.0
 10
71.5301549983
 20
140.3
 30
0.0
  0
SPLINE
  5
2D0
100
AcDbEntity
  8
0
100
AcDbSpline
 62
7
  6
CONTINUOUS
 70
0
 71
3
 72
8
 73
4
 74
0
 42
0.0000001
 43
0.0000001
 44
0.0000000001
 40
0.0
 40
0.0
 40
0.0
 40
0.0
 40
1.0
 40
1.0
 40
1.0
 40
1.0
 10
544.1383170153
 20
172.3102157789
 30
0.0
 10
544.1990529462
 20
172.3118231292
 30
0.0
 10
544.2598197352
 20
172.3134960241
 30
0.0
 10
544.3205716956
 20
172.3126984081
 30
0.0
  0
SPLINE
  5
2D1
100
AcDbEntity
  8
0
100
AcDbSpline
 62
7
  6
CONTINUOUS
 70
0
 71
3
 72
9
 73
5
 74
0
 42
0.0000001
 43
0.0000001
 44
0.0000000001
 40
0.0
 40
0.0
 40
0.0
 40
0.0
 40
0.258759767
 40
1.0
 40
1.0
 40
1.0
 40
1.0
 10
71.5301549983
 20
140.3000000001
 30
0.0
 10
71.5032525434
 20
140.2070317901
 30
0.0
 10
71.3992099167
 20
139.8477886055
 30
0.0
 10
71.2927218263
 20
139.4891091521
 30
0.0
 10
71.2054424433
 20
139.2259641918
 30
0.0
  0
SPLINE
  5
2D2
100
AcDbEntity
  8
0
100
AcDbSpline
 62
7
  6
CONTINUOUS
 70
0
 71
3
 72
9
 73
5
 74
0
 42
0.0000001
 43
0.0000001
 44
0.0000000001
 40
0.0
 40
0.0
 40
0.0
 40
0.0
 40
0.2668506939
 40
1.0
 40
1.0
 40
1.0
 40
1.0
 10
71.2054424433
 20
139.2259641918
 30
0.0
 10
71.1910898265
 20
139.1826914435
 30
0.0
 10
71.1363722545
 20
139.0208522949
 30
0.0
 10
71.077595249
 20
138.8603031072
 30
0.0
 10
71.0301593567
 20
138.7443757306
 30
0.0
  0
SPLINE
  5
2D3
100
AcDbEntity
  8
0
100
AcDbSpline
 62
7
  6
CONTINUOUS
 70
0
 71
3
 72
9
 73
5
 74
0
 42
0.0000001
 43
0.0000001
 44
0.0000000001
 40
0.0
 40
0.0
 40
0.0
 40
0.0
 40
0.6415079177
 40
1.0
 40
1.0
 40
1.0
 40
1.0
 10
71.0301593567
 20
138.7443757306
 30
0.0
 10
70.9621857967
 20
138.5782568678
 30
0.0
 10
70.8632322371
 20
138.3304685293
 30
0.0
 10
70.6304576827
 20
138.1000000001
 30
0.0
 10
70.5301549983
 20
138.1000000001
 30
0.0
  0
SPLINE
  5
2D4
100
AcDbEntity
  8
0
100
AcDbSpline
 62
7
  6
CONTINUOUS
 70
0
 71
3
 72
8
 73
4
 74
0
 42
0.0000001
 43
0.0000001
 44
0.0000000001
 40
0.0
 40
0.0
 40
0.0
 40
0.0
 40
1.0
 40
1.0
 40
1.0
 40
1.0
 10
103.5403707771
 20
163.291837983
 30
0.0
 10
103.5419781255
 20
163.2311020522
 30
0.0
 10
103.5436510273
 20
163.1703352634
 30
0.0
 10
103.5428534033
 20
163.1095833034
 30
0.0
  0
ENDSEC
  0
SECTION
  2
OBJECTS
  0
DICTIONARY
  5
C
100
AcDbDictionary
280
0
281
1
  3
ACAD_GROUP
350
D
  3
ACAD_MLINESTYLE
350
17
  3
ACAD_LAYOUT
350
1A
  3
ACAD_PLOTSETTINGS
350
19
  3
ACAD_PLOTSTYLENAME
350
E
  0
DICTIONARY
  5
D
102
{ACAD_REACTORS
330
C
102
}
100
AcDbDictionary
280
0
281
1
  0
ACDBDICTIONARYWDFLT
  5
E
102
{ACAD_REACTORS
330
C
102
}
100
AcDbDictionary
281
1
  3
Normal
350
F
100
AcDbDictionaryWithDefault
340
F
  0
DICTIONARY
  5
17
102
{ACAD_REACTORS
330
C
102
}
100
AcDbDictionary
280
0
281
1
  3
Standard
350
18
  0
DICTIONARY
  5
19
102
{ACAD_REACTORS
330
C
102
}
100
AcDbDictionary
281
1
  0
DICTIONARY
  5
1A
102
{ACAD_REACTORS
330
C
102
}
100
AcDbDictionary
281
1
  3
Model
350
2D5
  3
Layout1
350
2D6
  0
ACDBPLACEHOLDER
  5
F
102
{ACAD_REACTORS
330
E
102
}
  0
MLINESTYLE
  5
18
102
{ACAD_REACTORS
330
17
102
}
100
AcDbMlineStyle
  2
STANDARD
 70
0
  3

 62
256
 51
90.0
 52
90.0
 71
2
 49
0.5
 62
256
  6
BYLAYER
 49
-0.5
 62
256
  6
BYLAYER
  0
LAYOUT
  5
2D5
102
{ACAD_REACTORS
330
1A
102
}
100
AcDbPlotSettings
  1

  2
none_device
  4

  6

 40
0.0
 41
0.0
 42
0.0
 43
0.0
 44
210.0
 45
297.0
 46
0.0
 47
0.0
 48
0.0
 49
0.0
140
0.0
141
0.0
142
1.0
143
1.0
 70
1024
 72
1
 73
0
 74
0
  7

 75
0
147
1.0
148
0.0
149
0.0
100
AcDbLayout
  1
Model
 70
0
 71
0
 10
0.0
 20
0.0
 11
210.0
 21
297.0
 12
0.0
 22
0.0
 32
0.0
 14
0.0
 24
0.0
 34
0.0
 15
0.0
 25
0.0
 35
0.0
146
0.0
 13
0.0
 23
0.0
 33
0.0
 16
1.0
 26
0.0
 36
0.0
 17
0.0
 27
1.0
 37
0.0
 76
0
330
210
345
0
346
0
  0
LAYOUT
  5
2D6
102
{ACAD_REACTORS
330
1A
102
}
100
AcDbPlotSettings
  1

  2
none_device
  4

  6

 40
0.0
 41
0.0
 42
0.0
 43
0.0
 44
210.0
 45
297.0
 46
0.0
 47
0.0
 48
0.0
 49
0.0
140
0.0
141
0.0
142
1.0
143
1.0
 70
0
 72
1
 73
0
 74
0
  7

 75
0
147
1.0
148
0.0
149
0.0
100
AcDbLayout
  1
Layout1
 70
0
 71
1
 10
0.0
 20
0.0
 11
210.0
 21
297.0
 12
0.0
 22
0.0
 32
0.0
 14
0.0
 24
0.0
 34
0.0
 15
0.0
 25
0.0
 35
0.0
146
0.0
 13
0.0
 23
0.0
 33
0.0
 16
1.0
 26
0.0
 36
0.0
 17
0.0
 27
1.0
 37
0.0
 76
0
330
211
345
0
346
0
  0
ENDSEC
  0
EOF
