999
DXF file: C:\Users\sesa63760\Dev\_Creo\CAD\MCADUE0002947_3D-CAD\drw0001_1.dxf
999
Pro/ENGINEER 2019471 by Parametric Technology Corporation
  0
SECTION
  2
HEADER
  9
$ACADVER
  1
AC1024
  9
$DWGCODEPAGE
  3
ANSI_1252
  9
$EXTMAX
 10
777.9438728353
 20
1100.2349058671
 30
0.0
  9
$EXTMIN
 10
0.0
 20
0.0
 30
0.0
  9
$LIMMIN
 10
0.0
 20
0.0
  9
$LIMMAX
 10
777.9438728353
 20
1100.2349058671
  9
$VIEWCTR
 10
388.9719364177
 20
550.1174529335
  9
$VIEWSIZE
 40
1100.2349058671
  9
$CLAYER
  8
0
  9
$LTSCALE
 40
71.7190160862
  9
$CELTYPE
  6
BYLAYER
  9
$DIMSCALE
 40
1.0
  9
$DIMASZ
 40
9.2612365814
  9
$DIMEXO
 40
1.0
  9
$DIMDLI
 40
49.551320205
  9
$DIMEXE
 40
1.0
  9
$DIMCEN
 40
11.7358389959
  9
$DIMLFAC
 40
1.0
  9
$DIMBLK
  1
_FILLED
  9
$DIMALT
 70
0
  9
$DIMALTF
 40
0.0393700787
  9
$DIMTXT
 40
12.9657312139
  9
$DIMTOL
 70
1
  9
$DIMLIM
 70
0
  9
$DIMTFAC
 40
1.0
  9
$DIMTP
 40
0.01
  9
$DIMTM
 40
0.01
  9
$DIMGAP
 40
0.625
  9
$DIMDSEP
 70
46
  9
$AUNITS
 70
0
  9
$PDMODE
 70
3
  9
$PDSIZE
 40
0.3125
  9
$HANDSEED
  5
3E7
  9
$TILEMODE
 70
1
  9
$MEASUREMENT
 70
1
  9
$INSUNITS
 70
4
  0
ENDSEC
  0
SECTION
  2
CLASSES
  0
CLASS
  1
ACDBDICTIONARYWDFLT
  2
AcDbDictionaryWithDefault
  3
AutoCAD 2000
 90
0
 91
1
280
0
281
0
  0
CLASS
  1
ACDBPLACEHOLDER
  2
AcDbPlaceHolder
  3
AutoCAD 2000
 90
0
 91
1
280
0
281
0
  0
CLASS
  1
LAYOUT
  2
AcDbLayout
  3
AutoCAD 2000
 90
0
 91
0
280
0
281
0
  0
ENDSEC
  0
SECTION
  2
TABLES
  0
TABLE
  2
VPORT
  5
8
100
AcDbSymbolTable
 70
2
  0
VPORT
  5
1F4
100
AcDbSymbolTableRecord
100
AcDbViewportTableRecord
  2
*ACTIVE
 70
0
 10
0.0
 20
0.0
 11
1.0
 21
1.0
 12
388.9719364177
 22
550.1174529335
 13
0.0
 23
0.0
 14
1.0
 24
1.0
 15
0.0
 25
0.0
 16
0.0
 26
0.0
 36
1.0
 17
0.0
 27
0.0
 37
0.0
 40
1100.2349058671
 41
0.7070707071
 42
50.0
 43
0.0
 44
0.0
 50
0.0
 51
0.0
 71
0
 72
100
 73
1
 74
1
 75
0
 76
0
 77
0
 78
0
  0
ENDTAB
  0
TABLE
  2
LTYPE
  5
5
100
AcDbSymbolTable
 70
6
  0
LTYPE
  5
14
100
AcDbSymbolTableRecord
100
AcDbLinetypeTableRecord
  2
BYBLOCK
 70
0
  3

 72
65
 73
0
 40
0.0
  0
LTYPE
  5
15
100
AcDbSymbolTableRecord
100
AcDbLinetypeTableRecord
  2
BYLAYER
 70
0
  3

 72
65
 73
0
 40
0.0
  0
LTYPE
  5
16
100
AcDbSymbolTableRecord
100
AcDbLinetypeTableRecord
  2
CONTINUOUS
 70
64
  3
Solid line
 72
65
 73
0
 40
0.0
  0
LTYPE
  5
1F5
100
AcDbSymbolTableRecord
100
AcDbLinetypeTableRecord
  2
CENTER
 70
64
  3
____ _ ____ _ ____ _ ____ _ ____ _ ____ _ ____
 72
65
 73
4
 40
0.6
 49
0.375
 74
0
 49
-0.075
 74
0
 49
0.075
 74
0
 49
-0.075
 74
0
  0
LTYPE
  5
1F6
100
AcDbSymbolTableRecord
100
AcDbLinetypeTableRecord
  2
HIDDEN
 70
64
  3
- - - - - - - - - - - - - - - - - - - -
 72
65
 73
2
 40
0.2
 49
0.1
 74
0
 49
-0.1
 74
0
  0
LTYPE
  5
1F7
100
AcDbSymbolTableRecord
100
AcDbLinetypeTableRecord
  2
PHANTOM
 70
64
  3
_____ _ _ _____ _ _ _____ _ _ _____
 72
65
 73
6
 40
0.8
 49
0.45
 74
0
 49
-0.05
 74
0
 49
0.1
 74
0
 49
-0.05
 74
0
 49
0.1
 74
0
 49
-0.05
 74
0
  0
LTYPE
  5
1F8
100
AcDbSymbolTableRecord
100
AcDbLinetypeTableRecord
  2
DOT
 70
64
  3
. . . . . . . . . . . . . . . . . . . .
 72
65
 73
2
 40
0.2
 49
0.1
 74
0
 49
-0.1
 74
0
  0
LTYPE
  5
1F9
100
AcDbSymbolTableRecord
100
AcDbLinetypeTableRecord
  2
DASHED
 70
64
  3
- - - - - - - - - - - - - - - - - - - -
 72
65
 73
2
 40
0.2
 49
0.1
 74
0
 49
-0.1
 74
0
  0
ENDTAB
  0
TABLE
  2
LAYER
  5
2
100
AcDbSymbolTable
 70
36
  0
LAYER
  5
10
100
AcDbSymbolTableRecord
100
AcDbLayerTableRecord
  2
0
 70
0
 62
7
  6
CONTINUOUS
370
-3
390
F
  0
LAYER
  5
1FA
100
AcDbSymbolTableRecord
100
AcDbLayerTableRecord
  2
DEFAULT_1
 70
0
 62
7
  6
CENTER
370
-3
390
F
  0
LAYER
  5
1FB
100
AcDbSymbolTableRecord
100
AcDbLayerTableRecord
  2
DEFAULT_2
 70
0
 62
8
  6
HIDDEN
370
-3
390
F
  0
LAYER
  5
1FC
100
AcDbSymbolTableRecord
100
AcDbLayerTableRecord
  2
DEFAULT_3
 70
0
 62
7
  6
PHANTOM
370
-3
390
F
  0
LAYER
  5
1FD
100
AcDbSymbolTableRecord
100
AcDbLayerTableRecord
  2
00_COMPONENTS
 70
0
 62
7
  6
CONTINUOUS
370
-3
390
F
  0
LAYER
  5
1FE
100
AcDbSymbolTableRecord
100
AcDbLayerTableRecord
  2
01_1_DEFAULT_DATUMS
 70
0
 62
7
  6
CONTINUOUS
370
-3
390
F
  0
LAYER
  5
1FF
100
AcDbSymbolTableRecord
100
AcDbLayerTableRecord
  2
01_PLANES
 70
0
 62
7
  6
CONTINUOUS
370
-3
390
F
  0
LAYER
  5
200
100
AcDbSymbolTableRecord
100
AcDbLayerTableRecord
  2
02_COORD_SYS
 70
0
 62
7
  6
CONTINUOUS
370
-3
390
F
  0
LAYER
  5
201
100
AcDbSymbolTableRecord
100
AcDbLayerTableRecord
  2
03_AXES
 70
0
 62
7
  6
CONTINUOUS
370
-3
390
F
  0
LAYER
  5
202
100
AcDbSymbolTableRecord
100
AcDbLayerTableRecord
  2
04_POINTS
 70
0
 62
7
  6
CONTINUOUS
370
-3
390
F
  0
LAYER
  5
203
100
AcDbSymbolTableRecord
100
AcDbLayerTableRecord
  2
05_CURVES
 70
0
 62
7
  6
CONTINUOUS
370
-3
390
F
  0
LAYER
  5
204
100
AcDbSymbolTableRecord
100
AcDbLayerTableRecord
  2
06_SURFS
 70
0
 62
7
  6
CONTINUOUS
370
-3
390
F
  0
LAYER
  5
205
100
AcDbSymbolTableRecord
100
AcDbLayerTableRecord
  2
07_COSMETICS
 70
0
 62
7
  6
CONTINUOUS
370
-3
390
F
  0
LAYER
  5
206
100
AcDbSymbolTableRecord
100
AcDbLayerTableRecord
  2
10_NOTES
 70
0
 62
7
  6
CONTINUOUS
370
-3
390
F
  0
LAYER
  5
207
100
AcDbSymbolTableRecord
100
AcDbLayerTableRecord
  2
11_NOTES_PUB
 70
0
 62
7
  6
CONTINUOUS
370
-3
390
F
  0
LAYER
  5
208
100
AcDbSymbolTableRecord
100
AcDbLayerTableRecord
  2
13_REF_GTOL
 70
0
 62
7
  6
CONTINUOUS
370
-3
390
F
  0
LAYER
  5
209
100
AcDbSymbolTableRecord
100
AcDbLayerTableRecord
  2
16_MISC
 70
0
 62
7
  6
CONTINUOUS
370
-3
390
F
  0
LAYER
  5
20A
100
AcDbSymbolTableRecord
100
AcDbLayerTableRecord
  2
17_NO_PRINT
 70
0
 62
7
  6
CONTINUOUS
370
-3
390
F
  0
LAYER
  5
20B
100
AcDbSymbolTableRecord
100
AcDbLayerTableRecord
  2
18_DATUM_CAMS_JOINTS
 70
0
 62
7
  6
CONTINUOUS
370
-3
390
F
  0
LAYER
  5
20C
100
AcDbSymbolTableRecord
100
AcDbLayerTableRecord
  2
19_DATUM_FUNCTIONAL
 70
0
 62
7
  6
CONTINUOUS
370
-3
390
F
  0
LAYER
  5
20D
100
AcDbSymbolTableRecord
100
AcDbLayerTableRecord
  2
20_DATUM_KINEMATIC_SCHEME
 70
0
 62
7
  6
CONTINUOUS
370
-3
390
F
  0
ENDTAB
  0
TABLE
  2
STYLE
  5
3
100
AcDbSymbolTable
 70
1
  0
STYLE
  5
11
100
AcDbSymbolTableRecord
100
AcDbTextStyleTableRecord
  2
STANDARD
 70
0
 40
0.0
 41
0.8
 50
0.0
 71
0
 42
0.2
  3
txt
  4

  0
STYLE
  5
20E
100
AcDbSymbolTableRecord
100
AcDbTextStyleTableRecord
  2
TEXTSTYLE_1
 70
0
 40
0.0
 41
0.8
 50
0.0
 71
0
 42
0.2
  3
gdt
  4

  0
ENDTAB
  0
TABLE
  2
VIEW
  5
6
100
AcDbSymbolTable
 70
0
  0
ENDTAB
  0
TABLE
  2
UCS
  5
7
100
AcDbSymbolTable
 70
0
  0
ENDTAB
  0
TABLE
  2
APPID
  5
9
100
AcDbSymbolTable
 70
1
  0
APPID
  5
20F
100
AcDbSymbolTableRecord
100
AcDbRegAppTableRecord
  2
ACAD
 70
0
  0
ENDTAB
  0
TABLE
  2
BLOCK_RECORD
  5
1
100
AcDbSymbolTable
 70
0
  0
BLOCK_RECORD
  5
210
100
AcDbSymbolTableRecord
100
AcDbBlockTableRecord
  2
*Model_Space
  0
BLOCK_RECORD
  5
211
100
AcDbSymbolTableRecord
100
AcDbBlockTableRecord
  2
*Paper_Space
  0
BLOCK_RECORD
  5
212
100
AcDbSymbolTableRecord
100
AcDbBlockTableRecord
  2
_FILLED
  0
ENDTAB
  0
TABLE
  2
DIMSTYLE
  5
A
100
AcDbSymbolTable
 70
1
100
AcDbDimStyleTable
 71
0
  0
DIMSTYLE
105
213
100
AcDbSymbolTableRecord
100
AcDbDimStyleTableRecord
  2
STANDARD
 70
0
  3

  4

 40
1.0
 41
9.2612365814
 42
1.0
 43
0.38
 44
1.0
 45
0.0
 46
0.0
 47
0.01
 48
0.01
140
12.9657312139
141
0.09
142
0.0
143
25.4
144
1.0
145
0.0
146
1.0
147
0.625
 71
1
 72
0
 73
0
 74
0
 75
0
 76
0
 77
1
 78
8
 79
2
170
0
171
1
172
0
173
0
174
0
175
0
176
0
177
0
178
0
270
2
179
2
271
2
272
2
273
2
274
2
275
0
280
0
281
0
282
0
283
1
284
8
285
0
286
0
287
3
288
0
340
11
278
46
341
212
342
212
343
212
344
212
  0
ENDTAB
  0
ENDSEC
  0
SECTION
  2
BLOCKS
  0
BLOCK
  5
20
100
AcDbEntity
  8
0
100
AcDbBlockBegin
  2
*Model_Space
 70
0
 10
0.0
 20
0.0
 30
0.0
  3
*Model_Space
  1

  0
ENDBLK
  5
21
100
AcDbEntity
  8
0
100
AcDbBlockEnd
  0
BLOCK
  5
1C
100
AcDbEntity
  8
0
100
AcDbBlockBegin
  2
*Paper_Space
 70
0
 10
0.0
 20
0.0
 30
0.0
  3
*Paper_Space
  1

  0
ENDBLK
  5
1D
100
AcDbEntity
  8
0
100
AcDbBlockEnd
  0
BLOCK
  5
214
100
AcDbEntity
  8
0
100
AcDbBlockBegin
  2
_FILLED
 70
64
 10
0.0
 20
0.0
  3
_FILLED
  1

  0
SOLID
  5
215
100
AcDbEntity
  8
0
  6
BYBLOCK
 62
0
100
AcDbTrace
 10
0.0
 20
0.0
 11
-1.0
 21
0.25
 12
-1.0
 22
-0.25
 13
-1.0
 23
-0.25
  0
ENDBLK
  5
216
100
AcDbEntity
  8
0
  6
BYBLOCK
 62
0
100
AcDbBlockEnd
  0
ENDSEC
  0
SECTION
  2
ENTITIES
  0
LINE
  5
217
100
AcDbEntity
  8
0
100
AcDbLine
 62
7
  6
CONTINUOUS
 10
90.2504397057
 20
555.2151037186
 11
90.2504397057
 21
556.6848080695
  0
LINE
  5
218
100
AcDbEntity
  8
0
100
AcDbLine
 62
7
  6
CONTINUOUS
 10
92.028621702
 20
554.1884930894
 11
92.028621702
 21
555.6581974403
  0
LINE
  5
219
100
AcDbEntity
  8
0
100
AcDbLine
 62
7
  6
CONTINUOUS
 10
93.9073675543
 20
546.478760312
 11
93.9073675543
 21
545.0090559612
  0
LINE
  5
21A
100
AcDbEntity
  8
0
100
AcDbLine
 62
7
  6
CONTINUOUS
 10
94.4930877961
 20
555.6582033642
 11
94.4930877961
 21
554.1884990133
  0
LINE
  5
21B
100
AcDbEntity
  8
0
100
AcDbLine
 62
7
  6
CONTINUOUS
 10
94.4931598799
 20
544.1925676534
 11
94.4931598799
 21
545.6622720042
  0
LINE
  5
21C
100
AcDbEntity
  8
0
100
AcDbLine
 62
7
  6
CONTINUOUS
 10
94.8467147425
 20
545.458151627
 11
94.8467147425
 21
543.9884472761
  0
LINE
  5
21D
100
AcDbEntity
  8
0
100
AcDbLine
 62
7
  6
CONTINUOUS
 10
94.8467412382
 20
540.3142651884
 11
94.8467412382
 21
541.7839695392
  0
LINE
  5
21E
100
AcDbEntity
  8
0
100
AcDbLine
 62
7
  6
CONTINUOUS
 10
98.0285583633
 20
562.9717290448
 11
98.0285583633
 21
564.4414333956
  0
LINE
  5
21F
100
AcDbEntity
  8
0
100
AcDbLine
 62
7
  6
CONTINUOUS
 10
99.0892229511
 20
563.8290722638
 11
99.0892229511
 21
562.359367913
  0
LINE
  5
220
100
AcDbEntity
  8
0
100
AcDbLine
 62
7
  6
CONTINUOUS
 10
116.509506672
 20
567.5033070416
 11
116.509506672
 21
566.6868046244
  0
LINE
  5
221
100
AcDbEntity
  8
0
100
AcDbLine
 62
7
  6
CONTINUOUS
 10
118.0043080039
 20
566.3806347686
 11
118.0043080039
 21
566.7888755231
  0
LINE
  5
222
100
AcDbEntity
  8
0
100
AcDbLine
 62
7
  6
CONTINUOUS
 10
118.3578525626
 20
567.605362981
 11
118.3578525626
 21
568.0136037355
  0
LINE
  5
223
100
AcDbEntity
  8
0
100
AcDbLine
 62
7
  6
CONTINUOUS
 10
118.53461969
 20
568.932151382
 11
118.53461969
 21
569.3403921366
  0
LINE
  5
224
100
AcDbEntity
  8
0
100
AcDbLine
 62
7
  6
CONTINUOUS
 10
121.1862811593
 20
567.4012485526
 11
121.1862811593
 21
567.8094893071
  0
LINE
  5
225
100
AcDbEntity
  8
0
100
AcDbLine
 62
7
  6
CONTINUOUS
 10
121.5398360219
 20
567.1971281753
 11
121.5398360219
 21
567.6053689299
  0
LINE
  5
226
100
AcDbEntity
  8
0
100
AcDbLine
 62
7
  6
CONTINUOUS
 10
123.6611445895
 20
568.8300996918
 11
123.6611445895
 21
569.2383438457
  0
LINE
  5
227
100
AcDbEntity
  8
0
100
AcDbLine
 62
7
  6
CONTINUOUS
 10
125.509506672
 20
567.5033070416
 11
125.509506672
 21
566.6868046244
  0
LINE
  5
228
100
AcDbEntity
  8
0
100
AcDbLine
 62
7
  6
CONTINUOUS
 10
94.493148104
 20
547.295241821
 11
93.9074109402
 21
546.478760312
  0
LINE
  5
229
100
AcDbEntity
  8
0
100
AcDbLine
 62
7
  6
CONTINUOUS
 10
93.9074109402
 20
546.478760312
 11
94.4931598799
 21
545.6622720042
  0
LINE
  5
22A
100
AcDbEntity
  8
0
100
AcDbLine
 62
7
  6
CONTINUOUS
 10
98.0285583633
 20
564.4414333956
 11
373.7990548767
 21
723.6566534055
  0
LINE
  5
22B
100
AcDbEntity
  8
0
100
AcDbLine
 62
7
  6
CONTINUOUS
 10
90.2504397057
 20
556.6848080695
 11
99.0892376709
 21
561.7878599929
  0
LINE
  5
22C
100
AcDbEntity
  8
0
100
AcDbLine
 62
7
  6
CONTINUOUS
 10
378.3952533704
 20
723.0443007721
 11
387.2340513355
 21
728.1473526955
  0
LINE
  5
22D
100
AcDbEntity
  8
0
100
AcDbLine
 62
7
  6
CONTINUOUS
 10
118.1810677714
 20
569.1362700596
 11
118.53461969
 21
569.3403921366
  0
LINE
  5
22E
100
AcDbEntity
  8
0
100
AcDbLine
 62
7
  6
CONTINUOUS
 10
365.3138588776
 20
711.8176018377
 11
365.6674107962
 21
712.0217239147
  0
LINE
  5
22F
100
AcDbEntity
  8
0
100
AcDbLine
 62
7
  6
CONTINUOUS
 10
118.004300644
 20
567.8094816586
 11
118.3578525626
 21
568.0136037355
  0
LINE
  5
230
100
AcDbEntity
  8
0
100
AcDbLine
 62
7
  6
CONTINUOUS
 10
367.6119551805
 20
711.9196679752
 11
367.9655070991
 21
712.1237900522
  0
LINE
  5
231
100
AcDbEntity
  8
0
100
AcDbLine
 62
7
  6
CONTINUOUS
 10
117.6507560853
 20
566.5847534462
 11
118.0043080039
 21
566.7888755231
  0
LINE
  5
232
100
AcDbEntity
  8
0
100
AcDbLine
 62
7
  6
CONTINUOUS
 10
369.733274052
 20
712.1237943013
 11
370.0868259706
 21
712.3279163783
  0
LINE
  5
233
100
AcDbEntity
  8
0
100
AcDbLine
 62
7
  6
CONTINUOUS
 10
121.1862811593
 20
567.8094893071
 11
123.6611445895
 21
569.2383438457
  0
LINE
  5
234
100
AcDbEntity
  8
0
100
AcDbLine
 62
7
  6
CONTINUOUS
 10
365.4906569167
 20
708.8578444697
 11
367.9655203469
 21
710.2866990083
  0
LINE
  5
235
100
AcDbEntity
  8
0
100
AcDbLine
 62
7
  6
CONTINUOUS
 10
368.3190752095
 20
710.082578631
 11
365.8442117792
 21
708.6537240925
  0
LINE
  5
236
100
AcDbEntity
  8
0
100
AcDbLine
 62
7
  6
CONTINUOUS
 10
124.0146994521
 20
569.0342234684
 11
121.5398360219
 21
567.6053689299
  0
LINE
  5
237
100
AcDbEntity
  8
0
100
AcDbLine
 62
7
  6
CONTINUOUS
 10
371.8546002835
 20
711.307314492
 11
371.5010483649
 21
711.103192415
  0
LINE
  5
238
100
AcDbEntity
  8
0
100
AcDbLine
 62
7
  6
CONTINUOUS
 10
119.7720823168
 20
565.7682736368
 11
119.4185303981
 21
565.5641515599
  0
LINE
  5
239
100
AcDbEntity
  8
0
100
AcDbLine
 62
7
  6
CONTINUOUS
 10
371.5010557248
 20
710.0825862796
 11
371.1475038062
 21
709.8784642026
  0
LINE
  5
23A
100
AcDbEntity
  8
0
100
AcDbLine
 62
7
  6
CONTINUOUS
 10
121.8934011883
 20
565.9723999629
 11
121.5398492697
 21
565.768277886
  0
LINE
  5
23B
100
AcDbEntity
  8
0
100
AcDbLine
 62
7
  6
CONTINUOUS
 10
371.3242885974
 20
708.7557978785
 11
370.9707366788
 21
708.5516758016
  0
LINE
  5
23C
100
AcDbEntity
  8
0
100
AcDbLine
 62
7
  6
CONTINUOUS
 10
124.1914974912
 20
566.0744661004
 11
123.8379455725
 21
565.8703440235
  0
LINE
  5
23D
100
AcDbEntity
  8
0
100
AcDbLine
 62
7
  6
CONTINUOUS
 10
94.493148104
 20
547.295241821
 11
98.7357711273
 21
549.7447067443
  0
LINE
  5
23E
100
AcDbEntity
  8
0
100
AcDbLine
 62
7
  6
CONTINUOUS
 10
399.2549019432
 20
723.2484721396
 11
403.4975249665
 21
725.6979370629
  0
LINE
  5
23F
100
AcDbEntity
  8
0
100
AcDbLine
 62
7
  6
CONTINUOUS
 10
376.9835215718
 20
377.4262041348
 11
94.8467412382
 21
540.3142651884
  0
LINE
  5
240
100
AcDbEntity
  8
0
100
AcDbLine
 62
7
  6
CONTINUOUS
 10
376.9835215718
 20
378.8959084856
 11
94.8467412382
 21
541.7839695392
  0
LINE
  5
241
100
AcDbEntity
  8
0
100
AcDbLine
 62
7
  6
CONTINUOUS
 10
383.701037465
 20
377.2220990546
 11
383.3474826024
 21
377.4262194319
  0
LINE
  5
242
100
AcDbEntity
  8
0
100
AcDbLine
 62
7
  6
CONTINUOUS
 10
94.8467147425
 20
543.9884472761
 11
94.4931598799
 21
544.1925676534
  0
LINE
  5
243
100
AcDbEntity
  8
0
100
AcDbLine
 62
7
  6
CONTINUOUS
 10
383.701037465
 20
378.6918034054
 11
383.3474826024
 21
378.8959237827
  0
LINE
  5
244
100
AcDbEntity
  8
0
100
AcDbLine
 62
7
  6
CONTINUOUS
 10
94.8467147425
 20
545.458151627
 11
94.4931598799
 21
545.6622720042
  0
LINE
  5
245
100
AcDbEntity
  8
0
100
AcDbLine
 62
7
  6
CONTINUOUS
 10
402.7929382207
 20
374.7726902207
 11
401.0147562244
 21
375.7993008499
  0
LINE
  5
246
100
AcDbEntity
  8
0
100
AcDbLine
 62
7
  6
CONTINUOUS
 10
92.028621702
 20
554.1884930894
 11
90.2504397057
 21
555.2151037186
  0
LINE
  5
247
100
AcDbEntity
  8
0
100
AcDbLine
 62
7
  6
CONTINUOUS
 10
402.7929382207
 20
376.2423945715
 11
401.0147562244
 21
377.2690052007
  0
LINE
  5
248
100
AcDbEntity
  8
0
100
AcDbLine
 62
7
  6
CONTINUOUS
 10
92.028621702
 20
555.6581974403
 11
90.2504397057
 21
556.6848080695
  0
LINE
  5
249
100
AcDbEntity
  8
0
100
AcDbLine
 62
7
  6
CONTINUOUS
 10
99.0892229511
 20
562.359367913
 11
98.0285583633
 21
562.9717290448
  0
LINE
  5
24A
100
AcDbEntity
  8
0
100
AcDbLine
 62
7
  6
CONTINUOUS
 10
415.1672700918
 20
379.8757506424
 11
416.2279346795
 21
379.2633895107
  0
LINE
  5
24B
100
AcDbEntity
  8
0
100
AcDbLine
 62
7
  6
CONTINUOUS
 10
99.0892229511
 20
563.8290722638
 11
98.0285583633
 21
564.4414333956
  0
LINE
  5
24C
100
AcDbEntity
  8
0
100
AcDbLine
 62
7
  6
CONTINUOUS
 10
415.1672700918
 20
381.3454549933
 11
416.2279346795
 21
380.7330938615
  0
LINE
  5
24D
100
AcDbEntity
  8
0
100
AcDbLine
 62
7
  6
CONTINUOUS
 10
419.9401635856
 20
392.0618308887
 11
418.1723892727
 21
393.082432775
  0
LINE
  5
24E
100
AcDbEntity
  8
0
100
AcDbLine
 62
7
  6
CONTINUOUS
 10
119.4185303981
 20
565.5641515599
 11
117.6507560853
 21
566.5847534462
  0
LINE
  5
24F
100
AcDbEntity
  8
0
100
AcDbLine
 62
7
  6
CONTINUOUS
 10
118.0043080039
 20
566.7888755231
 11
119.7720823168
 21
565.7682736368
  0
LINE
  5
250
100
AcDbEntity
  8
0
100
AcDbLine
 62
7
  6
CONTINUOUS
 10
418.5259411914
 20
393.286554852
 11
420.2937155042
 21
392.2659529657
  0
LINE
  5
251
100
AcDbEntity
  8
0
100
AcDbLine
 62
7
  6
CONTINUOUS
 10
422.0614824572
 20
392.2659572149
 11
418.5259338314
 21
394.3071609875
  0
LINE
  5
252
100
AcDbEntity
  8
0
100
AcDbLine
 62
7
  6
CONTINUOUS
 10
121.5398492697
 20
565.768277886
 11
118.004300644
 21
567.8094816586
  0
LINE
  5
253
100
AcDbEntity
  8
0
100
AcDbLine
 62
7
  6
CONTINUOUS
 10
118.3578525626
 20
568.0136037355
 11
121.8934011883
 21
565.9723999629
  0
LINE
  5
254
100
AcDbEntity
  8
0
100
AcDbLine
 62
7
  6
CONTINUOUS
 10
418.87948575
 20
394.5112830644
 11
422.4150343758
 21
392.4700792918
  0
LINE
  5
255
100
AcDbEntity
  8
0
100
AcDbLine
 62
7
  6
CONTINUOUS
 10
424.35957876
 20
392.3680233523
 11
418.7027009588
 21
395.6339493885
  0
LINE
  5
256
100
AcDbEntity
  8
0
100
AcDbLine
 62
7
  6
CONTINUOUS
 10
123.8379455725
 20
565.8703440235
 11
118.1810677714
 21
569.1362700596
  0
LINE
  5
257
100
AcDbEntity
  8
0
100
AcDbLine
 62
7
  6
CONTINUOUS
 10
118.53461969
 20
569.3403921366
 11
121.1862811593
 21
567.8094893071
  0
LINE
  5
258
100
AcDbEntity
  8
0
100
AcDbLine
 62
7
  6
CONTINUOUS
 10
121.5398360219
 20
567.6053689299
 11
124.1914974912
 21
566.0744661004
  0
LINE
  5
259
100
AcDbEntity
  8
0
100
AcDbLine
 62
7
  6
CONTINUOUS
 10
419.0562528774
 20
395.8380714654
 11
421.7079143467
 21
394.307168636
  0
LINE
  5
25A
100
AcDbEntity
  8
0
100
AcDbLine
 62
7
  6
CONTINUOUS
 10
422.0614692093
 20
394.1030482587
 11
424.7131306786
 21
392.5721454293
  0
LINE
  5
25B
100
AcDbEntity
  8
0
100
AcDbLine
 62
7
  6
CONTINUOUS
 10
123.6611445895
 20
569.2383438457
 11
124.0146994521
 21
569.0342234684
  0
LINE
  5
25C
100
AcDbEntity
  8
0
100
AcDbLine
 62
7
  6
CONTINUOUS
 10
424.182777777
 20
395.7360231745
 11
424.5363326396
 21
395.5319027973
  0
LINE
  5
25D
100
AcDbEntity
  8
0
100
AcDbLine
 62
7
  6
CONTINUOUS
 10
363.9958496968
 20
710.3887608966
 11
363.9958496968
 21
709.5722584794
  0
LINE
  5
25E
100
AcDbEntity
  8
0
100
AcDbLine
 62
7
  6
CONTINUOUS
 10
365.6674107962
 20
711.6134831601
 11
365.6674107962
 21
712.0217239147
  0
LINE
  5
25F
100
AcDbEntity
  8
0
100
AcDbLine
 62
7
  6
CONTINUOUS
 10
367.9655070991
 20
711.7155492976
 11
367.9655070991
 21
712.1237900522
  0
LINE
  5
260
100
AcDbEntity
  8
0
100
AcDbLine
 62
7
  6
CONTINUOUS
 10
367.9655203469
 20
709.8784548544
 11
367.9655203469
 21
710.2866990083
  0
LINE
  5
261
100
AcDbEntity
  8
0
100
AcDbLine
 62
7
  6
CONTINUOUS
 10
370.0868259706
 20
711.9196756237
 11
370.0868259706
 21
712.3279163783
  0
LINE
  5
262
100
AcDbEntity
  8
0
100
AcDbLine
 62
7
  6
CONTINUOUS
 10
372.9958496968
 20
710.3887608966
 11
372.9958496968
 21
709.5722584794
  0
LINE
  5
263
100
AcDbEntity
  8
0
100
AcDbLine
 62
7
  6
CONTINUOUS
 10
376.9835215718
 20
378.8959084856
 11
376.9835215718
 21
377.4262041348
  0
LINE
  5
264
100
AcDbEntity
  8
0
100
AcDbLine
 62
7
  6
CONTINUOUS
 10
383.3474826024
 20
377.4262194319
 11
383.3474826024
 21
378.8959237827
  0
LINE
  5
265
100
AcDbEntity
  8
0
100
AcDbLine
 62
7
  6
CONTINUOUS
 10
383.701037465
 20
378.6918034054
 11
383.701037465
 21
377.2220990546
  0
LINE
  5
266
100
AcDbEntity
  8
0
100
AcDbLine
 62
7
  6
CONTINUOUS
 10
386.5294645897
 20
377.2221058533
 11
386.5294645897
 21
378.6918102041
  0
LINE
  5
267
100
AcDbEntity
  8
0
100
AcDbLine
 62
7
  6
CONTINUOUS
 10
389.0122435924
 20
725.6979022444
 11
389.0122333319
 21
727.1207420663
  0
LINE
  5
268
100
AcDbEntity
  8
0
100
AcDbLine
 62
7
  6
CONTINUOUS
 10
390.772087613
 20
381.1412751274
 11
390.772087613
 21
379.6715707765
  0
LINE
  5
269
100
AcDbEntity
  8
0
100
AcDbLine
 62
7
  6
CONTINUOUS
 10
697.9983678542
 20
548.7315498267
 11
695.53390176
 21
548.7315439029
  0
LINE
  5
26A
100
AcDbEntity
  8
0
100
AcDbLine
 62
7
  6
CONTINUOUS
 10
94.4930877962
 20
554.1884990133
 11
92.028621702
 21
554.1884930894
  0
LINE
  5
26B
100
AcDbEntity
  8
0
100
AcDbLine
 62
7
  6
CONTINUOUS
 10
401.0147562245
 20
375.7993008499
 11
401.0147459638
 21
378.6918450226
  0
LINE
  5
26C
100
AcDbEntity
  8
0
100
AcDbLine
 62
7
  6
CONTINUOUS
 10
402.7929382207
 20
374.7726902207
 11
402.7929382207
 21
376.2423945715
  0
LINE
  5
26D
100
AcDbEntity
  8
0
100
AcDbLine
 62
7
  6
CONTINUOUS
 10
411.6317361859
 20
381.3454464949
 11
411.6317361859
 21
379.8757421441
  0
LINE
  5
26E
100
AcDbEntity
  8
0
100
AcDbLine
 62
7
  6
CONTINUOUS
 10
415.1672700918
 20
379.8757506424
 11
415.1672700918
 21
381.3454549933
  0
LINE
  5
26F
100
AcDbEntity
  8
0
100
AcDbLine
 62
7
  6
CONTINUOUS
 10
416.2279346795
 20
379.2633895107
 11
416.2279346795
 21
380.7330938615
  0
LINE
  5
270
100
AcDbEntity
  8
0
100
AcDbLine
 62
7
  6
CONTINUOUS
 10
417.0311398594
 20
394.0009863704
 11
417.0311398594
 21
393.1844839533
  0
LINE
  5
271
100
AcDbEntity
  8
0
100
AcDbLine
 62
7
  6
CONTINUOUS
 10
418.5259411914
 20
392.8783140974
 11
418.5259411914
 21
393.286554852
  0
LINE
  5
272
100
AcDbEntity
  8
0
100
AcDbLine
 62
7
  6
CONTINUOUS
 10
418.87948575
 20
394.1030423099
 11
418.87948575
 21
394.5112830644
  0
LINE
  5
273
100
AcDbEntity
  8
0
100
AcDbLine
 62
7
  6
CONTINUOUS
 10
419.0562528774
 20
395.4298307109
 11
419.0562528774
 21
395.8380714654
  0
LINE
  5
274
100
AcDbEntity
  8
0
100
AcDbLine
 62
7
  6
CONTINUOUS
 10
92.028621702
 20
555.6581974403
 11
94.4930877962
 21
555.6582033641
  0
LINE
  5
275
100
AcDbEntity
  8
0
100
AcDbLine
 62
7
  6
CONTINUOUS
 10
421.7079143467
 20
393.8989278815
 11
421.7079143467
 21
394.307168636
  0
LINE
  5
276
100
AcDbEntity
  8
0
100
AcDbLine
 62
7
  6
CONTINUOUS
 10
422.0614692093
 20
393.6948075042
 11
422.0614692093
 21
394.1030482587
  0
LINE
  5
277
100
AcDbEntity
  8
0
100
AcDbLine
 62
7
  6
CONTINUOUS
 10
424.182777777
 20
395.3277790207
 11
424.182777777
 21
395.7360231745
  0
LINE
  5
278
100
AcDbEntity
  8
0
100
AcDbLine
 62
7
  6
CONTINUOUS
 10
426.0311398594
 20
394.0009863704
 11
426.0311398594
 21
393.1844839533
  0
LINE
  5
279
100
AcDbEntity
  8
0
100
AcDbLine
 62
7
  6
CONTINUOUS
 10
666.3658449667
 20
535.1514034213
 11
666.0122901041
 21
535.3555237986
  0
LINE
  5
27A
100
AcDbEntity
  8
0
100
AcDbLine
 62
7
  6
CONTINUOUS
 10
365.8442117792
 20
708.6537240925
 11
365.4906569167
 21
708.8578444697
  0
LINE
  5
27B
100
AcDbEntity
  8
0
100
AcDbLine
 62
7
  6
CONTINUOUS
 10
671.4923698663
 20
535.0493551304
 11
668.840708397
 21
536.5802579599
  0
LINE
  5
27C
100
AcDbEntity
  8
0
100
AcDbLine
 62
7
  6
CONTINUOUS
 10
668.4871535344
 20
536.7843783371
 11
665.8354920651
 21
538.3152811666
  0
LINE
  5
27D
100
AcDbEntity
  8
0
100
AcDbLine
 62
7
  6
CONTINUOUS
 10
370.9707366788
 20
708.5516758016
 11
368.3190752095
 21
710.082578631
  0
LINE
  5
27E
100
AcDbEntity
  8
0
100
AcDbLine
 62
7
  6
CONTINUOUS
 10
367.9655203469
 20
710.2866990083
 11
365.3138588776
 21
711.8176018377
  0
LINE
  5
27F
100
AcDbEntity
  8
0
100
AcDbLine
 62
7
  6
CONTINUOUS
 10
365.6674107962
 20
712.0217239147
 11
371.3242885974
 21
708.7557978785
  0
LINE
  5
280
100
AcDbEntity
  8
0
100
AcDbLine
 62
7
  6
CONTINUOUS
 10
666.1890439837
 20
538.5194032435
 11
671.8459217849
 21
535.2534772074
  0
LINE
  5
281
100
AcDbEntity
  8
0
100
AcDbLine
 62
7
  6
CONTINUOUS
 10
671.6691369937
 20
536.3761435315
 11
668.1335883679
 21
538.4173473041
  0
LINE
  5
282
100
AcDbEntity
  8
0
100
AcDbLine
 62
7
  6
CONTINUOUS
 10
371.1475038062
 20
709.8784642026
 11
367.6119551805
 21
711.9196679752
  0
LINE
  5
283
100
AcDbEntity
  8
0
100
AcDbLine
 62
7
  6
CONTINUOUS
 10
367.9655070991
 20
712.1237900522
 11
371.5010557248
 21
710.0825862796
  0
LINE
  5
284
100
AcDbEntity
  8
0
100
AcDbLine
 62
7
  6
CONTINUOUS
 10
668.4871402865
 20
538.621469381
 11
672.0226889123
 21
536.5802656084
  0
LINE
  5
285
100
AcDbEntity
  8
0
100
AcDbLine
 62
7
  6
CONTINUOUS
 10
672.0226815524
 20
537.6008717439
 11
670.2549072395
 21
538.6214736302
  0
LINE
  5
286
100
AcDbEntity
  8
0
100
AcDbLine
 62
7
  6
CONTINUOUS
 10
371.5010483649
 20
711.103192415
 11
369.733274052
 21
712.1237943013
  0
LINE
  5
287
100
AcDbEntity
  8
0
100
AcDbLine
 62
7
  6
CONTINUOUS
 10
370.0868259706
 20
712.3279163783
 11
371.8546002835
 21
711.307314492
  0
LINE
  5
288
100
AcDbEntity
  8
0
100
AcDbLine
 62
7
  6
CONTINUOUS
 10
670.6084591581
 20
538.8255957071
 11
672.376233471
 21
537.8049938208
  0
LINE
  5
289
100
AcDbEntity
  8
0
100
AcDbLine
 62
7
  6
CONTINUOUS
 10
374.8597194645
 20
723.0442922737
 11
373.7990548767
 21
723.6566534055
  0
LINE
  5
28A
100
AcDbEntity
  8
0
100
AcDbLine
 62
7
  6
CONTINUOUS
 10
690.9377666052
 20
540.5606750032
 11
691.9984311929
 21
539.9483138714
  0
LINE
  5
28B
100
AcDbEntity
  8
0
100
AcDbLine
 62
7
  6
CONTINUOUS
 10
695.5338414522
 20
557.094505446
 11
691.2912184289
 21
554.6450405228
  0
LINE
  5
28C
100
AcDbEntity
  8
0
100
AcDbLine
 62
7
  6
CONTINUOUS
 10
390.772087613
 20
381.1412751274
 11
386.5294645897
 21
378.6918102041
  0
LINE
  5
28D
100
AcDbEntity
  8
0
100
AcDbLine
 62
7
  6
CONTINUOUS
 10
695.5338414522
 20
555.6248010951
 11
691.2912184289
 21
553.1753361719
  0
LINE
  5
28E
100
AcDbEntity
  8
0
100
AcDbLine
 62
7
  6
CONTINUOUS
 10
390.772087613
 20
379.6715707765
 11
386.5294645897
 21
377.2221058533
  0
LINE
  5
28F
100
AcDbEntity
  8
0
100
AcDbLine
 62
7
  6
CONTINUOUS
 10
418.7027009588
 20
395.6339493885
 11
419.0562528774
 21
395.8380714654
  0
LINE
  5
290
100
AcDbEntity
  8
0
100
AcDbLine
 62
7
  6
CONTINUOUS
 10
665.8354920651
 20
538.3152811666
 11
666.1890439837
 21
538.5194032435
  0
LINE
  5
291
100
AcDbEntity
  8
0
100
AcDbLine
 62
7
  6
CONTINUOUS
 10
418.5259338314
 20
394.3071609875
 11
418.87948575
 21
394.5112830644
  0
LINE
  5
292
100
AcDbEntity
  8
0
100
AcDbLine
 62
7
  6
CONTINUOUS
 10
668.1335883679
 20
538.4173473041
 11
668.4871402865
 21
538.621469381
  0
LINE
  5
293
100
AcDbEntity
  8
0
100
AcDbLine
 62
7
  6
CONTINUOUS
 10
418.1723892727
 20
393.082432775
 11
418.5259411914
 21
393.286554852
  0
LINE
  5
294
100
AcDbEntity
  8
0
100
AcDbLine
 62
7
  6
CONTINUOUS
 10
670.2549072395
 20
538.6214736302
 11
670.6084591581
 21
538.8255957071
  0
LINE
  5
295
100
AcDbEntity
  8
0
100
AcDbLine
 62
7
  6
CONTINUOUS
 10
421.7079143467
 20
394.307168636
 11
424.182777777
 21
395.7360231745
  0
LINE
  5
296
100
AcDbEntity
  8
0
100
AcDbLine
 62
7
  6
CONTINUOUS
 10
666.0122901041
 20
535.3555237986
 11
668.4871535344
 21
536.7843783371
  0
LINE
  5
297
100
AcDbEntity
  8
0
100
AcDbLine
 62
7
  6
CONTINUOUS
 10
668.840708397
 20
536.5802579599
 11
666.3658449667
 21
535.1514034213
  0
LINE
  5
298
100
AcDbEntity
  8
0
100
AcDbLine
 62
7
  6
CONTINUOUS
 10
424.5363326396
 20
395.5319027973
 11
422.0614692093
 21
394.1030482587
  0
LINE
  5
299
100
AcDbEntity
  8
0
100
AcDbLine
 62
7
  6
CONTINUOUS
 10
672.376233471
 20
537.8049938208
 11
672.0226815524
 21
537.6008717439
  0
LINE
  5
29A
100
AcDbEntity
  8
0
100
AcDbLine
 62
7
  6
CONTINUOUS
 10
420.2937155042
 20
392.2659529657
 11
419.9401635856
 21
392.0618308887
  0
LINE
  5
29B
100
AcDbEntity
  8
0
100
AcDbLine
 62
7
  6
CONTINUOUS
 10
672.0226889123
 20
536.5802656084
 11
671.6691369937
 21
536.3761435315
  0
LINE
  5
29C
100
AcDbEntity
  8
0
100
AcDbLine
 62
7
  6
CONTINUOUS
 10
422.4150343758
 20
392.4700792918
 11
422.0614824572
 21
392.2659572149
  0
LINE
  5
29D
100
AcDbEntity
  8
0
100
AcDbLine
 62
7
  6
CONTINUOUS
 10
671.8459217849
 20
535.2534772074
 11
671.4923698663
 21
535.0493551304
  0
LINE
  5
29E
100
AcDbEntity
  8
0
100
AcDbLine
 62
7
  6
CONTINUOUS
 10
424.7131306786
 20
392.5721454293
 11
424.35957876
 21
392.3680233523
  0
LINE
  5
29F
100
AcDbEntity
  8
0
100
AcDbLine
 62
7
  6
CONTINUOUS
 10
699.7765498505
 20
547.7049391975
 11
690.9377518853
 21
542.6018872741
  0
LINE
  5
2A0
100
AcDbEntity
  8
0
100
AcDbLine
 62
7
  6
CONTINUOUS
 10
411.6317361859
 20
381.3454464949
 11
402.7929382207
 21
376.2423945715
  0
LINE
  5
2A1
100
AcDbEntity
  8
0
100
AcDbLine
 62
7
  6
CONTINUOUS
 10
699.7765498505
 20
546.2352348467
 11
690.9377518853
 21
541.1321829233
  0
LINE
  5
2A2
100
AcDbEntity
  8
0
100
AcDbLine
 62
7
  6
CONTINUOUS
 10
411.6317361859
 20
379.8757421441
 11
402.7929382207
 21
374.7726902207
  0
LINE
  5
2A3
100
AcDbEntity
  8
0
100
AcDbLine
 62
7
  6
CONTINUOUS
 10
691.9984311929
 20
539.9483138714
 11
416.2279346795
 21
380.7330938615
  0
LINE
  5
2A4
100
AcDbEntity
  8
0
100
AcDbLine
 62
7
  6
CONTINUOUS
 10
691.9984311929
 20
538.4786095205
 11
416.2279346795
 21
379.2633895107
  0
LINE
  5
2A5
100
AcDbEntity
  8
0
100
AcDbLine
 62
7
  6
CONTINUOUS
 10
387.2340513355
 20
728.1473526955
 11
389.0122333319
 21
727.1207420663
  0
LINE
  5
2A6
100
AcDbEntity
  8
0
100
AcDbLine
 62
7
  6
CONTINUOUS
 10
697.9983678542
 20
548.7315498267
 11
699.7765498505
 21
547.7049391975
  0
LINE
  5
2A7
100
AcDbEntity
  8
0
100
AcDbLine
 62
7
  6
CONTINUOUS
 10
406.3259520912
 20
725.6979438616
 11
406.6795069538
 21
725.4938234843
  0
LINE
  5
2A8
100
AcDbEntity
  8
0
100
AcDbLine
 62
7
  6
CONTINUOUS
 10
695.1802748138
 20
558.93159564
 11
695.5338296763
 21
558.7274752628
  0
LINE
  5
2A9
100
AcDbEntity
  8
0
100
AcDbLine
 62
7
  6
CONTINUOUS
 10
413.0434679844
 20
725.4938387814
 11
695.1802483181
 21
562.6057777278
  0
LINE
  5
2AA
100
AcDbEntity
  8
0
100
AcDbLine
 62
7
  6
CONTINUOUS
 10
695.5338414522
 20
557.094505446
 11
696.119578616
 21
557.910986955
  0
LINE
  5
2AB
100
AcDbEntity
  8
0
100
AcDbLine
 62
7
  6
CONTINUOUS
 10
696.119578616
 20
556.4412826042
 11
695.5338414522
 21
555.6248010951
  0
LINE
  5
2AC
100
AcDbEntity
  8
0
100
AcDbLine
 62
7
  6
CONTINUOUS
 10
696.119578616
 20
557.910986955
 11
695.5338296763
 21
558.7274752628
  0
LINE
  5
2AD
100
AcDbEntity
  8
0
100
AcDbLine
 62
7
  6
CONTINUOUS
 10
664.5174828843
 20
536.8864402254
 11
664.5174828843
 21
536.0699378083
  0
LINE
  5
2AE
100
AcDbEntity
  8
0
100
AcDbLine
 62
7
  6
CONTINUOUS
 10
666.1890439837
 20
538.111162489
 11
666.1890439837
 21
538.5194032435
  0
LINE
  5
2AF
100
AcDbEntity
  8
0
100
AcDbLine
 62
7
  6
CONTINUOUS
 10
668.4871402865
 20
538.2132286265
 11
668.4871402865
 21
538.621469381
  0
LINE
  5
2B0
100
AcDbEntity
  8
0
100
AcDbLine
 62
7
  6
CONTINUOUS
 10
668.4871535344
 20
536.3761341833
 11
668.4871535344
 21
536.7843783371
  0
LINE
  5
2B1
100
AcDbEntity
  8
0
100
AcDbLine
 62
7
  6
CONTINUOUS
 10
670.6084591581
 20
538.4173549526
 11
670.6084591581
 21
538.8255957071
  0
LINE
  5
2B2
100
AcDbEntity
  8
0
100
AcDbLine
 62
7
  6
CONTINUOUS
 10
673.5174828843
 20
536.8864402254
 11
673.5174828843
 21
536.0699378083
  0
LINE
  5
2B3
100
AcDbEntity
  8
0
100
AcDbLine
 62
7
  6
CONTINUOUS
 10
690.9377518853
 20
541.1321829233
 11
690.9377518853
 21
542.6018872741
  0
LINE
  5
2B4
100
AcDbEntity
  8
0
100
AcDbLine
 62
7
  6
CONTINUOUS
 10
691.2912184289
 20
553.1753361719
 11
691.2912184289
 21
554.6450405228
  0
LINE
  5
2B5
100
AcDbEntity
  8
0
100
AcDbLine
 62
7
  6
CONTINUOUS
 10
691.9984311929
 20
538.4786095205
 11
691.9984311929
 21
539.9483138714
  0
LINE
  5
2B6
100
AcDbEntity
  8
0
100
AcDbLine
 62
7
  6
CONTINUOUS
 10
695.1802483181
 20
561.136073377
 11
695.1802483181
 21
562.6057777278
  0
LINE
  5
2B7
100
AcDbEntity
  8
0
100
AcDbLine
 62
7
  6
CONTINUOUS
 10
695.5338414522
 20
557.094505446
 11
695.5338414522
 21
555.6248010951
  0
LINE
  5
2B8
100
AcDbEntity
  8
0
100
AcDbLine
 62
7
  6
CONTINUOUS
 10
696.1196220019
 20
557.910986955
 11
696.1196220019
 21
556.4412826042
  0
LINE
  5
2B9
100
AcDbEntity
  8
0
100
AcDbLine
 62
7
  6
CONTINUOUS
 10
699.7765498505
 20
546.2352348467
 11
699.7765498505
 21
547.7049391975
  0
ARC
  5
2BA
100
AcDbEntity
  8
0
100
AcDbCircle
 62
7
  6
CONTINUOUS
 10
393.8003779172
 20
374.410877311
 40
6.0700443083
100
AcDbArc
 50
114.9501359627
 51
119.9266543727
  0
ARC
  5
2BB
100
AcDbEntity
  8
0
100
AcDbCircle
 62
7
  6
CONTINUOUS
 10
94.3530458218
 20
542.054595738
 40
1.8280362809
100
AcDbArc
 50
22.7746204349
 51
27.9874655031
  0
ARC
  5
2BC
100
AcDbEntity
  8
0
100
AcDbCircle
 62
7
  6
CONTINUOUS
 10
121.0200075526
 20
573.0793021992
 40
8.4623972879
100
AcDbArc
 50
272.3556825669
 51
276.8627809952
  0
ARC
  5
2BD
100
AcDbEntity
  8
0
100
AcDbCircle
 62
7
  6
CONTINUOUS
 10
120.9291103287
 20
572.5630643038
 40
7.9413599257
100
AcDbArc
 50
260.023813126
 51
260.9724960503
  0
ARC
  5
2BE
100
AcDbEntity
  8
0
100
AcDbCircle
 62
7
  6
CONTINUOUS
 10
120.8961602877
 20
572.3810158227
 40
7.7563558732
100
AcDbArc
 50
257.577169542
 51
260.0305644984
  0
ARC
  5
2BF
100
AcDbEntity
  8
0
100
AcDbCircle
 62
7
  6
CONTINUOUS
 10
121.8451606111
 20
570.2087999698
 40
5.4616675175
100
AcDbArc
 50
294.3402343501
 51
296.0860192555
  0
ARC
  5
2C0
100
AcDbEntity
  8
0
100
AcDbCircle
 62
7
  6
CONTINUOUS
 10
120.1346664211
 20
564.8814798004
 40
5.3692878653
100
AcDbArc
 50
114.3272153802
 51
117.1039907629
  0
ARC
  5
2C1
100
AcDbEntity
  8
0
100
AcDbCircle
 62
7
  6
CONTINUOUS
 10
121.9547596967
 20
569.9838239906
 40
5.2114158493
100
AcDbArc
 50
296.0914249296
 51
297.1227011309
  0
ARC
  5
2C2
100
AcDbEntity
  8
0
100
AcDbCircle
 62
7
  6
CONTINUOUS
 10
120.3565459178
 20
564.8511068925
 40
5.1542963328
100
AcDbArc
 50
112.6367005958
 51
114.834221154
  0
ARC
  5
2C3
100
AcDbEntity
  8
0
100
AcDbCircle
 62
7
  6
CONTINUOUS
 10
122.0391267258
 20
569.819142871
 40
5.0263816185
100
AcDbArc
 50
297.1225683109
 51
298.1668668877
  0
ARC
  5
2C4
100
AcDbEntity
  8
0
100
AcDbCircle
 62
7
  6
CONTINUOUS
 10
119.9056487066
 20
565.3284434192
 40
4.8670672634
100
AcDbArc
 50
117.101312354
 51
119.9749511127
  0
ARC
  5
2C5
100
AcDbEntity
  8
0
100
AcDbCircle
 62
7
  6
CONTINUOUS
 10
119.865358728
 20
569.6014412501
 40
4.7802572664
100
AcDbArc
 50
238.4641904402
 51
242.1387191023
  0
ARC
  5
2C6
100
AcDbEntity
  8
0
100
AcDbCircle
 62
7
  6
CONTINUOUS
 10
122.1581481352
 20
569.598064768
 40
4.7753013857
100
AcDbArc
 50
298.1600452493
 51
299.9896992843
  0
ARC
  5
2C7
100
AcDbEntity
  8
0
100
AcDbCircle
 62
7
  6
CONTINUOUS
 10
120.1038909982
 20
565.3850303727
 40
4.5636356606
100
AcDbArc
 50
114.7708650228
 51
119.9211708331
  0
ARC
  5
2C8
100
AcDbEntity
  8
0
100
AcDbCircle
 62
7
  6
CONTINUOUS
 10
119.6815200144
 20
569.2974541792
 40
4.4250121897
100
AcDbArc
 50
237.10418634
 51
238.4343246667
  0
ARC
  5
2C9
100
AcDbEntity
  8
0
100
AcDbCircle
 62
7
  6
CONTINUOUS
 10
122.3435038477
 20
569.2799711242
 40
4.4071468942
100
AcDbArc
 50
299.9696507046
 51
303.807000562
  0
ARC
  5
2CA
100
AcDbEntity
  8
0
100
AcDbCircle
 62
7
  6
CONTINUOUS
 10
119.8806095273
 20
565.7840118936
 40
4.1064624761
100
AcDbArc
 50
119.9978311596
 51
121.0035320072
  0
ARC
  5
2CB
100
AcDbEntity
  8
0
100
AcDbCircle
 62
7
  6
CONTINUOUS
 10
122.1384038173
 20
569.2226021884
 40
4.1064624748
100
AcDbArc
 50
299.9978311593
 51
301.0035320072
  0
ARC
  5
2CC
100
AcDbEntity
  8
0
100
AcDbCircle
 62
7
  6
CONTINUOUS
 10
122.5838999529
 20
566.4302937365
 40
3.3210185834
100
AcDbArc
 50
50.2934985186
 51
53.6402266805
  0
ARC
  5
2CD
100
AcDbEntity
  8
0
100
AcDbCircle
 62
7
  6
CONTINUOUS
 10
119.2599684511
 20
566.6408976077
 40
3.0468277728
100
AcDbArc
 50
130.2931095215
 51
132.9733396305
  0
ARC
  5
2CE
100
AcDbEntity
  8
0
100
AcDbCircle
 62
7
  6
CONTINUOUS
 10
97.965495575
 20
560.4124640518
 40
2.2479319075
100
AcDbArc
 50
58.1846085531
 51
60.0070213937
  0
ARC
  5
2CF
100
AcDbEntity
  8
0
100
AcDbCircle
 62
7
  6
CONTINUOUS
 10
97.965502413
 20
563.7347447533
 40
2.2479193047
100
AcDbArc
 50
299.9933959726
 51
301.8152188813
  0
ARC
  5
2D0
100
AcDbEntity
  8
0
100
AcDbCircle
 62
7
  6
CONTINUOUS
 10
124.0028513301
 20
566.5828044923
 40
2.0238676017
100
AcDbArc
 50
22.1580619761
 51
29.1119280123
  0
ARC
  5
2D1
100
AcDbEntity
  8
0
100
AcDbCircle
 62
7
  6
CONTINUOUS
 10
118.0135285394
 20
567.6057677134
 40
2.0208200224
100
AcDbArc
 50
202.031720321
 51
209.0623428495
  0
ARC
  5
2D2
100
AcDbEntity
  8
0
100
AcDbCircle
 62
7
  6
CONTINUOUS
 10
124.2072036044
 20
567.5284995132
 40
1.804787863
100
AcDbArc
 50
339.6201873977
 51
348.6197497382
  0
ARC
  5
2D3
100
AcDbEntity
  8
0
100
AcDbCircle
 62
7
  6
CONTINUOUS
 10
117.7729390998
 20
566.6712409158
 40
1.7647926046
100
AcDbArc
 50
163.7856773063
 51
168.4876523468
  0
ARC
  5
2D4
100
AcDbEntity
  8
0
100
AcDbCircle
 62
7
  6
CONTINUOUS
 10
124.3238544442
 20
567.5015471676
 40
1.6854384801
100
AcDbArc
 50
348.6830027019
 51
7.4085134646
  0
ARC
  5
2D5
100
AcDbEntity
  8
0
100
AcDbCircle
 62
7
  6
CONTINUOUS
 10
117.6951510085
 20
567.5050664851
 40
1.6854305884
100
AcDbArc
 50
168.6857719506
 51
187.406158367
  0
ARC
  5
2D6
100
AcDbEntity
  8
0
100
AcDbCircle
 62
7
  6
CONTINUOUS
 10
118.0193688822
 20
567.5040142911
 40
1.5096706241
100
AcDbArc
 50
171.5167435584
 51
180.0268369183
  0
ARC
  5
2D7
100
AcDbEntity
  8
0
100
AcDbCircle
 62
7
  6
CONTINUOUS
 10
123.9996444617
 20
567.502599792
 40
1.5096706241
100
AcDbArc
 50
351.5167435585
 51
0.0268369183
  0
ARC
  5
2D8
100
AcDbEntity
  8
0
100
AcDbCircle
 62
7
  6
CONTINUOUS
 10
98.9918583682
 20
562.8084293723
 40
0.8295507581
100
AcDbArc
 50
0.0022452012
 51
3.5270455848
  0
ARC
  5
2D9
100
AcDbEntity
  8
0
100
AcDbCircle
 62
7
  6
CONTINUOUS
 10
368.6792012172
 20
706.3574747345
 40
6.6129417162
100
AcDbArc
 50
75.3247080214
 51
76.4383542142
  0
ARC
  5
2DA
100
AcDbEntity
  8
0
100
AcDbCircle
 62
7
  6
CONTINUOUS
 10
369.0707112604
 20
713.6973765496
 40
6.1188483458
100
AcDbArc
 50
290.6854056372
 51
292.3581476816
  0
ARC
  5
2DB
100
AcDbEntity
  8
0
100
AcDbCircle
 62
7
  6
CONTINUOUS
 10
367.8842168283
 20
713.6056673798
 40
6.0202851704
100
AcDbArc
 50
248.1526267288
 51
248.9824672573
  0
ARC
  5
2DC
100
AcDbEntity
  8
0
100
AcDbCircle
 62
7
  6
CONTINUOUS
 10
369.1934059399
 20
713.3999861402
 40
5.7971420913
100
AcDbArc
 50
292.3547359347
 51
294.338394817
  0
ARC
  5
2DD
100
AcDbEntity
  8
0
100
AcDbCircle
 62
7
  6
CONTINUOUS
 10
369.3706899477
 20
713.0105881376
 40
5.3692878652
100
AcDbArc
 50
294.3272153802
 51
297.1039907629
  0
ARC
  5
2DE
100
AcDbEntity
  8
0
100
AcDbCircle
 62
7
  6
CONTINUOUS
 10
367.4662296437
 20
708.0729250657
 40
5.0263816201
100
AcDbArc
 50
117.1225683111
 51
118.1668668875
  0
ARC
  5
2DF
100
AcDbEntity
  8
0
100
AcDbCircle
 62
7
  6
CONTINUOUS
 10
369.5997076622
 20
712.5636245188
 40
4.8670672633
100
AcDbArc
 50
297.101312354
 51
299.9749511127
  0
ARC
  5
2E0
100
AcDbEntity
  8
0
100
AcDbCircle
 62
7
  6
CONTINUOUS
 10
367.3472082336
 20
708.29400317
 40
4.7753013858
100
AcDbArc
 50
118.1600452494
 51
119.9896992843
  0
ARC
  5
2E1
100
AcDbEntity
  8
0
100
AcDbCircle
 62
7
  6
CONTINUOUS
 10
367.5461146429
 20
708.3492891716
 40
4.4733704494
100
AcDbArc
 50
116.7959637572
 51
119.1069614907
  0
ARC
  5
2E2
100
AcDbEntity
  8
0
100
AcDbCircle
 62
7
  6
CONTINUOUS
 10
367.161852521
 20
708.6120968141
 40
4.4071468941
100
AcDbArc
 50
119.9696507045
 51
123.8070005621
  0
ARC
  5
2E3
100
AcDbEntity
  8
0
100
AcDbCircle
 62
7
  6
CONTINUOUS
 10
367.4252960456
 20
708.5683540646
 40
4.223199511
100
AcDbArc
 50
119.120548344
 51
119.9974991008
  0
ARC
  5
2E4
100
AcDbEntity
  8
0
100
AcDbCircle
 62
7
  6
CONTINUOUS
 10
367.3669525505
 20
708.6694657515
 40
4.1064624728
100
AcDbArc
 50
119.997831159
 51
121.0035320074
  0
ARC
  5
2E5
100
AcDbEntity
  8
0
100
AcDbCircle
 62
7
  6
CONTINUOUS
 10
369.6247468432
 20
712.1080560416
 40
4.1064624728
100
AcDbArc
 50
299.9978311591
 51
301.0035320075
  0
ARC
  5
2E6
100
AcDbEntity
  8
0
100
AcDbCircle
 62
7
  6
CONTINUOUS
 10
366.7463114759
 20
709.5263514628
 40
3.0468277727
100
AcDbArc
 50
130.2931095214
 51
132.9733396305
  0
ARC
  5
2E7
100
AcDbEntity
  8
0
100
AcDbCircle
 62
7
  6
CONTINUOUS
 10
371.4891943549
 20
709.4682583474
 40
2.0238676017
100
AcDbArc
 50
22.1580619761
 51
29.1119280123
  0
ARC
  5
2E8
100
AcDbEntity
  8
0
100
AcDbCircle
 62
7
  6
CONTINUOUS
 10
365.4998715643
 20
710.4912215684
 40
2.0208200224
100
AcDbArc
 50
202.031720321
 51
209.0623428495
  0
ARC
  5
2E9
100
AcDbEntity
  8
0
100
AcDbCircle
 62
7
  6
CONTINUOUS
 10
371.6935466293
 20
710.4139533682
 40
1.8047878629
100
AcDbArc
 50
339.6201873977
 51
348.6197497383
  0
ARC
  5
2EA
100
AcDbEntity
  8
0
100
AcDbCircle
 62
7
  6
CONTINUOUS
 10
365.2592821246
 20
709.5566947709
 40
1.7647926045
100
AcDbArc
 50
163.7856773062
 51
168.4876523469
  0
ARC
  5
2EB
100
AcDbEntity
  8
0
100
AcDbCircle
 62
7
  6
CONTINUOUS
 10
371.810197469
 20
710.3870010226
 40
1.6854384801
100
AcDbArc
 50
348.683002702
 51
7.4085134645
  0
ARC
  5
2EC
100
AcDbEntity
  8
0
100
AcDbCircle
 62
7
  6
CONTINUOUS
 10
365.1814940333
 20
710.3905203401
 40
1.6854305884
100
AcDbArc
 50
168.6857719506
 51
187.4061583671
  0
ARC
  5
2ED
100
AcDbEntity
  8
0
100
AcDbCircle
 62
7
  6
CONTINUOUS
 10
365.5057119071
 20
710.3894681462
 40
1.5096706241
100
AcDbArc
 50
171.5167435585
 51
180.0268369182
  0
ARC
  5
2EE
100
AcDbEntity
  8
0
100
AcDbCircle
 62
7
  6
CONTINUOUS
 10
371.4859874866
 20
710.388053647
 40
1.5096706241
100
AcDbArc
 50
351.5167435584
 51
0.0268369183
  0
ARC
  5
2EF
100
AcDbEntity
  8
0
100
AcDbCircle
 62
7
  6
CONTINUOUS
 10
421.5416407401
 20
399.5769815281
 40
8.462397288
100
AcDbArc
 50
272.3556825669
 51
276.8627809952
  0
ARC
  5
2F0
100
AcDbEntity
  8
0
100
AcDbCircle
 62
7
  6
CONTINUOUS
 10
421.4507435163
 20
399.0607436331
 40
7.9413599262
100
AcDbArc
 50
260.023813126
 51
260.9724960503
  0
ARC
  5
2F1
100
AcDbEntity
  8
0
100
AcDbCircle
 62
7
  6
CONTINUOUS
 10
421.4177934751
 20
398.8786951515
 40
7.7563558731
100
AcDbArc
 50
257.577169542
 51
260.0305644984
  0
ARC
  5
2F2
100
AcDbEntity
  8
0
100
AcDbCircle
 62
7
  6
CONTINUOUS
 10
422.3667937988
 20
396.7064792984
 40
5.4616675171
100
AcDbArc
 50
294.34023435
 51
296.0860192555
  0
ARC
  5
2F3
100
AcDbEntity
  8
0
100
AcDbCircle
 62
7
  6
CONTINUOUS
 10
420.6562996087
 20
391.379159129
 40
5.3692878656
100
AcDbArc
 50
114.3272153803
 51
117.1039907628
  0
ARC
  5
2F4
100
AcDbEntity
  8
0
100
AcDbCircle
 62
7
  6
CONTINUOUS
 10
422.4763928838
 20
396.4815033202
 40
5.2114158502
100
AcDbArc
 50
296.0914249297
 51
297.1227011308
  0
ARC
  5
2F5
100
AcDbEntity
  8
0
100
AcDbCircle
 62
7
  6
CONTINUOUS
 10
420.878179105
 20
391.3487862219
 40
5.1542963322
100
AcDbArc
 50
112.6367005957
 51
114.8342211542
  0
ARC
  5
2F6
100
AcDbEntity
  8
0
100
AcDbCircle
 62
7
  6
CONTINUOUS
 10
422.5607599129
 20
396.3168222006
 40
5.0263816193
100
AcDbArc
 50
297.122568311
 51
298.1668668876
  0
ARC
  5
2F7
100
AcDbEntity
  8
0
100
AcDbCircle
 62
7
  6
CONTINUOUS
 10
420.427281894
 20
391.8261227482
 40
4.8670672633
100
AcDbArc
 50
117.101312354
 51
119.9749511127
  0
ARC
  5
2F8
100
AcDbEntity
  8
0
100
AcDbCircle
 62
7
  6
CONTINUOUS
 10
420.3869919155
 20
396.0991205791
 40
4.7802572665
100
AcDbArc
 50
238.4641904402
 51
242.1387191022
  0
ARC
  5
2F9
100
AcDbEntity
  8
0
100
AcDbCircle
 62
7
  6
CONTINUOUS
 10
422.6797813227
 20
396.0957440969
 40
4.7753013857
100
AcDbArc
 50
298.1600452494
 51
299.9896992843
  0
ARC
  5
2FA
100
AcDbEntity
  8
0
100
AcDbCircle
 62
7
  6
CONTINUOUS
 10
420.6255241856
 20
391.8827097016
 40
4.5636356606
100
AcDbArc
 50
114.7708650227
 51
119.9211708331
  0
ARC
  5
2FB
100
AcDbEntity
  8
0
100
AcDbCircle
 62
7
  6
CONTINUOUS
 10
420.2031532021
 20
395.7951335084
 40
4.42501219
100
AcDbArc
 50
237.1041863402
 51
238.4343246667
  0
ARC
  5
2FC
100
AcDbEntity
  8
0
100
AcDbCircle
 62
7
  6
CONTINUOUS
 10
422.8651370351
 20
395.777650453
 40
4.4071468942
100
AcDbArc
 50
299.9696507046
 51
303.807000562
  0
ARC
  5
2FD
100
AcDbEntity
  8
0
100
AcDbCircle
 62
7
  6
CONTINUOUS
 10
420.4022427157
 20
392.2816912208
 40
4.1064624781
100
AcDbArc
 50
119.9978311597
 51
121.0035320068
  0
ARC
  5
2FE
100
AcDbEntity
  8
0
100
AcDbCircle
 62
7
  6
CONTINUOUS
 10
422.6600370041
 20
395.7202815183
 40
4.1064624761
100
AcDbArc
 50
299.9978311595
 51
301.0035320071
  0
ARC
  5
2FF
100
AcDbEntity
  8
0
100
AcDbCircle
 62
7
  6
CONTINUOUS
 10
423.1055331405
 20
392.9279730656
 40
3.3210185832
100
AcDbArc
 50
50.2934985184
 51
53.6402266806
  0
ARC
  5
300
100
AcDbEntity
  8
0
100
AcDbCircle
 62
7
  6
CONTINUOUS
 10
419.7816016387
 20
393.1385769364
 40
3.046827773
100
AcDbArc
 50
130.2931095216
 51
132.9733396304
  0
ARC
  5
301
100
AcDbEntity
  8
0
100
AcDbCircle
 62
7
  6
CONTINUOUS
 10
424.5244845176
 20
393.0804838212
 40
2.0238676017
100
AcDbArc
 50
22.158061976
 51
29.1119280124
  0
ARC
  5
302
100
AcDbEntity
  8
0
100
AcDbCircle
 62
7
  6
CONTINUOUS
 10
418.5351617269
 20
394.1034470423
 40
2.0208200224
100
AcDbArc
 50
202.0317203209
 51
209.0623428495
  0
ARC
  5
303
100
AcDbEntity
  8
0
100
AcDbCircle
 62
7
  6
CONTINUOUS
 10
424.7288367918
 20
394.0261788421
 40
1.804787863
100
AcDbArc
 50
339.6201873978
 51
348.6197497382
  0
ARC
  5
304
100
AcDbEntity
  8
0
100
AcDbCircle
 62
7
  6
CONTINUOUS
 10
418.2945722872
 20
393.1689202447
 40
1.7647926045
100
AcDbArc
 50
163.7856773062
 51
168.4876523468
  0
ARC
  5
305
100
AcDbEntity
  8
0
100
AcDbCircle
 62
7
  6
CONTINUOUS
 10
424.8454876317
 20
393.9992264965
 40
1.68543848
100
AcDbArc
 50
348.683002702
 51
7.4085134648
  0
ARC
  5
306
100
AcDbEntity
  8
0
100
AcDbCircle
 62
7
  6
CONTINUOUS
 10
418.216784196
 20
394.0027458139
 40
1.6854305885
100
AcDbArc
 50
168.6857719506
 51
187.4061583669
  0
ARC
  5
307
100
AcDbEntity
  8
0
100
AcDbCircle
 62
7
  6
CONTINUOUS
 10
418.5410020697
 20
394.00169362
 40
1.5096706241
100
AcDbArc
 50
171.5167435585
 51
180.0268369182
  0
ARC
  5
308
100
AcDbEntity
  8
0
100
AcDbCircle
 62
7
  6
CONTINUOUS
 10
424.5212776492
 20
394.0002791208
 40
1.5096706242
100
AcDbArc
 50
351.5167435585
 51
0.0268369182
  0
ARC
  5
309
100
AcDbEntity
  8
0
100
AcDbCircle
 62
7
  6
CONTINUOUS
 10
669.2008344055
 20
532.8551540669
 40
6.6129417126
100
AcDbArc
 50
75.324708021
 51
76.4383542144
  0
ARC
  5
30A
100
AcDbEntity
  8
0
100
AcDbCircle
 62
7
  6
CONTINUOUS
 10
669.5923444475
 20
540.1950558793
 40
6.1188483467
100
AcDbArc
 50
290.6854056373
 51
292.3581476815
  0
ARC
  5
30B
100
AcDbEntity
  8
0
100
AcDbCircle
 62
7
  6
CONTINUOUS
 10
668.4058500166
 20
540.1033467108
 40
6.0202851727
100
AcDbArc
 50
248.152626729
 51
248.9824672572
  0
ARC
  5
30C
100
AcDbEntity
  8
0
100
AcDbCircle
 62
7
  6
CONTINUOUS
 10
669.7150391272
 20
539.8976654692
 40
5.7971420915
100
AcDbArc
 50
292.3547359347
 51
294.3383948169
  0
ARC
  5
30D
100
AcDbEntity
  8
0
100
AcDbCircle
 62
7
  6
CONTINUOUS
 10
669.8923231352
 20
539.5082674664
 40
5.3692878652
100
AcDbArc
 50
294.3272153802
 51
297.1039907629
  0
ARC
  5
30E
100
AcDbEntity
  8
0
100
AcDbCircle
 62
7
  6
CONTINUOUS
 10
667.9878628305
 20
534.5706043959
 40
5.0263816185
100
AcDbArc
 50
117.1225683109
 51
118.1668668876
  0
ARC
  5
30F
100
AcDbEntity
  8
0
100
AcDbCircle
 62
7
  6
CONTINUOUS
 10
670.1213408496
 20
539.0613038479
 40
4.8670672635
100
AcDbArc
 50
297.101312354
 51
299.9749511127
  0
ARC
  5
310
100
AcDbEntity
  8
0
100
AcDbCircle
 62
7
  6
CONTINUOUS
 10
667.8688414213
 20
534.7916824985
 40
4.7753013862
100
AcDbArc
 50
118.1600452495
 51
119.9896992842
  0
ARC
  5
311
100
AcDbEntity
  8
0
100
AcDbCircle
 62
7
  6
CONTINUOUS
 10
668.0677478309
 20
534.8469684996
 40
4.4733704504
100
AcDbArc
 50
116.7959637575
 51
119.1069614904
  0
ARC
  5
312
100
AcDbEntity
  8
0
100
AcDbCircle
 62
7
  6
CONTINUOUS
 10
667.6834857086
 20
535.1097761428
 40
4.4071468943
100
AcDbArc
 50
119.9696507046
 51
123.807000562
  0
ARC
  5
313
100
AcDbEntity
  8
0
100
AcDbCircle
 62
7
  6
CONTINUOUS
 10
667.9469292333
 20
535.0660333932
 40
4.2231995113
100
AcDbArc
 50
119.120548344
 51
119.9974991007
  0
ARC
  5
314
100
AcDbEntity
  8
0
100
AcDbCircle
 62
7
  6
CONTINUOUS
 10
670.146380028
 20
538.6057353749
 40
4.1064624779
100
AcDbArc
 50
299.9978311597
 51
301.0035320068
  0
ARC
  5
315
100
AcDbEntity
  8
0
100
AcDbCircle
 62
7
  6
CONTINUOUS
 10
667.8885857386
 20
535.1671450792
 40
4.1064624742
100
AcDbArc
 50
119.9978311592
 51
121.0035320073
  0
ARC
  5
316
100
AcDbEntity
  8
0
100
AcDbCircle
 62
7
  6
CONTINUOUS
 10
667.2679446632
 20
536.0240307919
 40
3.0468277724
100
AcDbArc
 50
130.2931095212
 51
132.9733396306
  0
ARC
  5
317
100
AcDbEntity
  8
0
100
AcDbCircle
 62
7
  6
CONTINUOUS
 10
692.0614939819
 20
542.5075788656
 40
2.2479319088
100
AcDbArc
 50
238.1846085537
 51
240.0070213932
  0
ARC
  5
318
100
AcDbEntity
  8
0
100
AcDbCircle
 62
7
  6
CONTINUOUS
 10
692.061487143
 20
539.1852981633
 40
2.2479193041
100
AcDbArc
 50
119.9933959724
 51
121.8152188816
  0
ARC
  5
319
100
AcDbEntity
  8
0
100
AcDbCircle
 62
7
  6
CONTINUOUS
 10
672.0108275424
 20
535.9659376762
 40
2.0238676017
100
AcDbArc
 50
22.158061976
 51
29.1119280123
  0
ARC
  5
31A
100
AcDbEntity
  8
0
100
AcDbCircle
 62
7
  6
CONTINUOUS
 10
666.0215047517
 20
536.9889008973
 40
2.0208200224
100
AcDbArc
 50
202.0317203209
 51
209.0623428495
  0
ARC
  5
31B
100
AcDbEntity
  8
0
100
AcDbCircle
 62
7
  6
CONTINUOUS
 10
672.2151798167
 20
536.9116326971
 40
1.804787863
100
AcDbArc
 50
339.6201873978
 51
348.6197497382
  0
ARC
  5
31C
100
AcDbEntity
  8
0
100
AcDbCircle
 62
7
  6
CONTINUOUS
 10
665.7809153121
 20
536.0543740997
 40
1.7647926046
100
AcDbArc
 50
163.7856773062
 51
168.4876523468
  0
ARC
  5
31D
100
AcDbEntity
  8
0
100
AcDbCircle
 62
7
  6
CONTINUOUS
 10
672.3318306565
 20
536.8846803515
 40
1.68543848
100
AcDbArc
 50
348.6830027019
 51
7.4085134647
  0
ARC
  5
31E
100
AcDbEntity
  8
0
100
AcDbCircle
 62
7
  6
CONTINUOUS
 10
665.7031272209
 20
536.888199669
 40
1.6854305885
100
AcDbArc
 50
168.6857719506
 51
187.4061583669
  0
ARC
  5
31F
100
AcDbEntity
  8
0
100
AcDbCircle
 62
7
  6
CONTINUOUS
 10
666.0273450945
 20
536.887147475
 40
1.5096706242
100
AcDbArc
 50
171.5167435585
 51
180.0268369182
  0
ARC
  5
320
100
AcDbEntity
  8
0
100
AcDbCircle
 62
7
  6
CONTINUOUS
 10
672.007620674
 20
536.8857329759
 40
1.5096706242
100
AcDbArc
 50
351.5167435585
 51
0.0268369182
  0
ARC
  5
321
100
AcDbEntity
  8
0
100
AcDbCircle
 62
7
  6
CONTINUOUS
 10
691.0351308813
 20
541.58125281
 40
0.8295504514
100
AcDbArc
 50
176.4741054255
 51
179.9977499011
  0
ARC
  5
322
100
AcDbEntity
  8
0
100
AcDbCircle
 62
7
  6
CONTINUOUS
 10
695.6739129247
 20
559.2022527333
 40
1.8280017395
100
AcDbArc
 50
152.0123639943
 51
157.2283548656
  0
ARC
  5
323
100
AcDbEntity
  8
0
100
AcDbCircle
 62
7
  6
CONTINUOUS
 10
695.5310240927
 20
560.8059937812
 40
1.6732445372
100
AcDbArc
 50
195.3301551175
 51
202.7892290426
  0
SPLINE
  5
324
100
AcDbEntity
  8
0
100
AcDbSpline
 62
7
  6
CONTINUOUS
 70
0
 71
3
 72
9
 73
5
 74
0
 42
0.0000001
 43
0.0000001
 44
0.0000000001
 40
0.0
 40
0.0
 40
0.0
 40
0.0
 40
0.4999994563
 40
1.0
 40
1.0
 40
1.0
 40
1.0
 10
378.3952533704
 20
723.0443007721
 30
0.0
 10
377.8705556131
 20
722.741368189
 30
0.0
 10
376.6274881478
 20
722.5017923585
 30
0.0
 10
375.3844205474
 20
722.7413628154
 30
0.0
 10
374.8597194645
 20
723.0442922737
 30
0.0
  0
SPLINE
  5
325
100
AcDbEntity
  8
0
100
AcDbSpline
 62
7
  6
CONTINUOUS
 70
0
 71
3
 72
13
 73
9
 74
0
 42
0.0000001
 43
0.0000001
 44
0.0000000001
 40
0.0
 40
0.0
 40
0.0
 40
0.0
 40
0.2699027488
 40
0.5613176751
 40
0.6954478914
 40
0.8131160604
 40
0.9128613649
 40
1.0
 40
1.0
 40
1.0
 40
1.0
 10
399.2549019432
 20
723.2484721396
 30
0.0
 10
398.3266776224
 20
722.7125647771
 30
0.0
 10
396.1078989361
 20
722.1120297863
 30
0.0
 10
393.3024213186
 20
722.2541198762
 30
0.0
 10
391.242618249
 20
722.9405739438
 30
0.0
 10
390.0374654374
 20
723.6746042362
 30
0.0
 10
389.2214755269
 20
724.6030229438
 30
0.0
 10
389.0122460878
 20
725.351863196
 30
0.0
 10
389.0122435924
 20
725.6979022444
 30
0.0
  0
SPLINE
  5
326
100
AcDbEntity
  8
0
100
AcDbSpline
 62
7
  6
CONTINUOUS
 70
0
 71
3
 72
9
 73
5
 74
0
 42
0.0000001
 43
0.0000001
 44
0.0000000001
 40
0.0
 40
0.0
 40
0.0
 40
0.0
 40
0.5000005437
 40
1.0
 40
1.0
 40
1.0
 40
1.0
 10
406.3259520912
 20
725.6979438616
 30
0.0
 10
405.9061912249
 20
725.9402874282
 30
0.0
 10
404.9117371446
 20
726.1319437937
 30
0.0
 10
403.9172831723
 20
725.9402831294
 30
0.0
 10
403.4975249665
 20
725.6979370629
 30
0.0
  0
SPLINE
  5
327
100
AcDbEntity
  8
0
100
AcDbSpline
 62
7
  6
CONTINUOUS
 70
0
 71
3
 72
9
 73
5
 74
0
 42
0.0000001
 43
0.0000001
 44
0.0000000001
 40
0.0
 40
0.0
 40
0.0
 40
0.0
 40
0.4999996218
 40
1.0
 40
1.0
 40
1.0
 40
1.0
 10
413.0434679844
 20
725.4938387814
 30
0.0
 10
412.0990176842
 20
724.9485634012
 30
0.0
 10
409.8614901502
 20
724.5174982048
 30
0.0
 10
407.623962615
 20
724.9485540897
 30
0.0
 10
406.6795069538
 20
725.4938234843
 30
0.0
  0
SPLINE
  5
328
100
AcDbEntity
  8
0
100
AcDbSpline
 62
7
  6
CONTINUOUS
 70
0
 71
3
 72
9
 73
5
 74
0
 42
0.0000001
 43
0.0000001
 44
0.0000000001
 40
0.0
 40
0.0
 40
0.0
 40
0.0
 40
0.2809103711
 40
1.0
 40
1.0
 40
1.0
 40
1.0
 10
695.1802748138
 20
558.93159564
 30
0.0
 10
695.0403547361
 20
559.012376707
 30
0.0
 10
694.5609238591
 20
559.3260119909
 30
0.0
 10
694.1482364869
 20
559.776427217
 30
0.0
 10
693.9883997442
 20
560.1578754275
 30
0.0
  0
SPLINE
  5
329
100
AcDbEntity
  8
0
100
AcDbSpline
 62
7
  6
CONTINUOUS
 70
0
 71
3
 72
8
 73
4
 74
0
 42
0.0000001
 43
0.0000001
 44
0.0000000001
 40
0.0
 40
0.0
 40
0.0
 40
0.0
 40
1.0
 40
1.0
 40
1.0
 40
1.0
 10
693.9173162619
 20
560.3636202763
 30
0.0
 10
693.8814355637
 20
560.4950667858
 30
0.0
 10
693.8624938392
 20
560.6324386543
 30
0.0
 10
693.8624938695
 20
560.7686943308
 30
0.0
  0
SPLINE
  5
32A
100
AcDbEntity
  8
0
100
AcDbSpline
 62
7
  6
CONTINUOUS
 70
0
 71
3
 72
9
 73
5
 74
0
 42
0.0000001
 43
0.0000001
 44
0.0000000001
 40
0.0
 40
0.0
 40
0.0
 40
0.0
 40
0.5420296207
 40
1.0
 40
1.0
 40
1.0
 40
1.0
 10
695.53390176
 20
548.7315439029
 30
0.0
 10
694.5542973533
 20
548.7315415482
 30
0.0
 10
692.7420909839
 20
548.9750614002
 30
0.0
 10
691.0575217237
 20
549.7960271465
 30
0.0
 10
690.4489024786
 20
550.3569595129
 30
0.0
  0
SPLINE
  5
32B
100
AcDbEntity
  8
0
100
AcDbSpline
 62
7
  6
CONTINUOUS
 70
0
 71
3
 72
9
 73
5
 74
0
 42
0.0000001
 43
0.0000001
 44
0.0000000001
 40
0.0
 40
0.0
 40
0.0
 40
0.0
 40
0.5310251033
 40
1.0
 40
1.0
 40
1.0
 40
1.0
 10
690.4489024786
 20
550.3569595129
 30
0.0
 10
690.1756597757
 20
550.6087929493
 30
0.0
 10
689.7188027618
 20
551.1616349145
 30
0.0
 10
689.5343619856
 20
551.8674244658
 30
0.0
 10
689.5341877858
 20
552.1955971838
 30
0.0
  0
SPLINE
  5
32C
100
AcDbEntity
  8
0
100
AcDbSpline
 62
7
  6
CONTINUOUS
 70
0
 71
3
 72
8
 73
4
 74
0
 42
0.0000001
 43
0.0000001
 44
0.0000000001
 40
0.0
 40
0.0
 40
0.0
 40
0.0
 40
1.0
 40
1.0
 40
1.0
 40
1.0
 10
690.8764200569
 20
540.5973962411
 30
0.0
 10
690.7442654001
 20
540.6794059383
 30
0.0
 10
690.6192258542
 20
540.776181892
 30
0.0
 10
690.5121751425
 20
540.8890118032
 30
0.0
  0
SPLINE
  5
32D
100
AcDbEntity
  8
0
100
AcDbSpline
 62
7
  6
CONTINUOUS
 70
0
 71
3
 72
9
 73
5
 74
0
 42
0.0000001
 43
0.0000001
 44
0.0000000001
 40
0.0
 40
0.0
 40
0.0
 40
0.0
 40
0.2746984182
 40
1.0
 40
1.0
 40
1.0
 40
1.0
 10
690.5121751425
 20
540.8890118032
 30
0.0
 10
690.463820317
 20
540.9399770942
 30
0.0
 10
690.3005902912
 20
541.1363031545
 30
0.0
 10
690.2055804197
 20
541.3957893467
 30
0.0
 10
690.2055804305
 20
541.5812853878
 30
0.0
  0
SPLINE
  5
32E
100
AcDbEntity
  8
0
100
AcDbSpline
 62
7
  6
CONTINUOUS
 70
0
 71
3
 72
10
 73
6
 74
0
 42
0.0000001
 43
0.0000001
 44
0.0000000001
 40
0.0
 40
0.0
 40
0.0
 40
0.0
 40
0.5093946174
 40
0.7729431481
 40
1.0
 40
1.0
 40
1.0
 40
1.0
 10
380.1630865626
 20
713.8588498019
 30
0.0
 10
379.2283288168
 20
713.3191703872
 30
0.0
 10
377.4949373848
 20
713.0410404259
 30
0.0
 10
375.4043303334
 20
713.3912553504
 30
0.0
 10
374.4405519385
 20
713.854734197
 30
0.0
 10
374.0679740043
 20
714.1591293785
 30
0.0
  0
SPLINE
  5
32F
100
AcDbEntity
  8
0
100
AcDbSpline
 62
7
  6
CONTINUOUS
 70
0
 71
3
 72
9
 73
5
 74
0
 42
0.0000001
 43
0.0000001
 44
0.0000000001
 40
0.0
 40
0.0
 40
0.0
 40
0.0
 40
0.5359455378
 40
1.0
 40
1.0
 40
1.0
 40
1.0
 10
374.0679740043
 20
714.1591293785
 30
0.0
 10
373.85216291
 20
714.3354464687
 30
0.0
 10
373.4879445063
 20
714.72620609
 30
0.0
 10
373.3350020933
 20
715.2505154689
 30
0.0
 10
373.334819395
 20
715.4918129894
 30
0.0
  0
SPLINE
  5
330
100
AcDbEntity
  8
0
100
AcDbSpline
 62
7
  6
CONTINUOUS
 70
0
 71
3
 72
10
 73
6
 74
0
 42
0.0000001
 43
0.0000001
 44
0.0000000001
 40
0.0
 40
0.0
 40
0.0
 40
0.0
 40
0.5093946174
 40
0.7729431481
 40
1.0
 40
1.0
 40
1.0
 40
1.0
 10
680.68471975
 20
540.3565291308
 30
0.0
 10
679.7499620043
 20
539.8168497161
 30
0.0
 10
678.0165705723
 20
539.5387197548
 30
0.0
 10
675.9259635209
 20
539.8889346793
 30
0.0
 10
674.9621851259
 20
540.3524135259
 30
0.0
 10
674.5896071918
 20
540.6568087073
 30
0.0
  0
SPLINE
  5
331
100
AcDbEntity
  8
0
100
AcDbSpline
 62
7
  6
CONTINUOUS
 70
0
 71
3
 72
9
 73
5
 74
0
 42
0.0000001
 43
0.0000001
 44
0.0000000001
 40
0.0
 40
0.0
 40
0.0
 40
0.0
 40
0.5359455378
 40
1.0
 40
1.0
 40
1.0
 40
1.0
 10
674.5896071918
 20
540.6568087073
 30
0.0
 10
674.3737960975
 20
540.8331257975
 30
0.0
 10
674.0095776938
 20
541.2238854188
 30
0.0
 10
673.8566352808
 20
541.7481947978
 30
0.0
 10
673.8564525825
 20
541.9894923183
 30
0.0
  0
SPLINE
  5
332
100
AcDbEntity
  8
0
100
AcDbSpline
 62
7
  6
CONTINUOUS
 70
0
 71
3
 72
10
 73
6
 74
0
 42
0.0000001
 43
0.0000001
 44
0.0000000001
 40
0.0
 40
0.0
 40
0.0
 40
0.0
 40
0.5093946174
 40
0.7729431481
 40
1.0
 40
1.0
 40
1.0
 40
1.0
 10
415.5207807948
 20
387.264971429
 30
0.0
 10
414.5860230491
 20
386.7252920143
 30
0.0
 10
412.8526316171
 20
386.447162053
 30
0.0
 10
410.7620245657
 20
386.7973769775
 30
0.0
 10
409.7982461708
 20
387.2608558241
 30
0.0
 10
409.4256682366
 20
387.5652510055
 30
0.0
  0
SPLINE
  5
333
100
AcDbEntity
  8
0
100
AcDbSpline
 62
7
  6
CONTINUOUS
 70
0
 71
3
 72
9
 73
5
 74
0
 42
0.0000001
 43
0.0000001
 44
0.0000000001
 40
0.0
 40
0.0
 40
0.0
 40
0.0
 40
0.5359455378
 40
1.0
 40
1.0
 40
1.0
 40
1.0
 10
409.4256682366
 20
387.5652510055
 30
0.0
 10
409.2098571423
 20
387.7415680957
 30
0.0
 10
408.8456387386
 20
388.132327717
 30
0.0
 10
408.6926963256
 20
388.656637096
 30
0.0
 10
408.6925136273
 20
388.8979346165
 30
0.0
  0
SPLINE
  5
334
100
AcDbEntity
  8
0
100
AcDbSpline
 62
7
  6
CONTINUOUS
 70
0
 71
3
 72
10
 73
6
 74
0
 42
0.0000001
 43
0.0000001
 44
0.0000000001
 40
0.0
 40
0.0
 40
0.0
 40
0.0
 40
0.5093946174
 40
0.7729431481
 40
1.0
 40
1.0
 40
1.0
 40
1.0
 10
114.9991476074
 20
560.7672921001
 30
0.0
 10
114.0643898616
 20
560.2276126854
 30
0.0
 10
112.3309984296
 20
559.9494827241
 30
0.0
 10
110.2403913782
 20
560.2996976486
 30
0.0
 10
109.2766129833
 20
560.7631764952
 30
0.0
 10
108.9040350491
 20
561.0675716767
 30
0.0
  0
SPLINE
  5
335
100
AcDbEntity
  8
0
100
AcDbSpline
 62
7
  6
CONTINUOUS
 70
0
 71
3
 72
9
 73
5
 74
0
 42
0.0000001
 43
0.0000001
 44
0.0000000001
 40
0.0
 40
0.0
 40
0.0
 40
0.0
 40
0.5359455378
 40
1.0
 40
1.0
 40
1.0
 40
1.0
 10
108.9040350491
 20
561.0675716767
 30
0.0
 10
108.6882239548
 20
561.2438887669
 30
0.0
 10
108.3240055511
 20
561.6346483882
 30
0.0
 10
108.1710631381
 20
562.1589577671
 30
0.0
 10
108.1708804398
 20
562.4002552876
 30
0.0
  0
SPLINE
  5
336
100
AcDbEntity
  8
0
100
AcDbSpline
 62
7
  6
CONTINUOUS
 70
0
 71
3
 72
9
 73
5
 74
0
 42
0.0000001
 43
0.0000001
 44
0.0000000001
 40
0.0
 40
0.0
 40
0.0
 40
0.0
 40
0.237061819
 40
1.0
 40
1.0
 40
1.0
 40
1.0
 10
424.6178433568
 20
391.7302771365
 30
0.0
 10
424.4635610657
 20
391.6604584768
 30
0.0
 10
423.7996041742
 20
391.3952380618
 30
0.0
 10
423.0939157186
 20
391.2404413458
 30
0.0
 10
422.5528288749
 20
391.1752158557
 30
0.0
  0
SPLINE
  5
337
100
AcDbEntity
  8
0
100
AcDbSpline
 62
7
  6
CONTINUOUS
 70
0
 71
3
 72
8
 73
4
 74
0
 42
0.0000001
 43
0.0000001
 44
0.0000000001
 40
0.0
 40
0.0
 40
0.0
 40
0.0
 40
1.0
 40
1.0
 40
1.0
 40
1.0
 10
421.8894692564
 20
391.1217356309
 30
0.0
 10
421.3274392899
 20
391.0985261697
 30
0.0
 10
420.7602159887
 20
391.1294812939
 30
0.0
 10
420.2046760748
 20
391.2177522773
 30
0.0
  0
SPLINE
  5
338
100
AcDbEntity
  8
0
100
AcDbSpline
 62
7
  6
CONTINUOUS
 70
0
 71
3
 72
9
 73
5
 74
0
 42
0.0000001
 43
0.0000001
 44
0.0000000001
 40
0.0
 40
0.0
 40
0.0
 40
0.0
 40
0.7574656202
 40
1.0
 40
1.0
 40
1.0
 40
1.0
 10
419.7492114399
 20
391.3039416622
 30
0.0
 10
419.4732124406
 20
391.3647793131
 30
0.0
 10
419.1126102689
 20
391.4653809307
 30
0.0
 10
418.7631393781
 20
391.5963151027
 30
0.0
 10
418.6791457683
 20
391.6299938634
 30
0.0
  0
SPLINE
  5
339
100
AcDbEntity
  8
0
100
AcDbSpline
 62
7
  6
CONTINUOUS
 70
0
 71
3
 72
8
 73
4
 74
0
 42
0.0000001
 43
0.0000001
 44
0.0000000001
 40
0.0
 40
0.0
 40
0.0
 40
0.0
 40
1.0
 40
1.0
 40
1.0
 40
1.0
 10
418.6791457683
 20
391.6299938634
 30
0.0
 10
418.4998471494
 20
391.7018868956
 30
0.0
 10
418.3237521715
 20
391.7826061157
 30
0.0
 10
418.153022432
 20
391.8729828765
 30
0.0
  0
SPLINE
  5
33A
100
AcDbEntity
  8
0
100
AcDbSpline
 62
7
  6
CONTINUOUS
 70
0
 71
3
 72
8
 73
4
 74
0
 42
0.0000001
 43
0.0000001
 44
0.0000000001
 40
0.0
 40
0.0
 40
0.0
 40
0.0
 40
1.0
 40
1.0
 40
1.0
 40
1.0
 10
417.7998711082
 20
392.0796297661
 30
0.0
 10
417.6781229282
 20
392.1583934603
 30
0.0
 10
417.5600903277
 20
392.2433893617
 30
0.0
 10
417.4477977874
 20
392.3351320685
 30
0.0
  0
SPLINE
  5
33B
100
AcDbEntity
  8
0
100
AcDbSpline
 62
7
  6
CONTINUOUS
 70
0
 71
3
 72
9
 73
5
 74
0
 42
0.0000001
 43
0.0000001
 44
0.0000000001
 40
0.0
 40
0.0
 40
0.0
 40
0.0
 40
0.2671206709
 40
1.0
 40
1.0
 40
1.0
 40
1.0
 10
417.4477977874
 20
392.3351320685
 30
0.0
 10
417.3759110617
 20
392.3938633322
 30
0.0
 10
417.1156854979
 20
392.6239216791
 30
0.0
 10
416.8922589097
 20
392.8990611413
 30
0.0
 10
416.7687797707
 20
393.1218114949
 30
0.0
  0
SPLINE
  5
33C
100
AcDbEntity
  8
0
100
AcDbSpline
 62
7
  6
CONTINUOUS
 70
0
 71
3
 72
8
 73
4
 74
0
 42
0.0000001
 43
0.0000001
 44
0.0000000001
 40
0.0
 40
0.0
 40
0.0
 40
0.0
 40
1.0
 40
1.0
 40
1.0
 40
1.0
 10
416.6619094166
 20
393.3453973441
 30
0.0
 10
416.6051511574
 20
393.4861331864
 30
0.0
 10
416.5649522716
 20
393.6350030611
 30
0.0
 10
416.5454146271
 20
393.7854901294
 30
0.0
  0
SPLINE
  5
33D
100
AcDbEntity
  8
0
100
AcDbSpline
 62
7
  6
CONTINUOUS
 70
0
 71
3
 72
9
 73
5
 74
0
 42
0.0000001
 43
0.0000001
 44
0.0000000001
 40
0.0
 40
0.0
 40
0.0
 40
0.0
 40
0.5004848141
 40
1.0
 40
1.0
 40
1.0
 40
1.0
 10
671.7537453661
 20
534.4706649807
 30
0.0
 10
670.8814547258
 20
534.141194055
 30
0.0
 10
668.9979026785
 20
533.8542699811
 30
0.0
 10
667.1153603272
 20
534.149784424
 30
0.0
 10
666.246652993
 20
534.4835867717
 30
0.0
  0
SPLINE
  5
33E
100
AcDbEntity
  8
0
100
AcDbSpline
 62
7
  6
CONTINUOUS
 70
0
 71
3
 72
8
 73
4
 74
0
 42
0.0000001
 43
0.0000001
 44
0.0000000001
 40
0.0
 40
0.0
 40
0.0
 40
0.0
 40
1.0
 40
1.0
 40
1.0
 40
1.0
 10
666.1654887932
 20
534.5154477185
 30
0.0
 10
665.9861890278
 20
534.5873412104
 30
0.0
 10
665.8100929417
 20
534.6680610034
 30
0.0
 10
665.6393621771
 20
534.7584384677
 30
0.0
  0
SPLINE
  5
33F
100
AcDbEntity
  8
0
100
AcDbSpline
 62
7
  6
CONTINUOUS
 70
0
 71
3
 72
9
 73
5
 74
0
 42
0.0000001
 43
0.0000001
 44
0.0000000001
 40
0.0
 40
0.0
 40
0.0
 40
0.0
 40
0.260666524
 40
1.0
 40
1.0
 40
1.0
 40
1.0
 10
665.6393621771
 20
534.7584384677
 30
0.0
 10
665.5745560231
 20
534.7927440358
 30
0.0
 10
665.3288824183
 20
534.9297350797
 30
0.0
 10
665.0951988772
 20
535.0890019127
 30
0.0
 10
664.9341408122
 20
535.2205859236
 30
0.0
  0
SPLINE
  5
340
100
AcDbEntity
  8
0
100
AcDbSpline
 62
7
  6
CONTINUOUS
 70
0
 71
3
 72
9
 73
5
 74
0
 42
0.0000001
 43
0.0000001
 44
0.0000000001
 40
0.0
 40
0.0
 40
0.0
 40
0.0
 40
0.2671206709
 40
1.0
 40
1.0
 40
1.0
 40
1.0
 10
664.9341408122
 20
535.2205859236
 30
0.0
 10
664.8622540866
 20
535.2793171872
 30
0.0
 10
664.6020285228
 20
535.5093755342
 30
0.0
 10
664.3786019346
 20
535.7845149963
 30
0.0
 10
664.2551227955
 20
536.0072653499
 30
0.0
  0
SPLINE
  5
341
100
AcDbEntity
  8
0
100
AcDbSpline
 62
7
  6
CONTINUOUS
 70
0
 71
3
 72
8
 73
4
 74
0
 42
0.0000001
 43
0.0000001
 44
0.0000000001
 40
0.0
 40
0.0
 40
0.0
 40
0.0
 40
1.0
 40
1.0
 40
1.0
 40
1.0
 10
664.1482524414
 20
536.2308511991
 30
0.0
 10
664.0914941822
 20
536.3715870414
 30
0.0
 10
664.0512952965
 20
536.5204569161
 30
0.0
 10
664.0317576519
 20
536.6709439845
 30
0.0
  0
SPLINE
  5
342
100
AcDbEntity
  8
0
100
AcDbSpline
 62
7
  6
CONTINUOUS
 70
0
 71
3
 72
9
 73
5
 74
0
 42
0.0000001
 43
0.0000001
 44
0.0000000001
 40
0.0
 40
0.0
 40
0.0
 40
0.0
 40
0.5004848141
 40
1.0
 40
1.0
 40
1.0
 40
1.0
 10
371.2321121787
 20
707.9729856518
 30
0.0
 10
370.3598215383
 20
707.6435147262
 30
0.0
 10
368.476269491
 20
707.3565906522
 30
0.0
 10
366.5937271397
 20
707.6521050951
 30
0.0
 10
365.7250198055
 20
707.9859074428
 30
0.0
  0
SPLINE
  5
343
100
AcDbEntity
  8
0
100
AcDbSpline
 62
7
  6
CONTINUOUS
 70
0
 71
3
 72
8
 73
4
 74
0
 42
0.0000001
 43
0.0000001
 44
0.0000000001
 40
0.0
 40
0.0
 40
0.0
 40
0.0
 40
1.0
 40
1.0
 40
1.0
 40
1.0
 10
365.6438556057
 20
708.0177683896
 30
0.0
 10
365.4645558403
 20
708.0896618815
 30
0.0
 10
365.2884597542
 20
708.1703816746
 30
0.0
 10
365.1177289896
 20
708.2607591389
 30
0.0
  0
SPLINE
  5
344
100
AcDbEntity
  8
0
100
AcDbSpline
 62
7
  6
CONTINUOUS
 70
0
 71
3
 72
9
 73
5
 74
0
 42
0.0000001
 43
0.0000001
 44
0.0000000001
 40
0.0
 40
0.0
 40
0.0
 40
0.0
 40
0.260666524
 40
1.0
 40
1.0
 40
1.0
 40
1.0
 10
365.1177289896
 20
708.2607591389
 30
0.0
 10
365.0529228356
 20
708.2950647069
 30
0.0
 10
364.8072492308
 20
708.4320557509
 30
0.0
 10
364.5735656898
 20
708.5913225839
 30
0.0
 10
364.4125076247
 20
708.7229065947
 30
0.0
  0
SPLINE
  5
345
100
AcDbEntity
  8
0
100
AcDbSpline
 62
7
  6
CONTINUOUS
 70
0
 71
3
 72
9
 73
5
 74
0
 42
0.0000001
 43
0.0000001
 44
0.0000000001
 40
0.0
 40
0.0
 40
0.0
 40
0.0
 40
0.2671206709
 40
1.0
 40
1.0
 40
1.0
 40
1.0
 10
364.4125076247
 20
708.7229065947
 30
0.0
 10
364.3406208991
 20
708.7816378584
 30
0.0
 10
364.0803953353
 20
709.0116962053
 30
0.0
 10
363.8569687471
 20
709.2868356675
 30
0.0
 10
363.7334896081
 20
709.509586021
 30
0.0
  0
SPLINE
  5
346
100
AcDbEntity
  8
0
100
AcDbSpline
 62
7
  6
CONTINUOUS
 70
0
 71
3
 72
8
 73
4
 74
0
 42
0.0000001
 43
0.0000001
 44
0.0000000001
 40
0.0
 40
0.0
 40
0.0
 40
0.0
 40
1.0
 40
1.0
 40
1.0
 40
1.0
 10
363.6266192539
 20
709.7331718703
 30
0.0
 10
363.5698609947
 20
709.8739077126
 30
0.0
 10
363.529662109
 20
710.0227775872
 30
0.0
 10
363.5101244644
 20
710.1732646556
 30
0.0
  0
SPLINE
  5
347
100
AcDbEntity
  8
0
100
AcDbSpline
 62
7
  6
CONTINUOUS
 70
0
 71
3
 72
9
 73
5
 74
0
 42
0.0000001
 43
0.0000001
 44
0.0000000001
 40
0.0
 40
0.0
 40
0.0
 40
0.0
 40
0.237061819
 40
1.0
 40
1.0
 40
1.0
 40
1.0
 10
124.0962101693
 20
565.2325978077
 30
0.0
 10
123.9419278783
 20
565.1627791479
 30
0.0
 10
123.2779709867
 20
564.8975587329
 30
0.0
 10
122.5722825311
 20
564.742762017
 30
0.0
 10
122.0311956874
 20
564.6775365268
 30
0.0
  0
SPLINE
  5
348
100
AcDbEntity
  8
0
100
AcDbSpline
 62
7
  6
CONTINUOUS
 70
0
 71
3
 72
8
 73
4
 74
0
 42
0.0000001
 43
0.0000001
 44
0.0000000001
 40
0.0
 40
0.0
 40
0.0
 40
0.0
 40
1.0
 40
1.0
 40
1.0
 40
1.0
 10
121.3678360689
 20
564.6240563021
 30
0.0
 10
120.8058061024
 20
564.6008468408
 30
0.0
 10
120.2385828012
 20
564.631801965
 30
0.0
 10
119.6830428874
 20
564.7200729484
 30
0.0
  0
SPLINE
  5
349
100
AcDbEntity
  8
0
100
AcDbSpline
 62
7
  6
CONTINUOUS
 70
0
 71
3
 72
9
 73
5
 74
0
 42
0.0000001
 43
0.0000001
 44
0.0000000001
 40
0.0
 40
0.0
 40
0.0
 40
0.0
 40
0.7574656202
 40
1.0
 40
1.0
 40
1.0
 40
1.0
 10
119.2275782525
 20
564.8062623334
 30
0.0
 10
118.9515792532
 20
564.8670999842
 30
0.0
 10
118.5909770815
 20
564.9677016018
 30
0.0
 10
118.2415061906
 20
565.0986357738
 30
0.0
 10
118.1575125809
 20
565.1323145346
 30
0.0
  0
SPLINE
  5
34A
100
AcDbEntity
  8
0
100
AcDbSpline
 62
7
  6
CONTINUOUS
 70
0
 71
3
 72
8
 73
4
 74
0
 42
0.0000001
 43
0.0000001
 44
0.0000000001
 40
0.0
 40
0.0
 40
0.0
 40
0.0
 40
1.0
 40
1.0
 40
1.0
 40
1.0
 10
118.1575125809
 20
565.1323145346
 30
0.0
 10
117.9782139619
 20
565.2042075668
 30
0.0
 10
117.802118984
 20
565.2849267868
 30
0.0
 10
117.6313892445
 20
565.3753035477
 30
0.0
  0
SPLINE
  5
34B
100
AcDbEntity
  8
0
100
AcDbSpline
 62
7
  6
CONTINUOUS
 70
0
 71
3
 72
8
 73
4
 74
0
 42
0.0000001
 43
0.0000001
 44
0.0000000001
 40
0.0
 40
0.0
 40
0.0
 40
0.0
 40
1.0
 40
1.0
 40
1.0
 40
1.0
 10
117.2782379207
 20
565.5819504372
 30
0.0
 10
117.1564897407
 20
565.6607141315
 30
0.0
 10
117.0384571402
 20
565.7457100329
 30
0.0
 10
116.9261645999
 20
565.8374527397
 30
0.0
  0
SPLINE
  5
34C
100
AcDbEntity
  8
0
100
AcDbSpline
 62
7
  6
CONTINUOUS
 70
0
 71
3
 72
9
 73
5
 74
0
 42
0.0000001
 43
0.0000001
 44
0.0000000001
 40
0.0
 40
0.0
 40
0.0
 40
0.0
 40
0.2671206709
 40
1.0
 40
1.0
 40
1.0
 40
1.0
 10
116.9261645999
 20
565.8374527397
 30
0.0
 10
116.8542778743
 20
565.8961840034
 30
0.0
 10
116.5940523105
 20
566.1262423503
 30
0.0
 10
116.3706257222
 20
566.4013818125
 30
0.0
 10
116.2471465832
 20
566.624132166
 30
0.0
  0
SPLINE
  5
34D
100
AcDbEntity
  8
0
100
AcDbSpline
 62
7
  6
CONTINUOUS
 70
0
 71
3
 72
8
 73
4
 74
0
 42
0.0000001
 43
0.0000001
 44
0.0000000001
 40
0.0
 40
0.0
 40
0.0
 40
0.0
 40
1.0
 40
1.0
 40
1.0
 40
1.0
 10
116.1402762291
 20
566.8477180153
 30
0.0
 10
116.0835179699
 20
566.9884538576
 30
0.0
 10
116.0433190841
 20
567.1373237322
 30
0.0
 10
116.0237814396
 20
567.2878108006
 30
0.0
  0
SPLINE
  5
34E
100
AcDbEntity
  8
0
100
AcDbSpline
 62
7
  6
CONTINUOUS
 70
0
 71
3
 72
9
 73
5
 74
0
 42
0.0000001
 43
0.0000001
 44
0.0000000001
 40
0.0
 40
0.0
 40
0.0
 40
0.0
 40
0.464759004
 40
1.0
 40
1.0
 40
1.0
 40
1.0
 10
125.5093149203
 20
567.5033069105
 30
0.0
 10
125.5091256891
 20
567.7710333565
 30
0.0
 10
125.3422864032
 20
568.3519349415
 30
0.0
 10
124.9426527354
 20
568.788143548
 30
0.0
 10
124.7055496749
 20
568.985243225
 30
0.0
  0
SPLINE
  5
34F
100
AcDbEntity
  8
0
100
AcDbSpline
 62
7
  6
CONTINUOUS
 70
0
 71
3
 72
8
 73
4
 74
0
 42
0.0000001
 43
0.0000001
 44
0.0000000001
 40
0.0
 40
0.0
 40
0.0
 40
0.0
 40
1.0
 40
1.0
 40
1.0
 40
1.0
 10
124.552777889
 20
569.1047439799
 30
0.0
 10
124.4455492401
 20
569.1837671756
 30
0.0
 10
124.3337058945
 20
569.2567739698
 30
0.0
 10
124.2188550989
 20
569.3242420611
 30
0.0
  0
SPLINE
  5
350
100
AcDbEntity
  8
0
100
AcDbSpline
 62
7
  6
CONTINUOUS
 70
0
 71
3
 72
8
 73
4
 74
0
 42
0.0000001
 43
0.0000001
 44
0.0000000001
 40
0.0
 40
0.0
 40
0.0
 40
0.0
 40
1.0
 40
1.0
 40
1.0
 40
1.0
 10
124.2188550989
 20
569.3242420611
 30
0.0
 10
124.0227226614
 20
569.4394583394
 30
0.0
 10
123.8169394304
 20
569.5391288748
 30
0.0
 10
123.606323055
 20
569.6250559731
 30
0.0
  0
SPLINE
  5
351
100
AcDbEntity
  8
0
100
AcDbSpline
 62
7
  6
CONTINUOUS
 70
0
 71
3
 72
9
 73
5
 74
0
 42
0.0000001
 43
0.0000001
 44
0.0000000001
 40
0.0
 40
0.0
 40
0.0
 40
0.0
 40
0.5004447193
 40
1.0
 40
1.0
 40
1.0
 40
1.0
 10
123.606323055
 20
569.6250559731
 30
0.0
 10
122.784223423
 20
569.9604555156
 30
0.0
 10
120.9868828008
 20
570.2473685691
 30
0.0
 10
119.1906815496
 20
569.9496427106
 30
0.0
 10
118.3727263134
 20
569.6083361768
 30
0.0
  0
SPLINE
  5
352
100
AcDbEntity
  8
0
100
AcDbSpline
 62
7
  6
CONTINUOUS
 70
0
 71
3
 72
9
 73
5
 74
0
 42
0.0000001
 43
0.0000001
 44
0.0000000001
 40
0.0
 40
0.0
 40
0.0
 40
0.0
 40
0.2869242649
 40
1.0
 40
1.0
 40
1.0
 40
1.0
 10
94.4931598799
 20
544.1925676534
 30
0.0
 10
94.4199726966
 20
544.2348213375
 30
0.0
 10
94.1764108042
 20
544.3967746622
 30
0.0
 10
93.9737360626
 20
544.6493040252
 30
0.0
 10
93.9256349709
 20
544.8537463154
 30
0.0
  0
SPLINE
  5
353
100
AcDbEntity
  8
0
100
AcDbSpline
 62
7
  6
CONTINUOUS
 70
0
 71
3
 72
8
 73
4
 74
0
 42
0.0000001
 43
0.0000001
 44
0.0000000001
 40
0.0
 40
0.0
 40
0.0
 40
0.0
 40
1.0
 40
1.0
 40
1.0
 40
1.0
 10
93.9256349709
 20
544.8537463154
 30
0.0
 10
93.9136969808
 20
544.904485913
 30
0.0
 10
93.9074109372
 20
544.9569308964
 30
0.0
 10
93.9074109402
 20
545.0090559611
 30
0.0
  0
SPLINE
  5
354
100
AcDbEntity
  8
0
100
AcDbSpline
 62
7
  6
CONTINUOUS
 70
0
 71
3
 72
8
 73
4
 74
0
 42
0.0000001
 43
0.0000001
 44
0.0000000001
 40
0.0
 40
0.0
 40
0.0
 40
0.0
 40
1.0
 40
1.0
 40
1.0
 40
1.0
 10
125.8990203126
 20
566.8999969627
 30
0.0
 10
125.8648995517
 20
566.8078381279
 30
0.0
 10
125.8234875951
 20
566.7181335714
 30
0.0
 10
125.776256251
 20
566.6319553997
 30
0.0
  0
SPLINE
  5
355
100
AcDbEntity
  8
0
100
AcDbSpline
 62
7
  6
CONTINUOUS
 70
0
 71
3
 72
9
 73
5
 74
0
 42
0.0000001
 43
0.0000001
 44
0.0000000001
 40
0.0
 40
0.0
 40
0.0
 40
0.0
 40
0.2297036847
 40
1.0
 40
1.0
 40
1.0
 40
1.0
 10
125.776256251
 20
566.6319553997
 30
0.0
 10
125.7240530862
 20
566.5367056587
 30
0.0
 10
125.4650549379
 20
566.1392765438
 30
0.0
 10
125.0981705472
 20
565.8208276441
 30
0.0
 10
124.7956277902
 20
565.6180000815
 30
0.0
  0
SPLINE
  5
356
100
AcDbEntity
  8
0
100
AcDbSpline
 62
7
  6
CONTINUOUS
 70
0
 71
3
 72
9
 73
5
 74
0
 42
0.0000001
 43
0.0000001
 44
0.0000000001
 40
0.0
 40
0.0
 40
0.0
 40
0.0
 40
0.5000007091
 40
1.0
 40
1.0
 40
1.0
 40
1.0
 10
383.3474826024
 20
377.4262194319
 30
0.0
 10
382.4030263163
 20
377.9714891873
 30
0.0
 10
380.1654985403
 20
378.4025447114
 30
0.0
 10
377.9279712471
 20
377.9714791542
 30
0.0
 10
376.9835215718
 20
377.4262041348
 30
0.0
  0
SPLINE
  5
357
100
AcDbEntity
  8
0
100
AcDbSpline
 62
7
  6
CONTINUOUS
 70
0
 71
3
 72
9
 73
5
 74
0
 42
0.0000001
 43
0.0000001
 44
0.0000000001
 40
0.0
 40
0.0
 40
0.0
 40
0.0
 40
0.4999994563
 40
1.0
 40
1.0
 40
1.0
 40
1.0
 10
386.5294645897
 20
377.2221058533
 30
0.0
 10
386.1097063839
 20
376.9797597868
 30
0.0
 10
385.1152524117
 20
376.7880991224
 30
0.0
 10
384.1207983314
 20
376.979755488
 30
0.0
 10
383.701037465
 20
377.2220990546
 30
0.0
  0
SPLINE
  5
358
100
AcDbEntity
  8
0
100
AcDbSpline
 62
7
  6
CONTINUOUS
 70
0
 71
3
 72
9
 73
5
 74
0
 42
0.0000001
 43
0.0000001
 44
0.0000000001
 40
0.0
 40
0.0
 40
0.0
 40
0.0
 40
0.2421646878
 40
1.0
 40
1.0
 40
1.0
 40
1.0
 10
401.0147459638
 20
377.2221406717
 30
0.0
 10
401.0147452565
 20
377.3202311243
 30
0.0
 10
400.9846471841
 20
377.7252913738
 30
0.0
 10
400.8309946376
 20
378.1165046649
 30
0.0
 10
400.6706728376
 20
378.378277957
 30
0.0
  0
SPLINE
  5
359
100
AcDbEntity
  8
0
100
AcDbSpline
 62
7
  6
CONTINUOUS
 70
0
 71
3
 72
11
 73
7
 74
0
 42
0.0000001
 43
0.0000001
 44
0.0000000001
 40
0.0
 40
0.0
 40
0.0
 40
0.0
 40
0.2037579655
 40
0.4593492584
 40
0.7382798804
 40
1.0
 40
1.0
 40
1.0
 40
1.0
 10
400.6706728376
 20
378.378277957
 30
0.0
 10
400.3098368166
 20
378.9674506899
 30
0.0
 10
399.0120469121
 20
379.9743260824
 30
0.0
 10
396.5853356479
 20
380.6873384583
 30
0.0
 10
393.856366923
 20
380.7462687959
 30
0.0
 10
392.0439958749
 20
380.28977179
 30
0.0
 10
391.2398550739
 20
379.9144362208
 30
0.0
  0
SPLINE
  5
35A
100
AcDbEntity
  8
0
100
AcDbSpline
 62
7
  6
CONTINUOUS
 70
0
 71
3
 72
9
 73
5
 74
0
 42
0.0000001
 43
0.0000001
 44
0.0000000001
 40
0.0
 40
0.0
 40
0.0
 40
0.0
 40
0.5000005437
 40
1.0
 40
1.0
 40
1.0
 40
1.0
 10
415.1672700918
 20
379.8757506424
 30
0.0
 10
414.6425690088
 20
380.1786801007
 30
0.0
 10
413.3995014085
 20
380.4182505577
 30
0.0
 10
412.1564339432
 20
380.1786747272
 30
0.0
 10
411.6317361859
 20
379.8757421441
 30
0.0
  0
SPLINE
  5
35B
100
AcDbEntity
  8
0
100
AcDbSpline
 62
7
  6
CONTINUOUS
 70
0
 71
3
 72
8
 73
4
 74
0
 42
0.0000001
 43
0.0000001
 44
0.0000000001
 40
0.0
 40
0.0
 40
0.0
 40
0.0
 40
1.0
 40
1.0
 40
1.0
 40
1.0
 10
690.876425616
 20
541.0954736462
 30
0.0
 10
690.7807123578
 20
541.0360783784
 30
0.0
 10
690.6890774946
 20
540.9690940708
 30
0.0
 10
690.6051330678
 20
540.8939797657
 30
0.0
  0
SPLINE
  5
35C
100
AcDbEntity
  8
0
100
AcDbSpline
 62
7
  6
CONTINUOUS
 70
0
 71
3
 72
9
 73
5
 74
0
 42
0.0000001
 43
0.0000001
 44
0.0000000001
 40
0.0
 40
0.0
 40
0.0
 40
0.0
 40
0.2676423064
 40
1.0
 40
1.0
 40
1.0
 40
1.0
 10
691.2912184289
 20
553.1753361719
 30
0.0
 10
691.1738994187
 20
553.1076024141
 30
0.0
 10
690.7453646026
 20
552.8388041274
 30
0.0
 10
690.3547855786
 20
552.5029927528
 30
0.0
 10
690.1185214161
 20
552.2173584
 30
0.0
  0
SPLINE
  5
35D
100
AcDbEntity
  8
0
100
AcDbSpline
 62
7
  6
CONTINUOUS
 70
0
 71
3
 72
9
 73
5
 74
0
 42
0.0000001
 43
0.0000001
 44
0.0000000001
 40
0.0
 40
0.0
 40
0.0
 40
0.0
 40
0.464759004
 40
1.0
 40
1.0
 40
1.0
 40
1.0
 10
372.9956579451
 20
710.3887607655
 30
0.0
 10
372.995468714
 20
710.6564872115
 30
0.0
 10
372.828629428
 20
711.2373887965
 30
0.0
 10
372.4289957603
 20
711.6735974031
 30
0.0
 10
372.1918926998
 20
711.87069708
 30
0.0
  0
SPLINE
  5
35E
100
AcDbEntity
  8
0
100
AcDbSpline
 62
7
  6
CONTINUOUS
 70
0
 71
3
 72
9
 73
5
 74
0
 42
0.0000001
 43
0.0000001
 44
0.0000000001
 40
0.0
 40
0.0
 40
0.0
 40
0.0
 40
0.2338382653
 40
1.0
 40
1.0
 40
1.0
 40
1.0
 10
372.1918926998
 20
711.87069708
 30
0.0
 10
372.1154844526
 20
711.9342139356
 30
0.0
 10
371.7758777751
 20
712.1903384909
 30
0.0
 10
371.3940974065
 20
712.3875321195
 30
0.0
 10
371.0926660798
 20
712.5105098282
 30
0.0
  0
SPLINE
  5
35F
100
AcDbEntity
  8
0
100
AcDbSpline
 62
7
  6
CONTINUOUS
 70
0
 71
3
 72
8
 73
4
 74
0
 42
0.0000001
 43
0.0000001
 44
0.0000000001
 40
0.0
 40
0.0
 40
0.0
 40
0.0
 40
1.0
 40
1.0
 40
1.0
 40
1.0
 10
371.0926660798
 20
712.5105098282
 30
0.0
 10
370.8527096349
 20
712.6084070644
 30
0.0
 10
370.6052303244
 20
712.6890180701
 30
0.0
 10
370.354529162
 20
712.7546830647
 30
0.0
  0
SPLINE
  5
360
100
AcDbEntity
  8
0
100
AcDbSpline
 62
7
  6
CONTINUOUS
 70
0
 71
3
 72
9
 73
5
 74
0
 42
0.0000001
 43
0.0000001
 44
0.0000000001
 40
0.0
 40
0.0
 40
0.0
 40
0.0
 40
0.5148691625
 40
1.0
 40
1.0
 40
1.0
 40
1.0
 10
370.2298793282
 20
712.7860356573
 30
0.0
 10
369.4311099953
 20
712.978744548
 30
0.0
 10
367.8106203639
 20
713.0792203878
 30
0.0
 10
366.220446779
 20
712.6915201545
 30
0.0
 10
365.5294536615
 20
712.3422982705
 30
0.0
  0
SPLINE
  5
361
100
AcDbEntity
  8
0
100
AcDbSpline
 62
7
  6
CONTINUOUS
 70
0
 71
3
 72
9
 73
5
 74
0
 42
0.0000001
 43
0.0000001
 44
0.0000000001
 40
0.0
 40
0.0
 40
0.0
 40
0.0
 40
0.270205077
 40
1.0
 40
1.0
 40
1.0
 40
1.0
 10
695.1802483181
 20
561.136073377
 30
0.0
 10
695.0822545258
 20
561.0794969724
 30
0.0
 10
694.7287069489
 20
560.855806102
 30
0.0
 10
694.4098224504
 20
560.569452097
 30
0.0
 10
694.2274297838
 20
560.3242309265
 30
0.0
  0
SPLINE
  5
362
100
AcDbEntity
  8
0
100
AcDbSpline
 62
7
  6
CONTINUOUS
 70
0
 71
3
 72
8
 73
4
 74
0
 42
0.0000001
 43
0.0000001
 44
0.0000000001
 40
0.0
 40
0.0
 40
0.0
 40
0.0
 40
1.0
 40
1.0
 40
1.0
 40
1.0
 10
694.2274297838
 20
560.3242309265
 30
0.0
 10
694.1651851816
 20
560.2405450277
 30
0.0
 10
694.1085870478
 20
560.1522273391
 30
0.0
 10
694.0596980348
 20
560.0600992513
 30
0.0
  0
SPLINE
  5
363
100
AcDbEntity
  8
0
100
AcDbSpline
 62
7
  6
CONTINUOUS
 70
0
 71
3
 72
8
 73
4
 74
0
 42
0.0000001
 43
0.0000001
 44
0.0000000001
 40
0.0
 40
0.0
 40
0.0
 40
0.0
 40
1.0
 40
1.0
 40
1.0
 40
1.0
 10
373.3853633375
 20
709.7854508177
 30
0.0
 10
373.3512425766
 20
709.693291983
 30
0.0
 10
373.30983062
 20
709.6035874264
 30
0.0
 10
373.2625992758
 20
709.5174092547
 30
0.0
  0
SPLINE
  5
364
100
AcDbEntity
  8
0
100
AcDbSpline
 62
7
  6
CONTINUOUS
 70
0
 71
3
 72
9
 73
5
 74
0
 42
0.0000001
 43
0.0000001
 44
0.0000000001
 40
0.0
 40
0.0
 40
0.0
 40
0.0
 40
0.2263523104
 40
1.0
 40
1.0
 40
1.0
 40
1.0
 10
373.2625992758
 20
709.5174092547
 30
0.0
 10
373.2005587246
 20
709.4042102474
 30
0.0
 10
372.8807100738
 20
708.9289173043
 30
0.0
 10
372.4134892868
 20
708.5681561283
 30
0.0
 10
372.0313983225
 20
708.347557124
 30
0.0
  0
SPLINE
  5
365
100
AcDbEntity
  8
0
100
AcDbSpline
 62
7
  6
CONTINUOUS
 70
0
 71
3
 72
9
 73
5
 74
0
 42
0.0000001
 43
0.0000001
 44
0.0000000001
 40
0.0
 40
0.0
 40
0.0
 40
0.0
 40
0.464759004
 40
1.0
 40
1.0
 40
1.0
 40
1.0
 10
673.5172911326
 20
536.8864400944
 30
0.0
 10
673.5171019014
 20
537.1541665404
 30
0.0
 10
673.3502626155
 20
537.7350681254
 30
0.0
 10
672.9506289477
 20
538.1712767319
 30
0.0
 10
672.7135258873
 20
538.3683764089
 30
0.0
  0
SPLINE
  5
366
100
AcDbEntity
  8
0
100
AcDbSpline
 62
7
  6
CONTINUOUS
 70
0
 71
3
 72
9
 73
5
 74
0
 42
0.0000001
 43
0.0000001
 44
0.0000000001
 40
0.0
 40
0.0
 40
0.0
 40
0.0
 40
0.2338382653
 40
1.0
 40
1.0
 40
1.0
 40
1.0
 10
672.7135258873
 20
538.3683764089
 30
0.0
 10
672.63711764
 20
538.4318932644
 30
0.0
 10
672.2975109626
 20
538.6880178198
 30
0.0
 10
671.915730594
 20
538.8852114483
 30
0.0
 10
671.6142992673
 20
539.008189157
 30
0.0
  0
SPLINE
  5
367
100
AcDbEntity
  8
0
100
AcDbSpline
 62
7
  6
CONTINUOUS
 70
0
 71
3
 72
8
 73
4
 74
0
 42
0.0000001
 43
0.0000001
 44
0.0000000001
 40
0.0
 40
0.0
 40
0.0
 40
0.0
 40
1.0
 40
1.0
 40
1.0
 40
1.0
 10
671.6142992673
 20
539.008189157
 30
0.0
 10
671.3743428224
 20
539.1060863932
 30
0.0
 10
671.1268635118
 20
539.186697399
 30
0.0
 10
670.8761623495
 20
539.2523623935
 30
0.0
  0
SPLINE
  5
368
100
AcDbEntity
  8
0
100
AcDbSpline
 62
7
  6
CONTINUOUS
 70
0
 71
3
 72
9
 73
5
 74
0
 42
0.0000001
 43
0.0000001
 44
0.0000000001
 40
0.0
 40
0.0
 40
0.0
 40
0.0
 40
0.5148691625
 40
1.0
 40
1.0
 40
1.0
 40
1.0
 10
670.7515125156
 20
539.2837149862
 30
0.0
 10
669.9527431828
 20
539.4764238768
 30
0.0
 10
668.3322535514
 20
539.5768997167
 30
0.0
 10
666.7420799665
 20
539.1891994834
 30
0.0
 10
666.051086849
 20
538.8399775993
 30
0.0
  0
SPLINE
  5
369
100
AcDbEntity
  8
0
100
AcDbSpline
 62
7
  6
CONTINUOUS
 70
0
 71
3
 72
8
 73
4
 74
0
 42
0.0000001
 43
0.0000001
 44
0.0000000001
 40
0.0
 40
0.0
 40
0.0
 40
0.0
 40
1.0
 40
1.0
 40
1.0
 40
1.0
 10
673.9069965249
 20
536.2831301466
 30
0.0
 10
673.872875764
 20
536.1909713118
 30
0.0
 10
673.8314638075
 20
536.1012667553
 30
0.0
 10
673.7842324633
 20
536.0150885835
 30
0.0
  0
SPLINE
  5
36A
100
AcDbEntity
  8
0
100
AcDbSpline
 62
7
  6
CONTINUOUS
 70
0
 71
3
 72
9
 73
5
 74
0
 42
0.0000001
 43
0.0000001
 44
0.0000000001
 40
0.0
 40
0.0
 40
0.0
 40
0.0
 40
0.2263523104
 40
1.0
 40
1.0
 40
1.0
 40
1.0
 10
673.7842324633
 20
536.0150885835
 30
0.0
 10
673.7221919121
 20
535.9018895763
 30
0.0
 10
673.4023432613
 20
535.4265966332
 30
0.0
 10
672.9351224743
 20
535.0658354571
 30
0.0
 10
672.55303151
 20
534.8452364528
 30
0.0
  0
SPLINE
  5
36B
100
AcDbEntity
  8
0
100
AcDbSpline
 62
7
  6
CONTINUOUS
 70
0
 71
3
 72
9
 73
5
 74
0
 42
0.0000001
 43
0.0000001
 44
0.0000000001
 40
0.0
 40
0.0
 40
0.0
 40
0.0
 40
0.2667489557
 40
1.0
 40
1.0
 40
1.0
 40
1.0
 10
109.3422698062
 20
562.5635137854
 30
0.0
 10
109.2672198654
 20
562.5201839405
 30
0.0
 10
108.991885549
 20
562.348032267
 30
0.0
 10
108.7400503518
 20
562.1347337843
 30
0.0
 10
108.5849672232
 20
561.9539145609
 30
0.0
  0
SPLINE
  5
36C
100
AcDbEntity
  8
0
100
AcDbSpline
 62
7
  6
CONTINUOUS
 70
0
 71
3
 72
8
 73
4
 74
0
 42
0.0000001
 43
0.0000001
 44
0.0000000001
 40
0.0
 40
0.0
 40
0.0
 40
0.0
 40
1.0
 40
1.0
 40
1.0
 40
1.0
 10
108.5849672232
 20
561.9539145609
 30
0.0
 10
108.510331064
 20
561.8668925072
 30
0.0
 10
108.4422919585
 20
561.7735115163
 30
0.0
 10
108.3840881956
 20
561.6747404878
 30
0.0
  0
SPLINE
  5
36D
100
AcDbEntity
  8
0
100
AcDbSpline
 62
7
  6
CONTINUOUS
 70
0
 71
3
 72
9
 73
5
 74
0
 42
0.0000001
 43
0.0000001
 44
0.0000000001
 40
0.0
 40
0.0
 40
0.0
 40
0.0
 40
0.2667489557
 40
1.0
 40
1.0
 40
1.0
 40
1.0
 10
409.8639029937
 20
389.0611931143
 30
0.0
 10
409.7888530529
 20
389.0178632694
 30
0.0
 10
409.5135187365
 20
388.8457115958
 30
0.0
 10
409.2616835393
 20
388.6324131132
 30
0.0
 10
409.1066004107
 20
388.4515938898
 30
0.0
  0
SPLINE
  5
36E
100
AcDbEntity
  8
0
100
AcDbSpline
 62
7
  6
CONTINUOUS
 70
0
 71
3
 72
8
 73
4
 74
0
 42
0.0000001
 43
0.0000001
 44
0.0000000001
 40
0.0
 40
0.0
 40
0.0
 40
0.0
 40
1.0
 40
1.0
 40
1.0
 40
1.0
 10
409.1066004107
 20
388.4515938898
 30
0.0
 10
409.0319642515
 20
388.3645718361
 30
0.0
 10
408.963925146
 20
388.2711908452
 30
0.0
 10
408.905721383
 20
388.1724198167
 30
0.0
  0
SPLINE
  5
36F
100
AcDbEntity
  8
0
100
AcDbSpline
 62
7
  6
CONTINUOUS
 70
0
 71
3
 72
9
 73
5
 74
0
 42
0.0000001
 43
0.0000001
 44
0.0000000001
 40
0.0
 40
0.0
 40
0.0
 40
0.0
 40
0.2667489557
 40
1.0
 40
1.0
 40
1.0
 40
1.0
 10
675.0278419489
 20
542.1527508161
 30
0.0
 10
674.9527920081
 20
542.1094209712
 30
0.0
 10
674.6774576917
 20
541.9372692977
 30
0.0
 10
674.4256224944
 20
541.723970815
 30
0.0
 10
674.2705393659
 20
541.5431515916
 30
0.0
  0
SPLINE
  5
370
100
AcDbEntity
  8
0
100
AcDbSpline
 62
7
  6
CONTINUOUS
 70
0
 71
3
 72
8
 73
4
 74
0
 42
0.0000001
 43
0.0000001
 44
0.0000000001
 40
0.0
 40
0.0
 40
0.0
 40
0.0
 40
1.0
 40
1.0
 40
1.0
 40
1.0
 10
674.2705393659
 20
541.5431515916
 30
0.0
 10
674.1959032067
 20
541.4561295379
 30
0.0
 10
674.1278641012
 20
541.362748547
 30
0.0
 10
674.0696603382
 20
541.2639775185
 30
0.0
  0
SPLINE
  5
371
100
AcDbEntity
  8
0
100
AcDbSpline
 62
7
  6
CONTINUOUS
 70
0
 71
3
 72
9
 73
5
 74
0
 42
0.0000001
 43
0.0000001
 44
0.0000000001
 40
0.0
 40
0.0
 40
0.0
 40
0.0
 40
0.2667489557
 40
1.0
 40
1.0
 40
1.0
 40
1.0
 10
374.5062087614
 20
715.6550714872
 30
0.0
 10
374.4311588206
 20
715.6117416424
 30
0.0
 10
374.1558245042
 20
715.4395899688
 30
0.0
 10
373.903989307
 20
715.2262914861
 30
0.0
 10
373.7489061784
 20
715.0454722627
 30
0.0
  0
SPLINE
  5
372
100
AcDbEntity
  8
0
100
AcDbSpline
 62
7
  6
CONTINUOUS
 70
0
 71
3
 72
8
 73
4
 74
0
 42
0.0000001
 43
0.0000001
 44
0.0000000001
 40
0.0
 40
0.0
 40
0.0
 40
0.0
 40
1.0
 40
1.0
 40
1.0
 40
1.0
 10
373.7489061784
 20
715.0454722627
 30
0.0
 10
373.6742700192
 20
714.958450209
 30
0.0
 10
373.6062309137
 20
714.8650692182
 30
0.0
 10
373.5480271507
 20
714.7662981896
 30
0.0
  0
SPLINE
  5
373
100
AcDbEntity
  8
0
100
AcDbSpline
 62
7
  6
CONTINUOUS
 70
0
 71
3
 72
9
 73
5
 74
0
 42
0.0000001
 43
0.0000001
 44
0.0000000001
 40
0.0
 40
0.0
 40
0.0
 40
0.0
 40
0.464759004
 40
1.0
 40
1.0
 40
1.0
 40
1.0
 10
426.0309481077
 20
394.0009862393
 30
0.0
 10
426.0307588766
 20
394.2687126854
 30
0.0
 10
425.8639195906
 20
394.8496142704
 30
0.0
 10
425.4642859229
 20
395.2858228769
 30
0.0
 10
425.2271828624
 20
395.4829225539
 30
0.0
  0
SPLINE
  5
374
100
AcDbEntity
  8
0
100
AcDbSpline
 62
7
  6
CONTINUOUS
 70
0
 71
3
 72
8
 73
4
 74
0
 42
0.0000001
 43
0.0000001
 44
0.0000000001
 40
0.0
 40
0.0
 40
0.0
 40
0.0
 40
1.0
 40
1.0
 40
1.0
 40
1.0
 10
425.0744110765
 20
395.6024233088
 30
0.0
 10
424.9671824276
 20
395.6814465044
 30
0.0
 10
424.855339082
 20
395.7544532986
 30
0.0
 10
424.7404882864
 20
395.82192139
 30
0.0
  0
SPLINE
  5
375
100
AcDbEntity
  8
0
100
AcDbSpline
 62
7
  6
CONTINUOUS
 70
0
 71
3
 72
8
 73
4
 74
0
 42
0.0000001
 43
0.0000001
 44
0.0000000001
 40
0.0
 40
0.0
 40
0.0
 40
0.0
 40
1.0
 40
1.0
 40
1.0
 40
1.0
 10
424.7404882864
 20
395.82192139
 30
0.0
 10
424.5443558488
 20
395.9371376682
 30
0.0
 10
424.3385726179
 20
396.0368082036
 30
0.0
 10
424.1279562425
 20
396.122735302
 30
0.0
  0
SPLINE
  5
376
100
AcDbEntity
  8
0
100
AcDbSpline
 62
7
  6
CONTINUOUS
 70
0
 71
3
 72
9
 73
5
 74
0
 42
0.0000001
 43
0.0000001
 44
0.0000000001
 40
0.0
 40
0.0
 40
0.0
 40
0.0
 40
0.5004447193
 40
1.0
 40
1.0
 40
1.0
 40
1.0
 10
424.1279562425
 20
396.122735302
 30
0.0
 10
423.3058566105
 20
396.4581348445
 30
0.0
 10
421.5085159882
 20
396.745047898
 30
0.0
 10
419.712314737
 20
396.4473220394
 30
0.0
 10
418.8943595009
 20
396.1060155056
 30
0.0
  0
SPLINE
  5
377
100
AcDbEntity
  8
0
100
AcDbSpline
 62
7
  6
CONTINUOUS
 70
0
 71
3
 72
8
 73
4
 74
0
 42
0.0000001
 43
0.0000001
 44
0.0000000001
 40
0.0
 40
0.0
 40
0.0
 40
0.0
 40
1.0
 40
1.0
 40
1.0
 40
1.0
 10
426.4206535001
 20
393.3976762916
 30
0.0
 10
426.3865327392
 20
393.3055174568
 30
0.0
 10
426.3451207826
 20
393.2158129002
 30
0.0
 10
426.2978894384
 20
393.1296347285
 30
0.0
  0
SPLINE
  5
378
100
AcDbEntity
  8
0
100
AcDbSpline
 62
7
  6
CONTINUOUS
 70
0
 71
3
 72
9
 73
5
 74
0
 42
0.0000001
 43
0.0000001
 44
0.0000000001
 40
0.0
 40
0.0
 40
0.0
 40
0.0
 40
0.2297036847
 40
1.0
 40
1.0
 40
1.0
 40
1.0
 10
426.2978894384
 20
393.1296347285
 30
0.0
 10
426.2456862737
 20
393.0343849875
 30
0.0
 10
425.9866881254
 20
392.6369558727
 30
0.0
 10
425.6198037347
 20
392.318506973
 30
0.0
 10
425.3172609776
 20
392.1156794103
 30
0.0
  0
SPLINE
  5
379
100
AcDbEntity
  8
0
100
AcDbSpline
 62
7
  6
CONTINUOUS
 70
0
 71
3
 72
9
 73
5
 74
0
 42
0.0000001
 43
0.0000001
 44
0.0000000001
 40
0.0
 40
0.0
 40
0.0
 40
0.0
 40
0.2373273453
 40
1.0
 40
1.0
 40
1.0
 40
1.0
 10
381.0799182722
 20
714.8328069805
 30
0.0
 10
381.0503548637
 20
714.8782875778
 30
0.0
 10
380.9174140505
 20
715.06446373
 30
0.0
 10
380.7540706233
 20
715.2279504617
 30
0.0
 10
380.6200192202
 20
715.3393850766
 30
0.0
  0
SPLINE
  5
37A
100
AcDbEntity
  8
0
100
AcDbSpline
 62
7
  6
CONTINUOUS
 70
0
 71
3
 72
11
 73
7
 74
0
 42
0.0000001
 43
0.0000001
 44
0.0000000001
 40
0.0
 40
0.0
 40
0.0
 40
0.0
 40
0.2253720354
 40
0.4875920429
 40
0.7566893094
 40
1.0
 40
1.0
 40
1.0
 40
1.0
 10
380.6200192202
 20
715.3393850766
 30
0.0
 10
380.2496224461
 20
715.6472895144
 30
0.0
 10
379.2878680874
 20
716.1166148655
 30
0.0
 10
377.6797357655
 20
716.3909030756
 30
0.0
 10
376.013513822
 20
716.2750321079
 30
0.0
 10
374.9565434687
 20
715.9150707997
 30
0.0
 10
374.5062087614
 20
715.6550714872
 30
0.0
  0
SPLINE
  5
37B
100
AcDbEntity
  8
0
100
AcDbSpline
 62
7
  6
CONTINUOUS
 70
0
 71
3
 72
9
 73
5
 74
0
 42
0.0000001
 43
0.0000001
 44
0.0000000001
 40
0.0
 40
0.0
 40
0.0
 40
0.0
 40
0.2375870526
 40
1.0
 40
1.0
 40
1.0
 40
1.0
 10
381.334475929
 20
715.4918126505
 30
0.0
 10
381.3345430678
 20
715.403139542
 30
0.0
 10
381.2977819179
 20
715.0293866483
 30
0.0
 10
381.104719528
 20
714.6830413806
 30
0.0
 10
380.9193045206
 20
714.4671934347
 30
0.0
  0
SPLINE
  5
37C
100
AcDbEntity
  8
0
100
AcDbSpline
 62
7
  6
CONTINUOUS
 70
0
 71
3
 72
9
 73
5
 74
0
 42
0.0000001
 43
0.0000001
 44
0.0000000001
 40
0.0
 40
0.0
 40
0.0
 40
0.0
 40
0.2339502175
 40
1.0
 40
1.0
 40
1.0
 40
1.0
 10
380.9193045206
 20
714.4671934347
 30
0.0
 10
380.8698514912
 20
714.4096234733
 30
0.0
 10
380.6456362741
 20
714.1745946402
 30
0.0
 10
380.378301489
 20
713.9831034559
 30
0.0
 10
380.1630865626
 20
713.8588498019
 30
0.0
  0
SPLINE
  5
37D
100
AcDbEntity
  8
0
100
AcDbSpline
 62
7
  6
CONTINUOUS
 70
0
 71
3
 72
9
 73
5
 74
0
 42
0.0000001
 43
0.0000001
 44
0.0000000001
 40
0.0
 40
0.0
 40
0.0
 40
0.0
 40
0.2373273453
 40
1.0
 40
1.0
 40
1.0
 40
1.0
 10
681.6015514597
 20
541.3304863093
 30
0.0
 10
681.5719880511
 20
541.3759669067
 30
0.0
 10
681.4390472379
 20
541.5621430589
 30
0.0
 10
681.2757038108
 20
541.7256297905
 30
0.0
 10
681.1416524077
 20
541.8370644055
 30
0.0
  0
SPLINE
  5
37E
100
AcDbEntity
  8
0
100
AcDbSpline
 62
7
  6
CONTINUOUS
 70
0
 71
3
 72
11
 73
7
 74
0
 42
0.0000001
 43
0.0000001
 44
0.0000000001
 40
0.0
 40
0.0
 40
0.0
 40
0.0
 40
0.2253720354
 40
0.4875920429
 40
0.7566893094
 40
1.0
 40
1.0
 40
1.0
 40
1.0
 10
681.1416524077
 20
541.8370644055
 30
0.0
 10
680.7712556336
 20
542.1449688432
 30
0.0
 10
679.8095012749
 20
542.6142941944
 30
0.0
 10
678.201368953
 20
542.8885824045
 30
0.0
 10
676.5351470094
 20
542.7727114368
 30
0.0
 10
675.4781766561
 20
542.4127501286
 30
0.0
 10
675.0278419489
 20
542.1527508161
 30
0.0
  0
SPLINE
  5
37F
100
AcDbEntity
  8
0
100
AcDbSpline
 62
7
  6
CONTINUOUS
 70
0
 71
3
 72
9
 73
5
 74
0
 42
0.0000001
 43
0.0000001
 44
0.0000000001
 40
0.0
 40
0.0
 40
0.0
 40
0.0
 40
0.2375870526
 40
1.0
 40
1.0
 40
1.0
 40
1.0
 10
681.8561091164
 20
541.9894919794
 30
0.0
 10
681.8561762552
 20
541.9008188709
 30
0.0
 10
681.8194151054
 20
541.5270659772
 30
0.0
 10
681.6263527155
 20
541.1807207095
 30
0.0
 10
681.4409377081
 20
540.9648727636
 30
0.0
  0
SPLINE
  5
380
100
AcDbEntity
  8
0
100
AcDbSpline
 62
7
  6
CONTINUOUS
 70
0
 71
3
 72
9
 73
5
 74
0
 42
0.0000001
 43
0.0000001
 44
0.0000000001
 40
0.0
 40
0.0
 40
0.0
 40
0.0
 40
0.2339502175
 40
1.0
 40
1.0
 40
1.0
 40
1.0
 10
681.4409377081
 20
540.9648727636
 30
0.0
 10
681.3914846787
 20
540.9073028022
 30
0.0
 10
681.1672694615
 20
540.6722739691
 30
0.0
 10
680.8999346765
 20
540.4807827848
 30
0.0
 10
680.68471975
 20
540.3565291308
 30
0.0
  0
SPLINE
  5
381
100
AcDbEntity
  8
0
100
AcDbSpline
 62
7
  6
CONTINUOUS
 70
0
 71
3
 72
9
 73
5
 74
0
 42
0.0000001
 43
0.0000001
 44
0.0000000001
 40
0.0
 40
0.0
 40
0.0
 40
0.0
 40
0.2373273453
 40
1.0
 40
1.0
 40
1.0
 40
1.0
 10
416.4376125045
 20
388.2389286075
 30
0.0
 10
416.4080490959
 20
388.2844092049
 30
0.0
 10
416.2751082827
 20
388.4705853571
 30
0.0
 10
416.1117648556
 20
388.6340720887
 30
0.0
 10
415.9777134525
 20
388.7455067037
 30
0.0
  0
SPLINE
  5
382
100
AcDbEntity
  8
0
100
AcDbSpline
 62
7
  6
CONTINUOUS
 70
0
 71
3
 72
11
 73
7
 74
0
 42
0.0000001
 43
0.0000001
 44
0.0000000001
 40
0.0
 40
0.0
 40
0.0
 40
0.0
 40
0.2253720354
 40
0.4875920429
 40
0.7566893094
 40
1.0
 40
1.0
 40
1.0
 40
1.0
 10
415.9777134525
 20
388.7455067037
 30
0.0
 10
415.6073166784
 20
389.0534111414
 30
0.0
 10
414.6455623197
 20
389.5227364926
 30
0.0
 10
413.0374299978
 20
389.7970247027
 30
0.0
 10
411.3712080542
 20
389.6811537349
 30
0.0
 10
410.3142377009
 20
389.3211924268
 30
0.0
 10
409.8639029937
 20
389.0611931143
 30
0.0
  0
SPLINE
  5
383
100
AcDbEntity
  8
0
100
AcDbSpline
 62
7
  6
CONTINUOUS
 70
0
 71
3
 72
9
 73
5
 74
0
 42
0.0000001
 43
0.0000001
 44
0.0000000001
 40
0.0
 40
0.0
 40
0.0
 40
0.0
 40
0.2375870526
 40
1.0
 40
1.0
 40
1.0
 40
1.0
 10
416.6921701612
 20
388.8979342776
 30
0.0
 10
416.6922373
 20
388.8092611691
 30
0.0
 10
416.6554761502
 20
388.4355082754
 30
0.0
 10
416.4624137603
 20
388.0891630077
 30
0.0
 10
416.2769987529
 20
387.8733150618
 30
0.0
  0
SPLINE
  5
384
100
AcDbEntity
  8
0
100
AcDbSpline
 62
7
  6
CONTINUOUS
 70
0
 71
3
 72
9
 73
5
 74
0
 42
0.0000001
 43
0.0000001
 44
0.0000000001
 40
0.0
 40
0.0
 40
0.0
 40
0.0
 40
0.2339502175
 40
1.0
 40
1.0
 40
1.0
 40
1.0
 10
416.2769987529
 20
387.8733150618
 30
0.0
 10
416.2275457235
 20
387.8157451004
 30
0.0
 10
416.0033305063
 20
387.5807162673
 30
0.0
 10
415.7359957213
 20
387.389225083
 30
0.0
 10
415.5207807948
 20
387.264971429
 30
0.0
  0
SPLINE
  5
385
100
AcDbEntity
  8
0
100
AcDbSpline
 62
7
  6
CONTINUOUS
 70
0
 71
3
 72
9
 73
5
 74
0
 42
0.0000001
 43
0.0000001
 44
0.0000000001
 40
0.0
 40
0.0
 40
0.0
 40
0.0
 40
0.2373273453
 40
1.0
 40
1.0
 40
1.0
 40
1.0
 10
115.915979317
 20
561.7412492787
 30
0.0
 10
115.8864159085
 20
561.786729876
 30
0.0
 10
115.7534750953
 20
561.9729060282
 30
0.0
 10
115.5901316681
 20
562.1363927598
 30
0.0
 10
115.456080265
 20
562.2478273748
 30
0.0
  0
SPLINE
  5
386
100
AcDbEntity
  8
0
100
AcDbSpline
 62
7
  6
CONTINUOUS
 70
0
 71
3
 72
11
 73
7
 74
0
 42
0.0000001
 43
0.0000001
 44
0.0000000001
 40
0.0
 40
0.0
 40
0.0
 40
0.0
 40
0.2253720354
 40
0.4875920429
 40
0.7566893094
 40
1.0
 40
1.0
 40
1.0
 40
1.0
 10
115.456080265
 20
562.2478273748
 30
0.0
 10
115.0856834909
 20
562.5557318126
 30
0.0
 10
114.1239291322
 20
563.0250571637
 30
0.0
 10
112.5157968103
 20
563.2993453738
 30
0.0
 10
110.8495748668
 20
563.1834744061
 30
0.0
 10
109.7926045135
 20
562.8235130979
 30
0.0
 10
109.3422698062
 20
562.5635137854
 30
0.0
  0
SPLINE
  5
387
100
AcDbEntity
  8
0
100
AcDbSpline
 62
7
  6
CONTINUOUS
 70
0
 71
3
 72
9
 73
5
 74
0
 42
0.0000001
 43
0.0000001
 44
0.0000000001
 40
0.0
 40
0.0
 40
0.0
 40
0.0
 40
0.2375870526
 40
1.0
 40
1.0
 40
1.0
 40
1.0
 10
116.1705369738
 20
562.4002549487
 30
0.0
 10
116.1706041126
 20
562.3115818402
 30
0.0
 10
116.1338429627
 20
561.9378289465
 30
0.0
 10
115.9407805728
 20
561.5914836788
 30
0.0
 10
115.7553655654
 20
561.3756357329
 30
0.0
  0
SPLINE
  5
388
100
AcDbEntity
  8
0
100
AcDbSpline
 62
7
  6
CONTINUOUS
 70
0
 71
3
 72
9
 73
5
 74
0
 42
0.0000001
 43
0.0000001
 44
0.0000000001
 40
0.0
 40
0.0
 40
0.0
 40
0.0
 40
0.2339502175
 40
1.0
 40
1.0
 40
1.0
 40
1.0
 10
115.7553655654
 20
561.3756357329
 30
0.0
 10
115.705912536
 20
561.3180657715
 30
0.0
 10
115.4816973189
 20
561.0830369384
 30
0.0
 10
115.2143625338
 20
560.8915457541
 30
0.0
 10
114.9991476074
 20
560.7672921001
 30
0.0
  0
SPLINE
  5
389
100
AcDbEntity
  8
0
100
AcDbSpline
 62
7
  6
CONTINUOUS
 70
0
 71
3
 72
8
 73
4
 74
0
 42
0.0000001
 43
0.0000001
 44
0.0000000001
 40
0.0
 40
0.0
 40
0.0
 40
0.0
 40
1.0
 40
1.0
 40
1.0
 40
1.0
 10
418.287041204
 20
395.8014861934
 30
0.0
 10
418.1201315348
 20
395.70117461
 30
0.0
 10
417.9597197081
 20
395.5885102978
 30
0.0
 10
417.8112240435
 20
395.4625329623
 30
0.0
  0
SPLINE
  5
38A
100
AcDbEntity
  8
0
100
AcDbSpline
 62
7
  6
CONTINUOUS
 70
0
 71
3
 72
9
 73
5
 74
0
 42
0.0000001
 43
0.0000001
 44
0.0000000001
 40
0.0
 40
0.0
 40
0.0
 40
0.0
 40
0.2752343834
 40
1.0
 40
1.0
 40
1.0
 40
1.0
 10
417.7047071761
 20
395.36785235
 30
0.0
 10
417.6153069671
 20
395.2845131973
 30
0.0
 10
417.309512625
 20
394.9638201027
 30
0.0
 10
417.0953159887
 20
394.5427199363
 30
0.0
 10
417.0478487284
 20
394.2244008109
 30
0.0
  0
SPLINE
  5
38B
100
AcDbEntity
  8
0
100
AcDbSpline
 62
7
  6
CONTINUOUS
 70
0
 71
3
 72
8
 73
4
 74
0
 42
0.0000001
 43
0.0000001
 44
0.0000000001
 40
0.0
 40
0.0
 40
0.0
 40
0.0
 40
1.0
 40
1.0
 40
1.0
 40
1.0
 10
95.9672937663
 20
542.912453662
 30
0.0
 10
95.9184060987
 20
543.0045797304
 30
0.0
 10
95.8618096434
 20
543.0928955799
 30
0.0
 10
95.7995669471
 20
543.1765798871
 30
0.0
  0
SPLINE
  5
38C
100
AcDbEntity
  8
0
100
AcDbSpline
 62
7
  6
CONTINUOUS
 70
0
 71
3
 72
9
 73
5
 74
0
 42
0.0000001
 43
0.0000001
 44
0.0000000001
 40
0.0
 40
0.0
 40
0.0
 40
0.0
 40
0.2309069821
 40
1.0
 40
1.0
 40
1.0
 40
1.0
 10
95.7995669471
 20
543.1765798871
 30
0.0
 10
95.7418315803
 20
543.254204162
 30
0.0
 10
95.4698710384
 20
543.5740901615
 30
0.0
 10
95.1257681368
 20
543.8273393686
 30
0.0
 10
94.8467147425
 20
543.9884472761
 30
0.0
  0
SPLINE
  5
38D
100
AcDbEntity
  8
0
100
AcDbSpline
 62
7
  6
CONTINUOUS
 70
0
 71
3
 72
8
 73
4
 74
0
 42
0.0000001
 43
0.0000001
 44
0.0000000001
 40
0.0
 40
0.0
 40
0.0
 40
0.0
 40
1.0
 40
1.0
 40
1.0
 40
1.0
 10
96.1644956867
 20
543.6210529363
 30
0.0
 10
96.1644956405
 20
543.4131437874
 30
0.0
 10
96.118921237
 20
543.2019227957
 30
0.0
 10
96.0385633556
 20
543.0101708073
 30
0.0
  0
SPLINE
  5
38E
100
AcDbEntity
  8
0
100
AcDbSpline
 62
7
  6
CONTINUOUS
 70
0
 71
3
 72
8
 73
4
 74
0
 42
0.0000001
 43
0.0000001
 44
0.0000000001
 40
0.0
 40
0.0
 40
0.0
 40
0.0
 40
1.0
 40
1.0
 40
1.0
 40
1.0
 10
96.0385633556
 20
543.0101708073
 30
0.0
 10
95.9769362283
 20
542.8631146133
 30
0.0
 10
95.8947216358
 20
542.7237547827
 30
0.0
 10
95.7995629789
 20
542.5958162935
 30
0.0
  0
SPLINE
  5
38F
100
AcDbEntity
  8
0
100
AcDbSpline
 62
7
  6
CONTINUOUS
 70
0
 71
3
 72
9
 73
5
 74
0
 42
0.0000001
 43
0.0000001
 44
0.0000000001
 40
0.0
 40
0.0
 40
0.0
 40
0.0
 40
0.2309075084
 40
1.0
 40
1.0
 40
1.0
 40
1.0
 10
95.7995629789
 20
542.5958162935
 30
0.0
 10
95.7418289469
 20
542.5181942982
 30
0.0
 10
95.4698761065
 20
542.198318046
 30
0.0
 10
95.1257850697
 20
541.9450746088
 30
0.0
 10
94.8467412382
 20
541.7839695392
 30
0.0
  0
SPLINE
  5
390
100
AcDbEntity
  8
0
100
AcDbSpline
 62
7
  6
CONTINUOUS
 70
0
 71
3
 72
9
 73
5
 74
0
 42
0.0000001
 43
0.0000001
 44
0.0000000001
 40
0.0
 40
0.0
 40
0.0
 40
0.0
 40
0.2357131017
 40
1.0
 40
1.0
 40
1.0
 40
1.0
 10
100.2922458312
 20
551.6130602046
 30
0.0
 10
100.2530736201
 20
551.698220471
 30
0.0
 10
100.0656967773
 20
552.0497600734
 30
0.0
 10
99.8015816552
 20
552.357100199
 30
0.0
 10
99.5780870776
 20
552.5630834032
 30
0.0
  0
SPLINE
  5
391
100
AcDbEntity
  8
0
100
AcDbSpline
 62
7
  6
CONTINUOUS
 70
0
 71
3
 72
9
 73
5
 74
0
 42
0.0000001
 43
0.0000001
 44
0.0000000001
 40
0.0
 40
0.0
 40
0.0
 40
0.0
 40
0.4579703793
 40
1.0
 40
1.0
 40
1.0
 40
1.0
 10
99.5780870776
 20
552.5630834032
 30
0.0
 10
98.9694678326
 20
553.1240157696
 30
0.0
 10
97.2848985723
 20
553.9449815159
 30
0.0
 10
95.4726922029
 20
554.188501368
 30
0.0
 10
94.4930877962
 20
554.1884990133
 30
0.0
  0
SPLINE
  5
392
100
AcDbEntity
  8
0
100
AcDbSpline
 62
7
  6
CONTINUOUS
 70
0
 71
3
 72
9
 73
5
 74
0
 42
0.0000001
 43
0.0000001
 44
0.0000000001
 40
0.0
 40
0.0
 40
0.0
 40
0.0
 40
0.2383219951
 40
1.0
 40
1.0
 40
1.0
 40
1.0
 10
100.4928017705
 20
552.1941500832
 30
0.0
 10
100.4928701352
 20
552.0653586453
 30
0.0
 10
100.4415745706
 20
551.5242737967
 30
0.0
 10
100.1708214805
 20
551.0198596888
 30
0.0
 10
99.9084681402
 20
550.7026845162
 30
0.0
  0
SPLINE
  5
393
100
AcDbEntity
  8
0
100
AcDbSpline
 62
7
  6
CONTINUOUS
 70
0
 71
3
 72
9
 73
5
 74
0
 42
0.0000001
 43
0.0000001
 44
0.0000000001
 40
0.0
 40
0.0
 40
0.0
 40
0.0
 40
0.2331082226
 40
1.0
 40
1.0
 40
1.0
 40
1.0
 10
99.9084681402
 20
550.7026845162
 30
0.0
 10
99.8332445822
 20
550.6117421063
 30
0.0
 10
99.4887783861
 20
550.2396508244
 30
0.0
 10
99.0720266171
 20
549.9388427829
 30
0.0
 10
98.7357711273
 20
549.7447067443
 30
0.0
  0
SPLINE
  5
394
100
AcDbEntity
  8
0
100
AcDbSpline
 62
7
  6
CONTINUOUS
 70
0
 71
3
 72
8
 73
4
 74
0
 42
0.0000001
 43
0.0000001
 44
0.0000000001
 40
0.0
 40
0.0
 40
0.0
 40
0.0
 40
1.0
 40
1.0
 40
1.0
 40
1.0
 10
99.4218637438
 20
562.1211497651
 30
0.0
 10
99.3379189539
 20
562.1962652481
 30
0.0
 10
99.2462834714
 20
562.263250555
 30
0.0
 10
99.1505694994
 20
562.3226466751
 30
0.0
  0
SPLINE
  5
395
100
AcDbEntity
  8
0
100
AcDbSpline
 62
7
  6
CONTINUOUS
 70
0
 71
3
 72
9
 73
5
 74
0
 42
0.0000001
 43
0.0000001
 44
0.0000000001
 40
0.0
 40
0.0
 40
0.0
 40
0.0
 40
0.2354621661
 40
1.0
 40
1.0
 40
1.0
 40
1.0
 10
99.8214091257
 20
562.8084618792
 30
0.0
 10
99.8214091222
 20
562.7481634449
 30
0.0
 10
99.7935961168
 20
562.4915953811
 30
0.0
 10
99.6495706019
 20
562.2582191506
 30
0.0
 10
99.5148134183
 20
562.1161872663
 30
0.0
  0
SPLINE
  5
396
100
AcDbEntity
  8
0
100
AcDbSpline
 62
7
  6
CONTINUOUS
 70
0
 71
3
 72
8
 73
4
 74
0
 42
0.0000001
 43
0.0000001
 44
0.0000000001
 40
0.0
 40
0.0
 40
0.0
 40
0.0
 40
1.0
 40
1.0
 40
1.0
 40
1.0
 10
99.5148134183
 20
562.1161872663
 30
0.0
 10
99.407761441
 20
562.0033562198
 30
0.0
 10
99.2827202902
 20
561.9065794527
 30
0.0
 10
99.1505639402
 20
561.82456927
 30
0.0
  0
SPLINE
  5
397
100
AcDbEntity
  8
0
100
AcDbSpline
 62
7
  6
CONTINUOUS
 70
0
 71
3
 72
8
 73
4
 74
0
 42
0.0000001
 43
0.0000001
 44
0.0000000001
 40
0.0
 40
0.0
 40
0.0
 40
0.0
 40
1.0
 40
1.0
 40
1.0
 40
1.0
 10
665.7733842289
 20
538.6869400484
 30
0.0
 10
665.6064745596
 20
538.586628465
 30
0.0
 10
665.4460627329
 20
538.4739641528
 30
0.0
 10
665.2975670683
 20
538.3479868174
 30
0.0
  0
SPLINE
  5
398
100
AcDbEntity
  8
0
100
AcDbSpline
 62
7
  6
CONTINUOUS
 70
0
 71
3
 72
8
 73
4
 74
0
 42
0.0000001
 43
0.0000001
 44
0.0000000001
 40
0.0
 40
0.0
 40
0.0
 40
0.0
 40
1.0
 40
1.0
 40
1.0
 40
1.0
 10
665.191050201
 20
538.253306205
 30
0.0
 10
665.1225225735
 20
538.1894245377
 30
0.0
 10
665.0569437945
 20
538.1221630792
 30
0.0
 10
664.9954295191
 20
538.0515026442
 30
0.0
  0
SPLINE
  5
399
100
AcDbEntity
  8
0
100
AcDbSpline
 62
7
  6
CONTINUOUS
 70
0
 71
3
 72
9
 73
5
 74
0
 42
0.0000001
 43
0.0000001
 44
0.0000000001
 40
0.0
 40
0.0
 40
0.0
 40
0.0
 40
0.2687985322
 40
1.0
 40
1.0
 40
1.0
 40
1.0
 10
664.9954295191
 20
538.0515026442
 30
0.0
 10
664.9332869699
 20
537.9801205214
 30
0.0
 10
664.7173932453
 20
537.7023416466
 30
0.0
 10
664.5721625532
 20
537.3644897925
 30
0.0
 10
664.5341917533
 20
537.109854666
 30
0.0
  0
SPLINE
  5
39A
100
AcDbEntity
  8
0
100
AcDbSpline
 62
7
  6
CONTINUOUS
 70
0
 71
3
 72
8
 73
4
 74
0
 42
0.0000001
 43
0.0000001
 44
0.0000000001
 40
0.0
 40
0.0
 40
0.0
 40
0.0
 40
1.0
 40
1.0
 40
1.0
 40
1.0
 10
365.2517510414
 20
712.1892607195
 30
0.0
 10
365.0848413721
 20
712.0889491362
 30
0.0
 10
364.9244295455
 20
711.9762848239
 30
0.0
 10
364.7759338809
 20
711.8503074885
 30
0.0
  0
SPLINE
  5
39B
100
AcDbEntity
  8
0
100
AcDbSpline
 62
7
  6
CONTINUOUS
 70
0
 71
3
 72
8
 73
4
 74
0
 42
0.0000001
 43
0.0000001
 44
0.0000000001
 40
0.0
 40
0.0
 40
0.0
 40
0.0
 40
1.0
 40
1.0
 40
1.0
 40
1.0
 10
364.6694170135
 20
711.7556268761
 30
0.0
 10
364.600889386
 20
711.6917452088
 30
0.0
 10
364.535310607
 20
711.6244837503
 30
0.0
 10
364.4737963316
 20
711.5538233153
 30
0.0
  0
SPLINE
  5
39C
100
AcDbEntity
  8
0
100
AcDbSpline
 62
7
  6
CONTINUOUS
 70
0
 71
3
 72
9
 73
5
 74
0
 42
0.0000001
 43
0.0000001
 44
0.0000000001
 40
0.0
 40
0.0
 40
0.0
 40
0.0
 40
0.2687985322
 40
1.0
 40
1.0
 40
1.0
 40
1.0
 10
364.4737963316
 20
711.5538233153
 30
0.0
 10
364.4116537825
 20
711.4824411925
 30
0.0
 10
364.1957600578
 20
711.2046623177
 30
0.0
 10
364.0505293657
 20
710.8668104636
 30
0.0
 10
364.0125585658
 20
710.6121753371
 30
0.0
  0
SPLINE
  5
39D
100
AcDbEntity
  8
0
100
AcDbSpline
 62
7
  6
CONTINUOUS
 70
0
 71
3
 72
8
 73
4
 74
0
 42
0.0000001
 43
0.0000001
 44
0.0000000001
 40
0.0
 40
0.0
 40
0.0
 40
0.0
 40
1.0
 40
1.0
 40
1.0
 40
1.0
 10
117.7654080166
 20
569.3038068645
 30
0.0
 10
117.5984983473
 20
569.2034952811
 30
0.0
 10
117.4380865206
 20
569.0908309689
 30
0.0
 10
117.289590856
 20
568.9648536335
 30
0.0
  0
SPLINE
  5
39E
100
AcDbEntity
  8
0
100
AcDbSpline
 62
7
  6
CONTINUOUS
 70
0
 71
3
 72
9
 73
5
 74
0
 42
0.0000001
 43
0.0000001
 44
0.0000000001
 40
0.0
 40
0.0
 40
0.0
 40
0.0
 40
0.2752343834
 40
1.0
 40
1.0
 40
1.0
 40
1.0
 10
117.1830739887
 20
568.8701730211
 30
0.0
 10
117.0936737797
 20
568.7868338685
 30
0.0
 10
116.7878794375
 20
568.4661407739
 30
0.0
 10
116.5736828012
 20
568.0450406075
 30
0.0
 10
116.5262155409
 20
567.7267214821
 30
0.0
  0
SPLINE
  5
39F
100
AcDbEntity
  8
0
100
AcDbSpline
 62
7
  6
CONTINUOUS
 70
0
 71
3
 72
9
 73
5
 74
0
 42
0.0000001
 43
0.0000001
 44
0.0000000001
 40
0.0
 40
0.0
 40
0.0
 40
0.0
 40
0.2244140465
 40
1.0
 40
1.0
 40
1.0
 40
1.0
 10
363.5288321545
 20
710.7196069151
 30
0.0
 10
363.5578953141
 20
710.8650504002
 30
0.0
 10
363.7722319298
 20
711.4977607075
 30
0.0
 10
364.2839589175
 20
711.9886277971
 30
0.0
 10
364.7097285786
 20
712.2740678567
 30
0.0
  0
SPLINE
  5
3A0
100
AcDbEntity
  8
0
100
AcDbSpline
 62
7
  6
CONTINUOUS
 70
0
 71
3
 72
9
 73
5
 74
0
 42
0.0000001
 43
0.0000001
 44
0.0000000001
 40
0.0
 40
0.0
 40
0.0
 40
0.0
 40
0.7369999603
 40
1.0
 40
1.0
 40
1.0
 40
1.0
 10
673.8564525825
 20
541.9894923183
 30
0.0
 10
673.8562993764
 20
542.191838246
 30
0.0
 10
673.9231833142
 20
542.4700100558
 30
0.0
 10
674.054827341
 20
542.7109568521
 30
0.0
 10
674.0930392994
 20
542.7722249883
 30
0.0
  0
SPLINE
  5
3A1
100
AcDbEntity
  8
0
100
AcDbSpline
 62
7
  6
CONTINUOUS
 70
0
 71
3
 72
9
 73
5
 74
0
 42
0.0000001
 43
0.0000001
 44
0.0000000001
 40
0.0
 40
0.0
 40
0.0
 40
0.0
 40
0.22812249
 40
1.0
 40
1.0
 40
1.0
 40
1.0
 10
674.0930392994
 20
542.7722249883
 30
0.0
 10
674.1441870967
 20
542.8542341379
 30
0.0
 10
674.3975098725
 20
543.1956752274
 30
0.0
 10
674.7446231047
 20
543.4589396671
 30
0.0
 10
675.0278419489
 20
543.6224551669
 30
0.0
  0
SPLINE
  5
3A2
100
AcDbEntity
  8
0
100
AcDbSpline
 62
7
  6
CONTINUOUS
 70
0
 71
3
 72
9
 73
5
 74
0
 42
0.0000001
 43
0.0000001
 44
0.0000000001
 40
0.0
 40
0.0
 40
0.0
 40
0.0
 40
0.464759004
 40
1.0
 40
1.0
 40
1.0
 40
1.0
 10
664.517674636
 20
536.8864403565
 30
0.0
 10
664.5178638671
 20
536.6187139105
 30
0.0
 10
664.6847031531
 20
536.0378123255
 30
0.0
 10
665.0843368208
 20
535.601603719
 30
0.0
 10
665.3214398813
 20
535.404504042
 30
0.0
  0
SPLINE
  5
3A3
100
AcDbEntity
  8
0
100
AcDbSpline
 62
7
  6
CONTINUOUS
 70
0
 71
3
 72
11
 73
7
 74
0
 42
0.0000001
 43
0.0000001
 44
0.0000000001
 40
0.0
 40
0.0
 40
0.0
 40
0.0
 40
0.2253720354
 40
0.4875920429
 40
0.7566893094
 40
1.0
 40
1.0
 40
1.0
 40
1.0
 10
665.3214398813
 20
535.404504042
 30
0.0
 10
665.7381362521
 20
535.0581115496
 30
0.0
 10
666.8201099057
 20
534.5301205295
 30
0.0
 10
668.6292587678
 20
534.2215462932
 30
0.0
 10
670.5037584543
 20
534.3519011319
 30
0.0
 10
671.6928501018
 20
534.7568576036
 30
0.0
 10
672.1994766474
 20
535.0493568301
 30
0.0
  0
SPLINE
  5
3A4
100
AcDbEntity
  8
0
100
AcDbSpline
 62
7
  6
CONTINUOUS
 70
0
 71
3
 72
9
 73
5
 74
0
 42
0.0000001
 43
0.0000001
 44
0.0000000001
 40
0.0
 40
0.0
 40
0.0
 40
0.0
 40
0.2352217686
 40
1.0
 40
1.0
 40
1.0
 40
1.0
 10
125.7710456752
 20
567.5674510419
 30
0.0
 10
125.7325525598
 20
567.6367528893
 30
0.0
 10
125.5525927889
 20
567.9223075314
 30
0.0
 10
125.3144269464
 20
568.1686353051
 30
0.0
 10
125.1162211197
 20
568.3334003838
 30
0.0
  0
SPLINE
  5
3A5
100
AcDbEntity
  8
0
100
AcDbSpline
 62
7
  6
CONTINUOUS
 70
0
 71
3
 72
9
 73
5
 74
0
 42
0.0000001
 43
0.0000001
 44
0.0000000001
 40
0.0
 40
0.0
 40
0.0
 40
0.0
 40
0.2329006101
 40
1.0
 40
1.0
 40
1.0
 40
1.0
 10
673.5172896846
 20
536.0699376177
 30
0.0
 10
673.5173807342
 20
535.9496844837
 30
0.0
 10
673.4554120808
 20
535.431813305
 30
0.0
 10
673.1344892269
 20
534.9742075001
 30
0.0
 10
672.8448998128
 20
534.7039974793
 30
0.0
  0
SPLINE
  5
3A6
100
AcDbEntity
  8
0
100
AcDbSpline
 62
7
  6
CONTINUOUS
 70
0
 71
3
 72
13
 73
9
 74
0
 42
0.0000001
 43
0.0000001
 44
0.0000000001
 40
0.0
 40
0.0
 40
0.0
 40
0.0
 40
0.2699040481
 40
0.5613092475
 40
0.6954524627
 40
0.8131377821
 40
0.9128550148
 40
1.0
 40
1.0
 40
1.0
 40
1.0
 10
109.3422698062
 20
564.0332181362
 30
0.0
 10
109.9610876952
 20
564.3904906784
 30
0.0
 10
111.4402699063
 20
564.790866406
 30
0.0
 10
113.310520748
 20
564.6960172833
 30
0.0
 10
114.6839066448
 20
564.2385783553
 30
0.0
 10
115.4871225651
 20
563.7490111041
 30
0.0
 10
116.0314968132
 20
563.1302409537
 30
0.0
 10
116.1703622926
 20
562.6309639068
 30
0.0
 10
116.1705369738
 20
562.4002549487
 30
0.0
  0
SPLINE
  5
3A7
100
AcDbEntity
  8
0
100
AcDbSpline
 62
7
  6
CONTINUOUS
 70
0
 71
3
 72
9
 73
5
 74
0
 42
0.0000001
 43
0.0000001
 44
0.0000000001
 40
0.0
 40
0.0
 40
0.0
 40
0.0
 40
0.7369999603
 40
1.0
 40
1.0
 40
1.0
 40
1.0
 10
408.6925136273
 20
388.8979346165
 30
0.0
 10
408.6923604212
 20
389.1002805442
 30
0.0
 10
408.759244359
 20
389.378452354
 30
0.0
 10
408.8908883858
 20
389.6193991503
 30
0.0
 10
408.9291003442
 20
389.6806672864
 30
0.0
  0
SPLINE
  5
3A8
100
AcDbEntity
  8
0
100
AcDbSpline
 62
7
  6
CONTINUOUS
 70
0
 71
3
 72
9
 73
5
 74
0
 42
0.0000001
 43
0.0000001
 44
0.0000000001
 40
0.0
 40
0.0
 40
0.0
 40
0.0
 40
0.22812249
 40
1.0
 40
1.0
 40
1.0
 40
1.0
 10
408.9291003442
 20
389.6806672864
 30
0.0
 10
408.9802481415
 20
389.7626764361
 30
0.0
 10
409.2335709173
 20
390.1041175256
 30
0.0
 10
409.5806841495
 20
390.3673819653
 30
0.0
 10
409.8639029937
 20
390.5308974651
 30
0.0
  0
SPLINE
  5
3A9
100
AcDbEntity
  8
0
100
AcDbSpline
 62
7
  6
CONTINUOUS
 70
0
 71
3
 72
13
 73
9
 74
0
 42
0.0000001
 43
0.0000001
 44
0.0000000001
 40
0.0
 40
0.0
 40
0.0
 40
0.0
 40
0.2699027488
 40
0.5613176751
 40
0.6954478914
 40
0.8131160604
 40
0.9128613649
 40
1.0
 40
1.0
 40
1.0
 40
1.0
 10
390.772087613
 20
381.1412751274
 30
0.0
 10
391.7003119338
 20
381.6771824899
 30
0.0
 10
393.9190906201
 20
382.2777174807
 30
0.0
 10
396.7245682376
 20
382.1356273908
 30
0.0
 10
398.7843713072
 20
381.4491733232
 30
0.0
 10
399.9895241188
 20
380.7151430308
 30
0.0
 10
400.8055140293
 20
379.7867243232
 30
0.0
 10
401.0147434684
 20
379.037884071
 30
0.0
 10
401.0147459638
 20
378.6918450226
 30
0.0
  0
SPLINE
  5
3AA
100
AcDbEntity
  8
0
100
AcDbSpline
 62
7
  6
CONTINUOUS
 70
0
 71
3
 72
9
 73
5
 74
0
 42
0.0000001
 43
0.0000001
 44
0.0000000001
 40
0.0
 40
0.0
 40
0.0
 40
0.0
 40
0.2352217686
 40
1.0
 40
1.0
 40
1.0
 40
1.0
 10
673.7790218875
 20
536.9505842257
 30
0.0
 10
673.7405287721
 20
537.0198860732
 30
0.0
 10
673.5605690012
 20
537.3054407153
 30
0.0
 10
673.3224031587
 20
537.551768489
 30
0.0
 10
673.124197332
 20
537.7165335677
 30
0.0
  0
SPLINE
  5
3AB
100
AcDbEntity
  8
0
100
AcDbSpline
 62
7
  6
CONTINUOUS
 70
0
 71
3
 72
9
 73
5
 74
0
 42
0.0000001
 43
0.0000001
 44
0.0000000001
 40
0.0
 40
0.0
 40
0.0
 40
0.0
 40
0.5000005437
 40
1.0
 40
1.0
 40
1.0
 40
1.0
 10
383.701037465
 20
378.6918034054
 30
0.0
 10
384.1207983314
 20
378.4494598388
 30
0.0
 10
385.1152524117
 20
378.2578034733
 30
0.0
 10
386.1097063839
 20
378.4494641376
 30
0.0
 10
386.5294645897
 20
378.6918102041
 30
0.0
  0
SPLINE
  5
3AC
100
AcDbEntity
  8
0
100
AcDbSpline
 62
7
  6
CONTINUOUS
 70
0
 71
3
 72
9
 73
5
 74
0
 42
0.0000001
 43
0.0000001
 44
0.0000000001
 40
0.0
 40
0.0
 40
0.0
 40
0.0
 40
0.2244140465
 40
1.0
 40
1.0
 40
1.0
 40
1.0
 10
664.050465342
 20
537.217286244
 30
0.0
 10
664.0795285016
 20
537.3627297291
 30
0.0
 10
664.2938651173
 20
537.9954400364
 30
0.0
 10
664.805592105
 20
538.4863071259
 30
0.0
 10
665.2313617661
 20
538.7717471855
 30
0.0
  0
SPLINE
  5
3AD
100
AcDbEntity
  8
0
100
AcDbSpline
 62
7
  6
CONTINUOUS
 70
0
 71
3
 72
9
 73
5
 74
0
 42
0.0000001
 43
0.0000001
 44
0.0000000001
 40
0.0
 40
0.0
 40
0.0
 40
0.0
 40
0.504580016
 40
1.0
 40
1.0
 40
1.0
 40
1.0
 10
418.4444363621
 20
396.2716956043
 30
0.0
 10
419.4573581024
 20
396.730081579
 30
0.0
 10
421.7038398823
 20
397.0867904669
 30
0.0
 10
423.9444697031
 20
396.6397065801
 30
0.0
 10
424.9092605666
 20
396.1289881281
 30
0.0
  0
SPLINE
  5
3AE
100
AcDbEntity
  8
0
100
AcDbSpline
 62
7
  6
CONTINUOUS
 70
0
 71
3
 72
9
 73
5
 74
0
 42
0.0000001
 43
0.0000001
 44
0.0000000001
 40
0.0
 40
0.0
 40
0.0
 40
0.0
 40
0.5512978753
 40
1.0
 40
1.0
 40
1.0
 40
1.0
 10
424.9092605666
 20
396.1289881281
 30
0.0
 10
425.3266113994
 20
395.9080606927
 30
0.0
 10
426.0457917674
 20
395.4058396761
 30
0.0
 10
426.4673571935
 20
394.597690701
 30
0.0
 10
426.5168560948
 20
394.2165518987
 30
0.0
  0
SPLINE
  5
3AF
100
AcDbEntity
  8
0
100
AcDbSpline
 62
7
  6
CONTINUOUS
 70
0
 71
3
 72
9
 73
5
 74
0
 42
0.0000001
 43
0.0000001
 44
0.0000000001
 40
0.0
 40
0.0
 40
0.0
 40
0.0
 40
0.7369999603
 40
1.0
 40
1.0
 40
1.0
 40
1.0
 10
108.1708804398
 20
562.4002552876
 30
0.0
 10
108.1707272337
 20
562.6026012153
 30
0.0
 10
108.2376111716
 20
562.8807730252
 30
0.0
 10
108.3692551984
 20
563.1217198214
 30
0.0
 10
108.4074671567
 20
563.1829879576
 30
0.0
  0
SPLINE
  5
3B0
100
AcDbEntity
  8
0
100
AcDbSpline
 62
7
  6
CONTINUOUS
 70
0
 71
3
 72
9
 73
5
 74
0
 42
0.0000001
 43
0.0000001
 44
0.0000000001
 40
0.0
 40
0.0
 40
0.0
 40
0.0
 40
0.22812249
 40
1.0
 40
1.0
 40
1.0
 40
1.0
 10
108.4074671567
 20
563.1829879576
 30
0.0
 10
108.4586149541
 20
563.2649971072
 30
0.0
 10
108.7119377299
 20
563.6064381967
 30
0.0
 10
109.0590509621
 20
563.8697026364
 30
0.0
 10
109.3422698062
 20
564.0332181362
 30
0.0
  0
SPLINE
  5
3B1
100
AcDbEntity
  8
0
100
AcDbSpline
 62
7
  6
CONTINUOUS
 70
0
 71
3
 72
9
 73
5
 74
0
 42
0.0000001
 43
0.0000001
 44
0.0000000001
 40
0.0
 40
0.0
 40
0.0
 40
0.0
 40
0.464759004
 40
1.0
 40
1.0
 40
1.0
 40
1.0
 10
417.0313316111
 20
394.0009865015
 30
0.0
 10
417.0315208423
 20
393.7332600555
 30
0.0
 10
417.1983601282
 20
393.1523584705
 30
0.0
 10
417.597993796
 20
392.7161498639
 30
0.0
 10
417.8350968564
 20
392.519050187
 30
0.0
  0
SPLINE
  5
3B2
100
AcDbEntity
  8
0
100
AcDbSpline
 62
7
  6
CONTINUOUS
 70
0
 71
3
 72
11
 73
7
 74
0
 42
0.0000001
 43
0.0000001
 44
0.0000000001
 40
0.0
 40
0.0
 40
0.0
 40
0.0
 40
0.2253720354
 40
0.4875920429
 40
0.7566893094
 40
1.0
 40
1.0
 40
1.0
 40
1.0
 10
417.8350968564
 20
392.519050187
 30
0.0
 10
418.2517932273
 20
392.1726576945
 30
0.0
 10
419.3337668808
 20
391.6446666745
 30
0.0
 10
421.142915743
 20
391.3360924381
 30
0.0
 10
423.0174154294
 20
391.4664472768
 30
0.0
 10
424.2065070769
 20
391.8714037485
 30
0.0
 10
424.7131336226
 20
392.1639029751
 30
0.0
  0
SPLINE
  5
3B3
100
AcDbEntity
  8
0
100
AcDbSpline
 62
7
  6
CONTINUOUS
 70
0
 71
3
 72
9
 73
5
 74
0
 42
0.0000001
 43
0.0000001
 44
0.0000000001
 40
0.0
 40
0.0
 40
0.0
 40
0.0
 40
0.4999996218
 40
1.0
 40
1.0
 40
1.0
 40
1.0
 10
376.9835215718
 20
378.8959084856
 30
0.0
 10
377.9279718721
 20
379.4411838658
 30
0.0
 10
380.165499406
 20
379.8722490622
 30
0.0
 10
382.4030269412
 20
379.4411931773
 30
0.0
 10
383.3474826024
 20
378.8959237827
 30
0.0
  0
SPLINE
  5
3B4
100
AcDbEntity
  8
0
100
AcDbSpline
 62
7
  6
CONTINUOUS
 70
0
 71
3
 72
9
 73
5
 74
0
 42
0.0000001
 43
0.0000001
 44
0.0000000001
 40
0.0
 40
0.0
 40
0.0
 40
0.0
 40
0.2395105507
 40
1.0
 40
1.0
 40
1.0
 40
1.0
 10
693.8624938695
 20
560.7686943308
 30
0.0
 10
693.8624938898
 20
560.860006717
 30
0.0
 10
693.8966487557
 20
561.241606362
 30
0.0
 10
694.0771033156
 20
561.6007153251
 30
0.0
 10
694.2547206036
 20
561.8298735034
 30
0.0
  0
SPLINE
  5
3B5
100
AcDbEntity
  8
0
100
AcDbSpline
 62
7
  6
CONTINUOUS
 70
0
 71
3
 72
9
 73
5
 74
0
 42
0.0000001
 43
0.0000001
 44
0.0000000001
 40
0.0
 40
0.0
 40
0.0
 40
0.0
 40
0.2316902968
 40
1.0
 40
1.0
 40
1.0
 40
1.0
 10
694.2547206036
 20
561.8298735034
 30
0.0
 10
694.3120701393
 20
561.9038646969
 30
0.0
 10
694.5792674748
 20
562.2079742734
 30
0.0
 10
694.9114028874
 20
562.4505606725
 30
0.0
 10
695.1802483181
 20
562.6057777278
 30
0.0
  0
SPLINE
  5
3B6
100
AcDbEntity
  8
0
100
AcDbSpline
 62
7
  6
CONTINUOUS
 70
0
 71
3
 72
8
 73
4
 74
0
 42
0.0000001
 43
0.0000001
 44
0.0000000001
 40
0.0
 40
0.0
 40
0.0
 40
0.0
 40
1.0
 40
1.0
 40
1.0
 40
1.0
 10
416.7783767897
 20
394.0809704206
 30
0.0
 10
416.7036084593
 20
393.948768024
 30
0.0
 10
416.6423446203
 20
393.807556936
 30
0.0
 10
416.5999762251
 20
393.6617053128
 30
0.0
  0
SPLINE
  5
3B7
100
AcDbEntity
  8
0
100
AcDbSpline
 62
7
  6
CONTINUOUS
 70
0
 71
3
 72
9
 73
5
 74
0
 42
0.0000001
 43
0.0000001
 44
0.0000000001
 40
0.0
 40
0.0
 40
0.0
 40
0.0
 40
0.4818770572
 40
1.0
 40
1.0
 40
1.0
 40
1.0
 10
665.6963579738
 20
539.0442514167
 30
0.0
 10
666.3930301983
 20
539.4011519539
 30
0.0
 10
667.9976845758
 20
539.8300288023
 30
0.0
 10
669.6447101245
 20
539.7937875494
 30
0.0
 10
670.473631363
 20
539.6479682496
 30
0.0
  0
SPLINE
  5
3B8
100
AcDbEntity
  8
0
100
AcDbSpline
 62
7
  6
CONTINUOUS
 70
0
 71
3
 72
9
 73
5
 74
0
 42
0.0000001
 43
0.0000001
 44
0.0000000001
 40
0.0
 40
0.0
 40
0.0
 40
0.0
 40
0.26857019
 40
1.0
 40
1.0
 40
1.0
 40
1.0
 10
670.473631363
 20
539.6479682496
 30
0.0
 10
670.6882077796
 20
539.6102211376
 30
0.0
 10
671.4799847673
 20
539.4369272565
 30
0.0
 10
672.2505611494
 20
539.130095883
 30
0.0
 10
672.7487516356
 20
538.8077968298
 30
0.0
  0
SPLINE
  5
3B9
100
AcDbEntity
  8
0
100
AcDbSpline
 62
7
  6
CONTINUOUS
 70
0
 71
3
 72
9
 73
5
 74
0
 42
0.0000001
 43
0.0000001
 44
0.0000000001
 40
0.0
 40
0.0
 40
0.0
 40
0.0
 40
0.5433454372
 40
1.0
 40
1.0
 40
1.0
 40
1.0
 10
672.7487516356
 20
538.8077968298
 30
0.0
 10
673.0784131587
 20
538.5945258025
 30
0.0
 10
673.644024506
 20
538.1191739033
 30
0.0
 10
673.9607000116
 20
537.4292465354
 30
0.0
 10
674.0031991197
 20
537.1020057537
 30
0.0
  0
SPLINE
  5
3BA
100
AcDbEntity
  8
0
100
AcDbSpline
 62
7
  6
CONTINUOUS
 70
0
 71
3
 72
9
 73
5
 74
0
 42
0.0000001
 43
0.0000001
 44
0.0000000001
 40
0.0
 40
0.0
 40
0.0
 40
0.0
 40
0.2615192625
 40
1.0
 40
1.0
 40
1.0
 40
1.0
 10
94.8467147425
 20
545.458151627
 30
0.0
 10
94.9074355899
 20
545.4230952225
 30
0.0
 10
95.1361483835
 20
545.2832438001
 30
0.0
 10
95.3507938088
 20
545.1194605252
 30
0.0
 10
95.4953620102
 20
544.9841847767
 30
0.0
  0
SPLINE
  5
3BB
100
AcDbEntity
  8
0
100
AcDbSpline
 62
7
  6
CONTINUOUS
 70
0
 71
3
 72
8
 73
4
 74
0
 42
0.0000001
 43
0.0000001
 44
0.0000000001
 40
0.0
 40
0.0
 40
0.0
 40
0.0
 40
1.0
 40
1.0
 40
1.0
 40
1.0
 10
95.4953620102
 20
544.9841847767
 30
0.0
 10
95.5950842216
 20
544.8908724395
 30
0.0
 10
95.6886135545
 20
544.7901639969
 30
0.0
 10
95.772278346
 20
544.6822199633
 30
0.0
  0
SPLINE
  5
3BC
100
AcDbEntity
  8
0
100
AcDbSpline
 62
7
  6
CONTINUOUS
 70
0
 71
3
 72
9
 73
5
 74
0
 42
0.0000001
 43
0.0000001
 44
0.0000000001
 40
0.0
 40
0.0
 40
0.0
 40
0.0
 40
0.2628667648
 40
1.0
 40
1.0
 40
1.0
 40
1.0
 10
95.772278346
 20
544.6822199633
 30
0.0
 10
95.8120197256
 20
544.6309457685
 30
0.0
 10
95.9549102106
 20
544.429788027
 30
0.0
 10
96.0617688124
 20
544.2016218182
 30
0.0
 10
96.1096732943
 20
544.0261269907
 30
0.0
  0
SPLINE
  5
3BD
100
AcDbEntity
  8
0
100
AcDbSpline
 62
7
  6
CONTINUOUS
 70
0
 71
3
 72
8
 73
4
 74
0
 42
0.0000001
 43
0.0000001
 44
0.0000000001
 40
0.0
 40
0.0
 40
0.0
 40
0.0
 40
1.0
 40
1.0
 40
1.0
 40
1.0
 10
96.1096732943
 20
544.0261269907
 30
0.0
 10
96.1455539925
 20
543.8946804812
 30
0.0
 10
96.164495717
 20
543.7573086127
 30
0.0
 10
96.1644956867
 20
543.6210529363
 30
0.0
  0
SPLINE
  5
3BE
100
AcDbEntity
  8
0
100
AcDbSpline
 62
7
  6
CONTINUOUS
 70
0
 71
3
 72
9
 73
5
 74
0
 42
0.0000001
 43
0.0000001
 44
0.0000000001
 40
0.0
 40
0.0
 40
0.0
 40
0.0
 40
0.2644335706
 40
1.0
 40
1.0
 40
1.0
 40
1.0
 10
417.3322128652
 20
392.2504294818
 30
0.0
 10
417.2837764879
 20
392.3229407007
 30
0.0
 10
417.1171311193
 20
392.6075075951
 30
0.0
 10
417.0315167157
 20
392.9419208484
 30
0.0
 10
417.0313330591
 20
393.1844841439
 30
0.0
  0
SPLINE
  5
3BF
100
AcDbEntity
  8
0
100
AcDbSpline
 62
7
  6
CONTINUOUS
 70
0
 71
3
 72
9
 73
5
 74
0
 42
0.0000001
 43
0.0000001
 44
0.0000000001
 40
0.0
 40
0.0
 40
0.0
 40
0.0
 40
0.2890626939
 40
1.0
 40
1.0
 40
1.0
 40
1.0
 10
424.7752385148
 20
392.2004865475
 30
0.0
 10
424.9436320758
 20
392.3016899397
 30
0.0
 10
425.4980637969
 20
392.6854698478
 30
0.0
 10
425.9431653236
 20
393.2996588461
 30
0.0
 10
426.0144309904
 20
393.7775719299
 30
0.0
  0
SPLINE
  5
3C0
100
AcDbEntity
  8
0
100
AcDbSpline
 62
7
  6
CONTINUOUS
 70
0
 71
3
 72
9
 73
5
 74
0
 42
0.0000001
 43
0.0000001
 44
0.0000000001
 40
0.0
 40
0.0
 40
0.0
 40
0.0
 40
0.2373994
 40
1.0
 40
1.0
 40
1.0
 40
1.0
 10
426.0309466598
 20
393.1844837627
 30
0.0
 10
426.0310228358
 20
393.0838747668
 30
0.0
 10
425.9889080249
 20
392.6594541904
 30
0.0
 10
425.7678132256
 20
392.2668232312
 30
0.0
 10
425.5560306134
 20
392.0226957197
 30
0.0
  0
SPLINE
  5
3C1
100
AcDbEntity
  8
0
100
AcDbSpline
 62
7
  6
CONTINUOUS
 70
0
 71
3
 72
9
 73
5
 74
0
 42
0.0000001
 43
0.0000001
 44
0.0000000001
 40
0.0
 40
0.0
 40
0.0
 40
0.0
 40
0.4818770572
 40
1.0
 40
1.0
 40
1.0
 40
1.0
 10
365.1747247864
 20
712.5465720879
 30
0.0
 10
365.8713970108
 20
712.903472625
 30
0.0
 10
367.4760513883
 20
713.3323494734
 30
0.0
 10
369.123076937
 20
713.2961082205
 30
0.0
 10
369.9519981756
 20
713.1502889207
 30
0.0
  0
SPLINE
  5
3C2
100
AcDbEntity
  8
0
100
AcDbSpline
 62
7
  6
CONTINUOUS
 70
0
 71
3
 72
9
 73
5
 74
0
 42
0.0000001
 43
0.0000001
 44
0.0000000001
 40
0.0
 40
0.0
 40
0.0
 40
0.0
 40
0.26857019
 40
1.0
 40
1.0
 40
1.0
 40
1.0
 10
369.9519981756
 20
713.1502889207
 30
0.0
 10
370.1665745921
 20
713.1125418087
 30
0.0
 10
370.9583515798
 20
712.9392479276
 30
0.0
 10
371.7289279619
 20
712.6324165541
 30
0.0
 10
372.2271184481
 20
712.3101175009
 30
0.0
  0
SPLINE
  5
3C3
100
AcDbEntity
  8
0
100
AcDbSpline
 62
7
  6
CONTINUOUS
 70
0
 71
3
 72
9
 73
5
 74
0
 42
0.0000001
 43
0.0000001
 44
0.0000000001
 40
0.0
 40
0.0
 40
0.0
 40
0.0
 40
0.5433454372
 40
1.0
 40
1.0
 40
1.0
 40
1.0
 10
372.2271184481
 20
712.3101175009
 30
0.0
 10
372.5567799712
 20
712.0968464736
 30
0.0
 10
373.1223913185
 20
711.6214945745
 30
0.0
 10
373.4390668241
 20
710.9315672065
 30
0.0
 10
373.4815659322
 20
710.6043264248
 30
0.0
  0
SPLINE
  5
3C4
100
AcDbEntity
  8
0
100
AcDbSpline
 62
7
  6
CONTINUOUS
 70
0
 71
3
 72
9
 73
5
 74
0
 42
0.0000001
 43
0.0000001
 44
0.0000000001
 40
0.0
 40
0.0
 40
0.0
 40
0.0
 40
0.2929571474
 40
1.0
 40
1.0
 40
1.0
 40
1.0
 10
99.0892229511
 20
563.8290722638
 30
0.0
 10
99.1940285721
 20
563.7685640792
 30
0.0
 10
99.5337426532
 20
563.5409641846
 30
0.0
 10
99.8018833969
 20
563.1509848556
 30
0.0
 10
99.8198378495
 20
562.8594630751
 30
0.0
  0
SPLINE
  5
3C5
100
AcDbEntity
  8
0
100
AcDbSpline
 62
7
  6
CONTINUOUS
 70
0
 71
3
 72
9
 73
5
 74
0
 42
0.0000001
 43
0.0000001
 44
0.0000000001
 40
0.0
 40
0.0
 40
0.0
 40
0.0
 40
0.2208236383
 40
1.0
 40
1.0
 40
1.0
 40
1.0
 10
116.0424891297
 20
567.8341530601
 30
0.0
 10
116.075254198
 20
567.9981223531
 30
0.0
 10
116.3342097887
 20
568.7207483438
 30
0.0
 10
116.962999082
 20
569.2495102795
 30
0.0
 10
117.4739580462
 20
569.5445108142
 30
0.0
  0
SPLINE
  5
3C6
100
AcDbEntity
  8
0
100
AcDbSpline
 62
7
  6
CONTINUOUS
 70
0
 71
3
 72
9
 73
5
 74
0
 42
0.0000001
 43
0.0000001
 44
0.0000000001
 40
0.0
 40
0.0
 40
0.0
 40
0.0
 40
0.504580016
 40
1.0
 40
1.0
 40
1.0
 40
1.0
 10
117.9228031746
 20
569.7740162754
 30
0.0
 10
118.9357249149
 20
570.2324022501
 30
0.0
 10
121.1822066949
 20
570.589111138
 30
0.0
 10
123.4228365156
 20
570.1420272512
 30
0.0
 10
124.3876273792
 20
569.6313087993
 30
0.0
  0
SPLINE
  5
3C7
100
AcDbEntity
  8
0
100
AcDbSpline
 62
7
  6
CONTINUOUS
 70
0
 71
3
 72
9
 73
5
 74
0
 42
0.0000001
 43
0.0000001
 44
0.0000000001
 40
0.0
 40
0.0
 40
0.0
 40
0.0
 40
0.5512978753
 40
1.0
 40
1.0
 40
1.0
 40
1.0
 10
124.3876273792
 20
569.6313087993
 30
0.0
 10
124.8049782119
 20
569.4103813638
 30
0.0
 10
125.5241585799
 20
568.9081603472
 30
0.0
 10
125.945724006
 20
568.1000113722
 30
0.0
 10
125.9952229074
 20
567.7188725698
 30
0.0
  0
SPLINE
  5
3C8
100
AcDbEntity
  8
0
100
AcDbSpline
 62
7
  6
CONTINUOUS
 70
0
 71
3
 72
9
 73
5
 74
0
 42
0.0000001
 43
0.0000001
 44
0.0000000001
 40
0.0
 40
0.0
 40
0.0
 40
0.0
 40
0.2389407833
 40
1.0
 40
1.0
 40
1.0
 40
1.0
 10
689.5341877858
 20
552.1955971838
 30
0.0
 10
689.5341214671
 20
552.3205339573
 30
0.0
 10
689.5822073086
 20
552.8439800009
 30
0.0
 10
689.8363179966
 20
553.3345135387
 30
0.0
 10
690.0846815038
 20
553.6454355249
 30
0.0
  0
SPLINE
  5
3C9
100
AcDbEntity
  8
0
100
AcDbSpline
 62
7
  6
CONTINUOUS
 70
0
 71
3
 72
8
 73
4
 74
0
 42
0.0000001
 43
0.0000001
 44
0.0000000001
 40
0.0
 40
0.0
 40
0.0
 40
0.0
 40
1.0
 40
1.0
 40
1.0
 40
1.0
 10
690.0846815038
 20
553.6454355249
 30
0.0
 10
690.2104992062
 20
553.802944534
 30
0.0
 10
690.3519709446
 20
553.9486189048
 30
0.0
 10
690.5026893514
 20
554.0824962519
 30
0.0
  0
SPLINE
  5
3CA
100
AcDbEntity
  8
0
100
AcDbSpline
 62
7
  6
CONTINUOUS
 70
0
 71
3
 72
9
 73
5
 74
0
 42
0.0000001
 43
0.0000001
 44
0.0000000001
 40
0.0
 40
0.0
 40
0.0
 40
0.0
 40
0.2400138278
 40
1.0
 40
1.0
 40
1.0
 40
1.0
 10
690.5026893514
 20
554.0824962519
 30
0.0
 10
690.5606843282
 20
554.1340109528
 30
0.0
 10
690.8084499322
 20
554.3417049349
 30
0.0
 10
691.0785038426
 20
554.5222304321
 30
0.0
 10
691.2912184289
 20
554.6450405228
 30
0.0
  0
SPLINE
  5
3CB
100
AcDbEntity
  8
0
100
AcDbSpline
 62
7
  6
CONTINUOUS
 70
0
 71
3
 72
9
 73
5
 74
0
 42
0.0000001
 43
0.0000001
 44
0.0000000001
 40
0.0
 40
0.0
 40
0.0
 40
0.0
 40
0.2204981956
 40
1.0
 40
1.0
 40
1.0
 40
1.0
 10
690.2071506811
 20
541.6322698607
 30
0.0
 10
690.2127741574
 20
541.7236066312
 30
0.0
 10
690.3087024526
 20
542.1357211588
 30
0.0
 10
690.6575890019
 20
542.4401361235
 30
0.0
 10
690.9377518853
 20
542.6018872741
 30
0.0
  0
SPLINE
  5
3CC
100
AcDbEntity
  8
0
100
AcDbSpline
 62
7
  6
CONTINUOUS
 70
0
 71
3
 72
9
 73
5
 74
0
 42
0.0000001
 43
0.0000001
 44
0.0000000001
 40
0.0
 40
0.0
 40
0.0
 40
0.0
 40
0.464759004
 40
1.0
 40
1.0
 40
1.0
 40
1.0
 10
116.5096984237
 20
567.5033071726
 30
0.0
 10
116.5098876548
 20
567.2355807266
 30
0.0
 10
116.6767269408
 20
566.6546791416
 30
0.0
 10
117.0763606085
 20
566.2184705351
 30
0.0
 10
117.313463669
 20
566.0213708581
 30
0.0
  0
SPLINE
  5
3CD
100
AcDbEntity
  8
0
100
AcDbSpline
 62
7
  6
CONTINUOUS
 70
0
 71
3
 72
11
 73
7
 74
0
 42
0.0000001
 43
0.0000001
 44
0.0000000001
 40
0.0
 40
0.0
 40
0.0
 40
0.0
 40
0.2253720354
 40
0.4875920429
 40
0.7566893094
 40
1.0
 40
1.0
 40
1.0
 40
1.0
 10
117.313463669
 20
566.0213708581
 30
0.0
 10
117.7301600398
 20
565.6749783657
 30
0.0
 10
118.8121336934
 20
565.1469873457
 30
0.0
 10
120.6212825555
 20
564.8384131093
 30
0.0
 10
122.495782242
 20
564.968767948
 30
0.0
 10
123.6848738894
 20
565.3737244197
 30
0.0
 10
124.1915004351
 20
565.6662236462
 30
0.0
  0
SPLINE
  5
3CE
100
AcDbEntity
  8
0
100
AcDbSpline
 62
7
  6
CONTINUOUS
 70
0
 71
3
 72
8
 73
4
 74
0
 42
0.0000001
 43
0.0000001
 44
0.0000000001
 40
0.0
 40
0.0
 40
0.0
 40
0.0
 40
1.0
 40
1.0
 40
1.0
 40
1.0
 10
664.2647198145
 20
536.9664242757
 30
0.0
 10
664.1899514841
 20
536.834221879
 30
0.0
 10
664.1286876451
 20
536.693010791
 30
0.0
 10
664.08631925
 20
536.5471591678
 30
0.0
  0
SPLINE
  5
3CF
100
AcDbEntity
  8
0
100
AcDbSpline
 62
7
  6
CONTINUOUS
 70
0
 71
3
 72
9
 73
5
 74
0
 42
0.0000001
 43
0.0000001
 44
0.0000000001
 40
0.0
 40
0.0
 40
0.0
 40
0.0
 40
0.2644335706
 40
1.0
 40
1.0
 40
1.0
 40
1.0
 10
664.81855589
 20
535.1358833368
 30
0.0
 10
664.7701195127
 20
535.2083945557
 30
0.0
 10
664.6034741441
 20
535.4929614502
 30
0.0
 10
664.5178597406
 20
535.8273747034
 30
0.0
 10
664.5176760839
 20
536.0699379989
 30
0.0
  0
SPLINE
  5
3D0
100
AcDbEntity
  8
0
100
AcDbSpline
 62
7
  6
CONTINUOUS
 70
0
 71
3
 72
9
 73
5
 74
0
 42
0.0000001
 43
0.0000001
 44
0.0000000001
 40
0.0
 40
0.0
 40
0.0
 40
0.0
 40
0.2890626939
 40
1.0
 40
1.0
 40
1.0
 40
1.0
 10
672.2615815397
 20
535.0859404025
 30
0.0
 10
672.4299751006
 20
535.1871437947
 30
0.0
 10
672.9844068217
 20
535.5709237028
 30
0.0
 10
673.4295083484
 20
536.1851127012
 30
0.0
 10
673.5007740153
 20
536.6630257849
 30
0.0
  0
SPLINE
  5
3D1
100
AcDbEntity
  8
0
100
AcDbSpline
 62
7
  6
CONTINUOUS
 70
0
 71
3
 72
9
 73
5
 74
0
 42
0.0000001
 43
0.0000001
 44
0.0000000001
 40
0.0
 40
0.0
 40
0.0
 40
0.0
 40
0.464759004
 40
1.0
 40
1.0
 40
1.0
 40
1.0
 10
363.9960414485
 20
710.3887610277
 30
0.0
 10
363.9962306797
 20
710.1210345816
 30
0.0
 10
364.1630699656
 20
709.5401329966
 30
0.0
 10
364.5627036334
 20
709.1039243901
 30
0.0
 10
364.7998066938
 20
708.9068247132
 30
0.0
  0
SPLINE
  5
3D2
100
AcDbEntity
  8
0
100
AcDbSpline
 62
7
  6
CONTINUOUS
 70
0
 71
3
 72
11
 73
7
 74
0
 42
0.0000001
 43
0.0000001
 44
0.0000000001
 40
0.0
 40
0.0
 40
0.0
 40
0.0
 40
0.2253720354
 40
0.4875920429
 40
0.7566893094
 40
1.0
 40
1.0
 40
1.0
 40
1.0
 10
364.7998066938
 20
708.9068247132
 30
0.0
 10
365.2165030647
 20
708.5604322207
 30
0.0
 10
366.2984767182
 20
708.0324412007
 30
0.0
 10
368.1076255804
 20
707.7238669643
 30
0.0
 10
369.9821252668
 20
707.854221803
 30
0.0
 10
371.1712169143
 20
708.2591782747
 30
0.0
 10
371.67784346
 20
708.5516775012
 30
0.0
  0
SPLINE
  5
3D3
100
AcDbEntity
  8
0
100
AcDbSpline
 62
7
  6
CONTINUOUS
 70
0
 71
3
 72
11
 73
7
 74
0
 42
0.0000001
 43
0.0000001
 44
0.0000000001
 40
0.0
 40
0.0
 40
0.0
 40
0.0
 40
0.3074717108
 40
0.5849044887
 40
0.8135219082
 40
1.0
 40
1.0
 40
1.0
 40
1.0
 10
94.4930877962
 20
555.6582033641
 30
0.0
 10
95.2636433885
 20
555.6582052163
 30
0.0
 10
96.736719073
 20
555.4988353248
 30
0.0
 10
98.6712337328
 20
554.7928769904
 30
0.0
 10
100.0825510277
 20
553.7043895548
 30
0.0
 10
100.4925537018
 20
552.6614832107
 30
0.0
 10
100.4928017705
 20
552.1941500832
 30
0.0
  0
SPLINE
  5
3D4
100
AcDbEntity
  8
0
100
AcDbSpline
 62
7
  6
CONTINUOUS
 70
0
 71
3
 72
13
 73
9
 74
0
 42
0.0000001
 43
0.0000001
 44
0.0000000001
 40
0.0
 40
0.0
 40
0.0
 40
0.0
 40
0.2699040481
 40
0.5613092475
 40
0.6954524627
 40
0.8131377821
 40
0.9128550148
 40
1.0
 40
1.0
 40
1.0
 40
1.0
 10
374.5062087614
 20
717.1247758381
 30
0.0
 10
375.1250266504
 20
717.4820483802
 30
0.0
 10
376.6042088615
 20
717.8824241079
 30
0.0
 10
378.4744597032
 20
717.7875749852
 30
0.0
 10
379.8478456
 20
717.3301360571
 30
0.0
 10
380.6510615203
 20
716.8405688059
 30
0.0
 10
381.1954357684
 20
716.2217986555
 30
0.0
 10
381.3343012478
 20
715.7225216086
 30
0.0
 10
381.334475929
 20
715.4918126505
 30
0.0
  0
SPLINE
  5
3D5
100
AcDbEntity
  8
0
100
AcDbSpline
 62
7
  6
CONTINUOUS
 70
0
 71
3
 72
9
 73
5
 74
0
 42
0.0000001
 43
0.0000001
 44
0.0000000001
 40
0.0
 40
0.0
 40
0.0
 40
0.0
 40
0.2329006101
 40
1.0
 40
1.0
 40
1.0
 40
1.0
 10
372.9956564972
 20
709.5722582888
 30
0.0
 10
372.9957475468
 20
709.4520051548
 30
0.0
 10
372.9337788933
 20
708.9341339762
 30
0.0
 10
372.6128560394
 20
708.4765281712
 30
0.0
 10
372.3232666253
 20
708.2063181504
 30
0.0
  0
SPLINE
  5
3D6
100
AcDbEntity
  8
0
100
AcDbSpline
 62
7
  6
CONTINUOUS
 70
0
 71
3
 72
8
 73
4
 74
0
 42
0.0000001
 43
0.0000001
 44
0.0000000001
 40
0.0
 40
0.0
 40
0.0
 40
0.0
 40
1.0
 40
1.0
 40
1.0
 40
1.0
 10
363.7430866271
 20
710.4687449468
 30
0.0
 10
363.6683182967
 20
710.3365425502
 30
0.0
 10
363.6070544577
 20
710.1953314621
 30
0.0
 10
363.5646860625
 20
710.0494798389
 30
0.0
  0
SPLINE
  5
3D7
100
AcDbEntity
  8
0
100
AcDbSpline
 62
7
  6
CONTINUOUS
 70
0
 71
3
 72
9
 73
5
 74
0
 42
0.0000001
 43
0.0000001
 44
0.0000000001
 40
0.0
 40
0.0
 40
0.0
 40
0.0
 40
0.2352217686
 40
1.0
 40
1.0
 40
1.0
 40
1.0
 10
426.2926788626
 20
394.0651303707
 30
0.0
 10
426.2541857473
 20
394.1344322182
 30
0.0
 10
426.0742259763
 20
394.4199868603
 30
0.0
 10
425.8360601338
 20
394.666314634
 30
0.0
 10
425.6378543072
 20
394.8310797127
 30
0.0
  0
SPLINE
  5
3D8
100
AcDbEntity
  8
0
100
AcDbSpline
 62
7
  6
CONTINUOUS
 70
0
 71
3
 72
9
 73
5
 74
0
 42
0.0000001
 43
0.0000001
 44
0.0000000001
 40
0.0
 40
0.0
 40
0.0
 40
0.0
 40
0.2644335706
 40
1.0
 40
1.0
 40
1.0
 40
1.0
 10
364.2969227025
 20
708.6382040079
 30
0.0
 10
364.2484863252
 20
708.7107152268
 30
0.0
 10
364.0818409566
 20
708.9952821213
 30
0.0
 10
363.9962265531
 20
709.3296953745
 30
0.0
 10
363.9960428965
 20
709.5722586701
 30
0.0
  0
SPLINE
  5
3D9
100
AcDbEntity
  8
0
100
AcDbSpline
 62
7
  6
CONTINUOUS
 70
0
 71
3
 72
9
 73
5
 74
0
 42
0.0000001
 43
0.0000001
 44
0.0000000001
 40
0.0
 40
0.0
 40
0.0
 40
0.0
 40
0.2890626939
 40
1.0
 40
1.0
 40
1.0
 40
1.0
 10
371.7399483522
 20
708.5882610736
 30
0.0
 10
371.9083419131
 20
708.6894644659
 30
0.0
 10
372.4627736342
 20
709.0732443739
 30
0.0
 10
372.907875161
 20
709.6874333723
 30
0.0
 10
372.9791408278
 20
710.1653464561
 30
0.0
  0
SPLINE
  5
3DA
100
AcDbEntity
  8
0
100
AcDbSpline
 62
7
  6
CONTINUOUS
 70
0
 71
3
 72
9
 73
5
 74
0
 42
0.0000001
 43
0.0000001
 44
0.0000000001
 40
0.0
 40
0.0
 40
0.0
 40
0.0
 40
0.2373994
 40
1.0
 40
1.0
 40
1.0
 40
1.0
 10
125.5093134723
 20
566.6868044338
 30
0.0
 10
125.5093896484
 20
566.5861954379
 30
0.0
 10
125.4672748374
 20
566.1617748616
 30
0.0
 10
125.2461800382
 20
565.7691439024
 30
0.0
 10
125.0343974259
 20
565.5250163909
 30
0.0
  0
SPLINE
  5
3DB
100
AcDbEntity
  8
0
100
AcDbSpline
 62
7
  6
CONTINUOUS
 70
0
 71
3
 72
13
 73
9
 74
0
 42
0.0000001
 43
0.0000001
 44
0.0000000001
 40
0.0
 40
0.0
 40
0.0
 40
0.0
 40
0.2699040481
 40
0.5613092475
 40
0.6954524627
 40
0.8131377821
 40
0.9128550148
 40
1.0
 40
1.0
 40
1.0
 40
1.0
 10
675.0278419489
 20
543.6224551669
 30
0.0
 10
675.6466598379
 20
543.9797277091
 30
0.0
 10
677.125842049
 20
544.3801034367
 30
0.0
 10
678.9960928907
 20
544.285254314
 30
0.0
 10
680.3694787875
 20
543.827815386
 30
0.0
 10
681.1726947077
 20
543.3382481348
 30
0.0
 10
681.7170689559
 20
542.7194779844
 30
0.0
 10
681.8559344353
 20
542.2202009375
 30
0.0
 10
681.8561091164
 20
541.9894919794
 30
0.0
  0
SPLINE
  5
3DC
100
AcDbEntity
  8
0
100
AcDbSpline
 62
7
  6
CONTINUOUS
 70
0
 71
3
 72
9
 73
5
 74
0
 42
0.0000001
 43
0.0000001
 44
0.0000000001
 40
0.0
 40
0.0
 40
0.0
 40
0.0
 40
0.2208236383
 40
1.0
 40
1.0
 40
1.0
 40
1.0
 10
416.5641223172
 20
394.331832389
 30
0.0
 10
416.5968873855
 20
394.495801682
 30
0.0
 10
416.8558429762
 20
395.2184276727
 30
0.0
 10
417.4846322695
 20
395.7471896084
 30
0.0
 10
417.9955912337
 20
396.042190143
 30
0.0
  0
SPLINE
  5
3DD
100
AcDbEntity
  8
0
100
AcDbSpline
 62
7
  6
CONTINUOUS
 70
0
 71
3
 72
9
 73
5
 74
0
 42
0.0000001
 43
0.0000001
 44
0.0000000001
 40
0.0
 40
0.0
 40
0.0
 40
0.0
 40
0.7369999603
 40
1.0
 40
1.0
 40
1.0
 40
1.0
 10
373.334819395
 20
715.4918129894
 30
0.0
 10
373.3346661889
 20
715.6941589172
 30
0.0
 10
373.4015501267
 20
715.972330727
 30
0.0
 10
373.5331941536
 20
716.2132775232
 30
0.0
 10
373.5714061119
 20
716.2745456594
 30
0.0
  0
SPLINE
  5
3DE
100
AcDbEntity
  8
0
100
AcDbSpline
 62
7
  6
CONTINUOUS
 70
0
 71
3
 72
9
 73
5
 74
0
 42
0.0000001
 43
0.0000001
 44
0.0000000001
 40
0.0
 40
0.0
 40
0.0
 40
0.0
 40
0.22812249
 40
1.0
 40
1.0
 40
1.0
 40
1.0
 10
373.5714061119
 20
716.2745456594
 30
0.0
 10
373.6225539093
 20
716.3565548091
 30
0.0
 10
373.8758766851
 20
716.6979958986
 30
0.0
 10
374.2229899172
 20
716.9612603382
 30
0.0
 10
374.5062087614
 20
717.1247758381
 30
0.0
  0
SPLINE
  5
3DF
100
AcDbEntity
  8
0
100
AcDbSpline
 62
7
  6
CONTINUOUS
 70
0
 71
3
 72
9
 73
5
 74
0
 42
0.0000001
 43
0.0000001
 44
0.0000000001
 40
0.0
 40
0.0
 40
0.0
 40
0.0
 40
0.4999994563
 40
1.0
 40
1.0
 40
1.0
 40
1.0
 10
411.6317361859
 20
381.3454464949
 30
0.0
 10
412.1564339432
 20
381.648379078
 30
0.0
 10
413.3995014085
 20
381.8879549085
 30
0.0
 10
414.6425690088
 20
381.6483844516
 30
0.0
 10
415.1672700918
 20
381.3454549933
 30
0.0
  0
SPLINE
  5
3E0
100
AcDbEntity
  8
0
100
AcDbSpline
 62
7
  6
CONTINUOUS
 70
0
 71
3
 72
13
 73
9
 74
0
 42
0.0000001
 43
0.0000001
 44
0.0000000001
 40
0.0
 40
0.0
 40
0.0
 40
0.0
 40
0.2699040481
 40
0.5613092475
 40
0.6954524627
 40
0.8131377821
 40
0.9128550148
 40
1.0
 40
1.0
 40
1.0
 40
1.0
 10
409.8639029937
 20
390.5308974651
 30
0.0
 10
410.4827208827
 20
390.8881700073
 30
0.0
 10
411.9619030938
 20
391.2885457349
 30
0.0
 10
413.8321539355
 20
391.1936966122
 30
0.0
 10
415.2055398323
 20
390.7362576842
 30
0.0
 10
416.0087557525
 20
390.246690433
 30
0.0
 10
416.5531300007
 20
389.6279202826
 30
0.0
 10
416.6919954801
 20
389.1286432356
 30
0.0
 10
416.6921701612
 20
388.8979342776
 30
0.0
  0
SPLINE
  5
3E1
100
AcDbEntity
  8
0
100
AcDbSpline
 62
7
  6
CONTINUOUS
 70
0
 71
3
 72
9
 73
5
 74
0
 42
0.0000001
 43
0.0000001
 44
0.0000000001
 40
0.0
 40
0.0
 40
0.0
 40
0.0
 40
0.2890626939
 40
1.0
 40
1.0
 40
1.0
 40
1.0
 10
124.2536053273
 20
565.7028072186
 30
0.0
 10
124.4219988883
 20
565.8040106108
 30
0.0
 10
124.9764306094
 20
566.1877905189
 30
0.0
 10
125.4215321361
 20
566.8019795173
 30
0.0
 10
125.492797803
 20
567.279892601
 30
0.0
  0
SPLINE
  5
3E2
100
AcDbEntity
  8
0
100
AcDbSpline
 62
7
  6
CONTINUOUS
 70
0
 71
3
 72
9
 73
5
 74
0
 42
0.0000001
 43
0.0000001
 44
0.0000000001
 40
0.0
 40
0.0
 40
0.0
 40
0.0
 40
0.2644335706
 40
1.0
 40
1.0
 40
1.0
 40
1.0
 10
116.8105796777
 20
565.7527501529
 30
0.0
 10
116.7621433004
 20
565.8252613718
 30
0.0
 10
116.5954979318
 20
566.1098282663
 30
0.0
 10
116.5098835283
 20
566.4442415195
 30
0.0
 10
116.5096998716
 20
566.686804815
 30
0.0
  0
SPLINE
  5
3E3
100
AcDbEntity
  8
0
100
AcDbSpline
 62
7
  6
CONTINUOUS
 70
0
 71
3
 72
9
 73
5
 74
0
 42
0.0000001
 43
0.0000001
 44
0.0000000001
 40
0.0
 40
0.0
 40
0.0
 40
0.0
 40
0.2352217686
 40
1.0
 40
1.0
 40
1.0
 40
1.0
 10
373.2573887
 20
710.4529048969
 30
0.0
 10
373.2188955847
 20
710.5222067443
 30
0.0
 10
373.0389358137
 20
710.8077613864
 30
0.0
 10
372.8007699712
 20
711.0540891602
 30
0.0
 10
372.6025641446
 20
711.2188542388
 30
0.0
  0
SPLINE
  5
3E4
100
AcDbEntity
  8
0
100
AcDbSpline
 62
7
  6
CONTINUOUS
 70
0
 71
3
 72
8
 73
4
 74
0
 42
0.0000001
 43
0.0000001
 44
0.0000000001
 40
0.0
 40
0.0
 40
0.0
 40
0.0
 40
1.0
 40
1.0
 40
1.0
 40
1.0
 10
116.2567436022
 20
567.5832910918
 30
0.0
 10
116.1819752718
 20
567.4510886952
 30
0.0
 10
116.1207114328
 20
567.3098776071
 30
0.0
 10
116.0783430377
 20
567.1640259839
 30
0.0
  0
ENDSEC
  0
SECTION
  2
OBJECTS
  0
DICTIONARY
  5
C
100
AcDbDictionary
280
0
281
1
  3
ACAD_GROUP
350
D
  3
ACAD_MLINESTYLE
350
17
  3
ACAD_LAYOUT
350
1A
  3
ACAD_PLOTSETTINGS
350
19
  3
ACAD_PLOTSTYLENAME
350
E
  0
DICTIONARY
  5
D
102
{ACAD_REACTORS
330
C
102
}
100
AcDbDictionary
280
0
281
1
  0
ACDBDICTIONARYWDFLT
  5
E
102
{ACAD_REACTORS
330
C
102
}
100
AcDbDictionary
281
1
  3
Normal
350
F
100
AcDbDictionaryWithDefault
340
F
  0
DICTIONARY
  5
17
102
{ACAD_REACTORS
330
C
102
}
100
AcDbDictionary
280
0
281
1
  3
Standard
350
18
  0
DICTIONARY
  5
19
102
{ACAD_REACTORS
330
C
102
}
100
AcDbDictionary
281
1
  0
DICTIONARY
  5
1A
102
{ACAD_REACTORS
330
C
102
}
100
AcDbDictionary
281
1
  3
Model
350
3E5
  3
Layout1
350
3E6
  0
ACDBPLACEHOLDER
  5
F
102
{ACAD_REACTORS
330
E
102
}
  0
MLINESTYLE
  5
18
102
{ACAD_REACTORS
330
17
102
}
100
AcDbMlineStyle
  2
STANDARD
 70
0
  3

 62
256
 51
90.0
 52
90.0
 71
2
 49
0.5
 62
256
  6
BYLAYER
 49
-0.5
 62
256
  6
BYLAYER
  0
LAYOUT
  5
3E5
102
{ACAD_REACTORS
330
1A
102
}
100
AcDbPlotSettings
  1

  2
none_device
  4

  6

 40
0.0
 41
0.0
 42
0.0
 43
0.0
 44
210.0
 45
297.0
 46
0.0
 47
0.0
 48
0.0
 49
0.0
140
0.0
141
0.0
142
1.0
143
1.0
 70
1024
 72
1
 73
0
 74
0
  7

 75
0
147
1.0
148
0.0
149
0.0
100
AcDbLayout
  1
Model
 70
0
 71
0
 10
0.0
 20
0.0
 11
210.0
 21
297.0
 12
0.0
 22
0.0
 32
0.0
 14
0.0
 24
0.0
 34
0.0
 15
0.0
 25
0.0
 35
0.0
146
0.0
 13
0.0
 23
0.0
 33
0.0
 16
1.0
 26
0.0
 36
0.0
 17
0.0
 27
1.0
 37
0.0
 76
0
330
210
345
0
346
0
  0
LAYOUT
  5
3E6
102
{ACAD_REACTORS
330
1A
102
}
100
AcDbPlotSettings
  1

  2
none_device
  4

  6

 40
0.0
 41
0.0
 42
0.0
 43
0.0
 44
210.0
 45
297.0
 46
0.0
 47
0.0
 48
0.0
 49
0.0
140
0.0
141
0.0
142
1.0
143
1.0
 70
0
 72
1
 73
0
 74
0
  7

 75
0
147
1.0
148
0.0
149
0.0
100
AcDbLayout
  1
Layout1
 70
0
 71
1
 10
0.0
 20
0.0
 11
210.0
 21
297.0
 12
0.0
 22
0.0
 32
0.0
 14
0.0
 24
0.0
 34
0.0
 15
0.0
 25
0.0
 35
0.0
146
0.0
 13
0.0
 23
0.0
 33
0.0
 16
1.0
 26
0.0
 36
0.0
 17
0.0
 27
1.0
 37
0.0
 76
0
330
211
345
0
346
0
  0
ENDSEC
  0
EOF
